0
SECTION
  2
HEADER
  9
$ACADVER
  1
AC1027
  9
$ACADMAINTVER
 70
     8
  9
$DWGCODEPAGE
  3
ANSI_1252
  9
$REQUIREDVERSIONS
160
                 0
  9
$COMMENTS
  1
File was created by Cadenas
  9
$CUSTOMPROPERTYTAG
  1
NN
  9
$CUSTOMPROPERTY
  1
Imperial -IP Pillow Block 1-1/8 thru 2-1/4  2-Bolt Inch Bore (Labyrinth Seal)
  9
$CUSTOMPROPERTYTAG
  1
NT
  9
$CUSTOMPROPERTY
  1
Imperial 2 Bolt Piliow Block Bearings
  9
$CUSTOMPROPERTYTAG
  1
NB
  9
$CUSTOMPROPERTY
  1
069497
  9
$CUSTOMPROPERTYTAG
  1
NBSYN
  9
$CUSTOMPROPERTY
  1
$PN.
  9
$CUSTOMPROPERTYTAG
  1
LINA
  9
$CUSTOMPROPERTY
  1
069497
  9
$CUSTOMPROPERTYTAG
  1
SS
  9
$CUSTOMPROPERTY
  1
2-1/4
  9
$CUSTOMPROPERTYTAG
  1
PN
  9
$CUSTOMPROPERTY
  1
069497
  9
$CUSTOMPROPERTYTAG
  1
DESCRIPTION
  9
$CUSTOMPROPERTY
  1
P2B-IP-204LE
  9
$CUSTOMPROPERTYTAG
  1
EF
  9
$CUSTOMPROPERTY
  1
Expansion Type
  9
$CUSTOMPROPERTYTAG
  1
ST
  9
$CUSTOMPROPERTY
  1
Labyrinth Seal
  9
$CUSTOMPROPERTYTAG
  1
A
  9
$CUSTOMPROPERTY
  1
3-1/32
  9
$CUSTOMPROPERTYTAG
  1
B
  9
$CUSTOMPROPERTY
  1
8-7/8
  9
$CUSTOMPROPERTYTAG
  1
C
  9
$CUSTOMPROPERTY
  1
2-5/8
  9
$CUSTOMPROPERTYTAG
  1
DMIN
  9
$CUSTOMPROPERTY
  1
6-9/16
  9
$CUSTOMPROPERTYTAG
  1
DMAX
  9
$CUSTOMPROPERTY
  1
6-15/16
  9
$CUSTOMPROPERTYTAG
  1
F
  9
$CUSTOMPROPERTY
  1
5/8
  9
$CUSTOMPROPERTYTAG
  1
G
  9
$CUSTOMPROPERTY
  1
61/64
  9
$CUSTOMPROPERTYTAG
  1
H
  9
$CUSTOMPROPERTY
  1
1-1/2
  9
$CUSTOMPROPERTYTAG
  1
J
  9
$CUSTOMPROPERTY
  1
5
  9
$CUSTOMPROPERTYTAG
  1
L
  9
$CUSTOMPROPERTY
  1
3-1/2
  9
$CUSTOMPROPERTYTAG
  1
M
  9
$CUSTOMPROPERTY
  1
2-1/2
  9
$CUSTOMPROPERTYTAG
  1
R
  9
$CUSTOMPROPERTY
  1
29/32
  9
$CUSTOMPROPERTYTAG
  1
S
  9
$CUSTOMPROPERTY
  1
2-1/8
  9
$CUSTOMPROPERTYTAG
  1
X
  9
$CUSTOMPROPERTY
  1
1/4
  9
$CUSTOMPROPERTYTAG
  1
Y
  9
$CUSTOMPROPERTY
  1
0.025
  9
$CUSTOMPROPERTYTAG
  1
Z
  9
$CUSTOMPROPERTY
  1
2-19/32
  9
$CUSTOMPROPERTYTAG
  1
COMPANY
  9
$CUSTOMPROPERTY
  1
baldor
  9
$INSBASE
 10
0.0
 20
0.0
 30
0.0
  9
$EXTMIN
 10
1.000000000000000E+20
 20
1.000000000000000E+20
 30
1.000000000000000E+20
  9
$EXTMAX
 10
-1.000000000000000E+20
 20
-1.000000000000000E+20
 30
-1.000000000000000E+20
  9
$LIMMIN
 10
0.0
 20
0.0
  9
$LIMMAX
 10
12.0
 20
9.0
  9
$ORTHOMODE
 70
     0
  9
$REGENMODE
 70
     1
  9
$FILLMODE
 70
     1
  9
$QTEXTMODE
 70
     0
  9
$MIRRTEXT
 70
     1
  9
$LTSCALE
 40
1.0
  9
$ATTMODE
 70
     1
  9
$TEXTSIZE
 40
0.2
  9
$TRACEWID
 40
0.05
  9
$TEXTSTYLE
  7
Standard
  9
$CLAYER
  8
0
  9
$CELTYPE
  6
ByLayer
  9
$CECOLOR
 62
   256
  9
$CELTSCALE
 40
1.0
  9
$DISPSILH
 70
     0
  9
$DIMSCALE
 40
1.0
  9
$DIMASZ
 40
0.18
  9
$DIMEXO
 40
0.0625
  9
$DIMDLI
 40
0.38
  9
$DIMRND
 40
0.0
  9
$DIMDLE
 40
0.0
  9
$DIMEXE
 40
0.18
  9
$DIMTP
 40
0.0
  9
$DIMTM
 40
0.0
  9
$DIMTXT
 40
0.18
  9
$DIMCEN
 40
0.09
  9
$DIMTSZ
 40
0.0
  9
$DIMTOL
 70
     0
  9
$DIMLIM
 70
     0
  9
$DIMTIH
 70
     1
  9
$DIMTOH
 70
     1
  9
$DIMSE1
 70
     0
  9
$DIMSE2
 70
     0
  9
$DIMTAD
 70
     0
  9
$DIMZIN
 70
     0
  9
$DIMBLK
  1

  9
$DIMASO
 70
     1
  9
$DIMSHO
 70
     1
  9
$DIMPOST
  1

  9
$DIMAPOST
  1

  9
$DIMALT
 70
     0
  9
$DIMALTD
 70
     2
  9
$DIMALTF
 40
25.4
  9
$DIMLFAC
 40
1.0
  9
$DIMTOFL
 70
     0
  9
$DIMTVP
 40
0.0
  9
$DIMTIX
 70
     0
  9
$DIMSOXD
 70
     0
  9
$DIMSAH
 70
     0
  9
$DIMBLK1
  1

  9
$DIMBLK2
  1

  9
$DIMSTYLE
  2
Standard
  9
$DIMCLRD
 70
     0
  9
$DIMCLRE
 70
     0
  9
$DIMCLRT
 70
     0
  9
$DIMTFAC
 40
1.0
  9
$DIMGAP
 40
0.09
  9
$DIMJUST
 70
     0
  9
$DIMSD1
 70
     0
  9
$DIMSD2
 70
     0
  9
$DIMTOLJ
 70
     1
  9
$DIMTZIN
 70
     0
  9
$DIMALTZ
 70
     0
  9
$DIMALTTZ
 70
     0
  9
$DIMUPT
 70
     0
  9
$DIMDEC
 70
     4
  9
$DIMTDEC
 70
     4
  9
$DIMALTU
 70
     2
  9
$DIMALTTD
 70
     2
  9
$DIMTXSTY
  7
Standard
  9
$DIMAUNIT
 70
     0
  9
$DIMADEC
 70
     0
  9
$DIMALTRND
 40
0.0
  9
$DIMAZIN
 70
     0
  9
$DIMDSEP
 70
    46
  9
$DIMATFIT
 70
     3
  9
$DIMFRAC
 70
     0
  9
$DIMLDRBLK
  1

  9
$DIMLUNIT
 70
     2
  9
$DIMLWD
 70
    -2
  9
$DIMLWE
 70
    -2
  9
$DIMTMOVE
 70
     0
  9
$DIMFXL
 40
1.0
  9
$DIMFXLON
 70
     0
  9
$DIMJOGANG
 40
0.7853981633974483
  9
$DIMTFILL
 70
     0
  9
$DIMTFILLCLR
 70
     0
  9
$DIMARCSYM
 70
     0
  9
$DIMLTYPE
  6

  9
$DIMLTEX1
  6

  9
$DIMLTEX2
  6

  9
$DIMTXTDIRECTION
 70
     0
  9
$LUNITS
 70
     2
  9
$LUPREC
 70
     4
  9
$SKETCHINC
 40
0.1
  9
$FILLETRAD
 40
0.5
  9
$AUNITS
 70
     0
  9
$AUPREC
 70
     0
  9
$MENU
  1
.
  9
$ELEVATION
 40
0.0
  9
$PELEVATION
 40
0.0
  9
$THICKNESS
 40
0.0
  9
$LIMCHECK
 70
     0
  9
$CHAMFERA
 40
0.0
  9
$CHAMFERB
 40
0.0
  9
$CHAMFERC
 40
0.0
  9
$CHAMFERD
 40
0.0
  9
$SKPOLY
 70
     0
  9
$TDCREATE
 40
2458168.976704468
  9
$TDUCREATE
 40
2458168.935037801
  9
$TDUPDATE
 40
2458168.976704641
  9
$TDUUPDATE
 40
2458168.935037975
  9
$TDINDWG
 40
0.0000000116
  9
$TDUSRTIMER
 40
0.0000000116
  9
$USRTIMER
 70
     1
  9
$ANGBASE
 50
0.0
  9
$ANGDIR
 70
     0
  9
$PDMODE
 70
     0
  9
$PDSIZE
 40
0.0
  9
$PLINEWID
 40
0.0
  9
$SPLFRAME
 70
     0
  9
$SPLINETYPE
 70
     6
  9
$SPLINESEGS
 70
     8
  9
$HANDSEED
  5
269
  9
$SURFTAB1
 70
     6
  9
$SURFTAB2
 70
     6
  9
$SURFTYPE
 70
     6
  9
$SURFU
 70
     6
  9
$SURFV
 70
     6
  9
$UCSBASE
  2

  9
$UCSNAME
  2

  9
$UCSORG
 10
0.0
 20
0.0
 30
0.0
  9
$UCSXDIR
 10
1.0
 20
0.0
 30
0.0
  9
$UCSYDIR
 10
0.0
 20
1.0
 30
0.0
  9
$UCSORTHOREF
  2

  9
$UCSORTHOVIEW
 70
     0
  9
$UCSORGTOP
 10
0.0
 20
0.0
 30
0.0
  9
$UCSORGBOTTOM
 10
0.0
 20
0.0
 30
0.0
  9
$UCSORGLEFT
 10
0.0
 20
0.0
 30
0.0
  9
$UCSORGRIGHT
 10
0.0
 20
0.0
 30
0.0
  9
$UCSORGFRONT
 10
0.0
 20
0.0
 30
0.0
  9
$UCSORGBACK
 10
0.0
 20
0.0
 30
0.0
  9
$PUCSBASE
  2

  9
$PUCSNAME
  2

  9
$PUCSORG
 10
0.0
 20
0.0
 30
0.0
  9
$PUCSXDIR
 10
1.0
 20
0.0
 30
0.0
  9
$PUCSYDIR
 10
0.0
 20
1.0
 30
0.0
  9
$PUCSORTHOREF
  2

  9
$PUCSORTHOVIEW
 70
     0
  9
$PUCSORGTOP
 10
0.0
 20
0.0
 30
0.0
  9
$PUCSORGBOTTOM
 10
0.0
 20
0.0
 30
0.0
  9
$PUCSORGLEFT
 10
0.0
 20
0.0
 30
0.0
  9
$PUCSORGRIGHT
 10
0.0
 20
0.0
 30
0.0
  9
$PUCSORGFRONT
 10
0.0
 20
0.0
 30
0.0
  9
$PUCSORGBACK
 10
0.0
 20
0.0
 30
0.0
  9
$USERI1
 70
     0
  9
$USERI2
 70
     0
  9
$USERI3
 70
     0
  9
$USERI4
 70
     0
  9
$USERI5
 70
     0
  9
$USERR1
 40
0.0
  9
$USERR2
 40
0.0
  9
$USERR3
 40
0.0
  9
$USERR4
 40
0.0
  9
$USERR5
 40
0.0
  9
$WORLDVIEW
 70
     1
  9
$SHADEDGE
 70
     3
  9
$SHADEDIF
 70
    70
  9
$TILEMODE
 70
     1
  9
$MAXACTVP
 70
    64
  9
$PINSBASE
 10
0.0
 20
0.0
 30
0.0
  9
$PLIMCHECK
 70
     0
  9
$PEXTMIN
 10
1.000000000000000E+20
 20
1.000000000000000E+20
 30
1.000000000000000E+20
  9
$PEXTMAX
 10
-1.000000000000000E+20
 20
-1.000000000000000E+20
 30
-1.000000000000000E+20
  9
$PLIMMIN
 10
0.0
 20
0.0
  9
$PLIMMAX
 10
12.0
 20
9.0
  9
$UNITMODE
 70
     0
  9
$VISRETAIN
 70
     1
  9
$PLINEGEN
 70
     0
  9
$PSLTSCALE
 70
     1
  9
$TREEDEPTH
 70
  3020
  9
$CMLSTYLE
  2
Standard
  9
$CMLJUST
 70
     0
  9
$CMLSCALE
 40
1.0
  9
$PROXYGRAPHICS
 70
     1
  9
$MEASUREMENT
 70
     0
  9
$CELWEIGHT
370
    -1
  9
$ENDCAPS
280
     0
  9
$JOINSTYLE
280
     0
  9
$LWDISPLAY
290
     0
  9
$INSUNITS
 70
     1
  9
$HYPERLINKBASE
  1

  9
$STYLESHEET
  1

  9
$XEDIT
290
     1
  9
$CEPSNTYPE
380
     0
  9
$PSTYLEMODE
290
     1
  9
$FINGERPRINTGUID
  2
{FB5CF76A-05AE-43CE-B432-A678D5228D3E}
  9
$VERSIONGUID
  2
{FAEB1C32-E019-11D5-929B-00C0DF256EC4}
  9
$EXTNAMES
290
     1
  9
$PSVPSCALE
 40
0.0
  9
$OLESTARTUP
290
     0
  9
$SORTENTS
280
   127
  9
$INDEXCTL
280
     0
  9
$HIDETEXT
280
     1
  9
$XCLIPFRAME
280
     2
  9
$HALOGAP
280
     0
  9
$OBSCOLOR
 70
   257
  9
$OBSLTYPE
280
     0
  9
$INTERSECTIONDISPLAY
280
     0
  9
$INTERSECTIONCOLOR
 70
   257
  9
$DIMASSOC
280
     2
  9
$PROJECTNAME
  1

  9
$CAMERADISPLAY
290
     0
  9
$LENSLENGTH
 40
50.0
  9
$CAMERAHEIGHT
 40
0.0
  9
$STEPSPERSEC
 40
2.0
  9
$STEPSIZE
 40
6.0
  9
$3DDWFPREC
 40
2.0
  9
$PSOLWIDTH
 40
0.25
  9
$PSOLHEIGHT
 40
4.0
  9
$LOFTANG1
 40
1.570796326794897
  9
$LOFTANG2
 40
1.570796326794897
  9
$LOFTMAG1
 40
0.0
  9
$LOFTMAG2
 40
0.0
  9
$LOFTPARAM
 70
     7
  9
$LOFTNORMALS
280
     1
  9
$LATITUDE
 40
37.795
  9
$LONGITUDE
 40
-122.394
  9
$NORTHDIRECTION
 40
0.0
  9
$TIMEZONE
 70
 -8000
  9
$LIGHTGLYPHDISPLAY
280
     1
  9
$TILEMODELIGHTSYNCH
280
     1
  9
$CMATERIAL
347
44
  9
$SOLIDHIST
280
     0
  9
$SHOWHIST
280
     1
  9
$DWFFRAME
280
     2
  9
$DGNFRAME
280
     2
  9
$REALWORLDSCALE
290
     1
  9
$INTERFERECOLOR
 62
   256
  9
$CSHADOW
280
     0
  9
$SHADOWPLANELOCATION
 40
0.0
  0
ENDSEC
  0
SECTION
  2
CLASSES
  0
CLASS
  1
ACDBDICTIONARYWDFLT
  2
AcDbDictionaryWithDefault
  3
ObjectDBX Classes
 90
        0
 91
        4
280
     0
281
     0
  0
CLASS
  1
VISUALSTYLE
  2
AcDbVisualStyle
  3
ObjectDBX Classes
 90
     4095
 91
        4
280
     0
281
     0
  0
CLASS
  1
MATERIAL
  2
AcDbMaterial
  3
ObjectDBX Classes
 90
     1153
 91
        4
280
     0
281
     0
  0
CLASS
  1
SCALE
  2
AcDbScale
  3
ObjectDBX Classes
 90
     1153
 91
        4
280
     0
281
     0
  0
CLASS
  1
TABLESTYLE
  2
AcDbTableStyle
  3
ObjectDBX Classes
 90
     4095
 91
        4
280
     0
281
     0
  0
CLASS
  1
MLEADERSTYLE
  2
AcDbMLeaderStyle
  3
ACDB_MLEADERSTYLE_CLASS
 90
     4095
 91
        4
280
     0
281
     0
  0
CLASS
  1
SUN
  2
AcDbSun
  3
SCENEOE
 90
     1153
 91
        4
280
     0
281
     0
  0
CLASS
  1
DICTIONARYVAR
  2
AcDbDictionaryVar
  3
ObjectDBX Classes
 90
        0
 91
        4
280
     0
281
     0
  0
CLASS
  1
CELLSTYLEMAP
  2
AcDbCellStyleMap
  3
ObjectDBX Classes
 90
     1152
 91
        4
280
     0
281
     0
  0
ENDSEC
  0
SECTION
  2
TABLES
  0
TABLE
  2
VPORT
  5
8
330
0
100
AcDbSymbolTable
 70
     1
  0
VPORT
  5
29
330
8
100
AcDbSymbolTableRecord
100
AcDbViewportTableRecord
  2
*Active
 70
     0
 10
0.0
 20
0.0
 11
1.0
 21
1.0
 12
-0.3406249999999993
 22
0.063882263612669
 13
0.0
 23
0.0
 14
0.5
 24
0.5
 15
0.5
 25
0.5
 16
0.0
 26
0.0
 36
1.0
 17
0.0
 27
0.0
 37
0.0
 40
5.230319817769845
 41
0.6959660454476976
 42
50.0
 43
0.0
 44
0.0
 50
0.0
 51
0.0
 71
     0
 72
   100
 73
     1
 74
     3
 75
     0
 76
     0
 77
     0
 78
     0
281
     0
 65
     1
110
0.0
120
0.0
130
0.0
111
1.0
121
0.0
131
0.0
112
0.0
122
1.0
132
0.0
 79
     0
146
0.0
348
2F
 60
     3
 61
     5
292
     1
282
     1
141
0.0
142
0.0
 63
   250
361
6D
  0
ENDTAB
  0
TABLE
  2
LTYPE
  5
5
330
0
100
AcDbSymbolTable
 70
     3
  0
LTYPE
  5
14
330
5
100
AcDbSymbolTableRecord
100
AcDbLinetypeTableRecord
  2
ByBlock
 70
     0
  3

 72
    65
 73
     0
 40
0.0
  0
LTYPE
  5
15
330
5
100
AcDbSymbolTableRecord
100
AcDbLinetypeTableRecord
  2
ByLayer
 70
     0
  3

 72
    65
 73
     0
 40
0.0
  0
LTYPE
  5
16
330
5
100
AcDbSymbolTableRecord
100
AcDbLinetypeTableRecord
  2
Continuous
 70
     0
  3
Solid line
 72
    65
 73
     0
 40
0.0
  0
LTYPE
  5
9E
330
5
100
AcDbSymbolTableRecord
100
AcDbLinetypeTableRecord
  2
Dashed
 70
     0
  3

 72
    65
 73
     2
 40
2.0
 49
1.0
 74
     0
 49
-1.0
 74
     0
  0
LTYPE
  5
181
330
5
100
AcDbSymbolTableRecord
100
AcDbLinetypeTableRecord
  2
Center
 70
     0
  3

 72
    65
 73
     4
 40
1.5
 49
0.45
 74
     0
 49
-0.5
 74
     0
 49
0.05
 74
     0
 49
-0.5
 74
     0
  0
ENDTAB
  0
TABLE
  2
LAYER
  5
2
330
0
100
AcDbSymbolTable
 70
     7
  0
LAYER
  5
10
330
2
100
AcDbSymbolTableRecord
100
AcDbLayerTableRecord
  2
0
 70
     0
 62
     7
  6
Continuous
370
    -3
390
F
347
46
348
0
  0
LAYER
  5
72
330
2
100
AcDbSymbolTableRecord
100
AcDbLayerTableRecord
  2
AM_6
 70
     0
 62
    -2
  6
Continuous
370
    35
390
F
347
46
348
0
  0
LAYER
  5
9F
330
2
100
AcDbSymbolTableRecord
100
AcDbLayerTableRecord
  2
AM_9
 70
     0
 62
     6
  6
Dashed
370
    25
390
F
347
46
348
0
  0
LAYER
  5
AB
330
2
100
AcDbSymbolTableRecord
100
AcDbLayerTableRecord
  2
AM_5
 70
     0
 62
     3
  6
Continuous
370
    25
390
F
347
46
348
0
  0
LAYER
  5
AF
330
2
100
AcDbSymbolTableRecord
100
AcDbLayerTableRecord
  2
AM_4
 70
     0
 62
     7
  6
Continuous
370
    50
390
F
347
46
348
0
  0
LAYER
  5
182
330
2
100
AcDbSymbolTableRecord
100
AcDbLayerTableRecord
  2
AM_7
 70
     0
 62
     7
  6
Center
370
    25
390
F
347
46
348
0
  0
LAYER
  5
252
330
2
100
AcDbSymbolTableRecord
100
AcDbLayerTableRecord
  2
ConnectionPoints
 70
     0
 62
     7
  6
Continuous
370
    50
390
F
347
46
348
0
  0
ENDTAB
  0
TABLE
  2
STYLE
  5
3
330
0
100
AcDbSymbolTable
 70
     1
  0
STYLE
  5
11
330
3
100
AcDbSymbolTableRecord
100
AcDbTextStyleTableRecord
  2
Standard
 70
     0
 40
0.0
 41
1.0
 50
0.0
 71
     0
 42
0.2
  3
txt
  4

  0
ENDTAB
  0
TABLE
  2
VIEW
  5
6
330
0
100
AcDbSymbolTable
 70
     0
  0
ENDTAB
  0
TABLE
  2
UCS
  5
7
330
0
100
AcDbSymbolTable
 70
     0
  0
ENDTAB
  0
TABLE
  2
APPID
  5
9
330
0
100
AcDbSymbolTable
 70
     1
  0
APPID
  5
12
330
9
100
AcDbSymbolTableRecord
100
AcDbRegAppTableRecord
  2
ACAD
 70
     0
  0
ENDTAB
  0
TABLE
  2
DIMSTYLE
  5
A
330
0
100
AcDbSymbolTable
 70
     1
100
AcDbDimStyleTable
  0
DIMSTYLE
105
27
330
A
100
AcDbSymbolTableRecord
100
AcDbDimStyleTableRecord
  2
Standard
 70
     0
178
     0
340
11
  0
ENDTAB
  0
TABLE
  2
BLOCK_RECORD
  5
1
330
0
100
AcDbSymbolTable
 70
     8
  0
BLOCK_RECORD
  5
1F
330
1
100
AcDbSymbolTableRecord
100
AcDbBlockTableRecord
  2
*Model_Space
340
22
 70
     0
280
     1
281
     0
  0
BLOCK_RECORD
  5
1B
330
1
100
AcDbSymbolTableRecord
100
AcDbBlockTableRecord
  2
*Paper_Space
340
1E
 70
     0
280
     1
281
     0
  0
BLOCK_RECORD
  5
23
330
1
100
AcDbSymbolTableRecord
100
AcDbBlockTableRecord
  2
*Paper_Space0
340
26
 70
     0
280
     1
281
     0
  0
BLOCK_RECORD
  5
6E
330
1
100
AcDbSymbolTableRecord
100
AcDbBlockTableRecord
  2
1_069497_2
340
0
102
{BLKREFS
331
6F
102
}
 70
     0
280
     1
281
     0
  0
BLOCK_RECORD
  5
8E
330
1
100
AcDbSymbolTableRecord
100
AcDbBlockTableRecord
  2
2_ASME_B18_3_10_1_0_in_069497_2
340
0
102
{BLKREFS
331
8F
102
}
 70
     0
280
     1
281
     0
  0
BLOCK_RECORD
  5
B6
330
1
100
AcDbSymbolTableRecord
100
AcDbBlockTableRecord
  2
3_ASME_B18_3_10_2_0_in_069497_2
340
0
102
{BLKREFS
331
B7
102
}
 70
     0
280
     1
281
     0
  0
BLOCK_RECORD
  5
DA
330
1
100
AcDbSymbolTableRecord
100
AcDbBlockTableRecord
  2
4_070893LW_0_in_069497_2
340
0
102
{BLKREFS
331
DB
102
}
 70
     0
280
     1
281
     0
  0
BLOCK_RECORD
  5
110
330
1
100
AcDbSymbolTableRecord
100
AcDbBlockTableRecord
  2
5_070925I_0_in_069497_2
340
0
102
{BLKREFS
331
111
102
}
 70
     0
280
     1
281
     0
  0
BLOCK_RECORD
  5
19A
330
1
100
AcDbSymbolTableRecord
100
AcDbBlockTableRecord
  2
6_405015E_Inch_0_in_069497_2
340
0
102
{BLKREFS
331
19B
102
}
 70
     0
280
     1
281
     0
  0
BLOCK_RECORD
  5
1FD
330
1
100
AcDbSymbolTableRecord
100
AcDbBlockTableRecord
  2
7_069497H_0_in_069497_2
340
0
102
{BLKREFS
331
1FE
102
}
 70
     0
280
     1
281
     0
  0
ENDTAB
  0
ENDSEC
  0
SECTION
  2
BLOCKS
  0
BLOCK
  5
20
330
1F
100
AcDbEntity
  8
0
100
AcDbBlockBegin
  2
*Model_Space
 70
     0
 10
0.0
 20
0.0
 30
0.0
  3
*Model_Space
  1

  0
ENDBLK
  5
21
330
1F
100
AcDbEntity
  8
0
100
AcDbBlockEnd
  0
BLOCK
  5
1C
330
1B
100
AcDbEntity
 67
     1
  8
0
100
AcDbBlockBegin
  2
*Paper_Space
 70
     0
 10
0.0
 20
0.0
 30
0.0
  3
*Paper_Space
  1

  0
ENDBLK
  5
1D
330
1B
100
AcDbEntity
 67
     1
  8
0
100
AcDbBlockEnd
  0
BLOCK
  5
24
330
23
100
AcDbEntity
  8
0
100
AcDbBlockBegin
  2
*Paper_Space0
 70
     0
 10
0.0
 20
0.0
 30
0.0
  3
*Paper_Space0
  1

  0
ENDBLK
  5
25
330
23
100
AcDbEntity
  8
0
100
AcDbBlockEnd
  0
BLOCK
  5
70
330
6E
100
AcDbEntity
  8
0
100
AcDbBlockBegin
  2
1_069497_2
 70
     2
 10
0.0
 20
0.0
 30
0.0
  3
1_069497_2
  1

  0
ATTDEF
  5
73
330
6E
100
AcDbEntity
  8
AM_6
100
AcDbText
 10
6.44375
 20
2.627764527225338
 30
0.0
 40
0.5
  1
Imperial -IP Pillow Block 1-1/8 thru 2-1/4  2-Bolt Inch Bore (Labyrinth Seal)
100
AcDbAttributeDefinition
  3

  2
NN
 70
     8
280
     0
  0
ATTDEF
  5
74
330
6E
100
AcDbEntity
  8
AM_6
100
AcDbText
 10
6.44375
 20
2.127764527225338
 30
0.0
 40
0.5
  1
Imperial 2 Bolt Piliow Block Bearings
100
AcDbAttributeDefinition
  3

  2
NT
 70
     8
280
     0
  0
ATTDEF
  5
75
330
6E
100
AcDbEntity
  8
AM_6
100
AcDbText
 10
6.44375
 20
1.627764527225338
 30
0.0
 40
0.5
  1
069497
100
AcDbAttributeDefinition
  3

  2
NB
 70
     8
280
     0
  0
ATTDEF
  5
76
330
6E
100
AcDbEntity
  8
AM_6
100
AcDbText
 10
6.44375
 20
1.127764527225338
 30
0.0
 40
0.5
  1
$PN.
100
AcDbAttributeDefinition
  3

  2
NBSYN
 70
     8
280
     0
  0
ATTDEF
  5
77
330
6E
100
AcDbEntity
  8
AM_6
100
AcDbText
 10
6.44375
 20
0.6277645272253376
 30
0.0
 40
0.5
  1
069497
100
AcDbAttributeDefinition
  3

  2
LINA
 70
     8
280
     0
  0
ATTDEF
  5
78
330
6E
100
AcDbEntity
  8
AM_6
100
AcDbText
 10
6.44375
 20
0.1277645272253376
 30
0.0
 40
0.5
  1
2-1/4
100
AcDbAttributeDefinition
  3

  2
SS
 70
     8
280
     0
  0
ATTDEF
  5
79
330
6E
100
AcDbEntity
  8
AM_6
100
AcDbText
 10
6.44375
 20
-0.3722354727746624
 30
0.0
 40
0.5
  1
069497
100
AcDbAttributeDefinition
  3

  2
PN
 70
     8
280
     0
  0
ATTDEF
  5
7A
330
6E
100
AcDbEntity
  8
AM_6
100
AcDbText
 10
6.44375
 20
-0.8722354727746624
 30
0.0
 40
0.5
  1
P2B-IP-204LE
100
AcDbAttributeDefinition
  3

  2
DESCRIPTION
 70
     8
280
     0
  0
ATTDEF
  5
7B
330
6E
100
AcDbEntity
  8
AM_6
100
AcDbText
 10
6.44375
 20
-1.372235472774662
 30
0.0
 40
0.5
  1
Expansion Type
100
AcDbAttributeDefinition
  3

  2
EF
 70
     8
280
     0
  0
ATTDEF
  5
7C
330
6E
100
AcDbEntity
  8
AM_6
100
AcDbText
 10
6.44375
 20
-1.872235472774662
 30
0.0
 40
0.5
  1
Labyrinth Seal
100
AcDbAttributeDefinition
  3

  2
ST
 70
     8
280
     0
  0
ATTDEF
  5
7D
330
6E
100
AcDbEntity
  8
AM_6
100
AcDbText
 10
6.44375
 20
-2.372235472774662
 30
0.0
 40
0.5
  1
3-1/32
100
AcDbAttributeDefinition
  3

  2
A
 70
     8
280
     0
  0
ATTDEF
  5
7E
330
6E
100
AcDbEntity
  8
AM_6
100
AcDbText
 10
6.44375
 20
-2.872235472774662
 30
0.0
 40
0.5
  1
8-7/8
100
AcDbAttributeDefinition
  3

  2
B
 70
     8
280
     0
  0
ATTDEF
  5
7F
330
6E
100
AcDbEntity
  8
AM_6
100
AcDbText
 10
6.44375
 20
-3.372235472774662
 30
0.0
 40
0.5
  1
2-5/8
100
AcDbAttributeDefinition
  3

  2
C
 70
     8
280
     0
  0
ATTDEF
  5
80
330
6E
100
AcDbEntity
  8
AM_6
100
AcDbText
 10
6.44375
 20
-3.872235472774662
 30
0.0
 40
0.5
  1
6-9/16
100
AcDbAttributeDefinition
  3

  2
DMIN
 70
     8
280
     0
  0
ATTDEF
  5
81
330
6E
100
AcDbEntity
  8
AM_6
100
AcDbText
 10
6.44375
 20
-4.372235472774662
 30
0.0
 40
0.5
  1
6-15/16
100
AcDbAttributeDefinition
  3

  2
DMAX
 70
     8
280
     0
  0
ATTDEF
  5
82
330
6E
100
AcDbEntity
  8
AM_6
100
AcDbText
 10
6.44375
 20
-4.872235472774662
 30
0.0
 40
0.5
  1
5/8
100
AcDbAttributeDefinition
  3

  2
F
 70
     8
280
     0
  0
ATTDEF
  5
83
330
6E
100
AcDbEntity
  8
AM_6
100
AcDbText
 10
6.44375
 20
-5.372235472774662
 30
0.0
 40
0.5
  1
61/64
100
AcDbAttributeDefinition
  3

  2
G
 70
     8
280
     0
  0
ATTDEF
  5
84
330
6E
100
AcDbEntity
  8
AM_6
100
AcDbText
 10
6.44375
 20
-5.872235472774662
 30
0.0
 40
0.5
  1
1-1/2
100
AcDbAttributeDefinition
  3

  2
H
 70
     8
280
     0
  0
ATTDEF
  5
85
330
6E
100
AcDbEntity
  8
AM_6
100
AcDbText
 10
6.44375
 20
-6.372235472774662
 30
0.0
 40
0.5
  1
5
100
AcDbAttributeDefinition
  3

  2
J
 70
     8
280
     0
  0
ATTDEF
  5
86
330
6E
100
AcDbEntity
  8
AM_6
100
AcDbText
 10
6.44375
 20
-6.872235472774662
 30
0.0
 40
0.5
  1
3-1/2
100
AcDbAttributeDefinition
  3

  2
L
 70
     8
280
     0
  0
ATTDEF
  5
87
330
6E
100
AcDbEntity
  8
AM_6
100
AcDbText
 10
6.44375
 20
-7.372235472774662
 30
0.0
 40
0.5
  1
2-1/2
100
AcDbAttributeDefinition
  3

  2
M
 70
     8
280
     0
  0
ATTDEF
  5
88
330
6E
100
AcDbEntity
  8
AM_6
100
AcDbText
 10
6.44375
 20
-7.872235472774662
 30
0.0
 40
0.5
  1
29/32
100
AcDbAttributeDefinition
  3

  2
R
 70
     8
280
     0
  0
ATTDEF
  5
89
330
6E
100
AcDbEntity
  8
AM_6
100
AcDbText
 10
6.44375
 20
-8.372235472774662
 30
0.0
 40
0.5
  1
2-1/8
100
AcDbAttributeDefinition
  3

  2
S
 70
     8
280
     0
  0
ATTDEF
  5
8A
330
6E
100
AcDbEntity
  8
AM_6
100
AcDbText
 10
6.44375
 20
-8.872235472774662
 30
0.0
 40
0.5
  1
1/4
100
AcDbAttributeDefinition
  3

  2
X
 70
     8
280
     0
  0
ATTDEF
  5
8B
330
6E
100
AcDbEntity
  8
AM_6
100
AcDbText
 10
6.44375
 20
-9.372235472774662
 30
0.0
 40
0.5
  1
0.025
100
AcDbAttributeDefinition
  3

  2
Y
 70
     8
280
     0
  0
ATTDEF
  5
8C
330
6E
100
AcDbEntity
  8
AM_6
100
AcDbText
 10
6.44375
 20
-9.872235472774662
 30
0.0
 40
0.5
  1
2-19/32
100
AcDbAttributeDefinition
  3

  2
Z
 70
     8
280
     0
  0
ATTDEF
  5
8D
330
6E
100
AcDbEntity
  8
AM_6
100
AcDbText
 10
6.44375
 20
-10.37223547277466
 30
0.0
 40
0.5
  1
baldor
100
AcDbAttributeDefinition
  3

  2
COMPANY
 70
     8
280
     0
  0
INSERT
  5
8F
330
6E
100
AcDbEntity
  8
0
100
AcDbBlockReference
  2
2_ASME_B18_3_10_1_0_in_069497_2
 10
0.0
 20
0.0
 30
0.0
  0
INSERT
  5
B7
330
6E
100
AcDbEntity
  8
0
100
AcDbBlockReference
  2
3_ASME_B18_3_10_2_0_in_069497_2
 10
0.0
 20
0.0
 30
0.0
  0
INSERT
  5
DB
330
6E
100
AcDbEntity
  8
0
100
AcDbBlockReference
  2
4_070893LW_0_in_069497_2
 10
0.0
 20
0.0
 30
0.0
  0
INSERT
  5
111
330
6E
100
AcDbEntity
  8
0
100
AcDbBlockReference
  2
5_070925I_0_in_069497_2
 10
0.0
 20
0.0
 30
0.0
  0
INSERT
  5
19B
330
6E
100
AcDbEntity
  8
0
100
AcDbBlockReference
  2
6_405015E_Inch_0_in_069497_2
 10
0.0
 20
0.0
 30
0.0
  0
INSERT
  5
1FE
330
6E
100
AcDbEntity
  8
0
100
AcDbBlockReference
  2
7_069497H_0_in_069497_2
 10
0.0
 20
0.0
 30
0.0
  0
ENDBLK
  5
71
330
6E
100
AcDbEntity
  8
0
100
AcDbBlockEnd
  0
BLOCK
  5
90
330
8E
100
AcDbEntity
  8
0
100
AcDbBlockBegin
  2
2_ASME_B18_3_10_1_0_in_069497_2
 70
     2
 10
0.0
 20
0.0
 30
0.0
  3
2_ASME_B18_3_10_1_0_in_069497_2
  1

  0
ATTDEF
  5
92
330
8E
100
AcDbEntity
  8
AM_6
100
AcDbText
 10
4.100000000000001
 20
-1.3195
 30
0.0
 40
0.5
  1
ANSI/ASME B18.3-1998
100
AcDbAttributeDefinition
  3

  2
NN
 70
     8
280
     0
  0
ATTDEF
  5
93
330
8E
100
AcDbEntity
  8
AM_6
100
AcDbText
 10
4.100000000000001
 20
-1.8195
 30
0.0
 40
0.5
  1
Socket Button Head Cap Screws
100
AcDbAttributeDefinition
  3

  2
NT
 70
     8
280
     0
  0
ATTDEF
  5
94
330
8E
100
AcDbEntity
  8
AM_6
100
AcDbText
 10
4.100000000000001
 20
-2.3195
 30
0.0
 40
0.5
  1
ASME B18.3-10
100
AcDbAttributeDefinition
  3

  2
NB
 70
     8
280
     0
  0
ATTDEF
  5
95
330
8E
100
AcDbEntity
  8
AM_6
100
AcDbText
 10
4.100000000000001
 20
-2.8195
 30
0.0
 40
0.5
  1
ASME B18.3-$NS.
100
AcDbAttributeDefinition
  3

  2
NBSYN
 70
     8
280
     0
  0
ATTDEF
  5
96
330
8E
100
AcDbEntity
  8
AM_6
100
AcDbText
 10
4.100000000000001
 20
-3.3195
 30
0.0
 40
0.5
  1
ASME B18.3-10
100
AcDbAttributeDefinition
  3

  2
LINA
 70
     8
280
     0
  0
ATTDEF
  5
97
330
8E
100
AcDbEntity
  8
AM_6
100
AcDbText
 10
4.100000000000001
 20
-3.8195
 30
0.0
 40
0.5
  1
10
100
AcDbAttributeDefinition
  3

  2
NS
 70
     8
280
     0
  0
ATTDEF
  5
98
330
8E
100
AcDbEntity
  8
AM_6
100
AcDbText
 10
4.100000000000001
 20
-4.3195
 30
0.0
 40
0.5
  1
0.361
100
AcDbAttributeDefinition
  3

  2
A
 70
     8
280
     0
  0
ATTDEF
  5
99
330
8E
100
AcDbEntity
  8
AM_6
100
AcDbText
 10
4.100000000000001
 20
-4.8195
 30
0.0
 40
0.5
  1
0.101
100
AcDbAttributeDefinition
  3

  2
H
 70
     8
280
     0
  0
ATTDEF
  5
9A
330
8E
100
AcDbEntity
  8
AM_6
100
AcDbText
 10
4.100000000000001
 20
-5.3195
 30
0.0
 40
0.5
  1
0.800
100
AcDbAttributeDefinition
  3

  2
L
 70
     8
280
     0
  0
ATTDEF
  5
9B
330
8E
100
AcDbEntity
  8
AM_6
100
AcDbText
 10
4.100000000000001
 20
-5.8195
 30
0.0
 40
0.5
  1
0.020
100
AcDbAttributeDefinition
  3

  2
S
 70
     8
280
     0
  0
ATTDEF
  5
9C
330
8E
100
AcDbEntity
  8
AM_6
100
AcDbText
 10
4.100000000000001
 20
-6.3195
 30
0.0
 40
0.5
  1
0.125000
100
AcDbAttributeDefinition
  3

  2
J
 70
     8
280
     0
  0
ATTDEF
  5
9D
330
8E
100
AcDbEntity
  8
AM_6
100
AcDbText
 10
4.100000000000001
 20
-6.8195
 30
0.0
 40
0.5
  1
baldor
100
AcDbAttributeDefinition
  3

  2
COMPANY
 70
     8
280
     0
  0
LINE
  5
A0
330
8E
100
AcDbEntity
  8
AM_9
100
AcDbLine
 10
-1.74
 20
-1.427831216351297
 30
0.0
 11
-1.801
 21
-1.427831216351297
 31
0.0
  0
LINE
  5
A1
330
8E
100
AcDbEntity
  8
AM_9
100
AcDbLine
 10
-1.74
 20
-1.572168783648703
 30
0.0
 11
-1.801
 21
-1.572168783648703
 31
0.0
  0
LINE
  5
A2
330
8E
100
AcDbEntity
  8
AM_9
100
AcDbLine
 10
-1.74
 20
-1.427831216351297
 30
0.0
 11
-1.74
 21
-1.572168783648703
 31
0.0
  0
LINE
  5
A3
330
8E
100
AcDbEntity
  8
AM_9
100
AcDbLine
 10
-1.74
 20
-1.463915608175648
 30
0.0
 11
-1.801
 21
-1.463915608175648
 31
0.0
  0
LINE
  5
A4
330
8E
100
AcDbEntity
  8
AM_9
100
AcDbLine
 10
-1.74
 20
-1.536084391824351
 30
0.0
 11
-1.801
 21
-1.536084391824351
 31
0.0
  0
LINE
  5
A5
330
8E
100
AcDbEntity
  8
AM_9
100
AcDbLine
 10
-0.8999999999999998
 20
-1.4236
 30
0.0
 11
-0.8999999999999998
 21
-1.5764
 31
0.0
  0
LINE
  5
A6
330
8E
100
AcDbEntity
  8
AM_9
100
AcDbLine
 10
-0.8999999999999998
 20
-1.4236
 30
0.0
 11
-0.9185999999999999
 21
-1.405
 31
0.0
  0
LINE
  5
A7
330
8E
100
AcDbEntity
  8
AM_9
100
AcDbLine
 10
-0.9185999999999999
 20
-1.595
 30
0.0
 11
-0.8999999999999998
 21
-1.5764
 31
0.0
  0
LINE
  5
A8
330
8E
100
AcDbEntity
  8
AM_9
100
AcDbLine
 10
-0.9185999999999999
 20
-1.405
 30
0.0
 11
-0.9185999999999999
 21
-1.595
 31
0.0
  0
LINE
  5
A9
330
8E
100
AcDbEntity
  8
AM_9
100
AcDbLine
 10
-1.7
 20
-1.595
 30
0.0
 11
-0.9185999999999999
 21
-1.595
 31
0.0
  0
LINE
  5
AA
330
8E
100
AcDbEntity
  8
AM_9
100
AcDbLine
 10
-0.9185999999999999
 20
-1.405
 30
0.0
 11
-1.7
 21
-1.405
 31
0.0
  0
LINE
  5
AC
330
8E
100
AcDbEntity
  8
AM_5
100
AcDbLine
 10
-1.62
 20
-1.5764
 30
0.0
 11
-1.652216145020781
 21
-1.595
 31
0.0
  0
LINE
  5
AD
330
8E
100
AcDbEntity
  8
AM_5
100
AcDbLine
 10
-1.62
 20
-1.405000040438113
 30
0.0
 11
-1.62
 21
-1.595000210543695
 31
0.0
  0
LINE
  5
AE
330
8E
100
AcDbEntity
  8
AM_5
100
AcDbLine
 10
-1.62
 20
-1.4236
 30
0.0
 11
-1.652216145020781
 21
-1.405
 31
0.0
  0
LINE
  5
B0
330
8E
100
AcDbEntity
  8
AM_4
100
AcDbLine
 10
-1.801
 20
-1.4005
 30
0.0
 11
-1.801
 21
-1.5995
 31
0.0
  0
ARC
  5
B1
330
8E
100
AcDbEntity
  8
AM_4
100
AcDbCircle
 10
-1.720000000000001
 20
-1.599500000000001
 30
0.0
 40
0.0809999999999989
100
AcDbArc
 50
180.0
 51
270.0
  0
ARC
  5
B2
330
8E
100
AcDbEntity
  8
AM_4
100
AcDbCircle
 10
-1.72
 20
-1.400499999999999
 30
0.0
 40
0.0809999999999995
100
AcDbArc
 50
90.0
 51
180.0
  0
LINE
  5
B3
330
8E
100
AcDbEntity
  8
AM_4
100
AcDbLine
 10
-1.72
 20
-1.3195
 30
0.0
 11
-1.72
 21
-1.6805
 31
0.0
  0
LINE
  5
B4
330
8E
100
AcDbEntity
  8
AM_4
100
AcDbLine
 10
-1.72
 20
-1.6805
 30
0.0
 11
-1.7
 21
-1.6805
 31
0.0
  0
LINE
  5
B5
330
8E
100
AcDbEntity
  8
AM_4
100
AcDbLine
 10
-1.7
 20
-1.3195
 30
0.0
 11
-1.72
 21
-1.3195
 31
0.0
  0
ENDBLK
  5
91
330
8E
100
AcDbEntity
  8
0
100
AcDbBlockEnd
  0
BLOCK
  5
B8
330
B6
100
AcDbEntity
  8
0
100
AcDbBlockBegin
  2
3_ASME_B18_3_10_2_0_in_069497_2
 70
     2
 10
0.0
 20
0.0
 30
0.0
  3
3_ASME_B18_3_10_2_0_in_069497_2
  1

  0
ATTDEF
  5
BA
330
B6
100
AcDbEntity
  8
AM_6
100
AcDbText
 10
4.100000000000001
 20
1.6805
 30
0.0
 40
0.5
  1
ANSI/ASME B18.3-1998
100
AcDbAttributeDefinition
  3

  2
NN
 70
     8
280
     0
  0
ATTDEF
  5
BB
330
B6
100
AcDbEntity
  8
AM_6
100
AcDbText
 10
4.100000000000001
 20
1.1805
 30
0.0
 40
0.5
  1
Socket Button Head Cap Screws
100
AcDbAttributeDefinition
  3

  2
NT
 70
     8
280
     0
  0
ATTDEF
  5
BC
330
B6
100
AcDbEntity
  8
AM_6
100
AcDbText
 10
4.100000000000001
 20
0.6804999999999997
 30
0.0
 40
0.5
  1
ASME B18.3-10
100
AcDbAttributeDefinition
  3

  2
NB
 70
     8
280
     0
  0
ATTDEF
  5
BD
330
B6
100
AcDbEntity
  8
AM_6
100
AcDbText
 10
4.100000000000001
 20
0.1804999999999997
 30
0.0
 40
0.5
  1
ASME B18.3-$NS.
100
AcDbAttributeDefinition
  3

  2
NBSYN
 70
     8
280
     0
  0
ATTDEF
  5
BE
330
B6
100
AcDbEntity
  8
AM_6
100
AcDbText
 10
4.100000000000001
 20
-0.3195000000000003
 30
0.0
 40
0.5
  1
ASME B18.3-10
100
AcDbAttributeDefinition
  3

  2
LINA
 70
     8
280
     0
  0
ATTDEF
  5
BF
330
B6
100
AcDbEntity
  8
AM_6
100
AcDbText
 10
4.100000000000001
 20
-0.8195000000000003
 30
0.0
 40
0.5
  1
10
100
AcDbAttributeDefinition
  3

  2
NS
 70
     8
280
     0
  0
ATTDEF
  5
C0
330
B6
100
AcDbEntity
  8
AM_6
100
AcDbText
 10
4.100000000000001
 20
-1.3195
 30
0.0
 40
0.5
  1
0.361
100
AcDbAttributeDefinition
  3

  2
A
 70
     8
280
     0
  0
ATTDEF
  5
C1
330
B6
100
AcDbEntity
  8
AM_6
100
AcDbText
 10
4.100000000000001
 20
-1.8195
 30
0.0
 40
0.5
  1
0.101
100
AcDbAttributeDefinition
  3

  2
H
 70
     8
280
     0
  0
ATTDEF
  5
C2
330
B6
100
AcDbEntity
  8
AM_6
100
AcDbText
 10
4.100000000000001
 20
-2.319500000000001
 30
0.0
 40
0.5
  1
0.800
100
AcDbAttributeDefinition
  3

  2
L
 70
     8
280
     0
  0
ATTDEF
  5
C3
330
B6
100
AcDbEntity
  8
AM_6
100
AcDbText
 10
4.100000000000001
 20
-2.819500000000001
 30
0.0
 40
0.5
  1
0.020
100
AcDbAttributeDefinition
  3

  2
S
 70
     8
280
     0
  0
ATTDEF
  5
C4
330
B6
100
AcDbEntity
  8
AM_6
100
AcDbText
 10
4.100000000000001
 20
-3.319500000000001
 30
0.0
 40
0.5
  1
0.125000
100
AcDbAttributeDefinition
  3

  2
J
 70
     8
280
     0
  0
ATTDEF
  5
C5
330
B6
100
AcDbEntity
  8
AM_6
100
AcDbText
 10
4.100000000000001
 20
-3.819500000000001
 30
0.0
 40
0.5
  1
baldor
100
AcDbAttributeDefinition
  3

  2
COMPANY
 70
     8
280
     0
  0
LINE
  5
C6
330
B6
100
AcDbEntity
  8
AM_9
100
AcDbLine
 10
-1.74
 20
1.572168783648703
 30
0.0
 11
-1.801
 21
1.572168783648703
 31
0.0
  0
LINE
  5
C7
330
B6
100
AcDbEntity
  8
AM_9
100
AcDbLine
 10
-1.74
 20
1.427831216351297
 30
0.0
 11
-1.801
 21
1.427831216351297
 31
0.0
  0
LINE
  5
C8
330
B6
100
AcDbEntity
  8
AM_9
100
AcDbLine
 10
-1.74
 20
1.572168783648703
 30
0.0
 11
-1.74
 21
1.427831216351297
 31
0.0
  0
LINE
  5
C9
330
B6
100
AcDbEntity
  8
AM_9
100
AcDbLine
 10
-1.74
 20
1.536084391824351
 30
0.0
 11
-1.801
 21
1.536084391824351
 31
0.0
  0
LINE
  5
CA
330
B6
100
AcDbEntity
  8
AM_9
100
AcDbLine
 10
-1.74
 20
1.463915608175648
 30
0.0
 11
-1.801
 21
1.463915608175648
 31
0.0
  0
LINE
  5
CB
330
B6
100
AcDbEntity
  8
AM_9
100
AcDbLine
 10
-0.8999999999999998
 20
1.5764
 30
0.0
 11
-0.8999999999999998
 21
1.4236
 31
0.0
  0
LINE
  5
CC
330
B6
100
AcDbEntity
  8
AM_9
100
AcDbLine
 10
-0.8999999999999998
 20
1.5764
 30
0.0
 11
-0.9185999999999999
 21
1.595
 31
0.0
  0
LINE
  5
CD
330
B6
100
AcDbEntity
  8
AM_9
100
AcDbLine
 10
-0.9185999999999999
 20
1.405
 30
0.0
 11
-0.8999999999999998
 21
1.4236
 31
0.0
  0
LINE
  5
CE
330
B6
100
AcDbEntity
  8
AM_9
100
AcDbLine
 10
-0.9185999999999999
 20
1.595
 30
0.0
 11
-0.9185999999999999
 21
1.405
 31
0.0
  0
LINE
  5
CF
330
B6
100
AcDbEntity
  8
AM_9
100
AcDbLine
 10
-1.7
 20
1.405
 30
0.0
 11
-0.9185999999999999
 21
1.405
 31
0.0
  0
LINE
  5
D0
330
B6
100
AcDbEntity
  8
AM_9
100
AcDbLine
 10
-0.9185999999999999
 20
1.595
 30
0.0
 11
-1.7
 21
1.595
 31
0.0
  0
LINE
  5
D1
330
B6
100
AcDbEntity
  8
AM_5
100
AcDbLine
 10
-1.62
 20
1.4236
 30
0.0
 11
-1.652216145020781
 21
1.405
 31
0.0
  0
LINE
  5
D2
330
B6
100
AcDbEntity
  8
AM_5
100
AcDbLine
 10
-1.62
 20
1.595000210543695
 30
0.0
 11
-1.62
 21
1.405000040438112
 31
0.0
  0
LINE
  5
D3
330
B6
100
AcDbEntity
  8
AM_5
100
AcDbLine
 10
-1.62
 20
1.5764
 30
0.0
 11
-1.652216145020781
 21
1.595
 31
0.0
  0
LINE
  5
D4
330
B6
100
AcDbEntity
  8
AM_4
100
AcDbLine
 10
-1.801
 20
1.5995
 30
0.0
 11
-1.801
 21
1.4005
 31
0.0
  0
ARC
  5
D5
330
B6
100
AcDbEntity
  8
AM_4
100
AcDbCircle
 10
-1.72
 20
1.400499999999999
 30
0.0
 40
0.0809999999999997
100
AcDbArc
 50
180.0
 51
270.0
  0
ARC
  5
D6
330
B6
100
AcDbEntity
  8
AM_4
100
AcDbCircle
 10
-1.72
 20
1.5995
 30
0.0
 40
0.0809999999999995
100
AcDbArc
 50
90.0
 51
180.0
  0
LINE
  5
D7
330
B6
100
AcDbEntity
  8
AM_4
100
AcDbLine
 10
-1.72
 20
1.6805
 30
0.0
 11
-1.72
 21
1.3195
 31
0.0
  0
LINE
  5
D8
330
B6
100
AcDbEntity
  8
AM_4
100
AcDbLine
 10
-1.72
 20
1.3195
 30
0.0
 11
-1.7
 21
1.3195
 31
0.0
  0
LINE
  5
D9
330
B6
100
AcDbEntity
  8
AM_4
100
AcDbLine
 10
-1.7
 20
1.6805
 30
0.0
 11
-1.72
 21
1.6805
 31
0.0
  0
ENDBLK
  5
B9
330
B6
100
AcDbEntity
  8
0
100
AcDbBlockEnd
  0
BLOCK
  5
DC
330
DA
100
AcDbEntity
  8
0
100
AcDbBlockBegin
  2
4_070893LW_0_in_069497_2
 70
     2
 10
0.0
 20
0.0
 30
0.0
  3
4_070893LW_0_in_069497_2
  1

  0
ATTDEF
  5
DE
330
DA
100
AcDbEntity
  8
AM_6
100
AcDbText
 10
3.74
 20
1.75
 30
0.0
 40
0.5
  1
Imperial Insert Lockwasher -Inch
100
AcDbAttributeDefinition
  3

  2
NN
 70
     8
280
     0
  0
ATTDEF
  5
DF
330
DA
100
AcDbEntity
  8
AM_6
100
AcDbText
 10
3.74
 20
1.25
 30
0.0
 40
0.5
  1
Imperial Bearings
100
AcDbAttributeDefinition
  3

  2
NT
 70
     8
280
     0
  0
ATTDEF
  5
E0
330
DA
100
AcDbEntity
  8
AM_6
100
AcDbText
 10
3.74
 20
0.7499999999999996
 30
0.0
 40
0.5
  1
070893LW
100
AcDbAttributeDefinition
  3

  2
NB
 70
     8
280
     0
  0
ATTDEF
  5
E1
330
DA
100
AcDbEntity
  8
AM_6
100
AcDbText
 10
3.74
 20
0.2499999999999996
 30
0.0
 40
0.5
  1
$PN.LW
100
AcDbAttributeDefinition
  3

  2
NBSYN
 70
     8
280
     0
  0
ATTDEF
  5
E2
330
DA
100
AcDbEntity
  8
AM_6
100
AcDbText
 10
3.74
 20
-0.2500000000000004
 30
0.0
 40
0.5
  1
070893
100
AcDbAttributeDefinition
  3

  2
LINA
 70
     8
280
     0
  0
ATTDEF
  5
E3
330
DA
100
AcDbEntity
  8
AM_6
100
AcDbText
 10
3.74
 20
-0.7500000000000004
 30
0.0
 40
0.5
  1
2-1/4
100
AcDbAttributeDefinition
  3

  2
SS
 70
     8
280
     0
  0
ATTDEF
  5
E4
330
DA
100
AcDbEntity
  8
AM_6
100
AcDbText
 10
3.74
 20
-1.25
 30
0.0
 40
0.5
  1
2.250000
100
AcDbAttributeDefinition
  3

  2
SS1
 70
     8
280
     0
  0
ATTDEF
  5
E5
330
DA
100
AcDbEntity
  8
AM_6
100
AcDbText
 10
3.74
 20
-1.75
 30
0.0
 40
0.5
  1
070893
100
AcDbAttributeDefinition
  3

  2
PN
 70
     8
280
     0
  0
ATTDEF
  5
E6
330
DA
100
AcDbEntity
  8
AM_6
100
AcDbText
 10
3.74
 20
-2.25
 30
0.0
 40
0.5
  1
INS-IP-204R
100
AcDbAttributeDefinition
  3

  2
DESCRIPTION
 70
     8
280
     0
  0
ATTDEF
  5
E7
330
DA
100
AcDbEntity
  8
AM_6
100
AcDbText
 10
3.74
 20
-2.75
 30
0.0
 40
0.5
  1
3.9370
100
AcDbAttributeDefinition
  3

  2
A
 70
     8
280
     0
  0
ATTDEF
  5
E8
330
DA
100
AcDbEntity
  8
AM_6
100
AcDbText
 10
3.74
 20
-3.25
 30
0.0
 40
0.5
  1
1-3/64
100
AcDbAttributeDefinition
  3

  2
B
 70
     8
280
     0
  0
ATTDEF
  5
E9
330
DA
100
AcDbEntity
  8
AM_6
100
AcDbText
 10
3.74
 20
-3.75
 30
0.0
 40
0.5
  1
3-1/32
100
AcDbAttributeDefinition
  3

  2
C
 70
     8
280
     0
  0
ATTDEF
  5
EA
330
DA
100
AcDbEntity
  8
AM_6
100
AcDbText
 10
3.74
 20
-4.25
 30
0.0
 40
0.5
  1
1.050
100
AcDbAttributeDefinition
  3

  2
D
 70
     8
280
     0
  0
ATTDEF
  5
EB
330
DA
100
AcDbEntity
  8
AM_6
100
AcDbText
 10
3.74
 20
-4.75
 30
0.0
 40
0.5
  1
3-1/2
100
AcDbAttributeDefinition
  3

  2
E
 70
     8
280
     0
  0
ATTDEF
  5
EC
330
DA
100
AcDbEntity
  8
AM_6
100
AcDbText
 10
3.74
 20
-5.25
 30
0.0
 40
0.5
  1
0.1900
100
AcDbAttributeDefinition
  3

  2
NDM
 70
     8
280
     0
  0
ATTDEF
  5
ED
330
DA
100
AcDbEntity
  8
AM_6
100
AcDbText
 10
3.74
 20
-5.75
 30
0.0
 40
0.5
  1
0.1450
100
AcDbAttributeDefinition
  3

  2
KDM
 70
     8
280
     0
  0
ATTDEF
  5
EE
330
DA
100
AcDbEntity
  8
AM_6
100
AcDbText
 10
3.74
 20
-6.25
 30
0.0
 40
0.5
  1
2.92
100
AcDbAttributeDefinition
  3

  2
AL
 70
     8
280
     0
  0
ATTDEF
  5
EF
330
DA
100
AcDbEntity
  8
AM_6
100
AcDbText
 10
3.74
 20
-6.75
 30
0.0
 40
0.5
  1
0.50
100
AcDbAttributeDefinition
  3

  2
BL
 70
     8
280
     0
  0
ATTDEF
  5
F0
330
DA
100
AcDbEntity
  8
AM_6
100
AcDbText
 10
3.74
 20
-7.25
 30
0.0
 40
0.5
  1
0.07
100
AcDbAttributeDefinition
  3

  2
CL
 70
     8
280
     0
  0
ATTDEF
  5
F1
330
DA
100
AcDbEntity
  8
AM_6
100
AcDbText
 10
3.74
 20
-7.75
 30
0.0
 40
0.5
  1
0.44
100
AcDbAttributeDefinition
  3

  2
DL
 70
     8
280
     0
  0
ATTDEF
  5
F2
330
DA
100
AcDbEntity
  8
AM_6
100
AcDbText
 10
3.74
 20
-8.25
 30
0.0
 40
0.5
  1
baldor
100
AcDbAttributeDefinition
  3

  2
COMPANY
 70
     8
280
     0
  0
LINE
  5
F3
330
DA
100
AcDbEntity
  8
AM_9
100
AcDbLine
 10
-1.63
 20
1.069851441757457
 30
0.0
 11
-1.7
 21
1.069851441757457
 31
0.0
  0
LINE
  5
F4
330
DA
100
AcDbEntity
  8
AM_9
100
AcDbLine
 10
-1.26
 20
1.04012032688071
 30
0.0
 11
-1.63
 21
1.04012032688071
 31
0.0
  0
LINE
  5
F5
330
DA
100
AcDbEntity
  8
AM_9
100
AcDbLine
 10
-1.26
 20
0.9850932898123458
 30
0.0
 11
-1.7
 21
0.9850932898123458
 31
0.0
  0
LINE
  5
F6
330
DA
100
AcDbEntity
  8
AM_9
100
AcDbLine
 10
-1.63
 20
1.135791184971983
 30
0.0
 11
-1.26
 21
1.135791184971983
 31
0.0
  0
LINE
  5
F7
330
DA
100
AcDbEntity
  8
AM_9
100
AcDbLine
 10
-1.26
 20
1.080764147903618
 30
0.0
 11
-1.7
 21
1.080764147903618
 31
0.0
  0
LINE
  5
F8
330
DA
100
AcDbEntity
  8
AM_9
100
AcDbLine
 10
-1.26
 20
0.9850932898123458
 30
0.0
 11
-1.26
 21
1.135791184971983
 31
0.0
  0
LINE
  5
F9
330
DA
100
AcDbEntity
  8
AM_9
100
AcDbLine
 10
-1.63
 20
1.165522299848729
 30
0.0
 11
-1.7
 21
1.165522299848729
 31
0.0
  0
LINE
  5
FA
330
DA
100
AcDbEntity
  8
AM_9
100
AcDbLine
 10
-1.63
 20
1.5
 30
0.0
 11
-1.7
 21
1.5
 31
0.0
  0
LINE
  5
FB
330
DA
100
AcDbEntity
  8
AM_9
100
AcDbLine
 10
-1.63
 20
1.595047715730004
 30
0.0
 11
-1.7
 21
1.595047715730004
 31
0.0
  0
LINE
  5
FC
330
DA
100
AcDbEntity
  8
AM_9
100
AcDbLine
 10
-1.63
 20
-1.5
 30
0.0
 11
-1.7
 21
-1.5
 31
0.0
  0
LINE
  5
FD
330
DA
100
AcDbEntity
  8
AM_9
100
AcDbLine
 10
-1.7
 20
-1.595047715730005
 30
0.0
 11
-1.63
 21
-1.595047715730005
 31
0.0
  0
LINE
  5
FE
330
DA
100
AcDbEntity
  8
AM_9
100
AcDbLine
 10
-1.63
 20
1.212500261685452
 30
0.0
 11
-1.7
 21
1.212500261685452
 31
0.0
  0
LINE
  5
FF
330
DA
100
AcDbEntity
  8
AM_9
100
AcDbLine
 10
-1.63
 20
-1.212500261685452
 30
0.0
 11
-1.7
 21
-1.212500261685452
 31
0.0
  0
LINE
  5
100
330
DA
100
AcDbEntity
  8
AM_9
100
AcDbLine
 10
-1.63
 20
-0.9245423014409682
 30
0.0
 11
-1.7
 21
-0.9245423014409682
 31
0.0
  0
LINE
  5
101
330
DA
100
AcDbEntity
  8
AM_9
100
AcDbLine
 10
-1.63
 20
0.9245423014409687
 30
0.0
 11
-1.7
 21
0.924542301440968
 31
0.0
  0
LINE
  5
102
330
DA
100
AcDbEntity
  8
AM_9
100
AcDbLine
 10
-1.63
 20
0.7901920130155248
 30
0.0
 11
-1.7
 21
0.7901920130155248
 31
0.0
  0
LINE
  5
103
330
DA
100
AcDbEntity
  8
AM_9
100
AcDbLine
 10
-1.63
 20
-0.7901920130155244
 30
0.0
 11
-1.7
 21
-0.7901920130155246
 31
0.0
  0
LINE
  5
104
330
DA
100
AcDbEntity
  8
AM_9
100
AcDbLine
 10
-1.63
 20
1.127835315992543
 30
0.0
 11
-1.7
 21
1.127835315992543
 31
0.0
  0
LINE
  5
105
330
DA
100
AcDbEntity
  8
AM_9
100
AcDbLine
 10
-1.63
 20
0.9934850275670993
 30
0.0
 11
-1.7
 21
0.9934850275670993
 31
0.0
  0
LINE
  5
106
330
DA
100
AcDbEntity
  8
AM_9
100
AcDbLine
 10
-1.63
 20
1.155693915404086
 30
0.0
 11
-1.7
 21
1.155693915404086
 31
0.0
  0
LINE
  5
107
330
DA
100
AcDbEntity
  8
AM_9
100
AcDbLine
 10
-1.63
 20
-0.9934850275670987
 30
0.0
 11
-1.7
 21
-0.9934850275670987
 31
0.0
  0
LINE
  5
108
330
DA
100
AcDbEntity
  8
AM_9
100
AcDbLine
 10
-1.63
 20
-1.127835315992539
 30
0.0
 11
-1.7
 21
-1.127835315992539
 31
0.0
  0
LINE
  5
109
330
DA
100
AcDbEntity
  8
AM_9
100
AcDbLine
 10
-1.7
 20
-1.155693915404086
 30
0.0
 11
-1.63
 21
-1.155693915404086
 31
0.0
  0
LINE
  5
10A
330
DA
100
AcDbEntity
  8
AM_9
100
AcDbLine
 10
-1.63
 20
0.0950000000000005
 30
0.0
 11
-1.7
 21
0.0950000000000005
 31
0.0
  0
LINE
  5
10B
330
DA
100
AcDbEntity
  8
AM_9
100
AcDbLine
 10
-1.63
 20
-0.0949999999999995
 30
0.0
 11
-1.7
 21
-0.0949999999999995
 31
0.0
  0
LINE
  5
10C
330
DA
100
AcDbEntity
  8
AM_4
100
AcDbLine
 10
-1.63
 20
1.75
 30
0.0
 11
-1.7
 21
1.75
 31
0.0
  0
LINE
  5
10D
330
DA
100
AcDbEntity
  8
AM_4
100
AcDbLine
 10
-1.7
 20
-1.75
 30
0.0
 11
-1.63
 21
-1.75
 31
0.0
  0
LINE
  5
10E
330
DA
100
AcDbEntity
  8
AM_4
100
AcDbLine
 10
-1.7
 20
1.75
 30
0.0
 11
-1.7
 21
-1.75
 31
0.0
  0
LINE
  5
10F
330
DA
100
AcDbEntity
  8
AM_4
100
AcDbLine
 10
-1.63
 20
1.75
 30
0.0
 11
-1.63
 21
-1.75
 31
0.0
  0
ENDBLK
  5
DD
330
DA
100
AcDbEntity
  8
0
100
AcDbBlockEnd
  0
BLOCK
  5
112
330
110
100
AcDbEntity
  8
0
100
AcDbBlockBegin
  2
5_070925I_0_in_069497_2
 70
     2
 10
0.0
 20
0.0
 30
0.0
  3
5_070925I_0_in_069497_2
  1

  0
ATTDEF
  5
114
330
110
100
AcDbEntity
  8
AM_6
100
AcDbText
 10
6.18125
 20
1.9685
 30
0.0
 40
0.5
  1
Imperial Insert -Inch
100
AcDbAttributeDefinition
  3

  2
NN
 70
     8
280
     0
  0
ATTDEF
  5
115
330
110
100
AcDbEntity
  8
AM_6
100
AcDbText
 10
6.18125
 20
1.4685
 30
0.0
 40
0.5
  1
Imperial Bearings
100
AcDbAttributeDefinition
  3

  2
NT
 70
     8
280
     0
  0
ATTDEF
  5
116
330
110
100
AcDbEntity
  8
AM_6
100
AcDbText
 10
6.18125
 20
0.9684999999999997
 30
0.0
 40
0.5
  1
070925I
100
AcDbAttributeDefinition
  3

  2
NB
 70
     8
280
     0
  0
ATTDEF
  5
117
330
110
100
AcDbEntity
  8
AM_6
100
AcDbText
 10
6.18125
 20
0.4684999999999997
 30
0.0
 40
0.5
  1
$PN.I
100
AcDbAttributeDefinition
  3

  2
NBSYN
 70
     8
280
     0
  0
ATTDEF
  5
118
330
110
100
AcDbEntity
  8
AM_6
100
AcDbText
 10
6.18125
 20
-0.0315000000000003
 30
0.0
 40
0.5
  1
070925
100
AcDbAttributeDefinition
  3

  2
LINA
 70
     8
280
     0
  0
ATTDEF
  5
119
330
110
100
AcDbEntity
  8
AM_6
100
AcDbText
 10
6.18125
 20
-0.5315000000000003
 30
0.0
 40
0.5
  1
2-1/4
100
AcDbAttributeDefinition
  3

  2
SS
 70
     8
280
     0
  0
ATTDEF
  5
11A
330
110
100
AcDbEntity
  8
AM_6
100
AcDbText
 10
6.18125
 20
-1.0315
 30
0.0
 40
0.5
  1
2.250000
100
AcDbAttributeDefinition
  3

  2
SS1
 70
     8
280
     0
  0
ATTDEF
  5
11B
330
110
100
AcDbEntity
  8
AM_6
100
AcDbText
 10
6.18125
 20
-1.5315
 30
0.0
 40
0.5
  1
070925
100
AcDbAttributeDefinition
  3

  2
PN
 70
     8
280
     0
  0
ATTDEF
  5
11C
330
110
100
AcDbEntity
  8
AM_6
100
AcDbText
 10
6.18125
 20
-2.0315
 30
0.0
 40
0.5
  1
INS-IP-204L
100
AcDbAttributeDefinition
  3

  2
DESCRIPTION
 70
     8
280
     0
  0
ATTDEF
  5
11D
330
110
100
AcDbEntity
  8
AM_6
100
AcDbText
 10
6.18125
 20
-2.5315
 30
0.0
 40
0.5
  1
Labyrinth Seal
100
AcDbAttributeDefinition
  3

  2
ST
 70
     8
280
     0
  0
ATTDEF
  5
11E
330
110
100
AcDbEntity
  8
AM_6
100
AcDbText
 10
6.18125
 20
-3.0315
 30
0.0
 40
0.5
  1
3.9370
100
AcDbAttributeDefinition
  3

  2
A
 70
     8
280
     0
  0
ATTDEF
  5
11F
330
110
100
AcDbEntity
  8
AM_6
100
AcDbText
 10
6.18125
 20
-3.5315
 30
0.0
 40
0.5
  1
1-3/64
100
AcDbAttributeDefinition
  3

  2
B
 70
     8
280
     0
  0
ATTDEF
  5
120
330
110
100
AcDbEntity
  8
AM_6
100
AcDbText
 10
6.18125
 20
-4.0315
 30
0.0
 40
0.5
  1
3-1/32
100
AcDbAttributeDefinition
  3

  2
C
 70
     8
280
     0
  0
ATTDEF
  5
121
330
110
100
AcDbEntity
  8
AM_6
100
AcDbText
 10
6.18125
 20
-4.5315
 30
0.0
 40
0.5
  1
1.050
100
AcDbAttributeDefinition
  3

  2
D
 70
     8
280
     0
  0
ATTDEF
  5
122
330
110
100
AcDbEntity
  8
AM_6
100
AcDbText
 10
6.18125
 20
-5.0315
 30
0.0
 40
0.5
  1
3-1/2
100
AcDbAttributeDefinition
  3

  2
E
 70
     8
280
     0
  0
ATTDEF
  5
123
330
110
100
AcDbEntity
  8
AM_6
100
AcDbText
 10
6.18125
 20
-5.5315
 30
0.0
 40
0.5
  1
0.1900
100
AcDbAttributeDefinition
  3

  2
NDM
 70
     8
280
     0
  0
ATTDEF
  5
124
330
110
100
AcDbEntity
  8
AM_6
100
AcDbText
 10
6.18125
 20
-6.0315
 30
0.0
 40
0.5
  1
0.101
100
AcDbAttributeDefinition
  3

  2
H
 70
     8
280
     0
  0
ATTDEF
  5
125
330
110
100
AcDbEntity
  8
AM_6
100
AcDbText
 10
6.18125
 20
-6.5315
 30
0.0
 40
0.5
  1
0.1450
100
AcDbAttributeDefinition
  3

  2
KDM
 70
     8
280
     0
  0
ATTDEF
  5
126
330
110
100
AcDbEntity
  8
AM_6
100
AcDbText
 10
6.18125
 20
-7.0315
 30
0.0
 40
0.5
  1
2.92
100
AcDbAttributeDefinition
  3

  2
AL
 70
     8
280
     0
  0
ATTDEF
  5
127
330
110
100
AcDbEntity
  8
AM_6
100
AcDbText
 10
6.18125
 20
-7.5315
 30
0.0
 40
0.5
  1
0.50
100
AcDbAttributeDefinition
  3

  2
BL
 70
     8
280
     0
  0
ATTDEF
  5
128
330
110
100
AcDbEntity
  8
AM_6
100
AcDbText
 10
6.18125
 20
-8.031500000000001
 30
0.0
 40
0.5
  1
0.07
100
AcDbAttributeDefinition
  3

  2
CL
 70
     8
280
     0
  0
ATTDEF
  5
129
330
110
100
AcDbEntity
  8
AM_6
100
AcDbText
 10
6.18125
 20
-8.531500000000001
 30
0.0
 40
0.5
  1
0.44
100
AcDbAttributeDefinition
  3

  2
DL
 70
     8
280
     0
  0
ATTDEF
  5
12A
330
110
100
AcDbEntity
  8
AM_6
100
AcDbText
 10
6.18125
 20
-9.031500000000001
 30
0.0
 40
0.5
  1
0.8000
100
AcDbAttributeDefinition
  3

  2
LL
 70
     8
280
     0
  0
ATTDEF
  5
12B
330
110
100
AcDbEntity
  8
AM_6
100
AcDbText
 10
6.18125
 20
-9.531500000000001
 30
0.0
 40
0.5
  1
0.025
100
AcDbAttributeDefinition
  3

  2
Y
 70
     8
280
     0
  0
ATTDEF
  5
12C
330
110
100
AcDbEntity
  8
AM_6
100
AcDbText
 10
6.18125
 20
-10.0315
 30
0.0
 40
0.5
  1
0.025000
100
AcDbAttributeDefinition
  3

  2
Y1
 70
     8
280
     0
  0
ATTDEF
  5
12D
330
110
100
AcDbEntity
  8
AM_6
100
AcDbText
 10
6.18125
 20
-10.5315
 30
0.0
 40
0.5
  1
2-19/32
100
AcDbAttributeDefinition
  3

  2
Z
 70
     8
280
     0
  0
ATTDEF
  5
12E
330
110
100
AcDbEntity
  8
AM_6
100
AcDbText
 10
6.18125
 20
-11.0315
 30
0.0
 40
0.5
  1
2.593750
100
AcDbAttributeDefinition
  3

  2
Z1
 70
     8
280
     0
  0
ATTDEF
  5
12F
330
110
100
AcDbEntity
  8
AM_6
100
AcDbText
 10
6.18125
 20
-11.5315
 30
0.0
 40
0.5
  1
baldor
100
AcDbAttributeDefinition
  3

  2
COMPANY
 70
     8
280
     0
  0
LINE
  5
130
330
110
100
AcDbEntity
  8
AM_9
100
AcDbLine
 10
0.6296875000000004
 20
1.138694082084736
 30
0.0
 11
-1.63
 21
1.138694082084736
 31
0.0
  0
LINE
  5
131
330
110
100
AcDbEntity
  8
AM_9
100
AcDbLine
 10
0.6296875000000003
 20
1.043023223993464
 30
0.0
 11
-1.63
 21
1.043023223993464
 31
0.0
  0
LINE
  5
132
330
110
100
AcDbEntity
  8
AM_9
100
AcDbLine
 10
-0.7900000000000041
 20
-1.5
 30
0.0
 11
-0.8237839898333372
 21
-1.42755
 31
0.0
  0
LINE
  5
133
330
110
100
AcDbEntity
  8
AM_9
100
AcDbLine
 10
-0.8237839898333372
 20
-1.57245
 30
0.0
 11
-0.7900000000000041
 21
-1.5
 31
0.0
  0
LINE
  5
134
330
110
100
AcDbEntity
  8
AM_9
100
AcDbLine
 10
-0.7899999999999998
 20
1.5
 30
0.0
 11
-0.8237839898333295
 21
1.57245
 31
0.0
  0
LINE
  5
135
330
110
100
AcDbEntity
  8
AM_9
100
AcDbLine
 10
-0.8237839898333295
 20
1.42755
 30
0.0
 11
-0.7899999999999998
 21
1.5
 31
0.0
  0
LINE
  5
136
330
110
100
AcDbEntity
  8
AM_9
100
AcDbLine
 10
-0.8237839898333295
 20
1.42755
 30
0.0
 11
-0.8237839898333295
 21
1.57245
 31
0.0
  0
LINE
  5
137
330
110
100
AcDbEntity
  8
AM_9
100
AcDbLine
 10
-0.8237839898333295
 20
1.57245
 30
0.0
 11
-1.60745
 21
1.57245
 31
0.0
  0
LINE
  5
138
330
110
100
AcDbEntity
  8
AM_9
100
AcDbLine
 10
-1.60745
 20
1.42755
 30
0.0
 11
-0.8237839898333295
 21
1.42755
 31
0.0
  0
LINE
  5
139
330
110
100
AcDbEntity
  8
AM_9
100
AcDbLine
 10
-1.607450000000006
 20
-1.57245
 30
0.0
 11
-0.8237839898333372
 21
-1.57245
 31
0.0
  0
LINE
  5
13A
330
110
100
AcDbEntity
  8
AM_9
100
AcDbLine
 10
-0.8237839898333372
 20
-1.42755
 30
0.0
 11
-1.607450000000006
 21
-1.42755
 31
0.0
  0
LINE
  5
13B
330
110
100
AcDbEntity
  8
AM_9
100
AcDbLine
 10
-0.8237839898333372
 20
-1.42755
 30
0.0
 11
-0.8237839898333372
 21
-1.57245
 31
0.0
  0
LINE
  5
13C
330
110
100
AcDbEntity
  8
AM_9
100
AcDbLine
 10
-1.60745
 20
1.42755
 30
0.0
 11
-1.60745
 21
1.57245
 31
0.0
  0
LINE
  5
13D
330
110
100
AcDbEntity
  8
AM_9
100
AcDbLine
 10
-1.60745
 20
1.57245
 30
0.0
 11
-1.63
 21
1.595
 31
0.0
  0
LINE
  5
13E
330
110
100
AcDbEntity
  8
AM_9
100
AcDbLine
 10
-1.63
 20
1.405
 30
0.0
 11
-1.60745
 21
1.42755
 31
0.0
  0
LINE
  5
13F
330
110
100
AcDbEntity
  8
AM_9
100
AcDbLine
 10
-1.607450000000006
 20
-1.42755
 30
0.0
 11
-1.629999999999997
 21
-1.405
 31
0.0
  0
LINE
  5
140
330
110
100
AcDbEntity
  8
AM_9
100
AcDbLine
 10
-1.629999999999997
 20
-1.595
 30
0.0
 11
-1.607450000000006
 21
-1.57245
 31
0.0
  0
LINE
  5
141
330
110
100
AcDbEntity
  8
AM_9
100
AcDbLine
 10
-1.607450000000006
 20
-1.42755
 30
0.0
 11
-1.607450000000006
 21
-1.57245
 31
0.0
  0
LINE
  5
142
330
110
100
AcDbEntity
  8
AM_9
100
AcDbLine
 10
0.6296875000000004
 20
1.080764147903618
 30
0.0
 11
-1.875
 21
1.080764147903618
 31
0.0
  0
LINE
  5
143
330
110
100
AcDbEntity
  8
AM_9
100
AcDbLine
 10
-1.875
 20
0.9850932898123459
 30
0.0
 11
0.6296875000000004
 21
0.9850932898123453
 31
0.0
  0
LINE
  5
144
330
110
100
AcDbEntity
  8
AM_9
100
AcDbLine
 10
0.6296874999999998
 20
1.125
 30
0.0
 11
-1.875
 21
1.125
 31
0.0
  0
LINE
  5
145
330
110
100
AcDbEntity
  8
AM_9
100
AcDbLine
 10
-1.875
 20
-1.125
 30
0.0
 11
0.6296874999999998
 21
-1.125
 31
0.0
  0
LINE
  5
146
330
110
100
AcDbEntity
  8
AM_9
100
AcDbLine
 10
1.15625
 20
1.18421052631579
 30
0.0
 11
0.6296874999999998
 21
1.18421052631579
 31
0.0
  0
LINE
  5
147
330
110
100
AcDbEntity
  8
AM_9
100
AcDbLine
 10
0.6296874999999998
 20
-1.18421052631579
 30
0.0
 11
1.15625
 21
-1.18421052631579
 31
0.0
  0
LINE
  5
148
330
110
100
AcDbEntity
  8
AM_9
100
AcDbLine
 10
-1.875
 20
1.135791184971982
 30
0.0
 11
-1.63
 21
1.135791184971983
 31
0.0
  0
LINE
  5
149
330
110
100
AcDbEntity
  8
AM_9
100
AcDbLine
 10
-1.63
 20
1.04012032688071
 30
0.0
 11
-1.875
 21
1.04012032688071
 31
0.0
  0
LINE
  5
14A
330
110
100
AcDbEntity
  8
AM_9
100
AcDbLine
 10
-1.63
 20
1.18421052631579
 30
0.0
 11
-1.7
 21
1.18421052631579
 31
0.0
  0
LINE
  5
14B
330
110
100
AcDbEntity
  8
AM_9
100
AcDbLine
 10
-1.7
 20
-1.18421052631579
 30
0.0
 11
-1.63
 21
-1.18421052631579
 31
0.0
  0
LINE
  5
14C
330
110
100
AcDbEntity
  8
AM_9
100
AcDbLine
 10
-1.19
 20
-0.8555992052357224
 30
0.0
 11
-1.63
 21
-0.8555992052357224
 31
0.0
  0
LINE
  5
14D
330
110
100
AcDbEntity
  8
AM_9
100
AcDbLine
 10
-1.19
 20
-1.209152595828996
 30
0.0
 11
-1.3125
 21
-1.209152595828996
 31
0.0
  0
LINE
  5
14E
330
110
100
AcDbEntity
  8
AM_9
100
AcDbLine
 10
-1.19
 20
0.8555992052357221
 30
0.0
 11
-1.63
 21
0.8555992052357221
 31
0.0
  0
LINE
  5
14F
330
110
100
AcDbEntity
  8
AM_9
100
AcDbLine
 10
1.15625
 20
-1.296875
 30
0.0
 11
1.15625
 21
1.296875
 31
0.0
  0
LINE
  5
150
330
110
100
AcDbEntity
  8
AM_9
100
AcDbLine
 10
1.181249999999999
 20
1.296875
 30
0.0
 11
1.15625
 21
1.296875
 31
0.0
  0
LINE
  5
151
330
110
100
AcDbEntity
  8
AM_9
100
AcDbLine
 10
1.15625
 20
-1.296875
 30
0.0
 11
1.181249999999999
 21
-1.296875
 31
0.0
  0
LINE
  5
152
330
110
100
AcDbEntity
  8
AM_9
100
AcDbLine
 10
-1.19
 20
1.058944566254843
 30
0.0
 11
-1.19
 21
0.8555992052357221
 31
0.0
  0
ARC
  5
153
330
110
100
AcDbEntity
  8
AM_9
100
AcDbCircle
 10
1.147996794871795
 20
1.407719017094017
 30
0.0
 40
0.0332532051282053
100
AcDbArc
 50
0.0
 51
90.0
  0
ARC
  5
154
330
110
100
AcDbEntity
  8
AM_9
100
AcDbCircle
 10
1.147996794871795
 20
-1.407719017094017
 30
0.0
 40
0.0332532051282053
100
AcDbArc
 50
270.0
 51
0.0
  0
LINE
  5
155
330
110
100
AcDbEntity
  8
AM_9
100
AcDbLine
 10
1.147996794871795
 20
1.440972222222222
 30
0.0
 11
0.8390624999999996
 21
1.440972222222222
 31
0.0
  0
LINE
  5
156
330
110
100
AcDbEntity
  8
AM_9
100
AcDbLine
 10
0.8390624999999996
 20
-1.440972222222222
 30
0.0
 11
1.147996794871795
 21
-1.440972222222222
 31
0.0
  0
LINE
  5
157
330
110
100
AcDbEntity
  8
AM_9
100
AcDbLine
 10
1.147996794871795
 20
-1.440972222222222
 30
0.0
 11
1.147996794871795
 21
1.440972222222222
 31
0.0
  0
LINE
  5
158
330
110
100
AcDbEntity
  8
AM_9
100
AcDbLine
 10
0.8390625000000002
 20
-1.589882260469459
 30
0.0
 11
0.8390625000000002
 21
1.589882260469459
 31
0.0
  0
ARC
  5
159
330
110
100
AcDbEntity
  8
AM_9
100
AcDbCircle
 10
0.7390624999999997
 20
1.589882260469459
 30
0.0
 40
0.1000000000000004
100
AcDbArc
 50
0.0
 51
60.00000000000005
  0
ARC
  5
15A
330
110
100
AcDbEntity
  8
AM_9
100
AcDbCircle
 10
0.7390625
 20
-1.589882260469459
 30
0.0
 40
0.1000000000000001
100
AcDbArc
 50
300.0
 51
0.0
  0
LINE
  5
15B
330
110
100
AcDbEntity
  8
AM_9
100
AcDbLine
 10
0.7890624999999999
 20
1.676484800847903
 30
0.0
 11
0.6296874999999998
 21
1.7685
 31
0.0
  0
LINE
  5
15C
330
110
100
AcDbEntity
  8
AM_9
100
AcDbLine
 10
0.6296874999999998
 20
-1.7685
 30
0.0
 11
0.7890624999999999
 21
-1.676484800847903
 31
0.0
  0
LINE
  5
15D
330
110
100
AcDbEntity
  8
AM_9
100
AcDbLine
 10
0.7890624999999999
 20
-1.676484800847903
 30
0.0
 11
0.7890624999999999
 21
1.676484800847903
 31
0.0
  0
LINE
  5
15E
330
110
100
AcDbEntity
  8
AM_9
100
AcDbLine
 10
-1.312500008384601
 20
-1.055888837861153
 30
0.0
 11
-1.19
 21
-1.058944566254844
 31
0.0
  0
LINE
  5
15F
330
110
100
AcDbEntity
  8
AM_9
100
AcDbLine
 10
-1.19
 20
-0.8555992052357224
 30
0.0
 11
-1.19
 21
-1.412497956848118
 31
0.0
  0
LINE
  5
160
330
110
100
AcDbEntity
  8
AM_9
100
AcDbLine
 10
-1.19
 20
-1.412497956848118
 30
0.0
 11
-1.312500008384601
 21
-1.409442228454426
 31
0.0
  0
LINE
  5
161
330
110
100
AcDbEntity
  8
AM_9
100
AcDbLine
 10
-1.3125
 20
-1.761087344313631
 30
0.0
 11
-0.4171874999999999
 21
-1.792352345749211
 31
0.0
  0
LINE
  5
162
330
110
100
AcDbEntity
  8
AM_9
100
AcDbLine
 10
-0.4171874999999999
 20
1.792352345749211
 30
0.0
 11
-1.18125
 21
1.765670695309423
 31
0.0
  0
LINE
  5
163
330
110
100
AcDbEntity
  8
AM_9
100
AcDbLine
 10
0.1364706781528944
 20
1.91615625
 30
0.0
 11
0.0760293218471055
 21
1.91615625
 31
0.0
  0
LINE
  5
164
330
110
100
AcDbEntity
  8
AM_9
100
AcDbLine
 10
0.0760293218471055
 20
-1.91615625
 30
0.0
 11
0.1364706781528944
 21
-1.91615625
 31
0.0
  0
LINE
  5
165
330
110
100
AcDbEntity
  8
AM_9
100
AcDbLine
 10
0.0458086436942111
 20
1.9685
 30
0.0
 11
-0.3671875000000001
 21
1.9685
 31
0.0
  0
LINE
  5
166
330
110
100
AcDbEntity
  8
AM_9
100
AcDbLine
 10
-0.3671875000000001
 20
-1.9685
 30
0.0
 11
0.0458086436942111
 21
-1.9685
 31
0.0
  0
LINE
  5
167
330
110
100
AcDbEntity
  8
AM_9
100
AcDbLine
 10
-0.4171874999999999
 20
-1.918499999999998
 30
0.0
 11
-0.4171874999999999
 21
1.918499999999998
 31
0.0
  0
ARC
  5
168
330
110
100
AcDbEntity
  8
AM_9
100
AcDbCircle
 10
-0.3671875000000002
 20
1.9185
 30
0.0
 40
0.0499999999999996
100
AcDbArc
 50
90.0
 51
180.0
  0
ARC
  5
169
330
110
100
AcDbEntity
  8
AM_9
100
AcDbCircle
 10
-0.3671875000000004
 20
-1.9185
 30
0.0
 40
0.0499999999999995
100
AcDbArc
 50
180.0
 51
270.0
  0
LINE
  5
16A
330
110
100
AcDbEntity
  8
AM_9
100
AcDbLine
 10
-0.3671875000000001
 20
-1.9685
 30
0.0
 11
-0.3671875000000001
 21
1.9685
 31
0.0
  0
LINE
  5
16B
330
110
100
AcDbEntity
  8
AM_9
100
AcDbLine
 10
0.5796874999999998
 20
1.9685
 30
0.0
 11
0.1666913563057889
 21
1.9685
 31
0.0
  0
LINE
  5
16C
330
110
100
AcDbEntity
  8
AM_9
100
AcDbLine
 10
0.1666913563057889
 20
-1.9685
 30
0.0
 11
0.5796874999999998
 21
-1.9685
 31
0.0
  0
LINE
  5
16D
330
110
100
AcDbEntity
  8
AM_9
100
AcDbLine
 10
0.0760293218471055
 20
1.91615625
 30
0.0
 11
0.0458086436942111
 21
1.9685
 31
0.0
  0
LINE
  5
16E
330
110
100
AcDbEntity
  8
AM_9
100
AcDbLine
 10
0.0458086436942111
 20
-1.9685
 30
0.0
 11
0.0760293218471055
 21
-1.91615625
 31
0.0
  0
LINE
  5
16F
330
110
100
AcDbEntity
  8
AM_9
100
AcDbLine
 10
0.0760293218471055
 20
-1.91615625
 30
0.0
 11
0.0760293218471055
 21
1.91615625
 31
0.0
  0
LINE
  5
170
330
110
100
AcDbEntity
  8
AM_9
100
AcDbLine
 10
0.0458086436942111
 20
-1.9685
 30
0.0
 11
0.0458086436942111
 21
1.9685
 31
0.0
  0
LINE
  5
171
330
110
100
AcDbEntity
  8
AM_9
100
AcDbLine
 10
0.6296874999999998
 20
-1.9185
 30
0.0
 11
0.6296874999999998
 21
1.9185
 31
0.0
  0
ARC
  5
172
330
110
100
AcDbEntity
  8
AM_9
100
AcDbCircle
 10
0.5796875000000007
 20
1.918500000000001
 30
0.0
 40
0.0499999999999992
100
AcDbArc
 50
0.0
 51
90.0
  0
ARC
  5
173
330
110
100
AcDbEntity
  8
AM_9
100
AcDbCircle
 10
0.5796875000000004
 20
-1.9185
 30
0.0
 40
0.0499999999999996
100
AcDbArc
 50
270.0
 51
0.0
  0
LINE
  5
174
330
110
100
AcDbEntity
  8
AM_9
100
AcDbLine
 10
0.5796874999999998
 20
-1.9685
 30
0.0
 11
0.5796874999999998
 21
1.9685
 31
0.0
  0
LINE
  5
175
330
110
100
AcDbEntity
  8
AM_9
100
AcDbLine
 10
0.1364706781528944
 20
-1.91615625
 30
0.0
 11
0.1666913563057889
 21
-1.9685
 31
0.0
  0
LINE
  5
176
330
110
100
AcDbEntity
  8
AM_9
100
AcDbLine
 10
0.1666913563057889
 20
1.9685
 30
0.0
 11
0.1364706781528944
 21
1.91615625
 31
0.0
  0
LINE
  5
177
330
110
100
AcDbEntity
  8
AM_9
100
AcDbLine
 10
0.1666913563057889
 20
-1.9685
 30
0.0
 11
0.1666913563057889
 21
1.9685
 31
0.0
  0
LINE
  5
178
330
110
100
AcDbEntity
  8
AM_9
100
AcDbLine
 10
0.1364706781528944
 20
-1.91615625
 30
0.0
 11
0.1364706781528944
 21
1.91615625
 31
0.0
  0
LINE
  5
179
330
110
100
AcDbEntity
  8
AM_5
100
AcDbLine
 10
-0.8699999999999999
 20
1.57245
 30
0.0
 11
-0.8699999999999999
 21
1.595
 31
0.0
  0
LINE
  5
17A
330
110
100
AcDbEntity
  8
AM_5
100
AcDbLine
 10
-0.8699999999999999
 20
1.595
 30
0.0
 11
-0.8569807514297738
 21
1.57245
 31
0.0
  0
LINE
  5
17B
330
110
100
AcDbEntity
  8
AM_5
100
AcDbLine
 10
-0.8699999999999999
 20
1.42755
 30
0.0
 11
-0.8699999999999999
 21
1.405
 31
0.0
  0
LINE
  5
17C
330
110
100
AcDbEntity
  8
AM_5
100
AcDbLine
 10
-0.8699999999999999
 20
1.405
 30
0.0
 11
-0.8569807514297743
 21
1.42755
 31
0.0
  0
LINE
  5
17D
330
110
100
AcDbEntity
  8
AM_5
100
AcDbLine
 10
-0.8700000000000007
 20
-1.57245
 30
0.0
 11
-0.8700000000000007
 21
-1.595
 31
0.0
  0
LINE
  5
17E
330
110
100
AcDbEntity
  8
AM_5
100
AcDbLine
 10
-0.8700000000000007
 20
-1.595
 30
0.0
 11
-0.8569807514297649
 21
-1.57245
 31
0.0
  0
LINE
  5
17F
330
110
100
AcDbEntity
  8
AM_5
100
AcDbLine
 10
-0.8700000000000007
 20
-1.42755
 30
0.0
 11
-0.8700000000000007
 21
-1.405
 31
0.0
  0
LINE
  5
180
330
110
100
AcDbEntity
  8
AM_5
100
AcDbLine
 10
-0.8700000000000007
 20
-1.405
 30
0.0
 11
-0.856980751429765
 21
-1.42755
 31
0.0
  0
LINE
  5
183
330
110
100
AcDbEntity
  8
AM_7
100
AcDbLine
 10
-0.7479999999999998
 20
1.5
 30
0.0
 11
-1.84605
 21
1.5
 31
0.0
  0
LINE
  5
184
330
110
100
AcDbEntity
  8
AM_7
100
AcDbLine
 10
-0.7480000000000048
 20
-1.5
 30
0.0
 11
-1.84605
 21
-1.5
 31
0.0
  0
ARC
  5
185
330
110
100
AcDbEntity
  8
AM_4
100
AcDbCircle
 10
-1.579999999999999
 20
-1.701715561259647
 30
0.0
 40
0.0500000000000005
100
AcDbArc
 50
180.0
 51
267.9999999999995
  0
ARC
  5
186
330
110
100
AcDbEntity
  8
AM_4
100
AcDbCircle
 10
-1.579999999999999
 20
1.701715561259647
 30
0.0
 40
0.0500000000000003
100
AcDbArc
 50
92.0000000000005
 51
180.0
  0
LWPOLYLINE
  5
187
330
110
100
AcDbEntity
  8
AM_4
100
AcDbPolyline
 90
        6
 70
     0
 43
0.0
 10
-1.581744974835125
 20
-1.402725450079624
 10
-1.598059537852182
 20
-1.400335707104308
 10
-1.612344563500847
 20
-1.394265809917441
 10
-1.62306803550237
 20
-1.385169656136095
 10
-1.62904144724135
 20
-1.373980152177874
 10
-1.63
 20
-1.367015295627099
  0
LWPOLYLINE
  5
188
330
110
100
AcDbEntity
  8
AM_4
100
AcDbPolyline
 90
        6
 70
     0
 43
0.0
 10
-1.63
 20
1.367015295627099
 10
-1.629489130908627
 20
1.37211148542419
 10
-1.624244884505245
 20
1.383661460948832
 10
-1.61389621377439
 20
1.393285102677707
 10
-1.59971955036443
 20
1.399851693899151
 10
-1.581744974835125
 20
1.402725450079624
  0
LINE
  5
189
330
110
100
AcDbEntity
  8
AM_4
100
AcDbLine
 10
-1.7
 20
1.18421052631579
 30
0.0
 11
-1.875
 21
1.18421052631579
 31
0.0
  0
LINE
  5
18A
330
110
100
AcDbEntity
  8
AM_4
100
AcDbLine
 10
-1.875
 20
-1.18421052631579
 30
0.0
 11
-1.7
 21
-1.18421052631579
 31
0.0
  0
LINE
  5
18B
330
110
100
AcDbEntity
  8
AM_4
100
AcDbLine
 10
-1.875
 20
-1.18421052631579
 30
0.0
 11
-1.875
 21
1.18421052631579
 31
0.0
  0
LINE
  5
18C
330
110
100
AcDbEntity
  8
AM_4
100
AcDbLine
 10
-1.3125
 20
-1.209152595828996
 30
0.0
 11
-1.63
 21
-1.209152595828996
 31
0.0
  0
LINE
  5
18D
330
110
100
AcDbEntity
  8
AM_4
100
AcDbLine
 10
-1.19
 20
1.209152595828995
 30
0.0
 11
-1.63
 21
1.209152595828995
 31
0.0
  0
LWPOLYLINE
  5
18E
330
110
100
AcDbEntity
  8
AM_4
100
AcDbPolyline
 90
        6
 70
     0
 43
0.0
 10
-1.581744974835125
 20
1.04917205948635
 10
-1.598059537852182
 20
1.046782316511033
 10
-1.612344563500847
 20
1.040712419324166
 10
-1.62306803550237
 20
1.03161626554282
 10
-1.62904144724135
 20
1.020426761584599
 10
-1.63
 20
1.013461905033825
  0
LWPOLYLINE
  5
18F
330
110
100
AcDbEntity
  8
AM_4
100
AcDbPolyline
 90
        6
 70
     0
 43
0.0
 10
-1.63
 20
-1.013461905033825
 10
-1.629489130908627
 20
-1.018558094830917
 10
-1.624244884505245
 20
-1.030108070355559
 10
-1.61389621377439
 20
-1.039731712084434
 10
-1.599719550364431
 20
-1.046298303305878
 10
-1.581744974835125
 20
-1.049172059486351
  0
LINE
  5
190
330
110
100
AcDbEntity
  8
AM_4
100
AcDbLine
 10
-1.581744974835125
 20
-1.049172059486351
 30
0.0
 11
-1.581744974835125
 21
1.04917205948635
 31
0.0
  0
LINE
  5
191
330
110
100
AcDbEntity
  8
AM_4
100
AcDbLine
 10
-1.581744974835125
 20
-1.049172059486351
 30
0.0
 11
-1.312500008384601
 21
-1.055888837861153
 31
0.0
  0
LINE
  5
192
330
110
100
AcDbEntity
  8
AM_4
100
AcDbLine
 10
-1.312500008384601
 20
-1.409442228454426
 30
0.0
 11
-1.581744974835125
 21
-1.402725450079624
 31
0.0
  0
LINE
  5
193
330
110
100
AcDbEntity
  8
AM_4
100
AcDbLine
 10
-1.581744974835125
 20
1.402725450079624
 30
0.0
 11
-1.581744974835125
 21
1.751685102610602
 31
0.0
  0
LINE
  5
194
330
110
100
AcDbEntity
  8
AM_4
100
AcDbLine
 10
-1.581744974835125
 20
1.402725450079624
 30
0.0
 11
-1.19
 21
1.412497956848117
 31
0.0
  0
LINE
  5
195
330
110
100
AcDbEntity
  8
AM_4
100
AcDbLine
 10
-1.19
 20
1.412497956848117
 30
0.0
 11
-1.19
 21
1.058944566254843
 31
0.0
  0
LINE
  5
196
330
110
100
AcDbEntity
  8
AM_4
100
AcDbLine
 10
-1.19
 20
1.058944566254843
 30
0.0
 11
-1.581744974835125
 21
1.04917205948635
 31
0.0
  0
LINE
  5
197
330
110
100
AcDbEntity
  8
AM_4
100
AcDbLine
 10
-1.581744974835125
 20
-1.751685102610602
 30
0.0
 11
-1.3125
 21
-1.761087344313631
 31
0.0
  0
LINE
  5
198
330
110
100
AcDbEntity
  8
AM_4
100
AcDbLine
 10
-1.18125
 20
1.765670695309423
 30
0.0
 11
-1.581744974835125
 21
1.751685102610602
 31
0.0
  0
LINE
  5
199
330
110
100
AcDbEntity
  8
AM_4
100
AcDbLine
 10
-1.581744974835125
 20
-1.751685102610602
 30
0.0
 11
-1.581744974835125
 21
-1.402725450079624
 31
0.0
  0
ENDBLK
  5
113
330
110
100
AcDbEntity
  8
0
100
AcDbBlockEnd
  0
BLOCK
  5
19C
330
19A
100
AcDbEntity
  8
0
100
AcDbBlockBegin
  2
6_405015E_Inch_0_in_069497_2
 70
     2
 10
0.0
 20
0.0
 30
0.0
  3
6_405015E_Inch_0_in_069497_2
  1

  0
ATTDEF
  5
19E
330
19A
100
AcDbEntity
  8
AM_6
100
AcDbText
 10
5.252590742770462
 20
2.627764527225338
 30
0.0
 40
0.5
  1
405015E -Inch
100
AcDbAttributeDefinition
  3

  2
NN
 70
     8
280
     0
  0
ATTDEF
  5
19F
330
19A
100
AcDbEntity
  8
AM_6
100
AcDbText
 10
5.252590742770462
 20
2.127764527225338
 30
0.0
 40
0.5
  1
Grease Fitting
100
AcDbAttributeDefinition
  3

  2
NT
 70
     8
280
     0
  0
ATTDEF
  5
1A0
330
19A
100
AcDbEntity
  8
AM_6
100
AcDbText
 10
5.252590742770462
 20
1.627764527225338
 30
0.0
 40
0.5
  1
405015E-Inch
100
AcDbAttributeDefinition
  3

  2
NB
 70
     8
280
     0
  0
ATTDEF
  5
1A1
330
19A
100
AcDbEntity
  8
AM_6
100
AcDbText
 10
5.252590742770462
 20
1.127764527225338
 30
0.0
 40
0.5
  1
$MN.-Inch
100
AcDbAttributeDefinition
  3

  2
NBSYN
 70
     8
280
     0
  0
ATTDEF
  5
1A2
330
19A
100
AcDbEntity
  8
AM_6
100
AcDbText
 10
5.252590742770462
 20
0.6277645272253376
 30
0.0
 40
0.5
  1
405015E
100
AcDbAttributeDefinition
  3

  2
LINA
 70
     8
280
     0
  0
ATTDEF
  5
1A3
330
19A
100
AcDbEntity
  8
AM_6
100
AcDbText
 10
5.252590742770462
 20
0.1277645272253376
 30
0.0
 40
0.5
  1
405015E
100
AcDbAttributeDefinition
  3

  2
MN
 70
     8
280
     0
  0
ATTDEF
  5
1A4
330
19A
100
AcDbEntity
  8
AM_6
100
AcDbText
 10
5.252590742770462
 20
-0.3722354727746624
 30
0.0
 40
0.5
  1
1/8 x 27PTF
100
AcDbAttributeDefinition
  3

  2
T
 70
     8
280
     0
  0
ATTDEF
  5
1A5
330
19A
100
AcDbEntity
  8
AM_6
100
AcDbText
 10
5.252590742770462
 20
-0.8722354727746624
 30
0.0
 40
0.5
  1
baldor
100
AcDbAttributeDefinition
  3

  2
COMPANY
 70
     8
280
     0
  0
LINE
  5
1A6
330
19A
100
AcDbEntity
  8
AM_9
100
AcDbLine
 10
0.1262953713852307
 20
2.439790818529368
 30
0.0
 11
0.1262953713852307
 21
2.368893821528157
 31
0.0
  0
LINE
  5
1A7
330
19A
100
AcDbEntity
  8
AM_9
100
AcDbLine
 10
-0.1262953713852306
 20
2.439790818529368
 30
0.0
 11
-0.1262953713852306
 21
2.368893821528157
 31
0.0
  0
LWPOLYLINE
  5
1A8
330
19A
100
AcDbEntity
  8
AM_9
100
AcDbPolyline
 90
        4
 70
     0
 43
0.0
 10
-0.1262953713852306
 20
2.368893821528157
 10
-0.0967996321117977
 20
2.365788958354019
 10
-0.0485424412477543
 20
2.362275853319474
 10
0.0000000000000001
 20
2.361041049839541
  0
LWPOLYLINE
  5
1A9
330
19A
100
AcDbEntity
  8
AM_9
100
AcDbPolyline
 90
        4
 70
     0
 43
0.0
 10
0.0000000000000001
 20
2.361041049839541
 10
0.0315738428463077
 20
2.361567085797618
 10
0.0631476856926154
 20
2.36311377840031
 10
0.1262953713852307
 20
2.368893821528157
  0
ELLIPSE
  5
1AA
330
19A
100
AcDbEntity
  8
AM_9
100
AcDbEllipse
 10
0.0000000000000007
 20
2.251666049839541
 30
0.0
 11
0.2187499999999991
 21
0.0
 31
0.0
210
0.0
220
0.0
230
1.0
 40
0.5000000000000021
 41
0.5235987755982983
 42
1.570796326794897
  0
LWPOLYLINE
  5
1AB
330
19A
100
AcDbEntity
  8
AM_9
100
AcDbPolyline
 90
        4
 70
     0
 43
0.0
 10
0.1262953713852307
 20
2.368893821528157
 10
0.1577272497321277
 20
2.335911284646908
 10
0.1735630385535389
 20
2.320638275437475
 10
0.189443057077846
 20
2.306353549839541
  0
ELLIPSE
  5
1AC
330
19A
100
AcDbEntity
  8
AM_9
100
AcDbEllipse
 10
-0.0000000000000004
 20
2.25166604983954
 30
0.0
 11
0.2187499999999995
 21
0.0
 31
0.0
210
0.0
220
0.0
230
1.0
 40
0.5000000000000012
 41
1.570796326794897
 42
2.617993877991491
  0
LWPOLYLINE
  5
1AD
330
19A
100
AcDbEntity
  8
AM_9
100
AcDbPolyline
 90
        4
 70
     0
 43
0.0
 10
-0.1894430570778459
 20
2.306353549839541
 10
-0.173656135654692
 20
2.320551460797618
 10
-0.1578692142315382
 20
2.33577002840031
 10
-0.1262953713852306
 20
2.368893821528157
  0
LINE
  5
1AE
330
19A
100
AcDbEntity
  8
AM_9
100
AcDbLine
 10
-0.1018728799035887
 20
2.442408942280835
 30
0.0
 11
-0.1050087569988761
 21
2.442097872832714
 31
0.0
  0
LWPOLYLINE
  5
1AF
330
19A
100
AcDbEntity
  8
AM_9
100
AcDbPolyline
 90
        4
 70
     0
 43
0.0
 10
0.0000000000000001
 20
2.447643590217984
 10
-0.0483998160558988
 20
2.446415946625537
 10
-0.0967996321117977
 20
2.442895681703506
 10
-0.1018728799035887
 20
2.442408942280835
  0
LWPOLYLINE
  5
1B0
330
19A
100
AcDbEntity
  8
AM_9
100
AcDbPolyline
 90
        4
 70
     0
 43
0.0
 10
0.1017936341075117
 20
2.442416703089427
 10
0.0634316146914368
 20
2.445552550273542
 10
0.0317600370486143
 20
2.447111364074668
 10
0.0000000000000001
 20
2.447643590217984
  0
LINE
  5
1B1
330
19A
100
AcDbEntity
  8
AM_9
100
AcDbLine
 10
0.1050470645306125
 20
2.442094025328204
 30
0.0
 11
0.1017936341075117
 21
2.442416703089427
 31
0.0
  0
LWPOLYLINE
  5
1B2
330
19A
100
AcDbEntity
  8
AM_9
100
AcDbPolyline
 90
        4
 70
     0
 43
0.0
 10
-0.2525907427704611
 20
2.259518821528157
 10
-0.2211588644235642
 20
2.280977894921058
 10
-0.205323075602153
 20
2.29313327652824
 10
-0.1894430570778459
 20
2.306353549839541
  0
LWPOLYLINE
  5
1B3
330
19A
100
AcDbEntity
  8
AM_9
100
AcDbPolyline
 90
        4
 70
     0
 43
0.0
 10
0.189443057077846
 20
2.306353549839541
 10
0.2052299785009998
 20
2.293207710797618
 10
0.2210168999241537
 20
2.28108252840031
 10
0.2525907427704613
 20
2.259518821528157
  0
LINE
  5
1B4
330
19A
100
AcDbEntity
  8
AM_9
100
AcDbLine
 10
0.1321931418159854
 20
1.975431984334445
 30
0.0
 11
0.1621706131788416
 21
1.996629257617947
 31
0.0
  0
LINE
  5
1B5
330
19A
100
AcDbEntity
  8
AM_9
100
AcDbLine
 10
-0.1621706131788415
 20
1.996629257617947
 30
0.0
 11
-0.1321931418159852
 21
1.975431984334445
 31
0.0
  0
ELLIPSE
  5
1B6
330
19A
100
AcDbEntity
  8
AM_9
100
AcDbEllipse
 10
0.0000000000000002
 20
2.251666049839541
 30
0.0
 11
0.2187500000000001
 21
3.259629011154178E-9
 31
0.0
210
0.0
220
0.0
230
1.0
 40
0.4999999999999997
 41
2.617993853777112
 42
4.71238898038469
  0
ELLIPSE
  5
1B7
330
19A
100
AcDbEntity
  8
AM_9
100
AcDbEllipse
 10
0.0000000000000006
 20
2.25166604983954
 30
0.0
 11
0.2187499999999994
 21
0.0
 31
0.0
210
0.0
220
0.0
230
1.0
 40
0.5000000000000013
 41
4.71238898038469
 42
6.806784082777889
  0
ELLIPSE
  5
1B8
330
19A
100
AcDbEntity
  8
AM_9
100
AcDbEllipse
 10
0.0000000000000001
 20
2.053965227761916
 30
0.0
 11
0.1986176267812153
 21
0.0
 31
0.0
210
0.0
220
0.0
230
1.0
 40
0.5000000000000037
 41
0.0
 42
3.159636730294248
  0
LINE
  5
1B9
330
19A
100
AcDbEntity
  8
AM_9
100
AcDbLine
 10
0.1985852938306409
 20
2.052173389153096
 30
0.0
 11
0.2057184028850728
 21
2.249809849061911
 31
0.0
  0
LINE
  5
1BA
330
19A
100
AcDbEntity
  8
AM_9
100
AcDbLine
 10
-0.2057184028850727
 20
2.249809849061911
 30
0.0
 11
-0.1985852938306407
 21
2.052173389153096
 31
0.0
  0
ELLIPSE
  5
1BB
330
19A
100
AcDbEntity
  8
AM_9
100
AcDbEllipse
 10
-0.000000000001035
 20
2.053965227760324
 30
0.0
 11
0.1986176267822505
 21
0.0
 31
0.0
210
0.0
220
0.0
230
1.0
 40
0.4999999999999802
 41
3.159636730278304
 42
6.283185307179586
  0
LINE
  5
1BC
330
19A
100
AcDbEntity
  8
AM_9
100
AcDbLine
 10
-0.10178102724221
 20
2.442101424003828
 30
0.0
 11
-0.1049999999999999
 21
2.4357990293643
 31
0.0
  0
LINE
  5
1BD
330
19A
100
AcDbEntity
  8
AM_9
100
AcDbLine
 10
0.1050000000000001
 20
2.4357990293643
 30
0.0
 11
0.1017810272422102
 21
2.442101424003828
 31
0.0
  0
ELLIPSE
  5
1BE
330
19A
100
AcDbEntity
  8
AM_9
100
AcDbEllipse
 10
0.0000000000000001
 20
2.42920125761535
 30
0.0
 11
0.1050000000000001
 21
0.0
 31
0.0
210
0.0
220
0.0
230
1.0
 40
0.5000000000000017
 41
0.2500328930988074
 42
3.141592653589793
  0
ELLIPSE
  5
1BF
330
19A
100
AcDbEntity
  8
AM_9
100
AcDbEllipse
 10
0.0000000000000019
 20
2.401274641744272
 30
0.0
 11
0.1188200907348957
 21
0.0
 31
0.0
210
0.0
220
0.0
230
1.0
 40
0.5000000000000514
 41
0.2500328930990214
 42
2.535447513394567
  0
ELLIPSE
  5
1C0
330
19A
100
AcDbEntity
  8
AM_9
100
AcDbEllipse
 10
-0.0000000000000035
 20
2.429201257615337
 30
0.0
 11
0.1050000000000036
 21
0.0
 31
0.0
210
0.0
220
0.0
230
1.0
 40
0.5000000000000103
 41
0.0
 42
0.2500328930990415
  0
LINE
  5
1C1
330
19A
100
AcDbEntity
  8
AM_9
100
AcDbLine
 10
0.1050000000000001
 20
2.44743948642781
 30
0.0
 11
0.1050000000000001
 21
2.455182019728884
 31
0.0
  0
LINE
  5
1C2
330
19A
100
AcDbEntity
  8
AM_9
100
AcDbLine
 10
-0.1049999999999999
 20
2.455182019728884
 30
0.0
 11
-0.1049999999999999
 21
2.44743948642781
 31
0.0
  0
ELLIPSE
  5
1C3
330
19A
100
AcDbEntity
  8
AM_9
100
AcDbEllipse
 10
0.0000000000000014
 20
2.455182019728904
 30
0.0
 11
0.1050000000000014
 21
0.0
 31
0.0
210
0.0
220
0.0
230
1.0
 40
0.5000000000000294
 41
3.141592653589793
 42
3.434435425318717
  0
LINE
  5
1C4
330
19A
100
AcDbEntity
  8
AM_9
100
AcDbLine
 10
-0.0976523208201057
 20
2.435120757476732
 30
0.0
 11
-0.1098343496897826
 21
2.426333904349883
 31
0.0
  0
LINE
  5
1C5
330
19A
100
AcDbEntity
  8
AM_9
100
AcDbLine
 10
0.1098343496897827
 20
2.426333904349883
 30
0.0
 11
0.0976523208201058
 21
2.435120757476732
 31
0.0
  0
ELLIPSE
  5
1C6
330
19A
100
AcDbEntity
  8
AM_9
100
AcDbEllipse
 10
-0.000000000000002
 20
2.401274641744272
 30
0.0
 11
0.1188200907348955
 21
0.0
 31
0.0
210
0.0
220
0.0
230
1.0
 40
0.5000000000000524
 41
2.535447513394539
 42
2.891559760490764
  0
ELLIPSE
  5
1C7
330
19A
100
AcDbEntity
  8
AM_9
100
AcDbEllipse
 10
0.0000000000000001
 20
2.354132615505956
 30
0.0
 11
0.1725340532830151
 21
2.570957739398109E-9
 31
0.0
210
0.0
220
0.0
230
1.0
 40
0.4999999999999998
 41
0.6061451176472872
 42
2.535447490846922
  0
ELLIPSE
  5
1C8
330
19A
100
AcDbEntity
  8
AM_9
100
AcDbEllipse
 10
-0.0000000000000005
 20
2.338268590217988
 30
0.0
 11
0.2187500000000019
 21
0.0
 31
0.0
210
0.0
220
0.0
230
1.0
 40
0.4999999999999793
 41
1.065244638251233
 42
1.570796326794897
  0
ELLIPSE
  5
1C9
330
19A
100
AcDbEntity
  8
AM_9
100
AcDbEllipse
 10
0.0000000000000006
 20
2.338268590217988
 30
0.0
 11
0.2187500000000016
 21
3.259629011154199E-9
 31
0.0
210
0.0
220
0.0
230
1.0
 40
0.4999999999999801
 41
1.570796326794897
 42
2.076348002645669
  0
ELLIPSE
  5
1CA
330
19A
100
AcDbEntity
  8
AM_9
100
AcDbEllipse
 10
-0.0000000000030864
 20
2.338268590213869
 30
0.0
 11
0.2137499999938015
 21
0.0
 31
0.0
210
0.0
220
0.0
230
1.0
 40
0.5000000000275678
 41
-4.198889882961357
 42
-4.184564777765143
  0
ELLIPSE
  5
1CB
330
19A
100
AcDbEntity
  8
AM_9
100
AcDbEllipse
 10
-0.0000000000012868
 20
2.338268590218321
 30
0.0
 11
0.2137499999973194
 21
0.0
 31
0.0
210
0.0
220
0.0
230
1.0
 40
0.5000000000034742
 41
1.075763652996295
 42
2.084295424225412
  0
ELLIPSE
  5
1CC
330
19A
100
AcDbEntity
  8
AM_9
100
AcDbEllipse
 10
0.000000000001287
 20
2.338268590218322
 30
0.0
 11
0.213749999997318
 21
0.0
 31
0.0
210
0.0
220
0.0
230
1.0
 40
0.5000000000034713
 41
1.042972124168058
 42
1.075763653006885
  0
ELLIPSE
  5
1CD
330
19A
100
AcDbEntity
  8
AM_9
100
AcDbEllipse
 10
0.0000000000000001
 20
2.455182019728883
 30
0.0
 11
0.1050000000000003
 21
1.564621925354008E-9
 31
0.0
210
0.0
220
0.0
230
1.0
 40
0.4999999999999964
 41
5.990342507511337
 42
9.42477793495981
  0
ELLIPSE
  5
1CE
330
19A
100
AcDbEntity
  8
AM_9
100
AcDbEllipse
 10
0.0000000000000001
 20
2.50714354395595
 30
0.0
 11
0.1350000000000002
 21
0.0
 31
0.0
210
0.0
220
0.0
230
1.0
 40
0.5000000000000118
 41
0.2354336045415604
 42
2.906159049048232
  0
ELLIPSE
  5
1CF
330
19A
100
AcDbEntity
  8
AM_9
100
AcDbEllipse
 10
0.0000000000000001
 20
2.022169317836665
 30
0.0
 11
0.1619028724722693
 21
0.0
 31
0.0
210
0.0
220
0.0
230
1.0
 40
0.500000000000005
 41
0.0
 42
6.283185307179586
  0
ELLIPSE
  5
1D0
330
19A
100
AcDbEntity
  8
AM_9
100
AcDbEllipse
 10
-0.0000000000010053
 20
2.251666049839196
 30
0.0
 11
0.2057518972240749
 21
0.0
 31
0.0
210
0.0
220
0.0
230
1.0
 40
0.5000000000000258
 41
0.0
 42
6.283185307179586
  0
LWPOLYLINE
  5
1D1
330
19A
100
AcDbEntity
  8
AM_4
100
AcDbPolyline
 90
        4
 70
     0
 43
0.0
 10
-0.1262953713852306
 20
2.439790818529368
 10
-0.1577272497321275
 20
2.418331745136467
 10
-0.1735630385535387
 20
2.406176363529285
 10
-0.1894430570778459
 20
2.392956090217984
  0
LINE
  5
1D2
330
19A
100
AcDbEntity
  8
AM_4
100
AcDbLine
 10
-0.1050087569988761
 20
2.442097872832714
 30
0.0
 11
-0.1262953713852306
 21
2.439790818529368
 31
0.0
  0
LWPOLYLINE
  5
1D3
330
19A
100
AcDbEntity
  8
AM_4
100
AcDbPolyline
 90
        4
 70
     0
 43
0.0
 10
0.189443057077846
 20
2.392956090217984
 10
0.1736561356546922
 20
2.406101929259907
 10
0.1578692142315384
 20
2.418227111657215
 10
0.1262953713852307
 20
2.439790818529368
  0
LINE
  5
1D4
330
19A
100
AcDbEntity
  8
AM_4
100
AcDbLine
 10
0.1262953713852307
 20
2.439790818529368
 30
0.0
 11
0.1050470645306125
 21
2.442094025328204
 31
0.0
  0
LWPOLYLINE
  5
1D5
330
19A
100
AcDbEntity
  8
AM_4
100
AcDbPolyline
 90
        4
 70
     0
 43
0.0
 10
0.2525907427704613
 20
2.330415818529368
 10
0.2211588644235644
 20
2.363398355410617
 10
0.2053230756021532
 20
2.37867136462005
 10
0.189443057077846
 20
2.392956090217984
  0
LWPOLYLINE
  5
1D6
330
19A
100
AcDbEntity
  8
AM_4
100
AcDbPolyline
 90
        4
 70
     0
 43
0.0
 10
-0.1894430570778459
 20
2.392956090217984
 10
-0.2052299785009997
 20
2.378758179259907
 10
-0.2210168999241535
 20
2.363539611657215
 10
-0.2525907427704611
 20
2.330415818529368
  0
LINE
  5
1D7
330
19A
100
AcDbEntity
  8
AM_4
100
AcDbLine
 10
-0.1049999999999999
 20
2.4357990293643
 30
0.0
 11
-0.1151252948555657
 21
2.415974815609486
 31
0.0
  0
LINE
  5
1D8
330
19A
100
AcDbEntity
  8
AM_4
100
AcDbLine
 10
0.1151252948555659
 20
2.415974815609486
 30
0.0
 11
0.1050000000000001
 21
2.4357990293643
 31
0.0
  0
ELLIPSE
  5
1D9
330
19A
100
AcDbEntity
  8
AM_4
100
AcDbEllipse
 10
0.0000000000000001
 20
2.401274641744287
 30
0.0
 11
0.1188200907348975
 21
0.0
 31
0.0
210
0.0
220
0.0
230
1.0
 40
0.4999999999999952
 41
2.891559760490987
 42
6.283185307179586
  0
LINE
  5
1DA
330
19A
100
AcDbEntity
  8
AM_4
100
AcDbLine
 10
0.1050000000000001
 20
2.429201257615351
 30
0.0
 11
0.1050000000000001
 21
2.44743948642781
 31
0.0
  0
LINE
  5
1DB
330
19A
100
AcDbEntity
  8
AM_4
100
AcDbLine
 10
-0.1049999999999999
 20
2.44743948642781
 30
0.0
 11
-0.1049999999999999
 21
2.429201257615351
 31
0.0
  0
ELLIPSE
  5
1DC
330
19A
100
AcDbEntity
  8
AM_4
100
AcDbEllipse
 10
0.0000000000000001
 20
2.429201257615351
 30
0.0
 11
0.1049999999999999
 21
1.564621925354003E-9
 31
0.0
210
0.0
220
0.0
230
1.0
 40
0.5000000000000024
 41
3.141592627780224
 42
6.28318702669927
  0
ELLIPSE
  5
1DD
330
19A
100
AcDbEntity
  8
AM_4
100
AcDbEllipse
 10
-0.0000000000000019
 20
2.401274641744279
 30
0.0
 11
0.1188200907348995
 21
0.0
 31
0.0
210
0.0
220
0.0
230
1.0
 40
0.5000000000000057
 41
0.0
 42
0.2500328930989204
  0
LINE
  5
1DE
330
19A
100
AcDbEntity
  8
AM_4
100
AcDbLine
 10
-0.1098343496897826
 20
2.426333904349883
 30
0.0
 11
-0.1417971541629017
 21
2.403279249708026
 31
0.0
  0
LINE
  5
1DF
330
19A
100
AcDbEntity
  8
AM_4
100
AcDbLine
 10
0.1417971541629019
 20
2.403279249708026
 30
0.0
 11
0.1098343496897827
 21
2.426333904349883
 31
0.0
  0
ELLIPSE
  5
1E0
330
19A
100
AcDbEntity
  8
AM_4
100
AcDbEllipse
 10
0.0
 20
2.354132615505955
 30
0.0
 11
0.1725340532830152
 21
2.570957739398110E-9
 31
0.0
210
0.0
220
0.0
230
1.0
 40
0.4999999999999995
 41
2.535447490846909
 42
6.889330424826881
  0
LINE
  5
1E1
330
19A
100
AcDbEntity
  8
AM_4
100
AcDbLine
 10
0.2525907427704613
 20
2.330415818529368
 30
0.0
 11
0.2525907427704613
 21
2.259518821528157
 31
0.0
  0
LWPOLYLINE
  5
1E2
330
19A
100
AcDbEntity
  8
AM_4
100
AcDbPolyline
 90
        4
 70
     0
 43
0.0
 10
0.189443057077846
 20
2.283581090217984
 10
0.2052299785009998
 20
2.296726929259907
 10
0.2210168999241536
 20
2.308852111657215
 10
0.2525907427704613
 20
2.330415818529368
  0
LWPOLYLINE
  5
1E3
330
19A
100
AcDbEntity
  8
AM_4
100
AcDbPolyline
 90
        4
 70
     0
 43
0.0
 10
0.1262953713852308
 20
2.221040818529368
 10
0.1577272497321276
 20
2.254023355410617
 10
0.1735630385535389
 20
2.26929636462005
 10
0.189443057077846
 20
2.283581090217984
  0
LWPOLYLINE
  5
1E4
330
19A
100
AcDbEntity
  8
AM_4
100
AcDbPolyline
 90
        4
 70
     0
 43
0.0
 10
0.189443057077846
 20
2.196978549839541
 10
0.1736561356546922
 20
2.183832710797618
 10
0.1578692142315384
 20
2.17170752840031
 10
0.1262953713852308
 20
2.150143821528157
  0
LWPOLYLINE
  5
1E5
330
19A
100
AcDbEntity
  8
AM_4
100
AcDbPolyline
 90
        4
 70
     0
 43
0.0
 10
0.2525907427704613
 20
2.259518821528157
 10
0.2211588644235643
 20
2.226536284646908
 10
0.2053230756021531
 20
2.211263275437475
 10
0.189443057077846
 20
2.196978549839541
  0
ELLIPSE
  5
1E6
330
19A
100
AcDbEntity
  8
AM_4
100
AcDbEllipse
 10
-0.0000000000000003
 20
2.338268590217985
 30
0.0
 11
0.2187499999999996
 21
0.0
 31
0.0
210
0.0
220
0.0
230
1.0
 40
0.5000000000000031
 41
3.665191429188093
 42
4.71238898038469
  0
ELLIPSE
  5
1E7
330
19A
100
AcDbEntity
  8
AM_4
100
AcDbEllipse
 10
0.0000000000000002
 20
2.338268590217985
 30
0.0
 11
0.2187499999999998
 21
0.0
 31
0.0
210
0.0
220
0.0
230
1.0
 40
0.5000000000000027
 41
4.71238898038469
 42
7.348429945430816
  0
ELLIPSE
  5
1E8
330
19A
100
AcDbEntity
  8
AM_4
100
AcDbEllipse
 10
-0.0000000000000022
 20
2.338268590217985
 30
0.0
 11
0.2187499999999968
 21
0.0
 31
0.0
210
0.0
220
0.0
230
1.0
 40
0.5000000000000032
 41
2.076348015338556
 42
3.665191429188102
  0
LINE
  5
1E9
330
19A
100
AcDbEntity
  8
AM_4
100
AcDbLine
 10
0.1262953713852308
 20
2.221040818529368
 30
0.0
 11
0.1262953713852308
 21
2.150143821528157
 31
0.0
  0
LWPOLYLINE
  5
1EA
330
19A
100
AcDbEntity
  8
AM_4
100
AcDbPolyline
 90
        4
 70
     0
 43
0.0
 10
0.0000000000000001
 20
2.228893590217984
 10
0.0315738428463078
 20
2.228367554259907
 10
0.0631476856926154
 20
2.226820861657215
 10
0.1262953713852308
 20
2.221040818529368
  0
LWPOLYLINE
  5
1EB
330
19A
100
AcDbEntity
  8
AM_4
100
AcDbPolyline
 90
        4
 70
     0
 43
0.0
 10
-0.1262953713852306
 20
2.221040818529368
 10
-0.0967996321117977
 20
2.224145681703506
 10
-0.0485424412477543
 20
2.227658786738051
 10
0.0000000000000001
 20
2.228893590217984
  0
LWPOLYLINE
  5
1EC
330
19A
100
AcDbEntity
  8
AM_4
100
AcDbPolyline
 90
        4
 70
     0
 43
0.0
 10
0.0000000000000001
 20
2.142291049839541
 10
-0.0483998160558988
 20
2.143518693431989
 10
-0.0967996321117977
 20
2.147038958354019
 10
-0.1262953713852306
 20
2.150143821528157
  0
LWPOLYLINE
  5
1ED
330
19A
100
AcDbEntity
  8
AM_4
100
AcDbPolyline
 90
        4
 70
     0
 43
0.0
 10
0.1262953713852308
 20
2.150143821528157
 10
0.0634316146914368
 20
2.144382089783983
 10
0.0317600370486144
 20
2.142823275982857
 10
0.0000000000000001
 20
2.142291049839541
  0
LINE
  5
1EE
330
19A
100
AcDbEntity
  8
AM_4
100
AcDbLine
 10
-0.1262953713852306
 20
2.221040818529368
 30
0.0
 11
-0.1262953713852306
 21
2.150143821528157
 31
0.0
  0
LWPOLYLINE
  5
1EF
330
19A
100
AcDbEntity
  8
AM_4
100
AcDbPolyline
 90
        4
 70
     0
 43
0.0
 10
-0.1894430570778459
 20
2.283581090217984
 10
-0.1736561356546921
 20
2.269383179259907
 10
-0.1578692142315383
 20
2.254164611657215
 10
-0.1262953713852306
 20
2.221040818529368
  0
LWPOLYLINE
  5
1F0
330
19A
100
AcDbEntity
  8
AM_4
100
AcDbPolyline
 90
        4
 70
     0
 43
0.0
 10
-0.2525907427704611
 20
2.330415818529368
 10
-0.2211588644235642
 20
2.308956745136467
 10
-0.205323075602153
 20
2.296801363529285
 10
-0.1894430570778459
 20
2.283581090217984
  0
LINE
  5
1F1
330
19A
100
AcDbEntity
  8
AM_4
100
AcDbLine
 10
-0.2525907427704611
 20
2.330415818529368
 30
0.0
 11
-0.2525907427704611
 21
2.259518821528157
 31
0.0
  0
LWPOLYLINE
  5
1F2
330
19A
100
AcDbEntity
  8
AM_4
100
AcDbPolyline
 90
        4
 70
     0
 43
0.0
 10
-0.1894430570778459
 20
2.196978549839541
 10
-0.2052299785009997
 20
2.211176460797618
 10
-0.2210168999241535
 20
2.22639502840031
 10
-0.2525907427704611
 20
2.259518821528157
  0
LWPOLYLINE
  5
1F3
330
19A
100
AcDbEntity
  8
AM_4
100
AcDbPolyline
 90
        4
 70
     0
 43
0.0
 10
-0.1262953713852306
 20
2.150143821528157
 10
-0.1577272497321275
 20
2.171602894921057
 10
-0.1735630385535387
 20
2.18375827652824
 10
-0.1894430570778459
 20
2.196978549839541
  0
ELLIPSE
  5
1F4
330
19A
100
AcDbEntity
  8
AM_4
100
AcDbEllipse
 10
0.0000000000000001
 20
2.338268590217984
 30
0.0
 11
0.21375
 21
3.185123205184937E-9
 31
0.0
210
0.0
220
0.0
230
1.0
 40
0.5000000000000003
 41
2.098620516301819
 42
7.326157418226548
  0
LINE
  5
1F5
330
19A
100
AcDbEntity
  8
AM_4
100
AcDbLine
 10
0.1005298463144156
 20
2.440026575162656
 30
0.0
 11
0.1292526595471058
 21
2.4876579723708
 31
0.0
  0
LINE
  5
1F6
330
19A
100
AcDbEntity
  8
AM_4
100
AcDbLine
 10
-0.1292526595471055
 20
2.4876579723708
 30
0.0
 11
-0.1005298463144154
 21
2.440026575162656
 31
0.0
  0
ELLIPSE
  5
1F7
330
19A
100
AcDbEntity
  8
AM_4
100
AcDbEllipse
 10
0.0000000000000001
 20
2.455182019728883
 30
0.0
 11
0.1049999999999999
 21
0.0
 31
0.0
210
0.0
220
0.0
230
1.0
 40
0.5000000000000027
 41
3.434435425318362
 42
5.990342535451018
  0
ELLIPSE
  5
1F8
330
19A
100
AcDbEntity
  8
AM_4
100
AcDbEllipse
 10
0.0000000000000039
 20
2.507143543955903
 30
0.0
 11
0.1349999999999962
 21
0.0
 31
0.0
210
0.0
220
0.0
230
1.0
 40
0.5000000000000526
 41
3.434435425317668
 42
6.518618911721807
  0
LINE
  5
1F9
330
19A
100
AcDbEntity
  8
AM_4
100
AcDbLine
 10
-0.0998453562378796
 20
2.588401138699903
 30
0.0
 11
-0.1312757938985218
 21
2.522888907847528
 31
0.0
  0
LINE
  5
1FA
330
19A
100
AcDbEntity
  8
AM_4
100
AcDbLine
 10
0.131275793898522
 20
2.522888907847528
 30
0.0
 11
0.0998453562378798
 21
2.588401138699903
 31
0.0
  0
ELLIPSE
  5
1FB
330
19A
100
AcDbEntity
  8
AM_4
100
AcDbEllipse
 10
0.0000000000000009
 20
2.507143543955952
 30
0.0
 11
0.1350000000000008
 21
0.0
 31
0.0
210
0.0
220
0.0
230
1.0
 40
0.5000000000000029
 41
2.906159049048255
 42
3.43443542531839
  0
ELLIPSE
  5
1FC
330
19A
100
AcDbEntity
  8
AM_4
100
AcDbEllipse
 10
-0.0000000000000071
 20
2.576425576258744
 30
0.0
 11
0.1026779019331947
 21
0.0
 31
0.0
210
0.0
220
0.0
230
1.0
 40
0.499999999999961
 41
0.0
 42
6.283185307179586
  0
ENDBLK
  5
19D
330
19A
100
AcDbEntity
  8
0
100
AcDbBlockEnd
  0
BLOCK
  5
1FF
330
1FD
100
AcDbEntity
  8
0
100
AcDbBlockBegin
  2
7_069497H_0_in_069497_2
 70
     2
 10
0.0
 20
0.0
 30
0.0
  3
7_069497H_0_in_069497_2
  1

  0
ATTDEF
  5
201
330
1FD
100
AcDbEntity
  8
AM_6
100
AcDbText
 10
6.44375
 20
2.5
 30
0.0
 40
0.5
  1
P2B-IP -(Labyrinth Seal)-Housing -Inch
100
AcDbAttributeDefinition
  3

  2
NN
 70
     8
280
     0
  0
ATTDEF
  5
202
330
1FD
100
AcDbEntity
  8
AM_6
100
AcDbText
 10
6.44375
 20
2.0
 30
0.0
 40
0.5
  1
Imperial 2 Bolt Piliow Block Bearings
100
AcDbAttributeDefinition
  3

  2
NT
 70
     8
280
     0
  0
ATTDEF
  5
203
330
1FD
100
AcDbEntity
  8
AM_6
100
AcDbText
 10
6.44375
 20
1.5
 30
0.0
 40
0.5
  1
069497H
100
AcDbAttributeDefinition
  3

  2
NB
 70
     8
280
     0
  0
ATTDEF
  5
204
330
1FD
100
AcDbEntity
  8
AM_6
100
AcDbText
 10
6.44375
 20
1.0
 30
0.0
 40
0.5
  1
$PN.H
100
AcDbAttributeDefinition
  3

  2
NBSYN
 70
     8
280
     0
  0
ATTDEF
  5
205
330
1FD
100
AcDbEntity
  8
AM_6
100
AcDbText
 10
6.44375
 20
0.5
 30
0.0
 40
0.5
  1
069497
100
AcDbAttributeDefinition
  3

  2
LINA
 70
     8
280
     0
  0
ATTDEF
  5
206
330
1FD
100
AcDbEntity
  8
AM_6
100
AcDbText
 10
6.44375
 20
0.0
 30
0.0
 40
0.5
  1
2-1/4
100
AcDbAttributeDefinition
  3

  2
SS
 70
     8
280
     0
  0
ATTDEF
  5
207
330
1FD
100
AcDbEntity
  8
AM_6
100
AcDbText
 10
6.44375
 20
-0.5
 30
0.0
 40
0.5
  1
069497
100
AcDbAttributeDefinition
  3

  2
PN
 70
     8
280
     0
  0
ATTDEF
  5
208
330
1FD
100
AcDbEntity
  8
AM_6
100
AcDbText
 10
6.44375
 20
-1.0
 30
0.0
 40
0.5
  1
P2B-IP-204LE
100
AcDbAttributeDefinition
  3

  2
DESCRIPTION
 70
     8
280
     0
  0
ATTDEF
  5
209
330
1FD
100
AcDbEntity
  8
AM_6
100
AcDbText
 10
6.44375
 20
-1.5
 30
0.0
 40
0.5
  1
Expansion Type
100
AcDbAttributeDefinition
  3

  2
EF
 70
     8
280
     0
  0
ATTDEF
  5
20A
330
1FD
100
AcDbEntity
  8
AM_6
100
AcDbText
 10
6.44375
 20
-2.0
 30
0.0
 40
0.5
  1
Labyrinth Seal
100
AcDbAttributeDefinition
  3

  2
ST
 70
     8
280
     0
  0
ATTDEF
  5
20B
330
1FD
100
AcDbEntity
  8
AM_6
100
AcDbText
 10
6.44375
 20
-2.5
 30
0.0
 40
0.5
  1
3-1/32
100
AcDbAttributeDefinition
  3

  2
A
 70
     8
280
     0
  0
ATTDEF
  5
20C
330
1FD
100
AcDbEntity
  8
AM_6
100
AcDbText
 10
6.44375
 20
-3.0
 30
0.0
 40
0.5
  1
8-7/8
100
AcDbAttributeDefinition
  3

  2
B
 70
     8
280
     0
  0
ATTDEF
  5
20D
330
1FD
100
AcDbEntity
  8
AM_6
100
AcDbText
 10
6.44375
 20
-3.5
 30
0.0
 40
0.5
  1
2-5/8
100
AcDbAttributeDefinition
  3

  2
C
 70
     8
280
     0
  0
ATTDEF
  5
20E
330
1FD
100
AcDbEntity
  8
AM_6
100
AcDbText
 10
6.44375
 20
-4.0
 30
0.0
 40
0.5
  1
6-9/16
100
AcDbAttributeDefinition
  3

  2
DMIN
 70
     8
280
     0
  0
ATTDEF
  5
20F
330
1FD
100
AcDbEntity
  8
AM_6
100
AcDbText
 10
6.44375
 20
-4.5
 30
0.0
 40
0.5
  1
6-15/16
100
AcDbAttributeDefinition
  3

  2
DMAX
 70
     8
280
     0
  0
ATTDEF
  5
210
330
1FD
100
AcDbEntity
  8
AM_6
100
AcDbText
 10
6.44375
 20
-5.0
 30
0.0
 40
0.5
  1
5/8
100
AcDbAttributeDefinition
  3

  2
F
 70
     8
280
     0
  0
ATTDEF
  5
211
330
1FD
100
AcDbEntity
  8
AM_6
100
AcDbText
 10
6.44375
 20
-5.5
 30
0.0
 40
0.5
  1
61/64
100
AcDbAttributeDefinition
  3

  2
G
 70
     8
280
     0
  0
ATTDEF
  5
212
330
1FD
100
AcDbEntity
  8
AM_6
100
AcDbText
 10
6.44375
 20
-6.0
 30
0.0
 40
0.5
  1
1-1/2
100
AcDbAttributeDefinition
  3

  2
H
 70
     8
280
     0
  0
ATTDEF
  5
213
330
1FD
100
AcDbEntity
  8
AM_6
100
AcDbText
 10
6.44375
 20
-6.5
 30
0.0
 40
0.5
  1
5
100
AcDbAttributeDefinition
  3

  2
J
 70
     8
280
     0
  0
ATTDEF
  5
214
330
1FD
100
AcDbEntity
  8
AM_6
100
AcDbText
 10
6.44375
 20
-7.0
 30
0.0
 40
0.5
  1
3-1/2
100
AcDbAttributeDefinition
  3

  2
L
 70
     8
280
     0
  0
ATTDEF
  5
215
330
1FD
100
AcDbEntity
  8
AM_6
100
AcDbText
 10
6.44375
 20
-7.5
 30
0.0
 40
0.5
  1
2-1/2
100
AcDbAttributeDefinition
  3

  2
M
 70
     8
280
     0
  0
ATTDEF
  5
216
330
1FD
100
AcDbEntity
  8
AM_6
100
AcDbText
 10
6.44375
 20
-8.0
 30
0.0
 40
0.5
  1
29/32
100
AcDbAttributeDefinition
  3

  2
R
 70
     8
280
     0
  0
ATTDEF
  5
217
330
1FD
100
AcDbEntity
  8
AM_6
100
AcDbText
 10
6.44375
 20
-8.5
 30
0.0
 40
0.5
  1
2-1/8
100
AcDbAttributeDefinition
  3

  2
S
 70
     8
280
     0
  0
ATTDEF
  5
218
330
1FD
100
AcDbEntity
  8
AM_6
100
AcDbText
 10
6.44375
 20
-9.0
 30
0.0
 40
0.5
  1
1/4
100
AcDbAttributeDefinition
  3

  2
X
 70
     8
280
     0
  0
ATTDEF
  5
219
330
1FD
100
AcDbEntity
  8
AM_6
100
AcDbText
 10
6.44375
 20
-9.5
 30
0.0
 40
0.5
  1
0.025
100
AcDbAttributeDefinition
  3

  2
Y
 70
     8
280
     0
  0
ATTDEF
  5
21A
330
1FD
100
AcDbEntity
  8
AM_6
100
AcDbText
 10
6.44375
 20
-10.0
 30
0.0
 40
0.5
  1
2-19/32
100
AcDbAttributeDefinition
  3

  2
Z
 70
     8
280
     0
  0
ATTDEF
  5
21B
330
1FD
100
AcDbEntity
  8
AM_6
100
AcDbText
 10
6.44375
 20
-10.5
 30
0.0
 40
0.5
  1
baldor
100
AcDbAttributeDefinition
  3

  2
COMPANY
 70
     8
280
     0
  0
LINE
  5
21C
330
1FD
100
AcDbEntity
  8
AM_9
100
AcDbLine
 10
-0.2568951201893854
 20
2.425
 30
0.0
 11
0.2568983982372197
 21
2.425
 31
0.0
  0
LINE
  5
21D
330
1FD
100
AcDbEntity
  8
AM_9
100
AcDbLine
 10
-0.1342418679808861
 20
2.5
 30
0.0
 11
0.1342418679808863
 21
2.5
 31
0.0
  0
ELLIPSE
  5
21E
330
1FD
100
AcDbEntity
  8
AM_9
100
AcDbEllipse
 10
-0.0000000000000001
 20
2.165063509461097
 30
0.0
 11
0.4999999999999998
 21
0.0
 31
0.0
210
0.0
220
0.0
230
1.0
 40
0.4999999999999727
 41
0.0083894524899115
 42
3.137501666744177
  0
ELLIPSE
  5
21F
330
1FD
100
AcDbEntity
  8
AM_9
100
AcDbEllipse
 10
0.0000000000014331
 20
2.16506350944973
 30
0.0
 11
0.4999999999985668
 21
0.0
 31
0.0
210
0.0
220
0.0
230
1.0
 40
0.4999999999999561
 41
0.0
 42
0.008389452535396
  0
ELLIPSE
  5
220
330
1FD
100
AcDbEntity
  8
AM_9
100
AcDbEllipse
 10
-0.0000000000000012
 20
2.251666049839529
 30
0.0
 11
0.4000000000000059
 21
0.0
 31
0.0
210
0.0
220
0.0
230
1.0
 40
0.5000000000000231
 41
1.309208643565817
 42
1.832384010023971
  0
LWPOLYLINE
  5
221
330
1FD
100
AcDbEntity
  8
AM_9
100
AcDbPolyline
 90
        5
 70
     0
 43
0.0
 10
0.0000000000000001
 20
2.465063509461096
 10
-0.0179469202695302
 20
2.464884504221075
 10
-0.0514566865707687
 20
2.463588082057956
 10
-0.0847583477472163
 20
2.46103946125036
 10
-0.1113864343625715
 20
2.458071365880762
  0
LWPOLYLINE
  5
222
330
1FD
100
AcDbEntity
  8
AM_9
100
AcDbPolyline
 90
        5
 70
     0
 43
0.0
 10
0.1113858062131417
 20
2.458071445894748
 10
0.0849301408866085
 20
2.461022996032078
 10
0.0515944402421664
 20
2.463580147781567
 10
0.0180664891567677
 20
2.464882110195117
 10
0.0000000000000001
 20
2.465063509461096
  0
LINE
  5
223
330
1FD
100
AcDbEntity
  8
AM_9
100
AcDbLine
 10
-1.18125
 20
-1.9685
 30
0.0
 11
1.18125
 21
-1.9685
 31
0.0
  0
LINE
  5
224
330
1FD
100
AcDbEntity
  8
AM_9
100
AcDbLine
 10
1.18125
 20
1.9685
 30
0.0
 11
-1.18125
 21
1.9685
 31
0.0
  0
LINE
  5
225
330
1FD
100
AcDbEntity
  8
AM_9
100
AcDbLine
 10
-0.2907884291528886
 20
2.412352649501221
 30
0.0
 11
0.2907804377750448
 21
2.412352649501221
 31
0.0
  0
LINE
  5
226
330
1FD
100
AcDbEntity
  8
AM_9
100
AcDbLine
 10
-0.4999923714592683
 20
2.166443173553993
 30
0.0
 11
-0.4999999999999998
 21
2.165063509461097
 31
0.0
  0
LWPOLYLINE
  5
227
330
1FD
100
AcDbEntity
  8
AM_9
100
AcDbPolyline
 90
       13
 70
     0
 43
0.0
 10
-0.1107846467449266
 20
2.367275014968583
 10
-0.1636170599390485
 20
2.362283308341956
 10
-0.2148074007134653
 20
2.355202673013206
 10
-0.2634779437595994
 20
2.346016553068313
 10
-0.3087578670261367
 20
2.334745935599773
 10
-0.3507042828296724
 20
2.321118477669586
 10
-0.3884006954873797
 20
2.305231286381974
 10
-0.4211602900434083
 20
2.287192118481827
 10
-0.4488229507557699
 20
2.266765572291701
 10
-0.4708791663677674
 20
2.244168417388178
 10
-0.4868882158055167
 20
2.219697862173167
 10
-0.49669812640604
 20
2.193124655488346
 10
-0.4999923714592683
 20
2.166443173553993
  0
LWPOLYLINE
  5
228
330
1FD
100
AcDbEntity
  8
AM_9
100
AcDbPolyline
 90
        6
 70
     0
 43
0.0
 10
0.1080802800165378
 20
2.367473786876561
 10
0.0631678931784017
 20
2.37001961279142
 10
0.0
 20
2.371320343559643
 10
-0.0554160083146454
 20
2.370316040943282
 10
-0.1103010373551006
 20
2.367303508278545
 10
-0.1107846467449266
 20
2.367275014968583
  0
LWPOLYLINE
  5
229
330
1FD
100
AcDbEntity
  8
AM_9
100
AcDbPolyline
 90
       14
 70
     0
 43
0.0
 10
0.4999665956316804
 20
2.167947501187624
 10
0.4972744522996642
 20
2.190507500823639
 10
0.4891931861910201
 20
2.214828297739605
 10
0.475899267162614
 20
2.237666880321837
 10
0.4561131693429735
 20
2.260158396526098
 10
0.4307698854210358
 20
2.28075831534994
 10
0.4003402780574398
 20
2.299238918725553
 10
0.3644267431314258
 20
2.315812761492322
 10
0.3238720394525873
 20
2.330226578367748
 10
0.2794079257253322
 20
2.342399426969891
 10
0.2308587942749696
 20
2.352464906718864
 10
0.1791606275075911
 20
2.360375349634892
 10
0.1252907384558903
 20
2.366117409025264
 10
0.1080802800165378
 20
2.367473786876561
  0
LINE
  5
22A
330
1FD
100
AcDbEntity
  8
AM_9
100
AcDbLine
 10
0.4999999999999999
 20
2.165063509461097
 30
0.0
 11
0.4999665956316804
 21
2.167947501187624
 31
0.0
  0
LINE
  5
22B
330
1FD
100
AcDbEntity
  8
AM_9
100
AcDbLine
 10
-1.18125
 20
-0.9214961038461524
 30
0.0
 11
-1.18125
 21
-2.5
 31
0.0
  0
LINE
  5
22C
330
1FD
100
AcDbEntity
  8
AM_9
100
AcDbLine
 10
1.18125
 20
-0.9214961038461553
 30
0.0
 11
1.18125
 21
-2.5
 31
0.0
  0
LINE
  5
22D
330
1FD
100
AcDbEntity
  8
AM_9
100
AcDbLine
 10
-0.3124999999999998
 20
-1.0
 30
0.0
 11
-0.3124999999999998
 21
-2.5
 31
0.0
  0
LINE
  5
22E
330
1FD
100
AcDbEntity
  8
AM_9
100
AcDbLine
 10
0.3125000000000002
 20
-1.0
 30
0.0
 11
0.3125000000000002
 21
-2.5
 31
0.0
  0
LINE
  5
22F
330
1FD
100
AcDbEntity
  8
AM_7
100
AcDbLine
 10
1.44375
 20
0.0
 30
0.0
 11
-2.0278125
 21
0.0
 31
0.0
  0
LINE
  5
230
330
1FD
100
AcDbEntity
  8
AM_4
100
AcDbLine
 10
0.2568983982372197
 20
2.425
 30
0.0
 11
1.18125
 21
2.424999999999999
 31
0.0
  0
LINE
  5
231
330
1FD
100
AcDbEntity
  8
AM_4
100
AcDbLine
 10
-1.18125
 20
2.425
 30
0.0
 11
-0.2568951201893854
 21
2.425
 31
0.0
  0
LINE
  5
232
330
1FD
100
AcDbEntity
  8
AM_4
100
AcDbLine
 10
0.1342418679808863
 20
2.5
 30
0.0
 11
1.18125
 21
2.5
 31
0.0
  0
LINE
  5
233
330
1FD
100
AcDbEntity
  8
AM_4
100
AcDbLine
 10
-1.18125
 20
2.5
 30
0.0
 11
-0.1342418679808861
 21
2.5
 31
0.0
  0
ELLIPSE
  5
234
330
1FD
100
AcDbEntity
  8
AM_4
100
AcDbEllipse
 10
0.0000000000000002
 20
2.165063509461097
 30
0.0
 11
0.4999999999999999
 21
0.0
 31
0.0
210
0.0
220
0.0
230
1.0
 40
0.500000000000001
 41
3.141592653589793
 42
6.283185307179586
  0
ELLIPSE
  5
235
330
1FD
100
AcDbEntity
  8
AM_4
100
AcDbEllipse
 10
-0.0000000000004294
 20
2.251666049839786
 30
0.0
 11
0.4000000000015652
 21
0.0
 31
0.0
210
0.0
220
0.0
230
1.0
 40
0.4999999999976032
 41
1.243191797614982
 42
1.30518417722455
  0
ELLIPSE
  5
236
330
1FD
100
AcDbEntity
  8
AM_4
100
AcDbEllipse
 10
0.0000000000000013
 20
2.251666049839541
 30
0.0
 11
0.4000000000000004
 21
5.960464477539070E-9
 31
0.0
210
0.0
220
0.0
230
1.0
 40
0.4999999999999999
 41
1.895413774983571
 42
7.526377095029648
  0
ELLIPSE
  5
237
330
1FD
100
AcDbEntity
  8
AM_4
100
AcDbEllipse
 10
0.0000000000001021
 20
2.251666049839796
 30
0.0
 11
0.4000000000003492
 21
0.0
 31
0.0
210
0.0
220
0.0
230
1.0
 40
0.4999999999989955
 41
-4.446776830814415
 42
-4.391679578660819
  0
LWPOLYLINE
  5
238
330
1FD
100
AcDbEntity
  8
AM_4
100
AcDbPolyline
 90
       21
 70
     0
 43
0.0
 10
-0.1113864343625715
 20
2.458071365880762
 10
-0.1177200824060933
 20
2.457240202945996
 10
-0.1502176172663606
 20
2.452190871100285
 10
-0.1821296164386799
 20
2.445890259770113
 10
-0.2133378394278538
 20
2.438334239573151
 10
-0.2437266437884709
 20
2.429514405682307
 10
-0.273181425191764
 20
2.419416743015052
 10
-0.3015854175828855
 20
2.408020797466334
 10
-0.3288141386708872
 20
2.395300339924874
 10
-0.3547269062554458
 20
2.381227282227333
 10
-0.3791558678863686
 20
2.365781423460781
 10
-0.4018684235194054
 20
2.348990381082017
 10
-0.4226042507250886
 20
2.330938586821659
 10
-0.4411115606173496
 20
2.311771481034514
 10
-0.4571816754076757
 20
2.291690616370626
 10
-0.4706874289624484
 20
2.270918387664167
 10
-0.4815886326061979
 20
2.249662590057639
 10
-0.4899082196110011
 20
2.228101405122885
 10
-0.495702163219471
 20
2.206387179599847
 10
-0.4990389419628576
 20
2.184655512119849
 10
-0.499999991604265
 20
2.165005558673002
  0
LWPOLYLINE
  5
239
330
1FD
100
AcDbEntity
  8
AM_4
100
AcDbPolyline
 90
       22
 70
     0
 43
0.0
 10
0.4999999608599208
 20
2.165188633522189
 10
0.4996398827590026
 20
2.177062087562674
 10
0.4972211945652935
 20
2.198330777578362
 10
0.4925883711872049
 20
2.219198557421191
 10
0.4857993588856587
 20
2.239603495736338
 10
0.4768895005247315
 20
2.259503404205438
 10
0.4658673579758731
 20
2.27887035278464
 10
0.4527157080898828
 20
2.297680703632807
 10
0.437401456631329
 20
2.315901315723781
 10
0.4198970012538659
 20
2.333474879074465
 10
0.4002106275411325
 20
2.350310403468759
 10
0.3784147453078473
 20
2.366286366668468
 10
0.3546550649624534
 20
2.38126934164817
 10
0.3291322285658416
 20
2.395140023521471
 10
0.3020798177928629
 20
2.407806440643562
 10
0.2737260022498259
 20
2.419214355694379
 10
0.2442453997506217
 20
2.429350337016972
 10
0.2137914217781255
 20
2.43821359379324
 10
0.1825031631598672
 20
2.445808219639663
 10
0.1505118052104001
 20
2.452139010031285
 10
0.1179451206704166
 20
2.457209771103571
 10
0.1113858062131417
 20
2.458071445894748
  0
LINE
  5
23A
330
1FD
100
AcDbEntity
  8
AM_4
100
AcDbLine
 10
0.2907804377750448
 20
2.412352649501221
 30
0.0
 11
1.18125
 21
2.412352649501221
 31
0.0
  0
LINE
  5
23B
330
1FD
100
AcDbEntity
  8
AM_4
100
AcDbLine
 10
-1.18125
 20
2.412352649501221
 30
0.0
 11
-0.2907884291528886
 21
2.412352649501221
 31
0.0
  0
LINE
  5
23C
330
1FD
100
AcDbEntity
  8
AM_4
100
AcDbLine
 10
0.9375000000000002
 20
0.3861346915261563
 30
0.0
 11
-0.9374999999999999
 21
0.3861346915261563
 31
0.0
  0
LWPOLYLINE
  5
23D
330
1FD
100
AcDbEntity
  8
AM_4
100
AcDbPolyline
 90
       30
 70
     0
 43
0.0
 10
-0.4999999999999998
 20
2.165063509461097
 10
-0.497169286029053
 20
2.138009999204767
 10
-0.4882692016767274
 20
2.10930280154372
 10
-0.4734371427999677
 20
2.080234154471979
 10
-0.4529625512028195
 20
2.051426142675563
 10
-0.4267926664653223
 20
2.023075282432736
 10
-0.3953625132390383
 20
1.995760986104772
 10
-0.3592437525834045
 20
1.970128106114168
 10
-0.3179525237329336
 20
1.946205318731765
 10
-0.2725078450626598
 20
1.924829878613697
 10
-0.2237396930883909
 20
1.906577744719566
 10
-0.1719350376026028
 20
1.891820392644588
 10
-0.117718138796454
 20
1.880830637171475
 10
-0.0621331123573362
 20
1.873940456176693
 10
-0.0066834610905615
 20
1.871385362075045
 10
0.0490295558337665
 20
1.872984953312836
 10
0.1039391429080668
 20
1.878690589221151
 10
0.1569971179519985
 20
1.888346549473811
 10
0.2082707073641487
 20
1.901725623397526
 10
0.2568372770400666
 20
1.918453332307335
 10
0.3028044292047156
 20
1.938554020376787
 10
0.3451591715885163
 20
1.961429550462616
 10
0.3831473111896407
 20
1.986492332828759
 10
0.4168428880850411
 20
2.013791979294168
 10
0.4453731719051964
 20
2.04251660053531
 10
0.4681876653231016
 20
2.071972064999476
 10
0.4848879517799093
 20
2.101565987083091
 10
0.4955302966782087
 20
2.131093016570223
 10
0.4998946470289526
 20
2.159913454214218
 10
0.4999999999999999
 20
2.165063509461097
  0
LINE
  5
23E
330
1FD
100
AcDbEntity
  8
AM_4
100
AcDbLine
 10
-0.9374999999999999
 20
-0.9249999999999997
 30
0.0
 11
0.9375000000000002
 21
-0.9249999999999997
 31
0.0
  0
LINE
  5
23F
330
1FD
100
AcDbEntity
  8
AM_4
100
AcDbLine
 10
0.9375000000000002
 20
0.3203753952193835
 30
0.0
 11
1.18125
 21
0.3203753952193835
 31
0.0
  0
LINE
  5
240
330
1FD
100
AcDbEntity
  8
AM_4
100
AcDbLine
 10
-1.18125
 20
0.3203753952193835
 30
0.0
 11
-0.9374999999999999
 21
0.3203753952193835
 31
0.0
  0
LINE
  5
241
330
1FD
100
AcDbEntity
  8
AM_4
100
AcDbLine
 10
0.9375000000000002
 20
0.3861346915261563
 30
0.0
 11
0.9375000000000002
 21
-1.0
 31
0.0
  0
LINE
  5
242
330
1FD
100
AcDbEntity
  8
AM_4
100
AcDbLine
 10
1.18125
 20
2.5
 30
0.0
 11
1.18125
 21
-0.9214961038461553
 31
0.0
  0
LINE
  5
243
330
1FD
100
AcDbEntity
  8
AM_4
100
AcDbLine
 10
0.9375000000000002
 20
-0.8692225237131629
 30
0.0
 11
1.18125
 21
-0.8692225237131629
 31
0.0
  0
LWPOLYLINE
  5
244
330
1FD
100
AcDbEntity
  8
AM_4
100
AcDbPolyline
 90
       14
 70
     0
 43
0.0
 10
1.18125
 20
-0.9214961038461554
 10
1.187983081144662
 20
-0.9327168081097412
 10
1.19566848969704
 20
-0.9433079875178374
 10
1.204247735057475
 20
-0.9531890368000198
 10
1.213655523988483
 20
-0.9622847552049097
 10
1.22382025753572
 20
-0.9705259188233017
 10
1.23466457593926
 20
-0.9778498074239087
 10
1.246105947388072
 20
-0.9842006817921954
 10
1.258057296136942
 20
-0.9895302079394563
 10
1.270427665205469
 20
-0.9937978249536549
 10
1.283122908615609
 20
-0.9969710536924556
 10
1.296046407899413
 20
-0.999025743969108
 10
1.309099807423909
 20
-0.9999462583499512
 10
1.3125
 20
-0.9999987403496523
  0
LWPOLYLINE
  5
245
330
1FD
100
AcDbEntity
  8
AM_4
100
AcDbPolyline
 90
       14
 70
     0
 43
0.0
 10
-1.3125
 20
-0.9999987403496523
 10
-1.299429087608541
 20
-0.9993743725684098
 10
-1.28646233122267
 20
-0.9976131756172095
 10
-1.273698415688024
 20
-0.99472855326829
 10
-1.261234482108886
 20
-0.9907424592395089
 10
-1.249165388545722
 20
-0.9856852301132949
 10
-1.237582988088064
 20
-0.9795953544569367
 10
-1.226575429797041
 20
-0.9725191799013467
 10
-1.216226487837793
 20
-0.964510560407604
 10
-1.206614923907491
 20
-0.9556304464057926
 10
-1.197813887811266
 20
-0.9459464209254258
 10
-1.189890360748021
 20
-0.9355321852477835
 10
-1.182904645543064
 20
-0.92446699799466
 10
-1.18125
 20
-0.9214961038461527
  0
LINE
  5
246
330
1FD
100
AcDbEntity
  8
AM_4
100
AcDbLine
 10
-0.9374999999999999
 20
0.3861346915261563
 30
0.0
 11
-0.9374999999999999
 21
-1.0
 31
0.0
  0
LINE
  5
247
330
1FD
100
AcDbEntity
  8
AM_4
100
AcDbLine
 10
-1.18125
 20
-0.8692225237131629
 30
0.0
 11
-0.9374999999999999
 21
-0.8692225237131629
 31
0.0
  0
LINE
  5
248
330
1FD
100
AcDbEntity
  8
AM_4
100
AcDbLine
 10
-1.18125
 20
-0.9214961038461524
 30
0.0
 11
-1.18125
 21
2.5
 31
0.0
  0
LINE
  5
249
330
1FD
100
AcDbEntity
  8
AM_4
100
AcDbLine
 10
1.3125
 20
-0.9999999999999997
 30
0.0
 11
1.3125
 21
-2.5
 31
0.0
  0
LWPOLYLINE
  5
24A
330
1FD
100
AcDbEntity
  8
AM_4
100
AcDbPolyline
 90
       19
 70
     0
 43
0.0
 10
1.05
 20
-1.150000002235175
 10
1.05057079509143
 20
-1.13692664081452
 10
1.052278836660035
 20
-1.123952775551178
 10
1.055111125478134
 20
-1.111177145393635
 10
1.059046106117639
 20
-1.098696980601527
 10
1.064053830999877
 20
-1.086607262764651
 10
1.070096188314747
 20
-1.075000001935718
 10
1.077127192074608
 20
-1.063963536378291
 10
1.085093332095411
 20
-1.053581860259262
 10
1.093933981241511
 20
-1.043933984402525
 10
1.103581856834777
 20
-1.035093334968896
 10
1.113963532716396
 20
-1.027127194638694
 10
1.124999998064283
 20
-1.020096190549921
 10
1.13660725871314
 20
-1.014053832889128
 10
1.148696976400774
 20
-1.009046107646588
 10
1.16117714107561
 20
-1.005111126635145
 10
1.173952771148744
 20
-1.002278837436302
 10
1.186926636361183
 20
-1.000570795481046
 10
1.199999997764826
 20
-0.9999999999999996
  0
LINE
  5
24B
330
1FD
100
AcDbEntity
  8
AM_4
100
AcDbLine
 10
1.05
 20
-1.150000000000001
 30
0.0
 11
1.05
 21
-2.5
 31
0.0
  0
LINE
  5
24C
330
1FD
100
AcDbEntity
  8
AM_4
100
AcDbLine
 10
-1.05
 20
-1.15
 30
0.0
 11
1.05
 21
-1.150000000000001
 31
0.0
  0
LINE
  5
24D
330
1FD
100
AcDbEntity
  8
AM_4
100
AcDbLine
 10
-1.3125
 20
-1.0
 30
0.0
 11
1.3125
 21
-0.9999999999999997
 31
0.0
  0
LINE
  5
24E
330
1FD
100
AcDbEntity
  8
AM_4
100
AcDbLine
 10
-1.3125
 20
-1.0
 30
0.0
 11
-1.3125
 21
-2.5
 31
0.0
  0
LINE
  5
24F
330
1FD
100
AcDbEntity
  8
AM_4
100
AcDbLine
 10
-1.3125
 20
-2.5
 30
0.0
 11
1.3125
 21
-2.5
 31
0.0
  0
LINE
  5
250
330
1FD
100
AcDbEntity
  8
AM_4
100
AcDbLine
 10
-1.05
 20
-1.15
 30
0.0
 11
-1.05
 21
-2.5
 31
0.0
  0
LWPOLYLINE
  5
251
330
1FD
100
AcDbEntity
  8
AM_4
100
AcDbPolyline
 90
       19
 70
     0
 43
0.0
 10
-1.2
 20
-0.9999999999999996
 10
-1.186926638587852
 20
-1.000570795286238
 10
-1.173952773349961
 20
-1.002278837048168
 10
-1.161177143234622
 20
-1.005111126056639
 10
-1.14869697850115
 20
-1.009046106882113
 10
-1.136607260738895
 20
-1.014053831944502
 10
-1.125
 20
-1.020096189432334
 10
-1.113963534547343
 20
-1.027127193356651
 10
-1.103581858547019
 20
-1.035093333532153
 10
-1.093933982822018
 20
-1.043933982822018
 10
-1.085093333532153
 20
-1.053581858547019
 10
-1.077127193356651
 20
-1.063963534547343
 10
-1.070096189432334
 20
-1.075
 10
-1.064053831944503
 20
-1.086607260738895
 10
-1.059046106882114
 20
-1.09869697850115
 10
-1.05511112605664
 20
-1.111177143234622
 10
-1.052278837048169
 20
-1.12395277334996
 10
-1.050570795286238
 20
-1.136926638587851
 10
-1.05
 20
-1.15
  0
ENDBLK
  5
200
330
1FD
100
AcDbEntity
  8
0
100
AcDbBlockEnd
  0
ENDSEC
  0
SECTION
  2
ENTITIES
  0
INSERT
  5
6F
330
1F
100
AcDbEntity
  8
0
100
AcDbBlockReference
  2
1_069497_2
 10
0.0
 20
0.0
 30
0.0
  0
POINT
  5
253
330
1F
100
AcDbEntity
  8
ConnectionPoints
100
AcDbPoint
 10
-1.7
 20
1.5
 30
0.0000000000000001
  0
POINT
  5
254
330
1F
100
AcDbEntity
  8
ConnectionPoints
100
AcDbPoint
 10
-1.63
 20
0.0
 30
0.0000000000000001
  0
POINT
  5
255
330
1F
100
AcDbEntity
  8
ConnectionPoints
100
AcDbPoint
 10
-1.875
 20
0.0
 30
0.0000000000000001
  0
POINT
  5
256
330
1F
100
AcDbEntity
  8
ConnectionPoints
100
AcDbPoint
 10
-1.829
 20
0.0
 30
0.0000000000000001
  0
POINT
  5
257
330
1F
100
AcDbEntity
  8
ConnectionPoints
100
AcDbPoint
 10
-1.63
 20
1.5
 30
0.0000000000000001
  0
POINT
  5
258
330
1F
100
AcDbEntity
  8
ConnectionPoints
100
AcDbPoint
 10
-1.774
 20
1.5
 30
0.0000000000000001
  0
POINT
  5
259
330
1F
100
AcDbEntity
  8
ConnectionPoints
100
AcDbPoint
 10
-1.63
 20
-1.5
 30
0.0000000000000001
  0
POINT
  5
25A
330
1F
100
AcDbEntity
  8
ConnectionPoints
100
AcDbPoint
 10
-1.774
 20
-1.5
 30
0.0000000000000001
  0
POINT
  5
25B
330
1F
100
AcDbEntity
  8
ConnectionPoints
100
AcDbPoint
 10
-1.63
 20
0.0
 30
0.0000000000000001
  0
POINT
  5
25C
330
1F
100
AcDbEntity
  8
ConnectionPoints
100
AcDbPoint
 10
0.0000000000000001
 20
2.251666049839541
 30
1.3
  0
POINT
  5
25D
330
1F
100
AcDbEntity
  8
ConnectionPoints
100
AcDbPoint
 10
0.0000000000000001
 20
2.251666049839541
 30
1.3
  0
POINT
  5
25E
330
1F
100
AcDbEntity
  8
ConnectionPoints
100
AcDbPoint
 10
-1.875
 20
0.0
 30
0.0000000000000001
  0
POINT
  5
25F
330
1F
100
AcDbEntity
  8
ConnectionPoints
100
AcDbPoint
 10
-2.125
 20
0.0
 30
0.0000000000000001
  0
ENDSEC
  0
SECTION
  2
OBJECTS
  0
DICTIONARY
  5
C
330
0
100
AcDbDictionary
281
     1
  3
ACAD_DETAILVIEWSTYLE
350
267
  3
ACAD_GROUP
350
D
  3
ACAD_LAYOUT
350
1A
  3
ACAD_MATERIAL
350
43
  3
ACAD_MLEADERSTYLE
350
6B
  3
ACAD_MLINESTYLE
350
17
  3
ACAD_PLOTSETTINGS
350
19
  3
ACAD_PLOTSTYLENAME
350
E
  3
ACAD_SCALELIST
350
47
  3
ACAD_SECTIONVIEWSTYLE
350
268
  3
ACAD_TABLESTYLE
350
69
  3
ACAD_VISUALSTYLE
350
2A
  3
ACDB_RECOMPOSE_DATA
350
264
  3
AcDbVariableDictionary
350
260
  0
SUN
  5
6D
330
29
100
AcDbSun
 90
        1
290
     0
 63
     7
421
 16777215
 40
1.0
291
     1
 91
  2455826
 92
 54000000
292
     0
 70
     2
 71
   256
280
     1
  0
DICTIONARY
  5
267
102
{ACAD_REACTORS
330
C
102
}
330
C
100
AcDbDictionary
281
     1
  0
DICTIONARY
  5
D
102
{ACAD_REACTORS
330
C
102
}
330
C
100
AcDbDictionary
281
     1
  0
DICTIONARY
  5
1A
102
{ACAD_REACTORS
330
C
102
}
330
C
100
AcDbDictionary
281
     1
  3
Layout1
350
1E
  3
Layout2
350
26
  3
Model
350
22
  0
DICTIONARY
  5
43
102
{ACAD_REACTORS
330
C
102
}
330
C
100
AcDbDictionary
281
     1
  3
ByBlock
350
45
  3
ByLayer
350
44
  3
Global
350
46
  0
DICTIONARY
  5
6B
102
{ACAD_REACTORS
330
C
102
}
330
C
100
AcDbDictionary
281
     1
  3
Standard
350
6C
  0
DICTIONARY
  5
17
102
{ACAD_REACTORS
330
C
102
}
330
C
100
AcDbDictionary
281
     1
  3
Standard
350
18
  0
DICTIONARY
  5
19
102
{ACAD_REACTORS
330
C
102
}
330
C
100
AcDbDictionary
281
     1
  0
ACDBDICTIONARYWDFLT
  5
E
102
{ACAD_REACTORS
330
C
102
}
330
C
100
AcDbDictionary
281
     1
  3
Normal
350
F
100
AcDbDictionaryWithDefault
340
F
  0
DICTIONARY
  5
47
102
{ACAD_REACTORS
330
C
102
}
330
C
100
AcDbDictionary
281
     1
  3
A0
350
48
  3
A1
350
49
  3
A2
350
4A
  3
A3
350
4B
  3
A4
350
4C
  3
A5
350
4D
  3
A6
350
4E
  3
A7
350
4F
  3
A8
350
50
  3
A9
350
51
  3
B0
350
52
  3
B1
350
53
  3
B2
350
54
  3
B3
350
55
  3
B4
350
56
  3
B5
350
57
  3
B6
350
58
  3
B7
350
59
  3
B8
350
5A
  3
B9
350
5B
  3
C0
350
5C
  3
C1
350
5D
  3
C2
350
5E
  3
C3
350
5F
  3
C4
350
60
  3
C5
350
61
  3
C6
350
62
  3
C7
350
63
  3
C8
350
64
  3
C9
350
65
  3
D0
350
66
  3
D1
350
67
  3
D2
350
68
  0
DICTIONARY
  5
268
102
{ACAD_REACTORS
330
C
102
}
330
C
100
AcDbDictionary
281
     1
  0
DICTIONARY
  5
69
102
{ACAD_REACTORS
330
C
102
}
330
C
100
AcDbDictionary
281
     1
  3
Standard
350
6A
  0
DICTIONARY
  5
2A
102
{ACAD_REACTORS
330
C
102
}
330
C
100
AcDbDictionary
281
     1
  3
2dWireframe
350
2F
  3
Basic
350
32
  3
Brighten
350
36
  3
ColorChange
350
3A
  3
Conceptual
350
34
  3
Dim
350
35
  3
EdgeColorOff
350
3D
  3
Facepattern
350
39
  3
Flat
350
2B
  3
FlatWithEdges
350
2C
  3
Gouraud
350
2D
  3
GouraudWithEdges
350
2E
  3
Hidden
350
31
  3
JitterOff
350
3B
  3
Linepattern
350
38
  3
OverhangOff
350
3C
  3
Realistic
350
33
  3
Shaded
350
42
  3
Shaded with edges
350
41
  3
Shades of Gray
350
3E
  3
Sketchy
350
3F
  3
Thicken
350
37
  3
Wireframe
350
30
  3
X-Ray
350
40
  0
XRECORD
  5
264
102
{ACAD_REACTORS
330
C
102
}
330
C
100
AcDbXrecord
280
     1
 90
        1
330
6A
  0
DICTIONARY
  5
260
102
{ACAD_REACTORS
330
C
102
}
330
C
100
AcDbDictionary
281
     1
  3
CANNOSCALE
350
261
  3
CMLEADERSTYLE
350
266
  3
CTABLESTYLE
350
265
  0
LAYOUT
  5
1E
102
{ACAD_REACTORS
330
1A
102
}
330
1A
100
AcDbPlotSettings
  1

  2
none_device
  4

  6

 40
0.0
 41
0.0
 42
0.0
 43
0.0
 44
0.0
 45
0.0
 46
0.0
 47
0.0
 48
0.0
 49
0.0
140
0.0
141
0.0
142
1.0
143
1.0
 70
   688
 72
     0
 73
     0
 74
     5
  7

 75
    16
 76
     0
 77
     2
 78
   300
147
1.0
148
0.0
149
0.0
100
AcDbLayout
  1
Layout1
 70
     1
 71
     1
 10
0.0
 20
0.0
 11
12.0
 21
9.0
 12
0.0
 22
0.0
 32
0.0
 14
1.000000000000000E+20
 24
1.000000000000000E+20
 34
1.000000000000000E+20
 15
-1.000000000000000E+20
 25
-1.000000000000000E+20
 35
-1.000000000000000E+20
146
0.0
 13
0.0
 23
0.0
 33
0.0
 16
1.0
 26
0.0
 36
0.0
 17
0.0
 27
1.0
 37
0.0
 76
     0
330
1B
  0
LAYOUT
  5
26
102
{ACAD_REACTORS
330
1A
102
}
330
1A
100
AcDbPlotSettings
  1

  2
none_device
  4

  6

 40
0.0
 41
0.0
 42
0.0
 43
0.0
 44
0.0
 45
0.0
 46
0.0
 47
0.0
 48
0.0
 49
0.0
140
0.0
141
0.0
142
1.0
143
1.0
 70
   688
 72
     0
 73
     0
 74
     5
  7

 75
    16
 76
     0
 77
     2
 78
   300
147
1.0
148
0.0
149
0.0
100
AcDbLayout
  1
Layout2
 70
     1
 71
     2
 10
0.0
 20
0.0
 11
0.0
 21
0.0
 12
0.0
 22
0.0
 32
0.0
 14
0.0
 24
0.0
 34
0.0
 15
0.0
 25
0.0
 35
0.0
146
0.0
 13
0.0
 23
0.0
 33
0.0
 16
1.0
 26
0.0
 36
0.0
 17
0.0
 27
1.0
 37
0.0
 76
     0
330
23
  0
LAYOUT
  5
22
102
{ACAD_REACTORS
330
1A
102
}
330
1A
100
AcDbPlotSettings
  1

  2
none_device
  4
Letter_(8.50_x_11.00_Inches)
  6

 40
6.35
 41
6.35
 42
6.35000508
 43
6.35000508
 44
215.9
 45
279.4
 46
0.0
 47
0.0
 48
0.0
 49
0.0
140
0.0
141
0.0
142
1.0
143
1.0
 70
  1712
 72
     0
 73
     0
 74
     0
  7

 75
     0
 76
     0
 77
     2
 78
   300
147
1.0
148
0.0
149
0.0
100
AcDbLayout
  1
Model
 70
     1
 71
     0
 10
0.0
 20
0.0
 11
12.0
 21
9.0
 12
0.0
 22
0.0
 32
0.0
 14
1.000000000000000E+20
 24
1.000000000000000E+20
 34
1.000000000000000E+20
 15
-1.000000000000000E+20
 25
-1.000000000000000E+20
 35
-1.000000000000000E+20
146
0.0
 13
0.0
 23
0.0
 33
0.0
 16
1.0
 26
0.0
 36
0.0
 17
0.0
 27
1.0
 37
0.0
 76
     0
330
1F
331
29
  0
MATERIAL
  5
45
102
{ACAD_REACTORS
330
43
102
}
330
43
100
AcDbMaterial
  1
ByBlock
 72
     1
 94
      127
  0
MATERIAL
  5
44
102
{ACAD_REACTORS
330
43
102
}
330
43
100
AcDbMaterial
  1
ByLayer
 72
     1
 94
      127
  0
MATERIAL
  5
46
102
{ACAD_REACTORS
330
43
102
}
330
43
100
AcDbMaterial
  1
Global
 72
     1
 94
      127
  0
MLEADERSTYLE
  5
6C
102
{ACAD_REACTORS
330
6B
102
}
330
6B
100
AcDbMLeaderStyle
179
     2
170
     2
171
     1
172
     0
 90
        2
 40
0.0
 41
0.0
173
     1
 91
-1056964608
340
14
 92
       -2
290
     1
 42
0.09
291
     1
 43
0.36
  3
Standard
341
0
 44
0.18
300

342
11
174
     1
178
     6
175
     1
176
     0
 93
-1056964608
 45
0.18
292
     0
297
     0
 46
0.18
343
0
 94
-1056964608
 47
1.0
 49
1.0
140
1.0
293
     1
141
0.0
294
     1
177
     0
142
1.0
295
     0
296
     0
143
0.125
271
     0
272
     9
273
     9
298
     0
  0
MLINESTYLE
  5
18
102
{ACAD_REACTORS
330
17
102
}
330
17
100
AcDbMlineStyle
  2
Standard
 70
     0
  3

 62
   256
 51
90.0
 52
90.0
 71
     2
 49
0.5
 62
   256
  6
BYLAYER
 49
-0.5
 62
   256
  6
BYLAYER
  0
ACDBPLACEHOLDER
  5
F
102
{ACAD_REACTORS
330
E
102
}
330
E
  0
SCALE
  5
48
102
{ACAD_REACTORS
330
47
102
}
330
47
100
AcDbScale
 70
     0
300
1:1
140
1.0
141
1.0
290
     1
  0
SCALE
  5
49
102
{ACAD_REACTORS
330
47
102
}
330
47
100
AcDbScale
 70
     0
300
1:2
140
1.0
141
2.0
290
     0
  0
SCALE
  5
4A
102
{ACAD_REACTORS
330
47
102
}
330
47
100
AcDbScale
 70
     0
300
1:4
140
1.0
141
4.0
290
     0
  0
SCALE
  5
4B
102
{ACAD_REACTORS
330
47
102
}
330
47
100
AcDbScale
 70
     0
300
1:5
140
1.0
141
5.0
290
     0
  0
SCALE
  5
4C
102
{ACAD_REACTORS
330
47
102
}
330
47
100
AcDbScale
 70
     0
300
1:8
140
1.0
141
8.0
290
     0
  0
SCALE
  5
4D
102
{ACAD_REACTORS
330
47
102
}
330
47
100
AcDbScale
 70
     0
300
1:10
140
1.0
141
10.0
290
     0
  0
SCALE
  5
4E
102
{ACAD_REACTORS
330
47
102
}
330
47
100
AcDbScale
 70
     0
300
1:16
140
1.0
141
16.0
290
     0
  0
SCALE
  5
4F
102
{ACAD_REACTORS
330
47
102
}
330
47
100
AcDbScale
 70
     0
300
1:20
140
1.0
141
20.0
290
     0
  0
SCALE
  5
50
102
{ACAD_REACTORS
330
47
102
}
330
47
100
AcDbScale
 70
     0
300
1:30
140
1.0
141
30.0
290
     0
  0
SCALE
  5
51
102
{ACAD_REACTORS
330
47
102
}
330
47
100
AcDbScale
 70
     0
300
1:40
140
1.0
141
40.0
290
     0
  0
SCALE
  5
52
102
{ACAD_REACTORS
330
47
102
}
330
47
100
AcDbScale
 70
     0
300
1:50
140
1.0
141
50.0
290
     0
  0
SCALE
  5
53
102
{ACAD_REACTORS
330
47
102
}
330
47
100
AcDbScale
 70
     0
300
1:100
140
1.0
141
100.0
290
     0
  0
SCALE
  5
54
102
{ACAD_REACTORS
330
47
102
}
330
47
100
AcDbScale
 70
     0
300
2:1
140
2.0
141
1.0
290
     0
  0
SCALE
  5
55
102
{ACAD_REACTORS
330
47
102
}
330
47
100
AcDbScale
 70
     0
300
4:1
140
4.0
141
1.0
290
     0
  0
SCALE
  5
56
102
{ACAD_REACTORS
330
47
102
}
330
47
100
AcDbScale
 70
     0
300
8:1
140
8.0
141
1.0
290
     0
  0
SCALE
  5
57
102
{ACAD_REACTORS
330
47
102
}
330
47
100
AcDbScale
 70
     0
300
10:1
140
10.0
141
1.0
290
     0
  0
SCALE
  5
58
102
{ACAD_REACTORS
330
47
102
}
330
47
100
AcDbScale
 70
     0
300
100:1
140
100.0
141
1.0
290
     0
  0
SCALE
  5
59
102
{ACAD_REACTORS
330
47
102
}
330
47
100
AcDbScale
 70
     0
300
1/128" = 1'-0"
140
0.0078125
141
12.0
290
     0
  0
SCALE
  5
5A
102
{ACAD_REACTORS
330
47
102
}
330
47
100
AcDbScale
 70
     0
300
1/64" = 1'-0"
140
0.015625
141
12.0
290
     0
  0
SCALE
  5
5B
102
{ACAD_REACTORS
330
47
102
}
330
47
100
AcDbScale
 70
     0
300
1/32" = 1'-0"
140
0.03125
141
12.0
290
     0
  0
SCALE
  5
5C
102
{ACAD_REACTORS
330
47
102
}
330
47
100
AcDbScale
 70
     0
300
1/16" = 1'-0"
140
0.0625
141
12.0
290
     0
  0
SCALE
  5
5D
102
{ACAD_REACTORS
330
47
102
}
330
47
100
AcDbScale
 70
     0
300
3/32" = 1'-0"
140
0.09375
141
12.0
290
     0
  0
SCALE
  5
5E
102
{ACAD_REACTORS
330
47
102
}
330
47
100
AcDbScale
 70
     0
300
1/8" = 1'-0"
140
0.125
141
12.0
290
     0
  0
SCALE
  5
5F
102
{ACAD_REACTORS
330
47
102
}
330
47
100
AcDbScale
 70
     0
300
3/16" = 1'-0"
140
0.1875
141
12.0
290
     0
  0
SCALE
  5
60
102
{ACAD_REACTORS
330
47
102
}
330
47
100
AcDbScale
 70
     0
300
1/4" = 1'-0"
140
0.25
141
12.0
290
     0
  0
SCALE
  5
61
102
{ACAD_REACTORS
330
47
102
}
330
47
100
AcDbScale
 70
     0
300
3/8" = 1'-0"
140
0.375
141
12.0
290
     0
  0
SCALE
  5
62
102
{ACAD_REACTORS
330
47
102
}
330
47
100
AcDbScale
 70
     0
300
1/2" = 1'-0"
140
0.5
141
12.0
290
     0
  0
SCALE
  5
63
102
{ACAD_REACTORS
330
47
102
}
330
47
100
AcDbScale
 70
     0
300
3/4" = 1'-0"
140
0.75
141
12.0
290
     0
  0
SCALE
  5
64
102
{ACAD_REACTORS
330
47
102
}
330
47
100
AcDbScale
 70
     0
300
1" = 1'-0"
140
1.0
141
12.0
290
     0
  0
SCALE
  5
65
102
{ACAD_REACTORS
330
47
102
}
330
47
100
AcDbScale
 70
     0
300
1-1/2" = 1'-0"
140
1.5
141
12.0
290
     0
  0
SCALE
  5
66
102
{ACAD_REACTORS
330
47
102
}
330
47
100
AcDbScale
 70
     0
300
3" = 1'-0"
140
3.0
141
12.0
290
     0
  0
SCALE
  5
67
102
{ACAD_REACTORS
330
47
102
}
330
47
100
AcDbScale
 70
     0
300
6" = 1'-0"
140
6.0
141
12.0
290
     0
  0
SCALE
  5
68
102
{ACAD_REACTORS
330
47
102
}
330
47
100
AcDbScale
 70
     0
300
1'-0" = 1'-0"
140
12.0
141
12.0
290
     0
  0
TABLESTYLE
  5
6A
102
{ACAD_REACTORS
330
69
102
}
102
{ACAD_XDICTIONARY
360
262
102
}
330
69
100
AcDbTableStyle
  3
Standard
 70
     0
 71
     0
 40
0.06
 41
0.06
280
     0
281
     0
  7
Standard
140
0.18
170
     2
 62
     0
 63
   257
283
     0
 90
        4
 91
        0
  1

274
    -2
284
     1
 64
     0
275
    -2
285
     1
 65
     0
276
    -2
286
     1
 66
     0
277
    -2
287
     1
 67
     0
278
    -2
288
     1
 68
     0
279
    -2
289
     1
 69
     0
  7
Standard
140
0.25
170
     5
 62
     0
 63
   257
283
     0
 90
        4
 91
        0
  1

274
    -2
284
     1
 64
     0
275
    -2
285
     1
 65
     0
276
    -2
286
     1
 66
     0
277
    -2
287
     1
 67
     0
278
    -2
288
     1
 68
     0
279
    -2
289
     1
 69
     0
  7
Standard
140
0.18
170
     5
 62
     0
 63
   257
283
     0
 90
        4
 91
        0
  1

274
    -2
284
     1
 64
     0
275
    -2
285
     1
 65
     0
276
    -2
286
     1
 66
     0
277
    -2
287
     1
 67
     0
278
    -2
288
     1
 68
     0
279
    -2
289
     1
 69
     0
  0
VISUALSTYLE
  5
2F
102
{ACAD_REACTORS
330
2A
102
}
330
2A
100
AcDbVisualStyle
  2
2dWireframe
 70
     4
177
     3
291
     0
 70
    58
 90
        0
176
     1
 90
        2
176
     1
 90
        0
176
     1
 90
        0
176
     1
 40
0.6
176
     1
 40
30.0
176
     1
 62
     7
420
 16777215
176
     1
 90
        1
176
     1
 90
        4
176
     1
 62
     7
176
     1
 62
   257
176
     1
 90
        1
176
     1
 90
        1
176
     1
 40
1.0
176
     1
 90
        0
176
     1
 62
   257
176
     1
 40
1.0
176
     1
 90
        1
176
     1
 90
        6
176
     1
 90
        2
176
     1
 62
     7
176
     1
 90
        5
176
     1
 90
        0
176
     1
 90
        0
176
     1
290
     0
176
     1
 90
        1
176
     1
 40
0.0
176
     1
 90
        0
176
     1
290
     1
176
     1
290
     1
176
     1
290
     0
176
     1
290
     0
176
     1
290
     0
176
     1
290
     0
176
     1
290
     0
176
     1
290
     0
176
     1
290
     0
176
     1
 90
       50
176
     1
 40
0.0
176
     1
 40
1.0
176
     1
 90
        0
176
     1
 62
    18
420
        0
176
     1
 90
       50
176
     1
 90
        3
176
     1
 62
     5
420
      255
176
     1
290
     0
176
     1
 90
       50
176
     1
 90
       50
176
     1
 90
       50
176
     1
290
     0
176
     1
 90
       50
176
     1
 62
   256
176
     0
 40
1.0
176
     0
 90
        2
176
     1
  1
strokes_ogs.tif
176
     1
290
     0
176
     1
 40
1.0
176
     1
 40
1.0
176
     1
  0
VISUALSTYLE
  5
32
102
{ACAD_REACTORS
330
2A
102
}
330
2A
100
AcDbVisualStyle
  2
Basic
 70
     7
177
     3
291
     1
 70
    58
 90
        1
176
     1
 90
        0
176
     1
 90
        1
176
     1
 90
        0
176
     1
 40
0.6
176
     1
 40
30.0
176
     1
 62
     7
420
 16777215
176
     1
 90
        0
176
     1
 90
        4
176
     1
 62
     7
176
     1
 62
   257
176
     1
 90
        1
176
     1
 90
        1
176
     1
 40
1.0
176
     1
 90
        8
176
     1
 62
     7
176
     1
 40
1.0
176
     1
 90
        1
176
     1
 90
        6
176
     1
 90
        2
176
     1
 62
     7
176
     1
 90
        5
176
     1
 90
        0
176
     1
 90
        0
176
     1
290
     0
176
     1
 90
        1
176
     1
 40
0.0
176
     1
 90
        0
176
     1
290
     0
176
     1
290
     1
176
     1
290
     1
176
     1
290
     0
176
     1
290
     0
176
     1
290
     0
176
     1
290
     0
176
     1
290
     0
176
     1
290
     0
176
     1
 90
       50
176
     1
 40
0.0
176
     1
 40
1.0
176
     1
 90
        0
176
     1
 62
    18
420
        0
176
     1
 90
       50
176
     1
 90
        3
176
     1
 62
     5
420
      255
176
     1
290
     0
176
     1
 90
       50
176
     1
 90
       50
176
     1
 90
       50
176
     1
290
     0
176
     1
 90
       50
176
     1
 62
   256
176
     0
 40
1.0
176
     0
 90
        2
176
     1
  1
strokes_ogs.tif
176
     1
290
     0
176
     1
 40
1.0
176
     1
 40
1.0
176
     1
  0
VISUALSTYLE
  5
36
102
{ACAD_REACTORS
330
2A
102
}
330
2A
100
AcDbVisualStyle
  2
Brighten
 70
    12
177
     3
291
     1
 70
    58
 90
        2
176
     1
 90
        2
176
     1
 90
        0
176
     1
 90
        0
176
     1
 40
0.6
176
     1
 40
30.0
176
     1
 62
     7
420
 16777215
176
     1
 90
        1
176
     1
 90
        4
176
     1
 62
     7
176
     1
 62
   257
176
     1
 90
        1
176
     1
 90
        1
176
     1
 40
1.0
176
     1
 90
        8
176
     1
 62
     7
176
     1
 40
1.0
176
     1
 90
        1
176
     1
 90
        6
176
     1
 90
        2
176
     1
 62
     7
176
     1
 90
        5
176
     1
 90
        0
176
     1
 90
        0
176
     1
290
     0
176
     1
 90
        1
176
     1
 40
50.0
176
     1
 90
        0
176
     1
290
     0
176
     1
290
     1
176
     1
290
     1
176
     1
290
     0
176
     1
290
     0
176
     1
290
     0
176
     1
290
     0
176
     1
290
     0
176
     1
290
     0
176
     1
 90
       50
176
     1
 40
0.0
176
     1
 40
1.0
176
     1
 90
        0
176
     1
 62
    18
420
        0
176
     1
 90
       50
176
     1
 90
        3
176
     1
 62
     5
420
      255
176
     1
290
     0
176
     1
 90
       50
176
     1
 90
       50
176
     1
 90
       50
176
     1
290
     0
176
     1
 90
       50
176
     1
 62
   256
176
     0
 40
1.0
176
     0
 90
        2
176
     1
  1
strokes_ogs.tif
176
     1
290
     0
176
     1
 40
1.0
176
     1
 40
1.0
176
     1
  0
VISUALSTYLE
  5
3A
102
{ACAD_REACTORS
330
2A
102
}
330
2A
100
AcDbVisualStyle
  2
ColorChange
 70
    16
177
     3
291
     1
 70
    58
 90
        2
176
     1
 90
        2
176
     1
 90
        3
176
     1
 90
        0
176
     1
 40
0.6
176
     1
 40
30.0
176
     1
 62
     8
420
  8421504
176
     1
 90
        1
176
     1
 90
        4
176
     1
 62
     7
176
     1
 62
   257
176
     1
 90
        1
176
     1
 90
        1
176
     1
 40
1.0
176
     1
 90
        8
176
     1
 62
     8
420
  8421504
176
     1
 40
1.0
176
     1
 90
        1
176
     1
 90
        6
176
     1
 90
        2
176
     1
 62
     7
176
     1
 90
        5
176
     1
 90
        0
176
     1
 90
        0
176
     1
290
     0
176
     1
 90
        1
176
     1
 40
0.0
176
     1
 90
        0
176
     1
290
     0
176
     1
290
     1
176
     1
290
     1
176
     1
290
     0
176
     1
290
     0
176
     1
290
     0
176
     1
290
     0
176
     1
290
     0
176
     1
290
     0
176
     1
 90
       50
176
     1
 40
0.0
176
     1
 40
1.0
176
     1
 90
        0
176
     1
 62
    18
420
        0
176
     1
 90
       50
176
     1
 90
        3
176
     1
 62
     5
420
      255
176
     1
290
     0
176
     1
 90
       50
176
     1
 90
       50
176
     1
 90
       50
176
     1
290
     0
176
     1
 90
       50
176
     1
 62
   256
176
     0
 40
1.0
176
     0
 90
        2
176
     1
  1
strokes_ogs.tif
176
     1
290
     0
176
     1
 40
1.0
176
     1
 40
1.0
176
     1
  0
VISUALSTYLE
  5
34
102
{ACAD_REACTORS
330
2A
102
}
330
2A
100
AcDbVisualStyle
  2
Conceptual
 70
     9
177
     3
291
     0
 70
    58
 90
        3
176
     1
 90
        2
176
     1
 90
        0
176
     1
 90
        0
176
     1
 40
0.6
176
     1
 40
30.0
176
     1
 62
     7
420
 16777215
176
     1
 90
        2
176
     1
 90
        2
176
     1
 62
     7
176
     1
 62
   257
176
     1
 90
        1
176
     1
 90
        1
176
     1
 40
179.0
176
     1
 90
        8
176
     1
 62
     7
176
     1
 40
1.0
176
     1
 90
        1
176
     1
 90
        6
176
     1
 90
        2
176
     1
 62
     7
176
     1
 90
        3
176
     1
 90
        0
176
     1
 90
        0
176
     1
290
     0
176
     1
 90
        1
176
     1
 40
0.0
176
     1
 90
        0
176
     1
290
     0
176
     1
290
     1
176
     1
290
     1
176
     1
290
     0
176
     1
290
     0
176
     1
290
     0
176
     1
290
     0
176
     1
290
     0
176
     1
290
     0
176
     1
 90
       50
176
     1
 40
0.0
176
     1
 40
1.0
176
     1
 90
        0
176
     1
 62
    18
420
        0
176
     1
 90
       50
176
     1
 90
        3
176
     1
 62
     5
420
      255
176
     1
290
     0
176
     1
 90
       50
176
     1
 90
       50
176
     1
 90
       50
176
     1
290
     0
176
     1
 90
       50
176
     1
 62
   256
176
     0
 40
1.0
176
     0
 90
        2
176
     1
  1
strokes_ogs.tif
176
     1
290
     0
176
     1
 40
1.0
176
     1
 40
1.0
176
     1
  0
VISUALSTYLE
  5
35
102
{ACAD_REACTORS
330
2A
102
}
330
2A
100
AcDbVisualStyle
  2
Dim
 70
    11
177
     3
291
     1
 70
    58
 90
        2
176
     1
 90
        2
176
     1
 90
        0
176
     1
 90
        0
176
     1
 40
0.6
176
     1
 40
30.0
176
     1
 62
     7
420
 16777215
176
     1
 90
        1
176
     1
 90
        4
176
     1
 62
     7
176
     1
 62
   257
176
     1
 90
        1
176
     1
 90
        1
176
     1
 40
1.0
176
     1
 90
        8
176
     1
 62
     7
176
     1
 40
1.0
176
     1
 90
        1
176
     1
 90
        6
176
     1
 90
        2
176
     1
 62
     7
176
     1
 90
        5
176
     1
 90
        0
176
     1
 90
        0
176
     1
290
     0
176
     1
 90
        1
176
     1
 40
-50.0
176
     1
 90
        0
176
     1
290
     0
176
     1
290
     1
176
     1
290
     1
176
     1
290
     0
176
     1
290
     0
176
     1
290
     0
176
     1
290
     0
176
     1
290
     0
176
     1
290
     0
176
     1
 90
       50
176
     1
 40
0.0
176
     1
 40
1.0
176
     1
 90
        0
176
     1
 62
    18
420
        0
176
     1
 90
       50
176
     1
 90
        3
176
     1
 62
     5
420
      255
176
     1
290
     0
176
     1
 90
       50
176
     1
 90
       50
176
     1
 90
       50
176
     1
290
     0
176
     1
 90
       50
176
     1
 62
   256
176
     0
 40
1.0
176
     0
 90
        2
176
     1
  1
strokes_ogs.tif
176
     1
290
     0
176
     1
 40
1.0
176
     1
 40
1.0
176
     1
  0
VISUALSTYLE
  5
3D
102
{ACAD_REACTORS
330
2A
102
}
330
2A
100
AcDbVisualStyle
  2
EdgeColorOff
 70
    22
177
     3
291
     1
 70
    58
 90
        2
176
     0
 90
        2
176
     0
 90
        0
176
     0
 90
        0
176
     0
 40
0.6
176
     0
 40
30.0
176
     0
 62
     7
420
 16777215
176
     0
 90
        1
176
     0
 90
        4
176
     0
 62
     7
176
     0
 62
   257
176
     0
 90
        1
176
     0
 90
        1
176
     0
 40
1.0
176
     0
 90
        8
176
     2
 62
     7
176
     0
 40
1.0
176
     0
 90
        1
176
     0
 90
        6
176
     0
 90
        2
176
     0
 62
     7
176
     0
 90
        5
176
     0
 90
        0
176
     0
 90
        0
176
     0
290
     0
176
     0
 90
        1
176
     0
 40
0.0
176
     0
 90
        0
176
     0
290
     0
176
     0
290
     1
176
     0
290
     1
176
     0
290
     0
176
     0
290
     0
176
     0
290
     0
176
     0
290
     0
176
     0
290
     0
176
     0
290
     0
176
     0
 90
       50
176
     0
 40
0.0
176
     0
 40
1.0
176
     0
 90
        0
176
     0
 62
    18
420
        0
176
     0
 90
       50
176
     0
 90
        3
176
     0
 62
     5
420
      255
176
     0
290
     0
176
     0
 90
       50
176
     0
 90
       50
176
     0
 90
       50
176
     0
290
     0
176
     0
 90
       50
176
     0
 62
   256
176
     0
 40
1.0
176
     0
 90
        2
176
     0
  1
strokes_ogs.tif
176
     0
290
     0
176
     0
 40
1.0
176
     0
 40
1.0
176
     0
  0
VISUALSTYLE
  5
39
102
{ACAD_REACTORS
330
2A
102
}
330
2A
100
AcDbVisualStyle
  2
Facepattern
 70
    15
177
     3
291
     1
 70
    58
 90
        2
176
     1
 90
        2
176
     1
 90
        0
176
     1
 90
        0
176
     1
 40
0.6
176
     1
 40
30.0
176
     1
 62
     7
420
 16777215
176
     1
 90
        1
176
     1
 90
        4
176
     1
 62
     7
176
     1
 62
   257
176
     1
 90
        1
176
     1
 90
        1
176
     1
 40
1.0
176
     1
 90
        8
176
     1
 62
     7
176
     1
 40
1.0
176
     1
 90
        1
176
     1
 90
        6
176
     1
 90
        2
176
     1
 62
     7
176
     1
 90
        5
176
     1
 90
        0
176
     1
 90
        0
176
     1
290
     0
176
     1
 90
        1
176
     1
 40
0.0
176
     1
 90
        0
176
     1
290
     0
176
     1
290
     1
176
     1
290
     1
176
     1
290
     0
176
     1
290
     0
176
     1
290
     0
176
     1
290
     0
176
     1
290
     0
176
     1
290
     0
176
     1
 90
       50
176
     1
 40
0.0
176
     1
 40
1.0
176
     1
 90
        0
176
     1
 62
    18
420
        0
176
     1
 90
       50
176
     1
 90
        3
176
     1
 62
     5
420
      255
176
     1
290
     0
176
     1
 90
       50
176
     1
 90
       50
176
     1
 90
       50
176
     1
290
     0
176
     1
 90
       50
176
     1
 62
   256
176
     0
 40
1.0
176
     0
 90
        2
176
     1
  1
strokes_ogs.tif
176
     1
290
     0
176
     1
 40
1.0
176
     1
 40
1.0
176
     1
  0
VISUALSTYLE
  5
2B
102
{ACAD_REACTORS
330
2A
102
}
330
2A
100
AcDbVisualStyle
  2
Flat
 70
     0
177
     3
291
     1
 70
    58
 90
        2
176
     1
 90
        1
176
     1
 90
        1
176
     1
 90
        2
176
     1
 40
0.6
176
     1
 40
30.0
176
     1
 62
     7
420
 16777215
176
     1
 90
        0
176
     1
 90
        0
176
     1
 62
     7
176
     1
 62
   257
176
     1
 90
        1
176
     1
 90
        1
176
     1
 40
1.0
176
     1
 90
        8
176
     1
 62
     7
176
     1
 40
1.0
176
     1
 90
        1
176
     1
 90
        6
176
     1
 90
        2
176
     1
 62
     7
176
     1
 90
        5
176
     1
 90
        0
176
     1
 90
        0
176
     1
290
     0
176
     1
 90
       13
176
     1
 40
0.0
176
     1
 90
        0
176
     1
290
     0
176
     1
290
     1
176
     1
290
     1
176
     1
290
     0
176
     1
290
     0
176
     1
290
     0
176
     1
290
     0
176
     1
290
     0
176
     1
290
     0
176
     1
 90
       50
176
     1
 40
0.0
176
     1
 40
1.0
176
     1
 90
        0
176
     1
 62
    18
420
        0
176
     1
 90
       50
176
     1
 90
        3
176
     1
 62
     5
420
      255
176
     1
290
     0
176
     1
 90
       50
176
     1
 90
       50
176
     1
 90
       50
176
     1
290
     0
176
     1
 90
       50
176
     1
 62
   256
176
     0
 40
1.0
176
     0
 90
        2
176
     1
  1
strokes_ogs.tif
176
     1
290
     0
176
     1
 40
1.0
176
     1
 40
1.0
176
     1
  0
VISUALSTYLE
  5
2C
102
{ACAD_REACTORS
330
2A
102
}
330
2A
100
AcDbVisualStyle
  2
FlatWithEdges
 70
     1
177
     3
291
     1
 70
    58
 90
        2
176
     1
 90
        1
176
     1
 90
        1
176
     1
 90
        2
176
     1
 40
0.6
176
     1
 40
30.0
176
     1
 62
     7
420
 16777215
176
     1
 90
        1
176
     1
 90
        0
176
     1
 62
     7
176
     1
 62
   257
176
     1
 90
        1
176
     1
 90
        1
176
     1
 40
1.0
176
     1
 90
        0
176
     1
 62
   257
176
     1
 40
1.0
176
     1
 90
        1
176
     1
 90
        6
176
     1
 90
        2
176
     1
 62
     7
176
     1
 90
        5
176
     1
 90
        0
176
     1
 90
        0
176
     1
290
     0
176
     1
 90
       13
176
     1
 40
0.0
176
     1
 90
        0
176
     1
290
     0
176
     1
290
     1
176
     1
290
     1
176
     1
290
     0
176
     1
290
     0
176
     1
290
     0
176
     1
290
     0
176
     1
290
     0
176
     1
290
     0
176
     1
 90
       50
176
     1
 40
0.0
176
     1
 40
1.0
176
     1
 90
        0
176
     1
 62
    18
420
        0
176
     1
 90
       50
176
     1
 90
        3
176
     1
 62
     5
420
      255
176
     1
290
     0
176
     1
 90
       50
176
     1
 90
       50
176
     1
 90
       50
176
     1
290
     0
176
     1
 90
       50
176
     1
 62
   256
176
     0
 40
1.0
176
     0
 90
        2
176
     1
  1
strokes_ogs.tif
176
     1
290
     0
176
     1
 40
1.0
176
     1
 40
1.0
176
     1
  0
VISUALSTYLE
  5
2D
102
{ACAD_REACTORS
330
2A
102
}
330
2A
100
AcDbVisualStyle
  2
Gouraud
 70
     2
177
     3
291
     1
 70
    58
 90
        2
176
     1
 90
        2
176
     1
 90
        1
176
     1
 90
        2
176
     1
 40
0.6
176
     1
 40
30.0
176
     1
 62
     7
420
 16777215
176
     1
 90
        0
176
     1
 90
        0
176
     1
 62
     7
176
     1
 62
   257
176
     1
 90
        1
176
     1
 90
        1
176
     1
 40
1.0
176
     1
 90
        0
176
     1
 62
     7
176
     1
 40
1.0
176
     1
 90
        1
176
     1
 90
        6
176
     1
 90
        2
176
     1
 62
     7
176
     1
 90
        5
176
     1
 90
        0
176
     1
 90
        0
176
     1
290
     0
176
     1
 90
       13
176
     1
 40
0.0
176
     1
 90
        0
176
     1
290
     0
176
     1
290
     1
176
     1
290
     1
176
     1
290
     0
176
     1
290
     0
176
     1
290
     0
176
     1
290
     0
176
     1
290
     0
176
     1
290
     0
176
     1
 90
       50
176
     1
 40
0.0
176
     1
 40
1.0
176
     1
 90
        0
176
     1
 62
    18
420
        0
176
     1
 90
       50
176
     1
 90
        3
176
     1
 62
     5
420
      255
176
     1
290
     0
176
     1
 90
       50
176
     1
 90
       50
176
     1
 90
       50
176
     1
290
     0
176
     1
 90
       50
176
     1
 62
   256
176
     0
 40
1.0
176
     0
 90
        2
176
     1
  1
strokes_ogs.tif
176
     1
290
     0
176
     1
 40
1.0
176
     1
 40
1.0
176
     1
  0
VISUALSTYLE
  5
2E
102
{ACAD_REACTORS
330
2A
102
}
330
2A
100
AcDbVisualStyle
  2
GouraudWithEdges
 70
     3
177
     3
291
     1
 70
    58
 90
        2
176
     1
 90
        2
176
     1
 90
        1
176
     1
 90
        2
176
     1
 40
0.6
176
     1
 40
30.0
176
     1
 62
     7
420
 16777215
176
     1
 90
        1
176
     1
 90
        0
176
     1
 62
     7
176
     1
 62
   257
176
     1
 90
        1
176
     1
 90
        1
176
     1
 40
1.0
176
     1
 90
        0
176
     1
 62
   257
176
     1
 40
1.0
176
     1
 90
        1
176
     1
 90
        6
176
     1
 90
        2
176
     1
 62
     7
176
     1
 90
        5
176
     1
 90
        0
176
     1
 90
        0
176
     1
290
     0
176
     1
 90
       13
176
     1
 40
0.0
176
     1
 90
        0
176
     1
290
     0
176
     1
290
     1
176
     1
290
     1
176
     1
290
     0
176
     1
290
     0
176
     1
290
     0
176
     1
290
     0
176
     1
290
     0
176
     1
290
     0
176
     1
 90
       50
176
     1
 40
0.0
176
     1
 40
1.0
176
     1
 90
        0
176
     1
 62
    18
420
        0
176
     1
 90
       50
176
     1
 90
        3
176
     1
 62
     5
420
      255
176
     1
290
     0
176
     1
 90
       50
176
     1
 90
       50
176
     1
 90
       50
176
     1
290
     0
176
     1
 90
       50
176
     1
 62
   256
176
     0
 40
1.0
176
     0
 90
        2
176
     1
  1
strokes_ogs.tif
176
     1
290
     0
176
     1
 40
1.0
176
     1
 40
1.0
176
     1
  0
VISUALSTYLE
  5
31
102
{ACAD_REACTORS
330
2A
102
}
330
2A
100
AcDbVisualStyle
  2
Hidden
 70
     6
177
     3
291
     0
 70
    58
 90
        1
176
     1
 90
        2
176
     1
 90
        2
176
     1
 90
        0
176
     1
 40
0.6
176
     1
 40
30.0
176
     1
 62
     7
420
 16777215
176
     1
 90
        2
176
     1
 90
        2
176
     1
 62
     7
176
     1
 62
   257
176
     1
 90
        2
176
     1
 90
        1
176
     1
 40
40.0
176
     1
 90
        0
176
     1
 62
   257
176
     1
 40
1.0
176
     1
 90
        1
176
     1
 90
        6
176
     1
 90
        2
176
     1
 62
     7
176
     1
 90
        3
176
     1
 90
        0
176
     1
 90
        0
176
     1
290
     0
176
     1
 90
        1
176
     1
 40
0.0
176
     1
 90
        0
176
     1
290
     0
176
     1
290
     1
176
     1
290
     1
176
     1
290
     0
176
     1
290
     0
176
     1
290
     0
176
     1
290
     0
176
     1
290
     0
176
     1
290
     0
176
     1
 90
       50
176
     1
 40
0.0
176
     1
 40
1.0
176
     1
 90
        0
176
     1
 62
    18
420
        0
176
     1
 90
       50
176
     1
 90
        3
176
     1
 62
     5
420
      255
176
     1
290
     0
176
     1
 90
       50
176
     1
 90
       50
176
     1
 90
       50
176
     1
290
     0
176
     1
 90
       50
176
     1
 62
   256
176
     0
 40
1.0
176
     0
 90
        2
176
     1
  1
strokes_ogs.tif
176
     1
290
     0
176
     1
 40
1.0
176
     1
 40
1.0
176
     1
  0
VISUALSTYLE
  5
3B
102
{ACAD_REACTORS
330
2A
102
}
330
2A
100
AcDbVisualStyle
  2
JitterOff
 70
    20
177
     3
291
     1
 70
    58
 90
        2
176
     0
 90
        2
176
     0
 90
        0
176
     0
 90
        0
176
     0
 40
0.6
176
     0
 40
30.0
176
     0
 62
     7
420
 16777215
176
     0
 90
        1
176
     0
 90
        4
176
     0
 62
     7
176
     0
 62
   257
176
     0
 90
        1
176
     0
 90
        1
176
     0
 40
1.0
176
     0
 90
       10
176
     2
 62
     7
176
     0
 40
1.0
176
     0
 90
        1
176
     0
 90
        6
176
     0
 90
        2
176
     0
 62
     7
176
     0
 90
        5
176
     0
 90
        0
176
     0
 90
        0
176
     0
290
     0
176
     0
 90
        1
176
     0
 40
0.0
176
     0
 90
        0
176
     0
290
     0
176
     0
290
     1
176
     0
290
     1
176
     0
290
     0
176
     0
290
     0
176
     0
290
     0
176
     0
290
     0
176
     0
290
     0
176
     0
290
     0
176
     0
 90
       50
176
     0
 40
0.0
176
     0
 40
1.0
176
     0
 90
        0
176
     0
 62
    18
420
        0
176
     0
 90
       50
176
     0
 90
        3
176
     0
 62
     5
420
      255
176
     0
290
     0
176
     0
 90
       50
176
     0
 90
       50
176
     0
 90
       50
176
     0
290
     0
176
     0
 90
       50
176
     0
 62
   256
176
     0
 40
1.0
176
     0
 90
        2
176
     0
  1
strokes_ogs.tif
176
     0
290
     0
176
     0
 40
1.0
176
     0
 40
1.0
176
     0
  0
VISUALSTYLE
  5
38
102
{ACAD_REACTORS
330
2A
102
}
330
2A
100
AcDbVisualStyle
  2
Linepattern
 70
    14
177
     3
291
     1
 70
    58
 90
        2
176
     1
 90
        2
176
     1
 90
        0
176
     1
 90
        0
176
     1
 40
0.6
176
     1
 40
30.0
176
     1
 62
     7
420
 16777215
176
     1
 90
        1
176
     1
 90
        4
176
     1
 62
     7
176
     1
 62
   257
176
     1
 90
        7
176
     1
 90
        7
176
     1
 40
1.0
176
     1
 90
        8
176
     1
 62
     7
176
     1
 40
1.0
176
     1
 90
        1
176
     1
 90
        6
176
     1
 90
        2
176
     1
 62
     7
176
     1
 90
        5
176
     1
 90
        0
176
     1
 90
        0
176
     1
290
     0
176
     1
 90
        1
176
     1
 40
0.0
176
     1
 90
        0
176
     1
290
     0
176
     1
290
     1
176
     1
290
     1
176
     1
290
     0
176
     1
290
     0
176
     1
290
     0
176
     1
290
     0
176
     1
290
     0
176
     1
290
     0
176
     1
 90
       50
176
     1
 40
0.0
176
     1
 40
1.0
176
     1
 90
        0
176
     1
 62
    18
420
        0
176
     1
 90
       50
176
     1
 90
        3
176
     1
 62
     5
420
      255
176
     1
290
     0
176
     1
 90
       50
176
     1
 90
       50
176
     1
 90
       50
176
     1
290
     0
176
     1
 90
       50
176
     1
 62
   256
176
     0
 40
1.0
176
     0
 90
        2
176
     1
  1
strokes_ogs.tif
176
     1
290
     0
176
     1
 40
1.0
176
     1
 40
1.0
176
     1
  0
VISUALSTYLE
  5
3C
102
{ACAD_REACTORS
330
2A
102
}
330
2A
100
AcDbVisualStyle
  2
OverhangOff
 70
    21
177
     3
291
     1
 70
    58
 90
        2
176
     0
 90
        2
176
     0
 90
        0
176
     0
 90
        0
176
     0
 40
0.6
176
     0
 40
30.0
176
     0
 62
     7
420
 16777215
176
     0
 90
        1
176
     0
 90
        4
176
     0
 62
     7
176
     0
 62
   257
176
     0
 90
        1
176
     0
 90
        1
176
     0
 40
1.0
176
     0
 90
        9
176
     2
 62
     7
176
     0
 40
1.0
176
     0
 90
        1
176
     0
 90
        6
176
     0
 90
        2
176
     0
 62
     7
176
     0
 90
        5
176
     0
 90
        0
176
     0
 90
        0
176
     0
290
     0
176
     0
 90
        1
176
     0
 40
0.0
176
     0
 90
        0
176
     0
290
     0
176
     0
290
     1
176
     0
290
     1
176
     0
290
     0
176
     0
290
     0
176
     0
290
     0
176
     0
290
     0
176
     0
290
     0
176
     0
290
     0
176
     0
 90
       50
176
     0
 40
0.0
176
     0
 40
1.0
176
     0
 90
        0
176
     0
 62
    18
420
        0
176
     0
 90
       50
176
     0
 90
        3
176
     0
 62
     5
420
      255
176
     0
290
     0
176
     0
 90
       50
176
     0
 90
       50
176
     0
 90
       50
176
     0
290
     0
176
     0
 90
       50
176
     0
 62
   256
176
     0
 40
1.0
176
     0
 90
        2
176
     0
  1
strokes_ogs.tif
176
     0
290
     0
176
     0
 40
1.0
176
     0
 40
1.0
176
     0
  0
VISUALSTYLE
  5
33
102
{ACAD_REACTORS
330
2A
102
}
330
2A
100
AcDbVisualStyle
  2
Realistic
 70
     8
177
     3
291
     0
 70
    58
 90
        2
176
     1
 90
        3
176
     1
 90
        0
176
     1
 90
        2
176
     1
 40
0.6
176
     1
 40
30.0
176
     1
 62
     7
420
 16777215
176
     1
 90
        0
176
     1
 90
        0
176
     1
 62
     7
176
     1
 62
   257
176
     1
 90
        1
176
     1
 90
        1
176
     1
 40
1.0
176
     1
 90
        8
176
     1
 62
   257
176
     1
 40
1.0
176
     1
 90
        1
176
     1
 90
        6
176
     1
 90
        2
176
     1
 62
     7
176
     1
 90
        3
176
     1
 90
        0
176
     1
 90
        0
176
     1
290
     0
176
     1
 90
       13
176
     1
 40
0.0
176
     1
 90
        0
176
     1
290
     0
176
     1
290
     1
176
     1
290
     1
176
     1
290
     0
176
     1
290
     0
176
     1
290
     0
176
     1
290
     0
176
     1
290
     0
176
     1
290
     0
176
     1
 90
       50
176
     1
 40
0.0
176
     1
 40
1.0
176
     1
 90
        0
176
     1
 62
    18
420
        0
176
     1
 90
       50
176
     1
 90
        3
176
     1
 62
     5
420
      255
176
     1
290
     0
176
     1
 90
       50
176
     1
 90
       50
176
     1
 90
       50
176
     1
290
     0
176
     1
 90
       50
176
     1
 62
   256
176
     0
 40
1.0
176
     0
 90
        2
176
     1
  1
strokes_ogs.tif
176
     1
290
     0
176
     1
 40
1.0
176
     1
 40
1.0
176
     1
  0
VISUALSTYLE
  5
42
102
{ACAD_REACTORS
330
2A
102
}
330
2A
100
AcDbVisualStyle
  2
Shaded
 70
    27
177
     3
291
     0
 70
    58
 90
        2
176
     1
 90
        2
176
     1
 90
        1
176
     1
 90
        2
176
     1
 40
0.6
176
     1
 40
30.0
176
     1
 62
     7
420
 16777215
176
     1
 90
        0
176
     1
 90
        4
176
     1
 62
     7
176
     1
 62
   257
176
     1
 90
        1
176
     1
 90
        1
176
     1
 40
1.0
176
     1
 90
        8
176
     1
 62
   257
176
     1
 40
1.0
176
     1
 90
        1
176
     1
 90
        6
176
     1
 90
        2
176
     1
 62
     8
420
  7895160
176
     1
 90
        3
176
     1
 90
        0
176
     1
 90
        0
176
     1
290
     0
176
     1
 90
        5
176
     1
 40
0.0
176
     1
 90
        0
176
     1
290
     0
176
     1
290
     1
176
     1
290
     1
176
     1
290
     0
176
     1
290
     0
176
     1
290
     0
176
     1
290
     0
176
     1
290
     0
176
     1
290
     0
176
     1
 90
       50
176
     1
 40
0.0
176
     1
 40
1.0
176
     1
 90
        0
176
     1
 62
    18
420
        0
176
     1
 90
       50
176
     1
 90
        3
176
     1
 62
     5
420
      255
176
     1
290
     0
176
     1
 90
       50
176
     1
 90
       50
176
     1
 90
       50
176
     1
290
     0
176
     1
 90
       50
176
     1
 62
   256
176
     0
 40
1.0
176
     0
 90
        2
176
     1
  1
strokes_ogs.tif
176
     1
290
     0
176
     1
 40
1.0
176
     1
 40
1.0
176
     1
  0
VISUALSTYLE
  5
41
102
{ACAD_REACTORS
330
2A
102
}
330
2A
100
AcDbVisualStyle
  2
Shaded with edges
 70
    26
177
     3
291
     0
 70
    58
 90
        2
176
     1
 90
        2
176
     1
 90
        1
176
     1
 90
        2
176
     1
 40
0.6
176
     1
 40
30.0
176
     1
 62
     7
420
 16777215
176
     1
 90
        1
176
     1
 90
       10
176
     1
 62
     7
176
     1
 62
   257
176
     1
 90
        2
176
     1
 90
        1
176
     1
 40
1.0
176
     1
 90
        8
176
     1
 62
   257
176
     1
 40
1.0
176
     1
 90
        1
176
     1
 90
        6
176
     1
 90
        2
176
     1
 62
     7
176
     1
 90
        3
176
     1
 90
        0
176
     1
 90
        0
176
     1
290
     0
176
     1
 90
        5
176
     1
 40
0.0
176
     1
 90
        0
176
     1
290
     0
176
     1
290
     1
176
     1
290
     1
176
     1
290
     0
176
     1
290
     0
176
     1
290
     0
176
     1
290
     0
176
     1
290
     0
176
     1
290
     0
176
     1
 90
       50
176
     1
 40
0.0
176
     1
 40
1.0
176
     1
 90
        0
176
     1
 62
    18
420
        0
176
     1
 90
       50
176
     1
 90
        3
176
     1
 62
     5
420
      255
176
     1
290
     0
176
     1
 90
       50
176
     1
 90
       50
176
     1
 90
       50
176
     1
290
     0
176
     1
 90
       50
176
     1
 62
   256
176
     0
 40
1.0
176
     0
 90
        2
176
     1
  1
strokes_ogs.tif
176
     1
290
     0
176
     1
 40
1.0
176
     1
 40
1.0
176
     1
  0
VISUALSTYLE
  5
3E
102
{ACAD_REACTORS
330
2A
102
}
330
2A
100
AcDbVisualStyle
  2
Shades of Gray
 70
    23
177
     3
291
     0
 70
    58
 90
        2
176
     1
 90
        2
176
     1
 90
        3
176
     1
 90
        0
176
     1
 40
0.6
176
     1
 40
30.0
176
     1
 62
     7
420
 16777215
176
     1
 90
        2
176
     1
 90
        2
176
     1
 62
     7
176
     1
 62
     7
176
     1
 90
        1
176
     1
 90
        1
176
     1
 40
40.0
176
     1
 90
        8
176
     1
 62
     7
176
     1
 40
1.0
176
     1
 90
        1
176
     1
 90
        6
176
     1
 90
        2
176
     1
 62
     7
176
     1
 90
        3
176
     1
 90
        0
176
     1
 90
        0
176
     1
290
     0
176
     1
 90
        1
176
     1
 40
0.0
176
     1
 90
        0
176
     1
290
     0
176
     1
290
     1
176
     1
290
     1
176
     1
290
     0
176
     1
290
     0
176
     1
290
     0
176
     1
290
     0
176
     1
290
     0
176
     1
290
     0
176
     1
 90
       50
176
     1
 40
0.0
176
     1
 40
1.0
176
     1
 90
        0
176
     1
 62
    18
420
        0
176
     1
 90
       50
176
     1
 90
        3
176
     1
 62
     5
420
      255
176
     1
290
     0
176
     1
 90
       50
176
     1
 90
       50
176
     1
 90
       50
176
     1
290
     0
176
     1
 90
       50
176
     1
 62
   256
176
     0
 40
1.0
176
     0
 90
        2
176
     1
  1
strokes_ogs.tif
176
     1
290
     0
176
     1
 40
1.0
176
     1
 40
1.0
176
     1
  0
VISUALSTYLE
  5
3F
102
{ACAD_REACTORS
330
2A
102
}
330
2A
100
AcDbVisualStyle
  2
Sketchy
 70
    24
177
     3
291
     0
 70
    58
 90
        1
176
     1
 90
        2
176
     1
 90
        2
176
     1
 90
        0
176
     1
 40
0.6
176
     1
 40
30.0
176
     1
 62
     7
420
 16777215
176
     1
 90
        2
176
     1
 90
        2
176
     1
 62
     7
176
     1
 62
     7
176
     1
 90
        1
176
     1
 90
        1
176
     1
 40
40.0
176
     1
 90
       11
176
     1
 62
     7
176
     1
 40
1.0
176
     1
 90
        1
176
     1
 90
        6
176
     1
 90
        2
176
     1
 62
     7
176
     1
 90
        6
176
     1
 90
        0
176
     1
 90
        0
176
     1
290
     0
176
     1
 90
        1
176
     1
 40
0.0
176
     1
 90
        0
176
     1
290
     0
176
     1
290
     1
176
     1
290
     1
176
     1
290
     0
176
     1
290
     0
176
     1
290
     0
176
     1
290
     0
176
     1
290
     0
176
     1
290
     0
176
     1
 90
       50
176
     1
 40
0.0
176
     1
 40
1.0
176
     1
 90
        0
176
     1
 62
    18
420
        0
176
     1
 90
       50
176
     1
 90
        3
176
     1
 62
     5
420
      255
176
     1
290
     0
176
     1
 90
       50
176
     1
 90
       50
176
     1
 90
       50
176
     1
290
     0
176
     1
 90
       50
176
     1
 62
   256
176
     0
 40
1.0
176
     0
 90
        2
176
     1
  1
strokes_ogs.tif
176
     1
290
     0
176
     1
 40
1.0
176
     1
 40
1.0
176
     1
  0
VISUALSTYLE
  5
37
102
{ACAD_REACTORS
330
2A
102
}
330
2A
100
AcDbVisualStyle
  2
Thicken
 70
    13
177
     3
291
     1
 70
    58
 90
        2
176
     1
 90
        2
176
     1
 90
        0
176
     1
 90
        0
176
     1
 40
0.6
176
     1
 40
30.0
176
     1
 62
     7
420
 16777215
176
     1
 90
        1
176
     1
 90
        4
176
     1
 62
     7
176
     1
 62
   257
176
     1
 90
        1
176
     1
 90
        1
176
     1
 40
1.0
176
     1
 90
       12
176
     1
 62
     7
176
     1
 40
1.0
176
     1
 90
        1
176
     1
 90
        6
176
     1
 90
        2
176
     1
 62
     7
176
     1
 90
        5
176
     1
 90
        0
176
     1
 90
        0
176
     1
290
     0
176
     1
 90
        1
176
     1
 40
0.0
176
     1
 90
        0
176
     1
290
     0
176
     1
290
     1
176
     1
290
     1
176
     1
290
     0
176
     1
290
     0
176
     1
290
     0
176
     1
290
     0
176
     1
290
     0
176
     1
290
     0
176
     1
 90
       50
176
     1
 40
0.0
176
     1
 40
1.0
176
     1
 90
        0
176
     1
 62
    18
420
        0
176
     1
 90
       50
176
     1
 90
        3
176
     1
 62
     5
420
      255
176
     1
290
     0
176
     1
 90
       50
176
     1
 90
       50
176
     1
 90
       50
176
     1
290
     0
176
     1
 90
       50
176
     1
 62
   256
176
     0
 40
1.0
176
     0
 90
        2
176
     1
  1
strokes_ogs.tif
176
     1
290
     0
176
     1
 40
1.0
176
     1
 40
1.0
176
     1
  0
VISUALSTYLE
  5
30
102
{ACAD_REACTORS
330
2A
102
}
330
2A
100
AcDbVisualStyle
  2
Wireframe
 70
     5
177
     3
291
     0
 70
    58
 90
        0
176
     1
 90
        2
176
     1
 90
        0
176
     1
 90
        0
176
     1
 40
0.6
176
     1
 40
30.0
176
     1
 62
     7
420
 16777215
176
     1
 90
        1
176
     1
 90
        4
176
     1
 62
     7
176
     1
 62
   257
176
     1
 90
        1
176
     1
 90
        1
176
     1
 40
1.0
176
     1
 90
        0
176
     1
 62
   257
176
     1
 40
1.0
176
     1
 90
        1
176
     1
 90
        6
176
     1
 90
        2
176
     1
 62
     7
176
     1
 90
        3
176
     1
 90
        0
176
     1
 90
        0
176
     1
290
     0
176
     1
 90
        1
176
     1
 40
0.0
176
     1
 90
        0
176
     1
290
     0
176
     1
290
     1
176
     1
290
     1
176
     1
290
     0
176
     1
290
     0
176
     1
290
     0
176
     1
290
     0
176
     1
290
     0
176
     1
290
     0
176
     1
 90
       50
176
     1
 40
0.0
176
     1
 40
1.0
176
     1
 90
        0
176
     1
 62
    18
420
        0
176
     1
 90
       50
176
     1
 90
        3
176
     1
 62
     5
420
      255
176
     1
290
     0
176
     1
 90
       50
176
     1
 90
       50
176
     1
 90
       50
176
     1
290
     0
176
     1
 90
       50
176
     1
 62
   256
176
     0
 40
1.0
176
     0
 90
        2
176
     1
  1
strokes_ogs.tif
176
     1
290
     0
176
     1
 40
1.0
176
     1
 40
1.0
176
     1
  0
VISUALSTYLE
  5
40
102
{ACAD_REACTORS
330
2A
102
}
330
2A
100
AcDbVisualStyle
  2
X-Ray
 70
    25
177
     3
291
     0
 70
    58
 90
        2
176
     1
 90
        2
176
     1
 90
        1
176
     1
 90
        1
176
     1
 40
0.5
176
     1
 40
30.0
176
     1
 62
     7
420
 16777215
176
     1
 90
        1
176
     1
 90
        0
176
     1
 62
     7
176
     1
 62
   257
176
     1
 90
        1
176
     1
 90
        1
176
     1
 40
1.0
176
     1
 90
        8
176
     1
 62
     7
176
     1
 40
1.0
176
     1
 90
        1
176
     1
 90
        6
176
     1
 90
        2
176
     1
 62
     7
176
     1
 90
        3
176
     1
 90
        0
176
     1
 90
        0
176
     1
290
     0
176
     1
 90
       13
176
     1
 40
0.0
176
     1
 90
        0
176
     1
290
     0
176
     1
290
     1
176
     1
290
     1
176
     1
290
     0
176
     1
290
     0
176
     1
290
     0
176
     1
290
     0
176
     1
290
     0
176
     1
290
     0
176
     1
 90
       50
176
     1
 40
0.0
176
     1
 40
1.0
176
     1
 90
        0
176
     1
 62
    18
420
        0
176
     1
 90
       50
176
     1
 90
        3
176
     1
 62
     5
420
      255
176
     1
290
     0
176
     1
 90
       50
176
     1
 90
       50
176
     1
 90
       50
176
     1
290
     0
176
     1
 90
       50
176
     1
 62
   256
176
     0
 40
1.0
176
     0
 90
        2
176
     1
  1
strokes_ogs.tif
176
     1
290
     0
176
     1
 40
1.0
176
     1
 40
1.0
176
     1
  0
DICTIONARYVAR
  5
261
102
{ACAD_REACTORS
330
260
102
}
330
260
100
DictionaryVariables
280
     0
  1
1:1
  0
DICTIONARYVAR
  5
266
102
{ACAD_REACTORS
330
260
102
}
330
260
100
DictionaryVariables
280
     0
  1
Standard
  0
DICTIONARYVAR
  5
265
102
{ACAD_REACTORS
330
260
102
}
330
260
100
DictionaryVariables
280
     0
  1
Standard
  0
DICTIONARY
  5
262
330
6A
100
AcDbDictionary
280
     1
281
     1
  3
ACAD_ROUNDTRIP_2008_TABLESTYLE_CELLSTYLEMAP
360
263
  0
CELLSTYLEMAP
  5
263
102
{ACAD_REACTORS
330
262
102
}
330
262
100
AcDbCellStyleMap
 90
        3
300
CELLSTYLE
  1
TABLEFORMAT_BEGIN
 90
        5
170
     1
 91
        0
 92
    32768
 62
   257
 93
        1
300
CONTENTFORMAT
  1
CONTENTFORMAT_BEGIN
 90
        0
 91
        0
 92
        4
 93
        0
300

 40
0.0
140
1.0
 94
        5
 62
     0
340
11
144
0.25
309
CONTENTFORMAT_END
171
     1
301
MARGIN
  1
CELLMARGIN_BEGIN
 40
0.06
 40
0.06
 40
0.06
 40
0.06
 40
0.06
 40
0.06
309
CELLMARGIN_END
 94
        6
 95
        1
302
GRIDFORMAT
  1
GRIDFORMAT_BEGIN
 90
        0
 91
        1
 62
     0
 92
       -2
340
14
 93
        0
 40
0.045
309
GRIDFORMAT_END
 95
        2
302
GRIDFORMAT
  1
GRIDFORMAT_BEGIN
 90
        0
 91
        1
 62
     0
 92
       -2
340
14
 93
        0
 40
0.045
309
GRIDFORMAT_END
 95
        4
302
GRIDFORMAT
  1
GRIDFORMAT_BEGIN
 90
        0
 91
        1
 62
     0
 92
       -2
340
14
 93
        0
 40
0.045
309
GRIDFORMAT_END
 95
        8
302
GRIDFORMAT
  1
GRIDFORMAT_BEGIN
 90
        0
 91
        1
 62
     0
 92
       -2
340
14
 93
        0
 40
0.045
309
GRIDFORMAT_END
 95
       16
302
GRIDFORMAT
  1
GRIDFORMAT_BEGIN
 90
        0
 91
        1
 62
     0
 92
       -2
340
14
 93
        0
 40
0.045
309
GRIDFORMAT_END
 95
       32
302
GRIDFORMAT
  1
GRIDFORMAT_BEGIN
 90
        0
 91
        1
 62
     0
 92
       -2
340
14
 93
        0
 40
0.045
309
GRIDFORMAT_END
309
TABLEFORMAT_END
  1
CELLSTYLE_BEGIN
 90
        1
 91
        1
300
_TITLE
309
CELLSTYLE_END
300
CELLSTYLE
  1
TABLEFORMAT_BEGIN
 90
        5
170
     1
 91
        0
 92
        0
 62
   257
 93
        1
300
CONTENTFORMAT
  1
CONTENTFORMAT_BEGIN
 90
        0
 91
        0
 92
        4
 93
        0
300

 40
0.0
140
1.0
 94
        5
 62
     0
340
11
144
0.18
309
CONTENTFORMAT_END
171
     1
301
MARGIN
  1
CELLMARGIN_BEGIN
 40
0.06
 40
0.06
 40
0.06
 40
0.06
 40
0.06
 40
0.06
309
CELLMARGIN_END
 94
        6
 95
        1
302
GRIDFORMAT
  1
GRIDFORMAT_BEGIN
 90
        0
 91
        1
 62
     0
 92
       -2
340
14
 93
        0
 40
0.045
309
GRIDFORMAT_END
 95
        2
302
GRIDFORMAT
  1
GRIDFORMAT_BEGIN
 90
        0
 91
        1
 62
     0
 92
       -2
340
14
 93
        0
 40
0.045
309
GRIDFORMAT_END
 95
        4
302
GRIDFORMAT
  1
GRIDFORMAT_BEGIN
 90
        0
 91
        1
 62
     0
 92
       -2
340
14
 93
        0
 40
0.045
309
GRIDFORMAT_END
 95
        8
302
GRIDFORMAT
  1
GRIDFORMAT_BEGIN
 90
        0
 91
        1
 62
     0
 92
       -2
340
14
 93
        0
 40
0.045
309
GRIDFORMAT_END
 95
       16
302
GRIDFORMAT
  1
GRIDFORMAT_BEGIN
 90
        0
 91
        1
 62
     0
 92
       -2
340
14
 93
        0
 40
0.045
309
GRIDFORMAT_END
 95
       32
302
GRIDFORMAT
  1
GRIDFORMAT_BEGIN
 90
        0
 91
        1
 62
     0
 92
       -2
340
14
 93
        0
 40
0.045
309
GRIDFORMAT_END
309
TABLEFORMAT_END
  1
CELLSTYLE_BEGIN
 90
        2
 91
        1
300
_HEADER
309
CELLSTYLE_END
300
CELLSTYLE
  1
TABLEFORMAT_BEGIN
 90
        5
170
     1
 91
        0
 92
        0
 62
   257
 93
        1
300
CONTENTFORMAT
  1
CONTENTFORMAT_BEGIN
 90
        0
 91
        0
 92
        4
 93
        0
300

 40
0.0
140
1.0
 94
        2
 62
     0
340
11
144
0.18
309
CONTENTFORMAT_END
171
     1
301
MARGIN
  1
CELLMARGIN_BEGIN
 40
0.06
 40
0.06
 40
0.06
 40
0.06
 40
0.06
 40
0.06
309
CELLMARGIN_END
 94
        6
 95
        1
302
GRIDFORMAT
  1
GRIDFORMAT_BEGIN
 90
        0
 91
        1
 62
     0
 92
       -2
340
14
 93
        0
 40
0.045
309
GRIDFORMAT_END
 95
        2
302
GRIDFORMAT
  1
GRIDFORMAT_BEGIN
 90
        0
 91
        1
 62
     0
 92
       -2
340
14
 93
        0
 40
0.045
309
GRIDFORMAT_END
 95
        4
302
GRIDFORMAT
  1
GRIDFORMAT_BEGIN
 90
        0
 91
        1
 62
     0
 92
       -2
340
14
 93
        0
 40
0.045
309
GRIDFORMAT_END
 95
        8
302
GRIDFORMAT
  1
GRIDFORMAT_BEGIN
 90
        0
 91
        1
 62
     0
 92
       -2
340
14
 93
        0
 40
0.045
309
GRIDFORMAT_END
 95
       16
302
GRIDFORMAT
  1
GRIDFORMAT_BEGIN
 90
        0
 91
        1
 62
     0
 92
       -2
340
14
 93
        0
 40
0.045
309
GRIDFORMAT_END
 95
       32
302
GRIDFORMAT
  1
GRIDFORMAT_BEGIN
 90
        0
 91
        1
 62
     0
 92
       -2
340
14
 93
        0
 40
0.045
309
GRIDFORMAT_END
309
TABLEFORMAT_END
  1
CELLSTYLE_BEGIN
 90
        3
 91
        2
300
_DATA
309
CELLSTYLE_END
  0
ENDSEC
  0
EOF