0
SECTION
  2
HEADER
  9
$ACADVER
  1
AC1027
  9
$ACADMAINTVER
 70
   105
  9
$DWGCODEPAGE
  3
ANSI_1252
  9
$REQUIREDVERSIONS
160
                 0
  9
$COMMENTS
  1
File was created by Cadenas
  9
$CUSTOMPROPERTYTAG
  1
NN
  9
$CUSTOMPROPERTY
  1
Imperial -IP Pillow Block 1-1/8 thru 2-1/4  2-Bolt Inch Bore (Labyrinth Seal)
  9
$CUSTOMPROPERTYTAG
  1
NT
  9
$CUSTOMPROPERTY
  1
Imperial 2 Bolt Piliow Block Bearings
  9
$CUSTOMPROPERTYTAG
  1
NB
  9
$CUSTOMPROPERTY
  1
069470
  9
$CUSTOMPROPERTYTAG
  1
NBSYN
  9
$CUSTOMPROPERTY
  1
$PN.
  9
$CUSTOMPROPERTYTAG
  1
LINA
  9
$CUSTOMPROPERTY
  1
069470
  9
$CUSTOMPROPERTYTAG
  1
SS
  9
$CUSTOMPROPERTY
  1
2-3/8
  9
$CUSTOMPROPERTYTAG
  1
PN
  9
$CUSTOMPROPERTY
  1
069470
  9
$CUSTOMPROPERTYTAG
  1
DESCRIPTION
  9
$CUSTOMPROPERTY
  1
P2B-IP-206L
  9
$CUSTOMPROPERTYTAG
  1
EF
  9
$CUSTOMPROPERTY
  1
Non-Expansion Type
  9
$CUSTOMPROPERTYTAG
  1
ST
  9
$CUSTOMPROPERTY
  1
Labyrinth Seal
  9
$CUSTOMPROPERTYTAG
  1
A
  9
$CUSTOMPROPERTY
  1
3-27/64
  9
$CUSTOMPROPERTYTAG
  1
B
  9
$CUSTOMPROPERTY
  1
9-1/4
  9
$CUSTOMPROPERTYTAG
  1
C
  9
$CUSTOMPROPERTY
  1
2-55/64
  9
$CUSTOMPROPERTYTAG
  1
DMIN
  9
$CUSTOMPROPERTY
  1
6-15/16
  9
$CUSTOMPROPERTYTAG
  1
DMAX
  9
$CUSTOMPROPERTY
  1
7-5/16
  9
$CUSTOMPROPERTYTAG
  1
F
  9
$CUSTOMPROPERTY
  1
5/8
  9
$CUSTOMPROPERTYTAG
  1
G
  9
$CUSTOMPROPERTY
  1
61/64
  9
$CUSTOMPROPERTYTAG
  1
H
  9
$CUSTOMPROPERTY
  1
1-5/8
  9
$CUSTOMPROPERTYTAG
  1
J
  9
$CUSTOMPROPERTY
  1
5-19/32
  9
$CUSTOMPROPERTYTAG
  1
L
  9
$CUSTOMPROPERTY
  1
3-7/8
  9
$CUSTOMPROPERTYTAG
  1
M
  9
$CUSTOMPROPERTY
  1
2-3/4
  9
$CUSTOMPROPERTYTAG
  1
R
  9
$CUSTOMPROPERTY
  1
1-13/64
  9
$CUSTOMPROPERTYTAG
  1
S
  9
$CUSTOMPROPERTY
  1
2-7/32
  9
$CUSTOMPROPERTYTAG
  1
X
  9
$CUSTOMPROPERTY
  1
1/4
  9
$CUSTOMPROPERTYTAG
  1
Y
  9
$CUSTOMPROPERTY
  1
0.025
  9
$CUSTOMPROPERTYTAG
  1
Z
  9
$CUSTOMPROPERTY
  1
2-15/16
  9
$CUSTOMPROPERTYTAG
  1
COMPANY
  9
$CUSTOMPROPERTY
  1
baldor
  9
$INSBASE
 10
0.0
 20
0.0
 30
0.0
  9
$EXTMIN
 10
1.000000000000000E+20
 20
1.000000000000000E+20
 30
1.000000000000000E+20
  9
$EXTMAX
 10
-1.000000000000000E+20
 20
-1.000000000000000E+20
 30
-1.000000000000000E+20
  9
$LIMMIN
 10
0.0
 20
0.0
  9
$LIMMAX
 10
12.0
 20
9.0
  9
$ORTHOMODE
 70
     0
  9
$REGENMODE
 70
     1
  9
$FILLMODE
 70
     1
  9
$QTEXTMODE
 70
     0
  9
$MIRRTEXT
 70
     1
  9
$LTSCALE
 40
1.0
  9
$ATTMODE
 70
     1
  9
$TEXTSIZE
 40
0.2
  9
$TRACEWID
 40
0.05
  9
$TEXTSTYLE
  7
Standard
  9
$CLAYER
  8
0
  9
$CELTYPE
  6
ByLayer
  9
$CECOLOR
 62
   256
  9
$CELTSCALE
 40
1.0
  9
$DISPSILH
 70
     0
  9
$DIMSCALE
 40
1.0
  9
$DIMASZ
 40
0.18
  9
$DIMEXO
 40
0.0625
  9
$DIMDLI
 40
0.38
  9
$DIMRND
 40
0.0
  9
$DIMDLE
 40
0.0
  9
$DIMEXE
 40
0.18
  9
$DIMTP
 40
0.0
  9
$DIMTM
 40
0.0
  9
$DIMTXT
 40
0.18
  9
$DIMCEN
 40
0.09
  9
$DIMTSZ
 40
0.0
  9
$DIMTOL
 70
     0
  9
$DIMLIM
 70
     0
  9
$DIMTIH
 70
     1
  9
$DIMTOH
 70
     1
  9
$DIMSE1
 70
     0
  9
$DIMSE2
 70
     0
  9
$DIMTAD
 70
     0
  9
$DIMZIN
 70
     0
  9
$DIMBLK
  1

  9
$DIMASO
 70
     1
  9
$DIMSHO
 70
     1
  9
$DIMPOST
  1

  9
$DIMAPOST
  1

  9
$DIMALT
 70
     0
  9
$DIMALTD
 70
     2
  9
$DIMALTF
 40
25.4
  9
$DIMLFAC
 40
1.0
  9
$DIMTOFL
 70
     0
  9
$DIMTVP
 40
0.0
  9
$DIMTIX
 70
     0
  9
$DIMSOXD
 70
     0
  9
$DIMSAH
 70
     0
  9
$DIMBLK1
  1

  9
$DIMBLK2
  1

  9
$DIMSTYLE
  2
Standard
  9
$DIMCLRD
 70
     0
  9
$DIMCLRE
 70
     0
  9
$DIMCLRT
 70
     0
  9
$DIMTFAC
 40
1.0
  9
$DIMGAP
 40
0.09
  9
$DIMJUST
 70
     0
  9
$DIMSD1
 70
     0
  9
$DIMSD2
 70
     0
  9
$DIMTOLJ
 70
     1
  9
$DIMTZIN
 70
     0
  9
$DIMALTZ
 70
     0
  9
$DIMALTTZ
 70
     0
  9
$DIMUPT
 70
     0
  9
$DIMDEC
 70
     4
  9
$DIMTDEC
 70
     4
  9
$DIMALTU
 70
     2
  9
$DIMALTTD
 70
     2
  9
$DIMTXSTY
  7
Standard
  9
$DIMAUNIT
 70
     0
  9
$DIMADEC
 70
     0
  9
$DIMALTRND
 40
0.0
  9
$DIMAZIN
 70
     0
  9
$DIMDSEP
 70
    46
  9
$DIMATFIT
 70
     3
  9
$DIMFRAC
 70
     0
  9
$DIMLDRBLK
  1

  9
$DIMLUNIT
 70
     2
  9
$DIMLWD
 70
    -2
  9
$DIMLWE
 70
    -2
  9
$DIMTMOVE
 70
     0
  9
$DIMFXL
 40
1.0
  9
$DIMFXLON
 70
     0
  9
$DIMJOGANG
 40
0.7853981633974483
  9
$DIMTFILL
 70
     0
  9
$DIMTFILLCLR
 70
     0
  9
$DIMARCSYM
 70
     0
  9
$DIMLTYPE
  6

  9
$DIMLTEX1
  6

  9
$DIMLTEX2
  6

  9
$DIMTXTDIRECTION
 70
     0
  9
$LUNITS
 70
     2
  9
$LUPREC
 70
     4
  9
$SKETCHINC
 40
0.1
  9
$FILLETRAD
 40
0.5
  9
$AUNITS
 70
     0
  9
$AUPREC
 70
     0
  9
$MENU
  1
.
  9
$ELEVATION
 40
0.0
  9
$PELEVATION
 40
0.0
  9
$THICKNESS
 40
0.0
  9
$LIMCHECK
 70
     0
  9
$CHAMFERA
 40
0.0
  9
$CHAMFERB
 40
0.0
  9
$CHAMFERC
 40
0.0
  9
$CHAMFERD
 40
0.0
  9
$SKPOLY
 70
     0
  9
$TDCREATE
 40
2458168.988761065
  9
$TDUCREATE
 40
2458168.947094398
  9
$TDUPDATE
 40
2458168.988761424
  9
$TDUUPDATE
 40
2458168.947094757
  9
$TDINDWG
 40
0.0000000116
  9
$TDUSRTIMER
 40
0.0000000116
  9
$USRTIMER
 70
     1
  9
$ANGBASE
 50
0.0
  9
$ANGDIR
 70
     0
  9
$PDMODE
 70
     0
  9
$PDSIZE
 40
0.0
  9
$PLINEWID
 40
0.0
  9
$SPLFRAME
 70
     0
  9
$SPLINETYPE
 70
     6
  9
$SPLINESEGS
 70
     8
  9
$HANDSEED
  5
23C
  9
$SURFTAB1
 70
     6
  9
$SURFTAB2
 70
     6
  9
$SURFTYPE
 70
     6
  9
$SURFU
 70
     6
  9
$SURFV
 70
     6
  9
$UCSBASE
  2

  9
$UCSNAME
  2

  9
$UCSORG
 10
0.0
 20
0.0
 30
0.0
  9
$UCSXDIR
 10
1.0
 20
0.0
 30
0.0
  9
$UCSYDIR
 10
0.0
 20
1.0
 30
0.0
  9
$UCSORTHOREF
  2

  9
$UCSORTHOVIEW
 70
     0
  9
$UCSORGTOP
 10
0.0
 20
0.0
 30
0.0
  9
$UCSORGBOTTOM
 10
0.0
 20
0.0
 30
0.0
  9
$UCSORGLEFT
 10
0.0
 20
0.0
 30
0.0
  9
$UCSORGRIGHT
 10
0.0
 20
0.0
 30
0.0
  9
$UCSORGFRONT
 10
0.0
 20
0.0
 30
0.0
  9
$UCSORGBACK
 10
0.0
 20
0.0
 30
0.0
  9
$PUCSBASE
  2

  9
$PUCSNAME
  2

  9
$PUCSORG
 10
0.0
 20
0.0
 30
0.0
  9
$PUCSXDIR
 10
1.0
 20
0.0
 30
0.0
  9
$PUCSYDIR
 10
0.0
 20
1.0
 30
0.0
  9
$PUCSORTHOREF
  2

  9
$PUCSORTHOVIEW
 70
     0
  9
$PUCSORGTOP
 10
0.0
 20
0.0
 30
0.0
  9
$PUCSORGBOTTOM
 10
0.0
 20
0.0
 30
0.0
  9
$PUCSORGLEFT
 10
0.0
 20
0.0
 30
0.0
  9
$PUCSORGRIGHT
 10
0.0
 20
0.0
 30
0.0
  9
$PUCSORGFRONT
 10
0.0
 20
0.0
 30
0.0
  9
$PUCSORGBACK
 10
0.0
 20
0.0
 30
0.0
  9
$USERI1
 70
     0
  9
$USERI2
 70
     0
  9
$USERI3
 70
     0
  9
$USERI4
 70
     0
  9
$USERI5
 70
     0
  9
$USERR1
 40
0.0
  9
$USERR2
 40
0.0
  9
$USERR3
 40
0.0
  9
$USERR4
 40
0.0
  9
$USERR5
 40
0.0
  9
$WORLDVIEW
 70
     1
  9
$SHADEDGE
 70
     3
  9
$SHADEDIF
 70
    70
  9
$TILEMODE
 70
     1
  9
$MAXACTVP
 70
    64
  9
$PINSBASE
 10
0.0
 20
0.0
 30
0.0
  9
$PLIMCHECK
 70
     0
  9
$PEXTMIN
 10
1.000000000000000E+20
 20
1.000000000000000E+20
 30
1.000000000000000E+20
  9
$PEXTMAX
 10
-1.000000000000000E+20
 20
-1.000000000000000E+20
 30
-1.000000000000000E+20
  9
$PLIMMIN
 10
0.0
 20
0.0
  9
$PLIMMAX
 10
12.0
 20
9.0
  9
$UNITMODE
 70
     0
  9
$VISRETAIN
 70
     1
  9
$PLINEGEN
 70
     0
  9
$PSLTSCALE
 70
     1
  9
$TREEDEPTH
 70
  3020
  9
$CMLSTYLE
  2
Standard
  9
$CMLJUST
 70
     0
  9
$CMLSCALE
 40
1.0
  9
$PROXYGRAPHICS
 70
     1
  9
$MEASUREMENT
 70
     0
  9
$CELWEIGHT
370
    -1
  9
$ENDCAPS
280
     0
  9
$JOINSTYLE
280
     0
  9
$LWDISPLAY
290
     0
  9
$INSUNITS
 70
     1
  9
$HYPERLINKBASE
  1

  9
$STYLESHEET
  1

  9
$XEDIT
290
     1
  9
$CEPSNTYPE
380
     0
  9
$PSTYLEMODE
290
     1
  9
$FINGERPRINTGUID
  2
{9B510304-0266-44A3-AA4E-8597670440BD}
  9
$VERSIONGUID
  2
{FAEB1C32-E019-11D5-929B-00C0DF256EC4}
  9
$EXTNAMES
290
     1
  9
$PSVPSCALE
 40
0.0
  9
$OLESTARTUP
290
     0
  9
$SORTENTS
280
   127
  9
$INDEXCTL
280
     0
  9
$HIDETEXT
280
     1
  9
$XCLIPFRAME
280
     2
  9
$HALOGAP
280
     0
  9
$OBSCOLOR
 70
   257
  9
$OBSLTYPE
280
     0
  9
$INTERSECTIONDISPLAY
280
     0
  9
$INTERSECTIONCOLOR
 70
   257
  9
$DIMASSOC
280
     2
  9
$PROJECTNAME
  1

  9
$CAMERADISPLAY
290
     0
  9
$LENSLENGTH
 40
50.0
  9
$CAMERAHEIGHT
 40
0.0
  9
$STEPSPERSEC
 40
2.0
  9
$STEPSIZE
 40
6.0
  9
$3DDWFPREC
 40
2.0
  9
$PSOLWIDTH
 40
0.25
  9
$PSOLHEIGHT
 40
4.0
  9
$LOFTANG1
 40
1.570796326794897
  9
$LOFTANG2
 40
1.570796326794897
  9
$LOFTMAG1
 40
0.0
  9
$LOFTMAG2
 40
0.0
  9
$LOFTPARAM
 70
     7
  9
$LOFTNORMALS
280
     1
  9
$LATITUDE
 40
37.795
  9
$LONGITUDE
 40
-122.394
  9
$NORTHDIRECTION
 40
0.0
  9
$TIMEZONE
 70
 -8000
  9
$LIGHTGLYPHDISPLAY
280
     1
  9
$TILEMODELIGHTSYNCH
280
     1
  9
$CMATERIAL
347
44
  9
$SOLIDHIST
280
     0
  9
$SHOWHIST
280
     1
  9
$DWFFRAME
280
     2
  9
$DGNFRAME
280
     2
  9
$REALWORLDSCALE
290
     1
  9
$INTERFERECOLOR
 62
   256
  9
$CSHADOW
280
     0
  9
$SHADOWPLANELOCATION
 40
0.0
  0
ENDSEC
  0
SECTION
  2
CLASSES
  0
CLASS
  1
ACDBDICTIONARYWDFLT
  2
AcDbDictionaryWithDefault
  3
ObjectDBX Classes
 90
        0
 91
        4
280
     0
281
     0
  0
CLASS
  1
VISUALSTYLE
  2
AcDbVisualStyle
  3
ObjectDBX Classes
 90
     4095
 91
        4
280
     0
281
     0
  0
CLASS
  1
MATERIAL
  2
AcDbMaterial
  3
ObjectDBX Classes
 90
     1153
 91
        4
280
     0
281
     0
  0
CLASS
  1
SCALE
  2
AcDbScale
  3
ObjectDBX Classes
 90
     1153
 91
        4
280
     0
281
     0
  0
CLASS
  1
TABLESTYLE
  2
AcDbTableStyle
  3
ObjectDBX Classes
 90
     4095
 91
        4
280
     0
281
     0
  0
CLASS
  1
MLEADERSTYLE
  2
AcDbMLeaderStyle
  3
ACDB_MLEADERSTYLE_CLASS
 90
     4095
 91
        4
280
     0
281
     0
  0
CLASS
  1
SUN
  2
AcDbSun
  3
SCENEOE
 90
     1153
 91
        4
280
     0
281
     0
  0
CLASS
  1
DICTIONARYVAR
  2
AcDbDictionaryVar
  3
ObjectDBX Classes
 90
        0
 91
        4
280
     0
281
     0
  0
CLASS
  1
CELLSTYLEMAP
  2
AcDbCellStyleMap
  3
ObjectDBX Classes
 90
     1152
 91
        4
280
     0
281
     0
  0
ENDSEC
  0
SECTION
  2
TABLES
  0
TABLE
  2
VPORT
  5
8
330
0
100
AcDbSymbolTable
 70
     1
  0
VPORT
  5
29
330
8
100
AcDbSymbolTableRecord
100
AcDbViewportTableRecord
  2
*Active
 70
     0
 10
0.0
 20
0.0
 11
1.0
 21
1.0
 12
4.821428571428571
 22
-4.67734375
 13
0.0
 23
0.0
 14
0.5
 24
0.5
 15
0.5
 25
0.5
 16
0.0
 26
0.0
 36
1.0
 17
0.0
 27
0.0
 37
0.0
 40
13.77
 41
1.399470899470899
 42
50.0
 43
0.0
 44
0.0
 50
0.0
 51
0.0
 71
     0
 72
   100
 73
     1
 74
     3
 75
     0
 76
     0
 77
     0
 78
     0
281
     0
 65
     1
110
0.0
120
0.0
130
0.0
111
1.0
121
0.0
131
0.0
112
0.0
122
1.0
132
0.0
 79
     0
146
0.0
348
2F
 60
     3
 61
     5
292
     1
282
     1
141
0.0
142
0.0
 63
   250
361
6D
  0
ENDTAB
  0
TABLE
  2
LTYPE
  5
5
330
0
100
AcDbSymbolTable
 70
     3
  0
LTYPE
  5
14
330
5
100
AcDbSymbolTableRecord
100
AcDbLinetypeTableRecord
  2
ByBlock
 70
     0
  3

 72
    65
 73
     0
 40
0.0
  0
LTYPE
  5
15
330
5
100
AcDbSymbolTableRecord
100
AcDbLinetypeTableRecord
  2
ByLayer
 70
     0
  3

 72
    65
 73
     0
 40
0.0
  0
LTYPE
  5
16
330
5
100
AcDbSymbolTableRecord
100
AcDbLinetypeTableRecord
  2
Continuous
 70
     0
  3
Solid line
 72
    65
 73
     0
 40
0.0
  0
LTYPE
  5
AD
330
5
100
AcDbSymbolTableRecord
100
AcDbLinetypeTableRecord
  2
Dashed
 70
     0
  3

 72
    65
 73
     2
 40
2.0
 49
1.0
 74
     0
 49
-1.0
 74
     0
  0
LTYPE
  5
1E6
330
5
100
AcDbSymbolTableRecord
100
AcDbLinetypeTableRecord
  2
Center
 70
     0
  3

 72
    65
 73
     4
 40
1.5
 49
0.45
 74
     0
 49
-0.5
 74
     0
 49
0.05
 74
     0
 49
-0.5
 74
     0
  0
ENDTAB
  0
TABLE
  2
LAYER
  5
2
330
0
100
AcDbSymbolTable
 70
     8
  0
LAYER
  5
10
330
2
100
AcDbSymbolTableRecord
100
AcDbLayerTableRecord
  2
0
 70
     0
 62
     7
  6
Continuous
370
    -3
390
F
347
46
348
0
  0
LAYER
  5
6E
330
2
100
AcDbSymbolTableRecord
100
AcDbLayerTableRecord
  2
AM_6
 70
     0
 62
    -2
  6
Continuous
370
    35
390
F
347
46
348
0
  0
LAYER
  5
9A
330
2
100
AcDbSymbolTableRecord
100
AcDbLayerTableRecord
  2
AM_5
 70
     0
 62
     3
  6
Continuous
370
    25
390
F
347
46
348
0
  0
LAYER
  5
AE
330
2
100
AcDbSymbolTableRecord
100
AcDbLayerTableRecord
  2
AM_9
 70
     0
 62
     6
  6
Dashed
370
    25
390
F
347
46
348
0
  0
LAYER
  5
BA
330
2
100
AcDbSymbolTableRecord
100
AcDbLayerTableRecord
  2
AM_0
 70
     0
 62
     7
  6
Continuous
370
    50
390
F
347
46
348
0
  0
LAYER
  5
C0
330
2
100
AcDbSymbolTableRecord
100
AcDbLayerTableRecord
  2
AM_4
 70
     0
 62
     3
  6
Continuous
370
    25
390
F
347
46
348
0
  0
LAYER
  5
1E7
330
2
100
AcDbSymbolTableRecord
100
AcDbLayerTableRecord
  2
AM_7
 70
     0
 62
     7
  6
Center
370
    25
390
F
347
46
348
0
  0
LAYER
  5
225
330
2
100
AcDbSymbolTableRecord
100
AcDbLayerTableRecord
  2
ConnectionPoints
 70
     0
 62
     7
  6
Continuous
370
    50
390
F
347
46
348
0
  0
ENDTAB
  0
TABLE
  2
STYLE
  5
3
330
0
100
AcDbSymbolTable
 70
     1
  0
STYLE
  5
11
330
3
100
AcDbSymbolTableRecord
100
AcDbTextStyleTableRecord
  2
Standard
 70
     0
 40
0.0
 41
1.0
 50
0.0
 71
     0
 42
0.2
  3
txt
  4

  0
ENDTAB
  0
TABLE
  2
VIEW
  5
6
330
0
100
AcDbSymbolTable
 70
     0
  0
ENDTAB
  0
TABLE
  2
UCS
  5
7
330
0
100
AcDbSymbolTable
 70
     0
  0
ENDTAB
  0
TABLE
  2
APPID
  5
9
330
0
100
AcDbSymbolTable
 70
     1
  0
APPID
  5
12
330
9
100
AcDbSymbolTableRecord
100
AcDbRegAppTableRecord
  2
ACAD
 70
     0
  0
ENDTAB
  0
TABLE
  2
DIMSTYLE
  5
A
330
0
100
AcDbSymbolTable
 70
     1
100
AcDbDimStyleTable
  0
DIMSTYLE
105
27
330
A
100
AcDbSymbolTableRecord
100
AcDbDimStyleTableRecord
  2
Standard
 70
     0
178
     0
340
11
  0
ENDTAB
  0
TABLE
  2
BLOCK_RECORD
  5
1
330
0
100
AcDbSymbolTable
 70
     7
  0
BLOCK_RECORD
  5
1F
330
1
100
AcDbSymbolTableRecord
100
AcDbBlockTableRecord
  2
*Model_Space
340
22
 70
     0
280
     1
281
     0
  0
BLOCK_RECORD
  5
1B
330
1
100
AcDbSymbolTableRecord
100
AcDbBlockTableRecord
  2
*Paper_Space
340
1E
 70
     0
280
     1
281
     0
  0
BLOCK_RECORD
  5
23
330
1
100
AcDbSymbolTableRecord
100
AcDbBlockTableRecord
  2
*Paper_Space0
340
26
 70
     0
280
     1
281
     0
  0
BLOCK_RECORD
  5
8A
330
1
100
AcDbSymbolTableRecord
100
AcDbBlockTableRecord
  2
1_ASME_B18_3_10_1_0_in_069470_4
340
0
102
{BLKREFS
331
8B
102
}
 70
     0
280
     1
281
     0
  0
BLOCK_RECORD
  5
9D
330
1
100
AcDbSymbolTableRecord
100
AcDbBlockTableRecord
  2
2_ASME_B18_3_10_2_0_in_069470_4
340
0
102
{BLKREFS
331
9E
102
}
 70
     0
280
     1
281
     0
  0
BLOCK_RECORD
  5
C2
330
1
100
AcDbSymbolTableRecord
100
AcDbBlockTableRecord
  2
3_070894LW_0_in_069470_4
340
0
102
{BLKREFS
331
C3
102
}
 70
     0
280
     1
281
     0
  0
BLOCK_RECORD
  5
F8
330
1
100
AcDbSymbolTableRecord
100
AcDbBlockTableRecord
  2
4_070926I_0_in_069470_4
340
0
102
{BLKREFS
331
F9
102
}
 70
     0
280
     1
281
     0
  0
BLOCK_RECORD
  5
175
330
1
100
AcDbSymbolTableRecord
100
AcDbBlockTableRecord
  2
5_405015E_Inch_0_in_069470_4
340
0
102
{BLKREFS
331
176
102
}
 70
     0
280
     1
281
     0
  0
BLOCK_RECORD
  5
1C0
330
1
100
AcDbSymbolTableRecord
100
AcDbBlockTableRecord
  2
6_069470H_0_in_069470_4
340
0
102
{BLKREFS
331
1C1
102
}
 70
     0
280
     1
281
     0
  0
ENDTAB
  0
ENDSEC
  0
SECTION
  2
BLOCKS
  0
BLOCK
  5
20
330
1F
100
AcDbEntity
  8
0
100
AcDbBlockBegin
  2
*Model_Space
 70
     0
 10
0.0
 20
0.0
 30
0.0
  3
*Model_Space
  1

  0
ENDBLK
  5
21
330
1F
100
AcDbEntity
  8
0
100
AcDbBlockEnd
  0
BLOCK
  5
1C
330
1B
100
AcDbEntity
 67
     1
  8
0
100
AcDbBlockBegin
  2
*Paper_Space
 70
     0
 10
0.0
 20
0.0
 30
0.0
  3
*Paper_Space
  1

  0
ENDBLK
  5
1D
330
1B
100
AcDbEntity
 67
     1
  8
0
100
AcDbBlockEnd
  0
BLOCK
  5
24
330
23
100
AcDbEntity
  8
0
100
AcDbBlockBegin
  2
*Paper_Space0
 70
     0
 10
0.0
 20
0.0
 30
0.0
  3
*Paper_Space0
  1

  0
ENDBLK
  5
25
330
23
100
AcDbEntity
  8
0
100
AcDbBlockEnd
  0
BLOCK
  5
8C
330
8A
100
AcDbEntity
  8
0
100
AcDbBlockBegin
  2
1_ASME_B18_3_10_1_0_in_069470_4
 70
     2
 10
0.0
 20
0.0
 30
0.0
  3
1_ASME_B18_3_10_1_0_in_069470_4
  1

  0
ATTDEF
  5
8E
330
8A
100
AcDbEntity
  8
AM_6
100
AcDbText
 10
5.095
 20
-1.937416666666667
 30
0.0
 40
0.5
  1
ANSI/ASME B18.3-1998
100
AcDbAttributeDefinition
  3

  2
NN
 70
     8
280
     0
  0
ATTDEF
  5
8F
330
8A
100
AcDbEntity
  8
AM_6
100
AcDbText
 10
5.095
 20
-2.437416666666667
 30
0.0
 40
0.5
  1
Socket Button Head Cap Screws
100
AcDbAttributeDefinition
  3

  2
NT
 70
     8
280
     0
  0
ATTDEF
  5
90
330
8A
100
AcDbEntity
  8
AM_6
100
AcDbText
 10
5.095
 20
-2.937416666666667
 30
0.0
 40
0.5
  1
ASME B18.3-10
100
AcDbAttributeDefinition
  3

  2
NB
 70
     8
280
     0
  0
ATTDEF
  5
91
330
8A
100
AcDbEntity
  8
AM_6
100
AcDbText
 10
5.095
 20
-3.437416666666667
 30
0.0
 40
0.5
  1
ASME B18.3-$NS.
100
AcDbAttributeDefinition
  3

  2
NBSYN
 70
     8
280
     0
  0
ATTDEF
  5
92
330
8A
100
AcDbEntity
  8
AM_6
100
AcDbText
 10
5.095
 20
-3.937416666666667
 30
0.0
 40
0.5
  1
ASME B18.3-10
100
AcDbAttributeDefinition
  3

  2
LINA
 70
     8
280
     0
  0
ATTDEF
  5
93
330
8A
100
AcDbEntity
  8
AM_6
100
AcDbText
 10
5.095
 20
-4.437416666666667
 30
0.0
 40
0.5
  1
10
100
AcDbAttributeDefinition
  3

  2
NS
 70
     8
280
     0
  0
ATTDEF
  5
94
330
8A
100
AcDbEntity
  8
AM_6
100
AcDbText
 10
5.095
 20
-4.937416666666667
 30
0.0
 40
0.5
  1
0.361
100
AcDbAttributeDefinition
  3

  2
A
 70
     8
280
     0
  0
ATTDEF
  5
95
330
8A
100
AcDbEntity
  8
AM_6
100
AcDbText
 10
5.095
 20
-5.437416666666667
 30
0.0
 40
0.5
  1
0.101
100
AcDbAttributeDefinition
  3

  2
H
 70
     8
280
     0
  0
ATTDEF
  5
96
330
8A
100
AcDbEntity
  8
AM_6
100
AcDbText
 10
5.095
 20
-5.937416666666667
 30
0.0
 40
0.5
  1
0.800
100
AcDbAttributeDefinition
  3

  2
L
 70
     8
280
     0
  0
ATTDEF
  5
97
330
8A
100
AcDbEntity
  8
AM_6
100
AcDbText
 10
5.095
 20
-6.437416666666667
 30
0.0
 40
0.5
  1
0.020
100
AcDbAttributeDefinition
  3

  2
S
 70
     8
280
     0
  0
ATTDEF
  5
98
330
8A
100
AcDbEntity
  8
AM_6
100
AcDbText
 10
5.095
 20
-6.937416666666667
 30
0.0
 40
0.5
  1
0.125000
100
AcDbAttributeDefinition
  3

  2
J
 70
     8
280
     0
  0
ATTDEF
  5
99
330
8A
100
AcDbEntity
  8
AM_6
100
AcDbText
 10
5.095
 20
-7.437416666666667
 30
0.0
 40
0.5
  1
baldor
100
AcDbAttributeDefinition
  3

  2
COMPANY
 70
     8
280
     0
  0
LINE
  5
9B
330
8A
100
AcDbEntity
  8
AM_5
 48
0.0003883948490724
100
AcDbLine
 10
0.095
 20
-1.937416666666667
 30
0.0
 11
-0.095
 21
-1.937416666666667
 31
0.0
  0
LINE
  5
9C
330
8A
100
AcDbEntity
  8
AM_5
 48
0.0003883948490724
100
AcDbLine
 10
0.0764
 20
-1.937416666666667
 30
0.0
 11
0.095
 21
-1.969632811687448
 31
0.0
  0
ENDBLK
  5
8D
330
8A
100
AcDbEntity
  8
0
100
AcDbBlockEnd
  0
BLOCK
  5
9F
330
9D
100
AcDbEntity
  8
0
100
AcDbBlockBegin
  2
2_ASME_B18_3_10_2_0_in_069470_4
 70
     2
 10
0.0
 20
0.0
 30
0.0
  3
2_ASME_B18_3_10_2_0_in_069470_4
  1

  0
ATTDEF
  5
A1
330
9D
100
AcDbEntity
  8
AM_6
100
AcDbText
 10
5.1805
 20
-1.217416666666666
 30
0.0
 40
0.5
  1
ANSI/ASME B18.3-1998
100
AcDbAttributeDefinition
  3

  2
NN
 70
     8
280
     0
  0
ATTDEF
  5
A2
330
9D
100
AcDbEntity
  8
AM_6
100
AcDbText
 10
5.1805
 20
-1.717416666666666
 30
0.0
 40
0.5
  1
Socket Button Head Cap Screws
100
AcDbAttributeDefinition
  3

  2
NT
 70
     8
280
     0
  0
ATTDEF
  5
A3
330
9D
100
AcDbEntity
  8
AM_6
100
AcDbText
 10
5.1805
 20
-2.217416666666666
 30
0.0
 40
0.5
  1
ASME B18.3-10
100
AcDbAttributeDefinition
  3

  2
NB
 70
     8
280
     0
  0
ATTDEF
  5
A4
330
9D
100
AcDbEntity
  8
AM_6
100
AcDbText
 10
5.1805
 20
-2.717416666666666
 30
0.0
 40
0.5
  1
ASME B18.3-$NS.
100
AcDbAttributeDefinition
  3

  2
NBSYN
 70
     8
280
     0
  0
ATTDEF
  5
A5
330
9D
100
AcDbEntity
  8
AM_6
100
AcDbText
 10
5.1805
 20
-3.217416666666666
 30
0.0
 40
0.5
  1
ASME B18.3-10
100
AcDbAttributeDefinition
  3

  2
LINA
 70
     8
280
     0
  0
ATTDEF
  5
A6
330
9D
100
AcDbEntity
  8
AM_6
100
AcDbText
 10
5.1805
 20
-3.717416666666666
 30
0.0
 40
0.5
  1
10
100
AcDbAttributeDefinition
  3

  2
NS
 70
     8
280
     0
  0
ATTDEF
  5
A7
330
9D
100
AcDbEntity
  8
AM_6
100
AcDbText
 10
5.1805
 20
-4.217416666666667
 30
0.0
 40
0.5
  1
0.361
100
AcDbAttributeDefinition
  3

  2
A
 70
     8
280
     0
  0
ATTDEF
  5
A8
330
9D
100
AcDbEntity
  8
AM_6
100
AcDbText
 10
5.1805
 20
-4.717416666666667
 30
0.0
 40
0.5
  1
0.101
100
AcDbAttributeDefinition
  3

  2
H
 70
     8
280
     0
  0
ATTDEF
  5
A9
330
9D
100
AcDbEntity
  8
AM_6
100
AcDbText
 10
5.1805
 20
-5.217416666666667
 30
0.0
 40
0.5
  1
0.800
100
AcDbAttributeDefinition
  3

  2
L
 70
     8
280
     0
  0
ATTDEF
  5
AA
330
9D
100
AcDbEntity
  8
AM_6
100
AcDbText
 10
5.1805
 20
-5.717416666666667
 30
0.0
 40
0.5
  1
0.020
100
AcDbAttributeDefinition
  3

  2
S
 70
     8
280
     0
  0
ATTDEF
  5
AB
330
9D
100
AcDbEntity
  8
AM_6
100
AcDbText
 10
5.1805
 20
-6.217416666666667
 30
0.0
 40
0.5
  1
0.125000
100
AcDbAttributeDefinition
  3

  2
J
 70
     8
280
     0
  0
ATTDEF
  5
AC
330
9D
100
AcDbEntity
  8
AM_6
100
AcDbText
 10
5.1805
 20
-6.717416666666667
 30
0.0
 40
0.5
  1
baldor
100
AcDbAttributeDefinition
  3

  2
COMPANY
 70
     8
280
     0
  0
LINE
  5
AF
330
9D
100
AcDbEntity
  8
AM_9
 48
0.0020166291450385
100
AcDbLine
 10
-0.0625
 20
-2.057416666666667
 30
0.0
 11
-0.0625
 21
-2.118416666666667
 31
0.0
  0
LINE
  5
B0
330
9D
100
AcDbEntity
  8
AM_9
 48
0.0020166291450385
100
AcDbLine
 10
0.0625
 20
-2.057416666666667
 30
0.0
 11
0.0625
 21
-2.118416666666667
 31
0.0
  0
LINE
  5
B1
330
9D
100
AcDbEntity
  8
AM_9
 48
0.0020166291450385
100
AcDbLine
 10
0.0
 20
-2.057416666666667
 30
0.0
 11
0.0
 21
-2.118416666666667
 31
0.0
  0
LINE
  5
B2
330
9D
100
AcDbEntity
  8
AM_9
 48
0.0020166291450385
100
AcDbLine
 10
-0.0625
 20
-2.057416666666667
 30
0.0
 11
0.0625
 21
-2.057416666666667
 31
0.0
  0
LINE
  5
B3
330
9D
100
AcDbEntity
  8
AM_9
 48
0.0020166291450385
100
AcDbLine
 10
-0.0764
 20
-1.217416666666666
 30
0.0
 11
-0.095
 21
-1.236016666666667
 31
0.0
  0
LINE
  5
B4
330
9D
100
AcDbEntity
  8
AM_9
 48
0.0020166291450385
100
AcDbLine
 10
0.095
 20
-1.236016666666667
 30
0.0
 11
0.0764
 21
-1.217416666666666
 31
0.0
  0
LINE
  5
B5
330
9D
100
AcDbEntity
  8
AM_9
 48
0.0020166291450385
100
AcDbLine
 10
-0.0764
 20
-1.217416666666666
 30
0.0
 11
0.0764
 21
-1.217416666666666
 31
0.0
  0
LINE
  5
B6
330
9D
100
AcDbEntity
  8
AM_9
 48
0.0020166291450385
100
AcDbLine
 10
0.095
 20
-2.017416666666667
 30
0.0
 11
0.095
 21
-1.236016666666667
 31
0.0
  0
LINE
  5
B7
330
9D
100
AcDbEntity
  8
AM_9
 48
0.0020166291450385
100
AcDbLine
 10
-0.095
 20
-1.236016666666667
 30
0.0
 11
-0.095
 21
-2.017416666666667
 31
0.0
  0
LINE
  5
B8
330
9D
100
AcDbEntity
  8
AM_9
 48
0.0020166291450385
100
AcDbLine
 10
-0.095
 20
-1.236016666666667
 30
0.0
 11
0.095
 21
-1.236016666666667
 31
0.0
  0
LINE
  5
B9
330
9D
100
AcDbEntity
  8
AM_5
 48
0.0020166291450385
100
AcDbLine
 10
-0.0949999999999997
 20
-1.937416666666667
 30
0.0
 11
0.0950000000000498
 21
-1.937416666666667
 31
0.0
  0
LINE
  5
BB
330
9D
100
AcDbEntity
  8
AM_0
 48
0.0020166291450385
100
AcDbLine
 10
-0.0994999952757057
 20
-2.118416666666667
 30
0.0
 11
0.0995
 21
-2.118416666666667
 31
0.0
  0
ARC
  5
BC
330
9D
100
AcDbEntity
  8
AM_0
 48
0.0020166291450385
100
AcDbCircle
 10
0.0995000000000002
 20
-2.037416666666667
 30
0.0
 40
0.081
100
AcDbArc
 50
269.9999999999999
 51
0.0
  0
ARC
  5
BD
330
9D
100
AcDbEntity
  8
AM_0
 48
0.0020166291450385
100
AcDbCircle
 10
-0.0995000000000002
 20
-2.037416666666667
 30
0.0
 40
0.0809999999999998
100
AcDbArc
 50
180.0
 51
270.0000000000001
  0
LINE
  5
BE
330
9D
100
AcDbEntity
  8
AM_0
 48
0.0020166291450385
100
AcDbLine
 10
0.1805
 20
-2.037416666666667
 30
0.0
 11
0.1805
 21
-2.017416666666667
 31
0.0
  0
LINE
  5
BF
330
9D
100
AcDbEntity
  8
AM_0
 48
0.0020166291450385
100
AcDbLine
 10
-0.1805
 20
-2.017416666666667
 30
0.0
 11
-0.1805
 21
-2.037416666666667
 31
0.0
  0
LINE
  5
C1
330
9D
100
AcDbEntity
  8
AM_4
 48
0.0020166291450385
100
AcDbLine
 10
-0.1805
 20
-2.037416666666667
 30
0.0
 11
0.1805
 21
-2.037416666666667
 31
0.0
  0
ENDBLK
  5
A0
330
9D
100
AcDbEntity
  8
0
100
AcDbBlockEnd
  0
BLOCK
  5
C4
330
C2
100
AcDbEntity
  8
0
100
AcDbBlockBegin
  2
3_070894LW_0_in_069470_4
 70
     2
 10
0.0
 20
0.0
 30
0.0
  3
3_070894LW_0_in_069470_4
  1

  0
ATTDEF
  5
C6
330
C2
100
AcDbEntity
  8
AM_6
100
AcDbText
 10
6.9375
 20
-1.577416666666667
 30
0.0
 40
0.5
  1
Imperial Insert Lockwasher -Inch
100
AcDbAttributeDefinition
  3

  2
NN
 70
     8
280
     0
  0
ATTDEF
  5
C7
330
C2
100
AcDbEntity
  8
AM_6
100
AcDbText
 10
6.9375
 20
-2.077416666666667
 30
0.0
 40
0.5
  1
Imperial Bearings
100
AcDbAttributeDefinition
  3

  2
NT
 70
     8
280
     0
  0
ATTDEF
  5
C8
330
C2
100
AcDbEntity
  8
AM_6
100
AcDbText
 10
6.9375
 20
-2.577416666666667
 30
0.0
 40
0.5
  1
070894LW
100
AcDbAttributeDefinition
  3

  2
NB
 70
     8
280
     0
  0
ATTDEF
  5
C9
330
C2
100
AcDbEntity
  8
AM_6
100
AcDbText
 10
6.9375
 20
-3.077416666666667
 30
0.0
 40
0.5
  1
$PN.LW
100
AcDbAttributeDefinition
  3

  2
NBSYN
 70
     8
280
     0
  0
ATTDEF
  5
CA
330
C2
100
AcDbEntity
  8
AM_6
100
AcDbText
 10
6.9375
 20
-3.577416666666667
 30
0.0
 40
0.5
  1
070894
100
AcDbAttributeDefinition
  3

  2
LINA
 70
     8
280
     0
  0
ATTDEF
  5
CB
330
C2
100
AcDbEntity
  8
AM_6
100
AcDbText
 10
6.9375
 20
-4.077416666666666
 30
0.0
 40
0.5
  1
2-3/8
100
AcDbAttributeDefinition
  3

  2
SS
 70
     8
280
     0
  0
ATTDEF
  5
CC
330
C2
100
AcDbEntity
  8
AM_6
100
AcDbText
 10
6.9375
 20
-4.577416666666666
 30
0.0
 40
0.5
  1
2.375000
100
AcDbAttributeDefinition
  3

  2
SS1
 70
     8
280
     0
  0
ATTDEF
  5
CD
330
C2
100
AcDbEntity
  8
AM_6
100
AcDbText
 10
6.9375
 20
-5.077416666666666
 30
0.0
 40
0.5
  1
070894
100
AcDbAttributeDefinition
  3

  2
PN
 70
     8
280
     0
  0
ATTDEF
  5
CE
330
C2
100
AcDbEntity
  8
AM_6
100
AcDbText
 10
6.9375
 20
-5.577416666666666
 30
0.0
 40
0.5
  1
INS-IP-206R
100
AcDbAttributeDefinition
  3

  2
DESCRIPTION
 70
     8
280
     0
  0
ATTDEF
  5
CF
330
C2
100
AcDbEntity
  8
AM_6
100
AcDbText
 10
6.9375
 20
-6.077416666666666
 30
0.0
 40
0.5
  1
4.7241
100
AcDbAttributeDefinition
  3

  2
A
 70
     8
280
     0
  0
ATTDEF
  5
D0
330
C2
100
AcDbEntity
  8
AM_6
100
AcDbText
 10
6.9375
 20
-6.577416666666666
 30
0.0
 40
0.5
  1
1-9/32
100
AcDbAttributeDefinition
  3

  2
B
 70
     8
280
     0
  0
ATTDEF
  5
D1
330
C2
100
AcDbEntity
  8
AM_6
100
AcDbText
 10
6.9375
 20
-7.077416666666666
 30
0.0
 40
0.5
  1
3-27/64
100
AcDbAttributeDefinition
  3

  2
C
 70
     8
280
     0
  0
ATTDEF
  5
D2
330
C2
100
AcDbEntity
  8
AM_6
100
AcDbText
 10
6.9375
 20
-7.577416666666666
 30
0.0
 40
0.5
  1
1.208
100
AcDbAttributeDefinition
  3

  2
D
 70
     8
280
     0
  0
ATTDEF
  5
D3
330
C2
100
AcDbEntity
  8
AM_6
100
AcDbText
 10
6.9375
 20
-8.077416666666666
 30
0.0
 40
0.5
  1
3-7/8
100
AcDbAttributeDefinition
  3

  2
E
 70
     8
280
     0
  0
ATTDEF
  5
D4
330
C2
100
AcDbEntity
  8
AM_6
100
AcDbText
 10
6.9375
 20
-8.577416666666666
 30
0.0
 40
0.5
  1
0.1900
100
AcDbAttributeDefinition
  3

  2
NDM
 70
     8
280
     0
  0
ATTDEF
  5
D5
330
C2
100
AcDbEntity
  8
AM_6
100
AcDbText
 10
6.9375
 20
-9.077416666666666
 30
0.0
 40
0.5
  1
0.1450
100
AcDbAttributeDefinition
  3

  2
KDM
 70
     8
280
     0
  0
ATTDEF
  5
D6
330
C2
100
AcDbEntity
  8
AM_6
100
AcDbText
 10
6.9375
 20
-9.577416666666666
 30
0.0
 40
0.5
  1
3.35
100
AcDbAttributeDefinition
  3

  2
AL
 70
     8
280
     0
  0
ATTDEF
  5
D7
330
C2
100
AcDbEntity
  8
AM_6
100
AcDbText
 10
6.9375
 20
-10.07741666666667
 30
0.0
 40
0.5
  1
0.50
100
AcDbAttributeDefinition
  3

  2
BL
 70
     8
280
     0
  0
ATTDEF
  5
D8
330
C2
100
AcDbEntity
  8
AM_6
100
AcDbText
 10
6.9375
 20
-10.57741666666667
 30
0.0
 40
0.5
  1
0.07
100
AcDbAttributeDefinition
  3

  2
CL
 70
     8
280
     0
  0
ATTDEF
  5
D9
330
C2
100
AcDbEntity
  8
AM_6
100
AcDbText
 10
6.9375
 20
-11.07741666666667
 30
0.0
 40
0.5
  1
0.44
100
AcDbAttributeDefinition
  3

  2
DL
 70
     8
280
     0
  0
ATTDEF
  5
DA
330
C2
100
AcDbEntity
  8
AM_6
100
AcDbText
 10
6.9375
 20
-11.57741666666667
 30
0.0
 40
0.5
  1
baldor
100
AcDbAttributeDefinition
  3

  2
COMPANY
 70
     8
280
     0
  0
LINE
  5
DB
330
C2
100
AcDbEntity
  8
AM_9
 48
0.0090165392795199
100
AcDbLine
 10
-1.628472222222222
 20
-1.947416666666667
 30
0.0
 11
-1.628472222222222
 21
-2.017416666666667
 31
0.0
  0
LINE
  5
DC
330
C2
100
AcDbEntity
  8
AM_9
 48
0.0090165392795199
100
AcDbLine
 10
-1.723512695423378
 20
-1.947416666666667
 30
0.0
 11
-1.723512695423378
 21
-2.017416666666667
 31
0.0
  0
LINE
  5
DD
330
C2
100
AcDbEntity
  8
AM_9
 48
0.0090165392795199
100
AcDbLine
 10
1.628472222222222
 20
-1.947416666666667
 30
0.0
 11
1.628472222222222
 21
-2.017416666666667
 31
0.0
  0
LINE
  5
DE
330
C2
100
AcDbEntity
  8
AM_9
 48
0.0090165392795199
100
AcDbLine
 10
1.723512695423378
 20
-2.017416666666667
 30
0.0
 11
1.723512695423378
 21
-1.947416666666667
 31
0.0
  0
LINE
  5
DF
330
C2
100
AcDbEntity
  8
AM_9
 48
0.0090165392795199
100
AcDbLine
 10
-1.280263958528166
 20
-1.947416666666667
 30
0.0
 11
-1.280263958528166
 21
-2.017416666666667
 31
0.0
  0
LINE
  5
E0
330
C2
100
AcDbEntity
  8
AM_9
 48
0.0090165392795199
100
AcDbLine
 10
1.280263958528166
 20
-1.947416666666667
 30
0.0
 11
1.280263958528166
 21
-2.017416666666667
 31
0.0
  0
LINE
  5
E1
330
C2
100
AcDbEntity
  8
AM_9
 48
0.0090165392795199
100
AcDbLine
 10
-0.9724584709967206
 20
-1.947416666666667
 30
0.0
 11
-0.9724584709967209
 21
-2.017416666666667
 31
0.0
  0
LINE
  5
E2
330
C2
100
AcDbEntity
  8
AM_9
 48
0.0090165392795199
100
AcDbLine
 10
0.9724584709967206
 20
-1.947416666666667
 30
0.0
 11
0.9724584709967206
 21
-2.017416666666667
 31
0.0
  0
LINE
  5
E3
330
C2
100
AcDbEntity
  8
AM_9
 48
0.0090165392795199
100
AcDbLine
 10
-0.5673968503185084
 20
-1.577416666666667
 30
0.0
 11
-0.5673968503185084
 21
-2.017416666666667
 31
0.0
  0
LINE
  5
E4
330
C2
100
AcDbEntity
  8
AM_9
 48
0.0090165392795199
100
AcDbLine
 10
-0.6044333502554678
 20
-1.947416666666667
 30
0.0
 11
-0.6044333502554678
 21
-2.017416666666667
 31
0.0
  0
LINE
  5
E5
330
C2
100
AcDbEntity
  8
AM_9
 48
0.0090165392795199
100
AcDbLine
 10
-0.8381081825712768
 20
-1.947416666666667
 30
0.0
 11
-0.8381081825712768
 21
-2.017416666666667
 31
0.0
  0
LINE
  5
E6
330
C2
100
AcDbEntity
  8
AM_9
 48
0.0090165392795199
100
AcDbLine
 10
0.8381081825712767
 20
-1.947416666666667
 30
0.0
 11
0.8381081825712763
 21
-2.017416666666667
 31
0.0
  0
LINE
  5
E7
330
C2
100
AcDbEntity
  8
AM_9
 48
0.0090165392795199
100
AcDbLine
 10
-0.3734634671276457
 20
-1.947416666666667
 30
0.0
 11
-0.3734634671276457
 21
-2.017416666666667
 31
0.0
  0
LINE
  5
E8
330
C2
100
AcDbEntity
  8
AM_9
 48
0.0090165392795199
100
AcDbLine
 10
-0.3364269671906874
 20
-1.577416666666667
 30
0.0
 11
-0.5914414510540424
 21
-1.577416666666667
 31
0.0
  0
LINE
  5
E9
330
C2
100
AcDbEntity
  8
AM_9
 48
0.0090165392795199
100
AcDbLine
 10
-0.3364269671906874
 20
-1.577416666666667
 30
0.0
 11
-0.3364269671906874
 21
-2.017416666666667
 31
0.0
  0
LINE
  5
EA
330
C2
100
AcDbEntity
  8
AM_9
 48
0.0090165392795199
100
AcDbLine
 10
-0.3604715679262209
 20
-1.947416666666667
 30
0.0
 11
-0.3604715679262209
 21
-1.577416666666667
 31
0.0
  0
LINE
  5
EB
330
C2
100
AcDbEntity
  8
AM_9
 48
0.0090165392795199
100
AcDbLine
 10
-0.5914414510540424
 20
-1.577416666666667
 30
0.0
 11
-0.5914414510540424
 21
-1.947416666666667
 31
0.0
  0
LINE
  5
EC
330
C2
100
AcDbEntity
  8
AM_9
 48
0.0090165392795199
100
AcDbLine
 10
-1.218678895519982
 20
-1.947416666666667
 30
0.0
 11
-1.218678895519982
 21
-2.017416666666667
 31
0.0
  0
LINE
  5
ED
330
C2
100
AcDbEntity
  8
AM_9
 48
0.0090165392795199
100
AcDbLine
 10
-1.084328607094538
 20
-1.947416666666667
 30
0.0
 11
-1.084328607094538
 21
-2.017416666666667
 31
0.0
  0
LINE
  5
EE
330
C2
100
AcDbEntity
  8
AM_9
 48
0.0090165392795199
100
AcDbLine
 10
-1.246532372706349
 20
-1.947416666666667
 30
0.0
 11
-1.246532372706349
 21
-2.017416666666667
 31
0.0
  0
LINE
  5
EF
330
C2
100
AcDbEntity
  8
AM_9
 48
0.0090165392795199
100
AcDbLine
 10
1.084328607094538
 20
-1.947416666666667
 30
0.0
 11
1.084328607094538
 21
-2.017416666666667
 31
0.0
  0
LINE
  5
F0
330
C2
100
AcDbEntity
  8
AM_9
 48
0.0090165392795199
100
AcDbLine
 10
1.218678895519982
 20
-1.947416666666667
 30
0.0
 11
1.218678895519982
 21
-2.017416666666667
 31
0.0
  0
LINE
  5
F1
330
C2
100
AcDbEntity
  8
AM_9
 48
0.0090165392795199
100
AcDbLine
 10
1.246532372706349
 20
-2.017416666666667
 30
0.0
 11
1.246532372706349
 21
-1.947416666666667
 31
0.0
  0
LINE
  5
F2
330
C2
100
AcDbEntity
  8
AM_9
 48
0.0090165392795199
100
AcDbLine
 10
-0.0950000000000001
 20
-1.947416666666667
 30
0.0
 11
-0.0950000000000001
 21
-2.017416666666667
 31
0.0
  0
LINE
  5
F3
330
C2
100
AcDbEntity
  8
AM_9
 48
0.0090165392795199
100
AcDbLine
 10
0.0949999999999998
 20
-1.947416666666667
 30
0.0
 11
0.0949999999999998
 21
-2.017416666666667
 31
0.0
  0
LINE
  5
F4
330
C2
100
AcDbEntity
  8
AM_0
 48
0.0090165392795199
100
AcDbLine
 10
-1.9375
 20
-1.947416666666667
 30
0.0
 11
-1.9375
 21
-2.017416666666667
 31
0.0
  0
LINE
  5
F5
330
C2
100
AcDbEntity
  8
AM_0
 48
0.0090165392795199
100
AcDbLine
 10
1.9375
 20
-2.017416666666667
 30
0.0
 11
1.9375
 21
-1.947416666666667
 31
0.0
  0
LINE
  5
F6
330
C2
100
AcDbEntity
  8
AM_0
 48
0.0090165392795199
100
AcDbLine
 10
-1.9375
 20
-2.017416666666667
 30
0.0
 11
1.9375
 21
-2.017416666666667
 31
0.0
  0
LINE
  5
F7
330
C2
100
AcDbEntity
  8
AM_0
 48
0.0090165392795199
100
AcDbLine
 10
-1.9375
 20
-1.947416666666667
 30
0.0
 11
1.9375
 21
-1.947416666666667
 31
0.0
  0
ENDBLK
  5
C5
330
C2
100
AcDbEntity
  8
0
100
AcDbBlockEnd
  0
BLOCK
  5
FA
330
F8
100
AcDbEntity
  8
0
100
AcDbBlockBegin
  2
4_070926I_0_in_069470_4
 70
     2
 10
0.0
 20
0.0
 30
0.0
  3
4_070926I_0_in_069470_4
  1

  0
ATTDEF
  5
FC
330
F8
100
AcDbEntity
  8
AM_6
100
AcDbText
 10
7.36205
 20
1.228125
 30
0.0
 40
0.5
  1
Imperial Insert -Inch
100
AcDbAttributeDefinition
  3

  2
NN
 70
     8
280
     0
  0
ATTDEF
  5
FD
330
F8
100
AcDbEntity
  8
AM_6
100
AcDbText
 10
7.36205
 20
0.7281250000000004
 30
0.0
 40
0.5
  1
Imperial Bearings
100
AcDbAttributeDefinition
  3

  2
NT
 70
     8
280
     0
  0
ATTDEF
  5
FE
330
F8
100
AcDbEntity
  8
AM_6
100
AcDbText
 10
7.36205
 20
0.2281250000000004
 30
0.0
 40
0.5
  1
070926I
100
AcDbAttributeDefinition
  3

  2
NB
 70
     8
280
     0
  0
ATTDEF
  5
FF
330
F8
100
AcDbEntity
  8
AM_6
100
AcDbText
 10
7.36205
 20
-0.2718749999999996
 30
0.0
 40
0.5
  1
$PN.I
100
AcDbAttributeDefinition
  3

  2
NBSYN
 70
     8
280
     0
  0
ATTDEF
  5
100
330
F8
100
AcDbEntity
  8
AM_6
100
AcDbText
 10
7.36205
 20
-0.7718749999999996
 30
0.0
 40
0.5
  1
070926
100
AcDbAttributeDefinition
  3

  2
LINA
 70
     8
280
     0
  0
ATTDEF
  5
101
330
F8
100
AcDbEntity
  8
AM_6
100
AcDbText
 10
7.36205
 20
-1.271875
 30
0.0
 40
0.5
  1
2-3/8
100
AcDbAttributeDefinition
  3

  2
SS
 70
     8
280
     0
  0
ATTDEF
  5
102
330
F8
100
AcDbEntity
  8
AM_6
100
AcDbText
 10
7.36205
 20
-1.771875
 30
0.0
 40
0.5
  1
2.375000
100
AcDbAttributeDefinition
  3

  2
SS1
 70
     8
280
     0
  0
ATTDEF
  5
103
330
F8
100
AcDbEntity
  8
AM_6
100
AcDbText
 10
7.36205
 20
-2.271875
 30
0.0
 40
0.5
  1
070926
100
AcDbAttributeDefinition
  3

  2
PN
 70
     8
280
     0
  0
ATTDEF
  5
104
330
F8
100
AcDbEntity
  8
AM_6
100
AcDbText
 10
7.36205
 20
-2.771875
 30
0.0
 40
0.5
  1
INS-IP-206L
100
AcDbAttributeDefinition
  3

  2
DESCRIPTION
 70
     8
280
     0
  0
ATTDEF
  5
105
330
F8
100
AcDbEntity
  8
AM_6
100
AcDbText
 10
7.36205
 20
-3.271875
 30
0.0
 40
0.5
  1
Labyrinth Seal
100
AcDbAttributeDefinition
  3

  2
ST
 70
     8
280
     0
  0
ATTDEF
  5
106
330
F8
100
AcDbEntity
  8
AM_6
100
AcDbText
 10
7.36205
 20
-3.771875
 30
0.0
 40
0.5
  1
4.7241
100
AcDbAttributeDefinition
  3

  2
A
 70
     8
280
     0
  0
ATTDEF
  5
107
330
F8
100
AcDbEntity
  8
AM_6
100
AcDbText
 10
7.36205
 20
-4.271875
 30
0.0
 40
0.5
  1
1-9/32
100
AcDbAttributeDefinition
  3

  2
B
 70
     8
280
     0
  0
ATTDEF
  5
108
330
F8
100
AcDbEntity
  8
AM_6
100
AcDbText
 10
7.36205
 20
-4.771875
 30
0.0
 40
0.5
  1
3-27/64
100
AcDbAttributeDefinition
  3

  2
C
 70
     8
280
     0
  0
ATTDEF
  5
109
330
F8
100
AcDbEntity
  8
AM_6
100
AcDbText
 10
7.36205
 20
-5.271875
 30
0.0
 40
0.5
  1
1.208
100
AcDbAttributeDefinition
  3

  2
D
 70
     8
280
     0
  0
ATTDEF
  5
10A
330
F8
100
AcDbEntity
  8
AM_6
100
AcDbText
 10
7.36205
 20
-5.771875
 30
0.0
 40
0.5
  1
3-7/8
100
AcDbAttributeDefinition
  3

  2
E
 70
     8
280
     0
  0
ATTDEF
  5
10B
330
F8
100
AcDbEntity
  8
AM_6
100
AcDbText
 10
7.36205
 20
-6.271875
 30
0.0
 40
0.5
  1
0.1900
100
AcDbAttributeDefinition
  3

  2
NDM
 70
     8
280
     0
  0
ATTDEF
  5
10C
330
F8
100
AcDbEntity
  8
AM_6
100
AcDbText
 10
7.36205
 20
-6.771875
 30
0.0
 40
0.5
  1
0.101
100
AcDbAttributeDefinition
  3

  2
H
 70
     8
280
     0
  0
ATTDEF
  5
10D
330
F8
100
AcDbEntity
  8
AM_6
100
AcDbText
 10
7.36205
 20
-7.271875
 30
0.0
 40
0.5
  1
0.1450
100
AcDbAttributeDefinition
  3

  2
KDM
 70
     8
280
     0
  0
ATTDEF
  5
10E
330
F8
100
AcDbEntity
  8
AM_6
100
AcDbText
 10
7.36205
 20
-7.771875
 30
0.0
 40
0.5
  1
3.35
100
AcDbAttributeDefinition
  3

  2
AL
 70
     8
280
     0
  0
ATTDEF
  5
10F
330
F8
100
AcDbEntity
  8
AM_6
100
AcDbText
 10
7.36205
 20
-8.271875
 30
0.0
 40
0.5
  1
0.50
100
AcDbAttributeDefinition
  3

  2
BL
 70
     8
280
     0
  0
ATTDEF
  5
110
330
F8
100
AcDbEntity
  8
AM_6
100
AcDbText
 10
7.36205
 20
-8.771875
 30
0.0
 40
0.5
  1
0.07
100
AcDbAttributeDefinition
  3

  2
CL
 70
     8
280
     0
  0
ATTDEF
  5
111
330
F8
100
AcDbEntity
  8
AM_6
100
AcDbText
 10
7.36205
 20
-9.271875
 30
0.0
 40
0.5
  1
0.44
100
AcDbAttributeDefinition
  3

  2
DL
 70
     8
280
     0
  0
ATTDEF
  5
112
330
F8
100
AcDbEntity
  8
AM_6
100
AcDbText
 10
7.36205
 20
-9.771875
 30
0.0
 40
0.5
  1
0.8000
100
AcDbAttributeDefinition
  3

  2
LL
 70
     8
280
     0
  0
ATTDEF
  5
113
330
F8
100
AcDbEntity
  8
AM_6
100
AcDbText
 10
7.36205
 20
-10.271875
 30
0.0
 40
0.5
  1
0.025
100
AcDbAttributeDefinition
  3

  2
Y
 70
     8
280
     0
  0
ATTDEF
  5
114
330
F8
100
AcDbEntity
  8
AM_6
100
AcDbText
 10
7.36205
 20
-10.771875
 30
0.0
 40
0.5
  1
0.025000
100
AcDbAttributeDefinition
  3

  2
Y1
 70
     8
280
     0
  0
ATTDEF
  5
115
330
F8
100
AcDbEntity
  8
AM_6
100
AcDbText
 10
7.36205
 20
-11.271875
 30
0.0
 40
0.5
  1
2-15/16
100
AcDbAttributeDefinition
  3

  2
Z
 70
     8
280
     0
  0
ATTDEF
  5
116
330
F8
100
AcDbEntity
  8
AM_6
100
AcDbText
 10
7.36205
 20
-11.771875
 30
0.0
 40
0.5
  1
2.937500
100
AcDbAttributeDefinition
  3

  2
Z1
 70
     8
280
     0
  0
ATTDEF
  5
117
330
F8
100
AcDbEntity
  8
AM_6
100
AcDbText
 10
7.36205
 20
-12.271875
 30
0.0
 40
0.5
  1
baldor
100
AcDbAttributeDefinition
  3

  2
COMPANY
 70
     8
280
     0
  0
LINE
  5
118
330
F8
100
AcDbEntity
  8
AM_9
 48
0.0144316683030575
100
AcDbLine
 10
-0.5927099411897372
 20
0.6357499999999998
 30
0.0
 11
-0.5927099411897372
 21
-1.947416666666667
 31
0.0
  0
LINE
  5
119
330
F8
100
AcDbEntity
  8
AM_9
 48
0.0144316683030575
100
AcDbLine
 10
-0.3364269671906868
 20
0.6357499999999999
 30
0.0
 11
-0.3364269671906868
 21
-2.21875
 31
0.0
  0
LINE
  5
11A
330
F8
100
AcDbEntity
  8
AM_9
 48
0.0144316683030575
100
AcDbLine
 10
-0.5673968503185084
 20
-2.017416666666667
 30
0.0
 11
-0.5673968503185084
 21
0.6357499999999998
 31
0.0
  0
LINE
  5
11B
330
F8
100
AcDbEntity
  8
AM_9
 48
0.0144316683030575
100
AcDbLine
 10
-1.1875
 20
0.6357499999999998
 30
0.0
 11
-1.1875
 21
-2.21875
 31
0.0
  0
LINE
  5
11C
330
F8
100
AcDbEntity
  8
AM_9
 48
0.0144316683030575
100
AcDbLine
 10
1.1875
 20
-2.21875
 30
0.0
 11
1.1875
 21
0.6357499999999998
 31
0.0
  0
LINE
  5
11D
330
F8
100
AcDbEntity
  8
AM_9
 48
0.0144316683030575
100
AcDbLine
 10
-0.3617400580619156
 20
0.6357499999999999
 30
0.0
 11
-0.3617400580619156
 21
-1.947416666666667
 31
0.0
  0
LINE
  5
11E
330
F8
100
AcDbEntity
  8
AM_9
 48
0.0144316683030575
100
AcDbLine
 10
-1.25
 20
1.203125
 30
0.0
 11
-1.25
 21
0.6357499999999998
 31
0.0
  0
LINE
  5
11F
330
F8
100
AcDbEntity
  8
AM_9
 48
0.0144316683030575
100
AcDbLine
 10
1.25
 20
0.6357499999999998
 30
0.0
 11
1.25
 21
1.203125
 31
0.0
  0
LINE
  5
120
330
F8
100
AcDbEntity
  8
AM_9
 48
0.0144316683030575
100
AcDbLine
 10
-0.3604715679262208
 20
-2.017416666666667
 30
0.0
 11
-0.3604715679262208
 21
-1.947416666666667
 31
0.0
  0
LINE
  5
121
330
F8
100
AcDbEntity
  8
AM_9
 48
0.0144316683030575
100
AcDbLine
 10
-0.5914414510540423
 20
-1.947416666666667
 30
0.0
 11
-0.5914414510540424
 21
-2.017416666666667
 31
0.0
  0
LINE
  5
122
330
F8
100
AcDbEntity
  8
AM_9
 48
0.0144316683030575
100
AcDbLine
 10
-1.25
 20
-1.947416666666667
 30
0.0
 11
-1.25
 21
-2.017416666666667
 31
0.0
  0
LINE
  5
123
330
F8
100
AcDbEntity
  8
AM_9
 48
0.0144316683030575
100
AcDbLine
 10
1.25
 20
-2.017416666666667
 30
0.0
 11
1.25
 21
-1.947416666666667
 31
0.0
  0
LINE
  5
124
330
F8
100
AcDbEntity
  8
AM_9
 48
0.0144316683030575
100
AcDbLine
 10
-1.00762716319083
 20
-1.507416666666667
 30
0.0
 11
-1.00762716319083
 21
-1.947416666666667
 31
0.0
  0
LINE
  5
125
330
F8
100
AcDbEntity
  8
AM_9
 48
0.0144316683030575
100
AcDbLine
 10
1.00762716319083
 20
-1.507416666666667
 30
0.0
 11
1.00762716319083
 21
-1.947416666666667
 31
0.0
  0
LINE
  5
126
330
F8
100
AcDbEntity
  8
AM_9
 48
0.0144316683030575
100
AcDbLine
 10
1.46875
 20
1.203125
 30
0.0
 11
-1.46875
 21
1.203125
 31
0.0
  0
LINE
  5
127
330
F8
100
AcDbEntity
  8
AM_9
 48
0.0144316683030575
100
AcDbLine
 10
-1.46875
 20
1.228125
 30
0.0
 11
-1.46875
 21
1.203125
 31
0.0
  0
LINE
  5
128
330
F8
100
AcDbEntity
  8
AM_9
 48
0.0144316683030575
100
AcDbLine
 10
1.46875
 20
1.203125
 30
0.0
 11
1.46875
 21
1.228125
 31
0.0
  0
LINE
  5
129
330
F8
100
AcDbEntity
  8
AM_9
 48
0.0144316683030575
100
AcDbLine
 10
-1.192745529690401
 20
-1.507416666666667
 30
0.0
 11
-1.00762716319083
 21
-1.507416666666667
 31
0.0
  0
LINE
  5
12A
330
F8
100
AcDbEntity
  8
AM_9
 48
0.0144316683030575
100
AcDbLine
 10
1.00762716319083
 20
-1.507416666666667
 30
0.0
 11
1.192745529690401
 21
-1.507416666666667
 31
0.0
  0
LINE
  5
12B
330
F8
100
AcDbEntity
  8
AM_9
 48
0.0144316683030575
100
AcDbLine
 10
-1.631944444444444
 20
1.190464743589743
 30
0.0
 11
-1.631944444444444
 21
0.8920000000000001
 31
0.0
  0
LINE
  5
12C
330
F8
100
AcDbEntity
  8
AM_9
 48
0.0144316683030575
100
AcDbLine
 10
1.631944444444444
 20
0.8920000000000001
 30
0.0
 11
1.631944444444444
 21
1.190464743589743
 31
0.0
  0
LINE
  5
12D
330
F8
100
AcDbEntity
  8
AM_9
 48
0.0144316683030575
100
AcDbLine
 10
1.594284188034188
 20
1.228125
 30
0.0
 11
-1.594284188018017
 21
1.228125
 31
0.0
  0
LINE
  5
12E
330
F8
100
AcDbEntity
  8
AM_9
 48
0.0144316683030575
100
AcDbLine
 10
1.631944444444444
 20
1.190464743589743
 30
0.0
 11
-1.631944444444444
 21
1.190464743589743
 31
0.0
  0
ARC
  5
12F
330
F8
100
AcDbEntity
  8
AM_9
 48
0.0144316683030575
100
AcDbCircle
 10
-1.594284188034188
 20
1.190464743589743
 30
0.0
 40
0.0376602564102564
100
AcDbArc
 50
90.00000000000034
 51
180.0000000000003
  0
ARC
  5
130
330
F8
100
AcDbEntity
  8
AM_9
 48
0.0144316683030575
100
AcDbCircle
 10
1.594284188034188
 20
1.190464743589743
 30
0.0
 40
0.0376602564102564
100
AcDbArc
 50
359.9999999999997
 51
89.99999999999969
  0
LINE
  5
131
330
F8
100
AcDbEntity
  8
AM_9
 48
0.0144316683030575
100
AcDbLine
 10
0.0
 20
-1.107416666666666
 30
0.0
 11
-0.0724499999999999
 21
-1.141200656499996
 31
0.0
  0
LINE
  5
132
330
F8
100
AcDbEntity
  8
AM_9
 48
0.0144316683030575
100
AcDbLine
 10
0.0724499999999999
 20
-1.141200656499996
 30
0.0
 11
0.0
 21
-1.107416666666666
 31
0.0
  0
LINE
  5
133
330
F8
100
AcDbEntity
  8
AM_9
 48
0.0144316683030575
100
AcDbLine
 10
0.0724499999999999
 20
-1.141200656499996
 30
0.0
 11
-0.0724499999999999
 21
-1.141200656499996
 31
0.0
  0
LINE
  5
134
330
F8
100
AcDbEntity
  8
AM_9
 48
0.0144316683030575
100
AcDbLine
 10
-0.0724499999999999
 20
-1.141200656499996
 30
0.0
 11
-0.0724499999999999
 21
-1.924866666666667
 31
0.0
  0
LINE
  5
135
330
F8
100
AcDbEntity
  8
AM_9
 48
0.0144316683030575
100
AcDbLine
 10
0.0724499999999999
 20
-1.924866666666667
 30
0.0
 11
0.0724499999999999
 21
-1.141200656499996
 31
0.0
  0
LINE
  5
136
330
F8
100
AcDbEntity
  8
AM_9
 48
0.0144316683030575
100
AcDbLine
 10
0.0724499999999999
 20
-1.924866666666667
 30
0.0
 11
-0.0724499999999999
 21
-1.924866666666667
 31
0.0
  0
LINE
  5
137
330
F8
100
AcDbEntity
  8
AM_9
 48
0.0144316683030575
100
AcDbLine
 10
-0.0724499999999999
 20
-1.924866666666667
 30
0.0
 11
-0.0949999999999999
 21
-1.947416666666667
 31
0.0
  0
LINE
  5
138
330
F8
100
AcDbEntity
  8
AM_9
 48
0.0144316683030575
100
AcDbLine
 10
0.0949999999999999
 20
-1.947416666666667
 30
0.0
 11
0.0724499999999999
 21
-1.924866666666667
 31
0.0
  0
LINE
  5
139
330
F8
100
AcDbEntity
  8
AM_9
 48
0.0144316683030575
100
AcDbLine
 10
1.960572079651594
 20
-1.28671875
 30
0.0
 11
1.982963931814131
 21
-0.6455000000000001
 31
0.0
  0
LINE
  5
13A
330
F8
100
AcDbEntity
  8
AM_9
 48
0.0144316683030575
100
AcDbLine
 10
-1.982963931814131
 20
-0.6455000000000001
 30
0.0
 11
-1.960572079651594
 21
-1.28671875
 31
0.0
  0
LINE
  5
13B
330
F8
100
AcDbEntity
  8
AM_9
 48
0.0144316683030575
100
AcDbLine
 10
1.956368966601196
 20
0.8919999999999996
 30
0.0
 11
-1.956368966593395
 21
0.8919999999999996
 31
0.0
  0
ARC
  5
13C
330
F8
100
AcDbEntity
  8
AM_9
 48
0.0144316683030575
100
AcDbCircle
 10
-1.956368966601195
 20
0.7919999999999984
 30
0.0
 40
0.1000000000000013
100
AcDbArc
 50
90.00000000000064
 51
149.9999999999996
  0
ARC
  5
13D
330
F8
100
AcDbEntity
  8
AM_9
 48
0.0144316683030575
100
AcDbCircle
 10
1.956368966601195
 20
0.7919999999999984
 30
0.0
 40
0.1000000000000014
100
AcDbArc
 50
30.00000000000044
 51
89.99999999999936
  0
LINE
  5
13E
330
F8
100
AcDbEntity
  8
AM_9
 48
0.0144316683030575
100
AcDbLine
 10
2.042971506979639
 20
0.8419999999999997
 30
0.0
 11
-2.042971506979639
 21
0.8419999999999997
 31
0.0
  0
LINE
  5
13F
330
F8
100
AcDbEntity
  8
AM_9
 48
0.0144316683030575
100
AcDbLine
 10
-2.042971506979639
 20
0.8419999999999997
 30
0.0
 11
-2.16205
 21
0.6357499999999998
 31
0.0
  0
LINE
  5
140
330
F8
100
AcDbEntity
  8
AM_9
 48
0.0144316683030575
100
AcDbLine
 10
2.16205
 20
0.6357499999999998
 30
0.0
 11
2.042971506979639
 21
0.8419999999999997
 31
0.0
  0
LINE
  5
141
330
F8
100
AcDbEntity
  8
AM_9
 48
0.0144316683030575
100
AcDbLine
 10
-2.2979875
 20
0.0321115016199602
 30
0.0
 11
-2.2979875
 21
-0.0418615016199606
 31
0.0
  0
LINE
  5
142
330
F8
100
AcDbEntity
  8
AM_9
 48
0.0144316683030575
100
AcDbLine
 10
2.2979875
 20
-0.0418615016199606
 30
0.0
 11
2.2979875
 21
0.0321115016199602
 31
0.0
  0
LINE
  5
143
330
F8
100
AcDbEntity
  8
AM_9
 48
0.0144316683030575
100
AcDbLine
 10
2.2979875
 20
-0.0418615016199606
 30
0.0
 11
-2.2979875
 21
-0.0418615016199606
 31
0.0
  0
LINE
  5
144
330
F8
100
AcDbEntity
  8
AM_9
 48
0.0144316683030575
100
AcDbLine
 10
-2.2979875
 20
-0.0418615016199606
 30
0.0
 11
-2.36205
 21
-0.0788480032399213
 31
0.0
  0
LINE
  5
145
330
F8
100
AcDbEntity
  8
AM_9
 48
0.0144316683030575
100
AcDbLine
 10
2.36205
 20
-0.0788480032399213
 30
0.0
 11
2.2979875
 21
-0.0418615016199606
 31
0.0
  0
LINE
  5
146
330
F8
100
AcDbEntity
  8
AM_9
 48
0.0144316683030575
100
AcDbLine
 10
2.2979875
 20
0.0321115016199602
 30
0.0
 11
-2.2979875
 21
0.0321115016199602
 31
0.0
  0
LINE
  5
147
330
F8
100
AcDbEntity
  8
AM_9
 48
0.0144316683030575
100
AcDbLine
 10
2.2979875
 20
0.0321115016199602
 30
0.0
 11
2.36205
 21
0.0690980032399206
 31
0.0
  0
LINE
  5
148
330
F8
100
AcDbEntity
  8
AM_9
 48
0.0144316683030575
100
AcDbLine
 10
-2.36205
 20
0.0690980032399206
 30
0.0
 11
-2.2979875
 21
0.0321115016199602
 31
0.0
  0
LINE
  5
149
330
F8
100
AcDbEntity
  8
AM_9
 48
0.0144316683030575
100
AcDbLine
 10
2.36205
 20
0.0690980032399206
 30
0.0
 11
-2.36205
 21
0.0690980032399206
 31
0.0
  0
LINE
  5
14A
330
F8
100
AcDbEntity
  8
AM_9
 48
0.0144316683030575
100
AcDbLine
 10
-2.36205
 20
0.5857499999999994
 30
0.0
 11
-2.36205
 21
0.0690980032399206
 31
0.0
  0
LINE
  5
14B
330
F8
100
AcDbEntity
  8
AM_9
 48
0.0144316683030575
100
AcDbLine
 10
2.36205
 20
0.0690980032399206
 30
0.0
 11
2.36205
 21
0.5857499999999994
 31
0.0
  0
LINE
  5
14C
330
F8
100
AcDbEntity
  8
AM_9
 48
0.0144316683030575
100
AcDbLine
 10
2.31205
 20
0.6357499999999998
 30
0.0
 11
-2.312049999990428
 21
0.6357499999999998
 31
0.0
  0
LINE
  5
14D
330
F8
100
AcDbEntity
  8
AM_9
 48
0.0144316683030575
100
AcDbLine
 10
2.36205
 20
0.5857499999999994
 30
0.0
 11
-2.36205
 21
0.5857499999999994
 31
0.0
  0
ARC
  5
14E
330
F8
100
AcDbEntity
  8
AM_9
 48
0.0144316683030575
100
AcDbCircle
 10
-2.31205
 20
0.5857499999999997
 30
0.0
 40
0.0500000000000002
100
AcDbArc
 50
90.0000000000005
 51
180.0000000000002
  0
ARC
  5
14F
330
F8
100
AcDbEntity
  8
AM_9
 48
0.0144316683030575
100
AcDbCircle
 10
2.31205
 20
0.5857499999999994
 30
0.0
 40
0.0500000000000003
100
AcDbArc
 50
0.0
 51
89.99999999999949
  0
LINE
  5
150
330
F8
100
AcDbEntity
  8
AM_9
 48
0.0144316683030575
100
AcDbLine
 10
2.31205
 20
-0.6455000000000001
 30
0.0
 11
-2.312049999990428
 21
-0.6455000000000001
 31
0.0
  0
ARC
  5
151
330
F8
100
AcDbEntity
  8
AM_9
 48
0.0144316683030575
100
AcDbCircle
 10
-2.312050000000001
 20
-0.5955000000000007
 30
0.0
 40
0.0499999999999998
100
AcDbArc
 50
179.9999999999994
 51
270.0000000000005
  0
ARC
  5
152
330
F8
100
AcDbEntity
  8
AM_9
 48
0.0144316683030575
100
AcDbCircle
 10
2.312050000000001
 20
-0.5955000000000007
 30
0.0
 40
0.0499999999999994
100
AcDbArc
 50
269.9999999999995
 51
0.0000000000006361
  0
LINE
  5
153
330
F8
100
AcDbEntity
  8
AM_9
 48
0.0144316683030575
100
AcDbLine
 10
1.709940856263381
 20
-0.0788480032399212
 30
0.0
 11
-2.36205
 21
-0.0788480032399213
 31
0.0
  0
LINE
  5
154
330
F8
100
AcDbEntity
  8
AM_9
 48
0.0144316683030575
100
AcDbLine
 10
2.36205
 20
-0.0788480032399213
 30
0.0
 11
1.716739153054408
 21
-0.0788480032399212
 31
0.0
  0
LINE
  5
155
330
F8
100
AcDbEntity
  8
AM_9
 48
0.0144316683030575
100
AcDbLine
 10
2.36205
 20
-0.5955000000000001
 30
0.0
 11
-2.36205
 21
-0.5955000000000001
 31
0.0
  0
LINE
  5
156
330
F8
100
AcDbEntity
  8
AM_9
 48
0.0144316683030575
100
AcDbLine
 10
-2.36205
 20
-0.0788480032399213
 30
0.0
 11
-2.36205
 21
-0.5955000000000001
 31
0.0
  0
LINE
  5
157
330
F8
100
AcDbEntity
  8
AM_9
 48
0.0144316683030575
100
AcDbLine
 10
2.36205
 20
-0.5955000000000001
 30
0.0
 11
2.36205
 21
-0.0788480032399213
 31
0.0
  0
LINE
  5
158
330
F8
100
AcDbEntity
  8
AM_5
 48
0.0144316683030575
100
AcDbLine
 10
0.0949999999999999
 20
-1.187416666666666
 30
0.0
 11
0.0724499999999999
 21
-1.17439741809644
 31
0.0
  0
LINE
  5
159
330
F8
100
AcDbEntity
  8
AM_5
 48
0.0144316683030575
100
AcDbLine
 10
0.0724499999999999
 20
-1.187416666666665
 30
0.0
 11
0.0949999999999999
 21
-1.187416666666665
 31
0.0
  0
LINE
  5
15A
330
F8
100
AcDbEntity
  8
AM_5
 48
0.0144316683030575
100
AcDbLine
 10
-0.0724499999999999
 20
-1.187416666666665
 30
0.0
 11
-0.0949999999999999
 21
-1.187416666666665
 31
0.0
  0
LINE
  5
15B
330
F8
100
AcDbEntity
  8
AM_5
 48
0.0144316683030575
100
AcDbLine
 10
-0.0949999999999999
 20
-1.187416666666665
 30
0.0
 11
-0.0724499999999999
 21
-1.174397418096443
 31
0.0
  0
ARC
  5
15C
330
F8
100
AcDbEntity
  8
AM_0
 48
0.0144316683030575
100
AcDbCircle
 10
1.889215561259644
 20
-1.897416666666666
 30
0.0
 40
0.0500000000000005
100
AcDbArc
 50
270.0000000000002
 51
357.9999999999998
  0
ARC
  5
15D
330
F8
100
AcDbEntity
  8
AM_0
 48
0.0144316683030575
100
AcDbCircle
 10
-1.889215561259644
 20
-1.897416666666666
 30
0.0
 40
0.0500000000000003
100
AcDbArc
 50
182.0000000000002
 51
269.9999999999998
  0
LINE
  5
15E
330
F8
100
AcDbEntity
  8
AM_0
 48
0.0144316683030575
100
AcDbLine
 10
-0.5673968503185084
 20
-2.21875
 30
0.0
 11
-0.5673968503185084
 21
-2.017416666666667
 31
0.0
  0
LWPOLYLINE
  5
15F
330
F8
100
AcDbEntity
  8
AM_0
 48
0.0144316683030575
100
AcDbPolyline
 90
        6
 70
     0
 43
0.0
 10
1.536544848730685
 20
-1.899161641501792
 10
1.534153533934659
 20
-1.915498431399271
 10
1.528075939344718
 20
-1.929803446599463
 10
1.518972330603804
 20
-1.940526718338507
 10
1.507793588446506
 20
-1.946475489563238
 10
1.500905736762308
 20
-1.947416666666667
  0
LWPOLYLINE
  5
160
330
F8
100
AcDbEntity
  8
AM_0
 48
0.0144316683030575
100
AcDbPolyline
 90
        6
 70
     0
 43
0.0
 10
-1.500905736762308
 20
-1.947416666666667
 10
-1.506043662286855
 20
-1.94689519195521
 10
-1.517539989191865
 20
-1.941645342911153
 10
-1.527121214513951
 20
-1.931315153523578
 10
-1.533669989616411
 20
-1.917157780662395
 10
-1.536544848730685
 20
-1.899161641501792
  0
LINE
  5
161
330
F8
100
AcDbEntity
  8
AM_0
 48
0.0144316683030575
100
AcDbLine
 10
-0.3604715679262208
 20
-2.21875
 30
0.0
 11
-0.3604715679262208
 21
-2.017416666666667
 31
0.0
  0
LINE
  5
162
330
F8
100
AcDbEntity
  8
AM_0
 48
0.0144316683030575
100
AcDbLine
 10
-0.5914414510540424
 20
-2.017416666666667
 30
0.0
 11
-0.5914414510540424
 21
-2.21875
 31
0.0
  0
LINE
  5
163
330
F8
100
AcDbEntity
  8
AM_0
 48
0.0144316683030575
100
AcDbLine
 10
-1.25
 20
-2.017416666666667
 30
0.0
 11
-1.25
 21
-2.21875
 31
0.0
  0
LINE
  5
164
330
F8
100
AcDbEntity
  8
AM_0
 48
0.0144316683030575
100
AcDbLine
 10
1.25
 20
-2.21875
 30
0.0
 11
1.25
 21
-2.017416666666667
 31
0.0
  0
LINE
  5
165
330
F8
100
AcDbEntity
  8
AM_0
 48
0.0144316683030575
100
AcDbLine
 10
1.25
 20
-2.21875
 30
0.0
 11
-1.25
 21
-2.21875
 31
0.0
  0
LINE
  5
166
330
F8
100
AcDbEntity
  8
AM_0
 48
0.0144316683030575
100
AcDbLine
 10
-1.361180553784104
 20
-1.507416666666667
 30
0.0
 11
-1.361180553784104
 21
-1.947416666666667
 31
0.0
  0
LINE
  5
167
330
F8
100
AcDbEntity
  8
AM_0
 48
0.0144316683030575
100
AcDbLine
 10
1.361180553784104
 20
-1.507416666666667
 30
0.0
 11
1.361180553784104
 21
-1.947416666666667
 31
0.0
  0
LWPOLYLINE
  5
168
330
F8
100
AcDbEntity
  8
AM_0
 48
0.0144316683030575
100
AcDbPolyline
 90
        6
 70
     0
 43
0.0
 10
1.147352346169034
 20
-1.947416666666667
 10
1.152490271693581
 20
-1.94689519195521
 10
1.163986598598591
 20
-1.941645342911153
 10
1.173567823920676
 20
-1.931315153523579
 10
1.180116599023137
 20
-1.917157780662395
 10
1.182991458137411
 20
-1.899161641501792
  0
LWPOLYLINE
  5
169
330
F8
100
AcDbEntity
  8
AM_0
 48
0.0144316683030575
100
AcDbPolyline
 90
        6
 70
     0
 43
0.0
 10
-1.182991458137411
 20
-1.899161641501792
 10
-1.180600143341385
 20
-1.915498431399271
 10
-1.174522548751444
 20
-1.929803446599463
 10
-1.16541894001053
 20
-1.940526718338507
 10
-1.154240197853232
 20
-1.946475489563238
 10
-1.147352346169034
 20
-1.947416666666667
  0
LINE
  5
16A
330
F8
100
AcDbEntity
  8
AM_4
 48
0.0144316683030575
100
AcDbLine
 10
-1.536544848730685
 20
-1.899161641501792
 30
0.0
 11
-1.9391851026106
 21
-1.899161641501792
 31
0.0
  0
LINE
  5
16B
330
F8
100
AcDbEntity
  8
AM_0
 48
0.0144316683030575
100
AcDbLine
 10
-1.536544848730685
 20
-1.899161641501792
 30
0.0
 11
-1.546298920283675
 21
-1.507416666666667
 31
0.0
  0
LINE
  5
16C
330
F8
100
AcDbEntity
  8
AM_0
 48
0.0144316683030575
100
AcDbLine
 10
-1.546298920283675
 20
-1.507416666666667
 30
0.0
 11
-1.192745529690401
 21
-1.507416666666667
 31
0.0
  0
LINE
  5
16D
330
F8
100
AcDbEntity
  8
AM_0
 48
0.0144316683030575
100
AcDbLine
 10
-1.192745529690401
 20
-1.507416666666667
 30
0.0
 11
-1.182991458137411
 21
-1.899161641501792
 31
0.0
  0
LINE
  5
16E
330
F8
100
AcDbEntity
  8
AM_4
 48
0.0144316683030575
100
AcDbLine
 10
1.182991458137411
 20
-1.899161641501792
 30
0.0
 11
-1.182991458137411
 21
-1.899161641501792
 31
0.0
  0
LINE
  5
16F
330
F8
100
AcDbEntity
  8
AM_0
 48
0.0144316683030575
100
AcDbLine
 10
1.182991458137411
 20
-1.899161641501792
 30
0.0
 11
1.192745529690401
 21
-1.507416666666667
 31
0.0
  0
LINE
  5
170
330
F8
100
AcDbEntity
  8
AM_0
 48
0.0144316683030575
100
AcDbLine
 10
1.192745529690401
 20
-1.507416666666667
 30
0.0
 11
1.546298920283676
 21
-1.507416666666667
 31
0.0
  0
LINE
  5
171
330
F8
100
AcDbEntity
  8
AM_0
 48
0.0144316683030575
100
AcDbLine
 10
1.546298920283676
 20
-1.507416666666667
 30
0.0
 11
1.536544848730685
 21
-1.899161641501792
 31
0.0
  0
LINE
  5
172
330
F8
100
AcDbEntity
  8
AM_0
 48
0.0144316683030575
100
AcDbLine
 10
1.9391851026106
 20
-1.899161641501792
 30
0.0
 11
1.960572079651594
 21
-1.28671875
 31
0.0
  0
LINE
  5
173
330
F8
100
AcDbEntity
  8
AM_0
 48
0.0144316683030575
100
AcDbLine
 10
-1.960572079651594
 20
-1.28671875
 30
0.0
 11
-1.9391851026106
 21
-1.899161641501792
 31
0.0
  0
LINE
  5
174
330
F8
100
AcDbEntity
  8
AM_4
 48
0.0144316683030575
100
AcDbLine
 10
1.9391851026106
 20
-1.899161641501792
 30
0.0
 11
1.536544848730685
 21
-1.899161641501792
 31
0.0
  0
ENDBLK
  5
FB
330
F8
100
AcDbEntity
  8
0
100
AcDbBlockEnd
  0
BLOCK
  5
177
330
175
100
AcDbEntity
  8
0
100
AcDbBlockBegin
  2
5_405015E_Inch_0_in_069470_4
 70
     2
 10
0.0
 20
0.0
 30
0.0
  3
5_405015E_Inch_0_in_069470_4
  1

  0
ATTDEF
  5
179
330
175
100
AcDbEntity
  8
AM_6
100
AcDbText
 10
6.748296671481428
 20
0.2525907427704614
 30
0.0
 40
0.5
  1
405015E -Inch
100
AcDbAttributeDefinition
  3

  2
NN
 70
     8
280
     0
  0
ATTDEF
  5
17A
330
175
100
AcDbEntity
  8
AM_6
100
AcDbText
 10
6.748296671481428
 20
-0.2474092572295386
 30
0.0
 40
0.5
  1
Grease Fitting
100
AcDbAttributeDefinition
  3

  2
NT
 70
     8
280
     0
  0
ATTDEF
  5
17B
330
175
100
AcDbEntity
  8
AM_6
100
AcDbText
 10
6.748296671481428
 20
-0.7474092572295385
 30
0.0
 40
0.5
  1
405015E-Inch
100
AcDbAttributeDefinition
  3

  2
NB
 70
     8
280
     0
  0
ATTDEF
  5
17C
330
175
100
AcDbEntity
  8
AM_6
100
AcDbText
 10
6.748296671481428
 20
-1.247409257229539
 30
0.0
 40
0.5
  1
$MN.-Inch
100
AcDbAttributeDefinition
  3

  2
NBSYN
 70
     8
280
     0
  0
ATTDEF
  5
17D
330
175
100
AcDbEntity
  8
AM_6
100
AcDbText
 10
6.748296671481428
 20
-1.747409257229539
 30
0.0
 40
0.5
  1
405015E
100
AcDbAttributeDefinition
  3

  2
LINA
 70
     8
280
     0
  0
ATTDEF
  5
17E
330
175
100
AcDbEntity
  8
AM_6
100
AcDbText
 10
6.748296671481428
 20
-2.247409257229538
 30
0.0
 40
0.5
  1
405015E
100
AcDbAttributeDefinition
  3

  2
MN
 70
     8
280
     0
  0
ATTDEF
  5
17F
330
175
100
AcDbEntity
  8
AM_6
100
AcDbText
 10
6.748296671481428
 20
-2.747409257229538
 30
0.0
 40
0.5
  1
1/8 x 27PTF
100
AcDbAttributeDefinition
  3

  2
T
 70
     8
280
     0
  0
ATTDEF
  5
180
330
175
100
AcDbEntity
  8
AM_6
100
AcDbText
 10
6.748296671481428
 20
-3.247409257229538
 30
0.0
 40
0.5
  1
baldor
100
AcDbAttributeDefinition
  3

  2
COMPANY
 70
     8
280
     0
  0
ELLIPSE
  5
181
330
175
100
AcDbEntity
  8
AM_9
 48
0.0015579470513975
100
AcDbEllipse
 10
1.339375
 20
0.0000000000000001
 30
0.0
 11
9.913691727296317E-18
 21
0.161902872472269
 31
0.0
210
0.0
220
0.0
230
1.0
 40
0.8660254037844383
 41
0.0
 42
6.283185307179586
  0
LWPOLYLINE
  5
182
330
175
100
AcDbEntity
  8
AM_9
 48
0.0015579470513975
100
AcDbPolyline
 90
        3
 70
     0
 43
0.0
 10
1.665851856926153
 20
-0.1262953713852305
 10
1.61537750203231
 20
-0.1577272497321274
 10
1.566596528538923
 20
-0.1894430570778458
  0
LWPOLYLINE
  5
183
330
175
100
AcDbEntity
  8
AM_9
 48
0.0015579470513975
100
AcDbPolyline
 90
        4
 70
     0
 43
0.0
 10
1.661491753893233
 20
-0.0238515316217924
 10
1.662026837436414
 20
-0.0483998160558987
 10
1.664059263336768
 20
-0.0967996321117976
 10
1.665851856926153
 20
-0.1262953713852305
  0
LINE
  5
184
330
175
100
AcDbEntity
  8
AM_9
 48
0.0015579470513975
100
AcDbLine
 10
1.661318057077846
 20
0.0000000000000001
 30
0.0
 11
1.661491753893233
 21
-0.0238515316217924
 31
0.0
  0
LWPOLYLINE
  5
185
330
175
100
AcDbEntity
  8
AM_9
 48
0.0015579470513975
100
AcDbPolyline
 90
        3
 70
     0
 43
0.0
 10
1.566596528538923
 20
0.1894430570778461
 10
1.615153983200901
 20
0.1578692142315385
 10
1.665851856926153
 20
0.1262953713852308
  0
LINE
  5
186
330
175
100
AcDbEntity
  8
AM_9
 48
0.0015579470513975
100
AcDbLine
 10
1.661533108928754
 20
0.0265487842793965
 30
0.0
 11
1.661318057077846
 21
0.0000000000000001
 31
0.0
  0
LWPOLYLINE
  5
187
330
175
100
AcDbEntity
  8
AM_9
 48
0.0015579470513975
100
AcDbPolyline
 90
        3
 70
     0
 43
0.0
 10
1.665851856926153
 20
0.1262953713852308
 10
1.662525319552656
 20
0.0634316146914369
 10
1.661533108928754
 20
0.0265487842793965
  0
LINE
  5
188
330
175
100
AcDbEntity
  8
AM_9
 48
0.0015579470513975
100
AcDbLine
 10
1.706784257229538
 20
0.1262953713852308
 30
0.0
 11
1.665851856926153
 21
0.1262953713852308
 31
0.0
  0
LINE
  5
189
330
175
100
AcDbEntity
  8
AM_9
 48
0.0015579470513975
100
AcDbLine
 10
1.706784257229538
 20
-0.1262953713852305
 30
0.0
 11
1.665851856926153
 21
-0.1262953713852305
 31
0.0
  0
LWPOLYLINE
  5
18A
330
175
100
AcDbEntity
  8
AM_9
 48
0.0015579470513975
100
AcDbPolyline
 90
        3
 70
     0
 43
0.0
 10
1.709052294546634
 20
-0.0876639037391227
 10
1.71060514295631
 20
-0.0485424412477542
 10
1.711318057077846
 20
0.0000000000000002
  0
LWPOLYLINE
  5
18B
330
175
100
AcDbEntity
  8
AM_9
 48
0.0015579470513975
100
AcDbPolyline
 90
        3
 70
     0
 43
0.0
 10
1.711318057077846
 20
0.0000000000000002
 10
1.710121366685329
 20
0.0631476856926155
 10
1.709042864371098
 20
0.0878529476487881
  0
LWPOLYLINE
  5
18C
330
175
100
AcDbEntity
  8
AM_9
 48
0.0015579470513975
100
AcDbPolyline
 90
        3
 70
     0
 43
0.0
 10
1.566596528538923
 20
-0.1894430570778458
 10
1.520432454661979
 20
-0.2210168999241534
 10
1.476408799848307
 20
-0.2525907427704611
  0
LWPOLYLINE
  5
18D
330
175
100
AcDbEntity
  8
AM_9
 48
0.0015579470513975
100
AcDbPolyline
 90
        3
 70
     0
 43
0.0
 10
1.476408799848307
 20
0.2525907427704614
 10
1.520230079995155
 20
0.2211588644235644
 10
1.566596528538923
 20
0.1894430570778461
  0
LINE
  5
18E
330
175
100
AcDbEntity
  8
AM_9
 48
0.0015579470513975
100
AcDbLine
 10
1.348421710626154
 20
-0.1983264404626878
 30
0.0
 11
1.46222989783229
 21
-0.2054502516015133
 31
0.0
  0
LINE
  5
18F
330
175
100
AcDbEntity
  8
AM_9
 48
0.0015579470513975
100
AcDbLine
 10
1.46222989783229
 20
0.2054502516015136
 30
0.0
 11
1.348421710626154
 21
0.1983264404626881
 31
0.0
  0
ELLIPSE
  5
190
330
175
100
AcDbEntity
  8
AM_9
 48
0.0015579470513975
100
AcDbEllipse
 10
1.521875000000002
 20
-0.0000000000000008
 30
0.0
 11
-3.925964309285046E-15
 21
-0.2187499999999986
 31
0.0
210
0.0
220
0.0
230
1.0
 40
0.866025403784433
 41
1.032970329615081
 42
2.108622323974753
  0
ELLIPSE
  5
191
330
175
100
AcDbEntity
  8
AM_9
 48
0.0015579470513975
100
AcDbEllipse
 10
1.521874999999998
 20
0.0000000000000002
 30
0.0
 11
-3.926523799766228E-17
 21
-0.2137500000000015
 31
0.0
210
0.0
220
0.0
230
1.0
 40
0.866025403784438
 41
0.9862868522353354
 42
2.155305801354458
  0
ELLIPSE
  5
192
330
175
100
AcDbEntity
  8
AM_9
 48
0.0015579470513975
100
AcDbEllipse
 10
1.531034099270441
 20
0.0000000000000002
 30
0.0
 11
1.215470313748213E-16
 21
-0.1725340532830154
 31
0.0
210
0.0
220
0.0
230
1.0
 40
0.8660254037844364
 41
0.6732704101474916
 42
2.468322243442302
  0
LINE
  5
193
330
175
100
AcDbEntity
  8
AM_9
 48
0.0015579470513975
100
AcDbLine
 10
1.641875
 20
0.0703562363973518
 30
0.0
 11
1.634635904853149
 21
0.0796165180238022
 31
0.0
  0
LINE
  5
194
330
175
100
AcDbEntity
  8
AM_9
 48
0.0015579470513975
100
AcDbLine
 10
1.634635904853149
 20
-0.0796165180238019
 30
0.0
 11
1.641875
 21
-0.0703562363973514
 31
0.0
  0
ELLIPSE
  5
195
330
175
100
AcDbEntity
  8
AM_9
 48
0.0015579470513975
100
AcDbEllipse
 10
1.558251560809287
 20
-0.0000000000000006
 30
0.0
 11
5.465912005143536E-15
 21
-0.1188200907348983
 31
0.0
210
0.0
220
0.0
230
1.0
 40
0.8660254037844342
 41
0.0521714424105495
 42
3.089421211179137
  0
ELLIPSE
  5
196
330
175
100
AcDbEntity
  8
AM_9
 48
0.0015579470513975
100
AcDbEllipse
 10
1.574375000000009
 20
-0.000000000000001
 30
0.0
 11
-3.601715953753225E-14
 21
-0.1049999999999988
 31
0.0
210
0.0
220
0.0
230
1.0
 40
0.866025403784463
 41
5.858105981271665
 42
9.849857286678052
  0
LINE
  5
197
330
175
100
AcDbEntity
  8
AM_9
 48
0.0015579470513975
100
AcDbLine
 10
1.574375
 20
-0.1049999999999998
 30
0.0
 11
1.589375
 21
-0.1049999999999998
 31
0.0
  0
LINE
  5
198
330
175
100
AcDbEntity
  8
AM_9
 48
0.0015579470513975
100
AcDbLine
 10
1.589375
 20
0.1050000000000002
 30
0.0
 11
1.574375
 21
0.1050000000000002
 31
0.0
  0
ELLIPSE
  5
199
330
175
100
AcDbEntity
  8
AM_9
 48
0.0015579470513975
100
AcDbEllipse
 10
1.589375
 20
0.0000000000000002
 30
0.0
 11
-1.928818708657083E-17
 21
-0.1050000000000001
 31
0.0
210
0.0
220
0.0
230
1.0
 40
0.8660254037844398
 41
5.235987755982991
 42
10.47197551196597
  0
ELLIPSE
  5
19A
330
175
100
AcDbEntity
  8
AM_9
 48
0.0015579470513975
100
AcDbEllipse
 10
1.619374999999998
 20
0.0000000000000002
 30
0.0
 11
-2.479909768273405E-17
 21
-0.1350000000000008
 31
0.0
210
0.0
220
0.0
230
1.0
 40
0.8660254037844408
 41
0.7751090107151271
 42
2.366483642874666
  0
ELLIPSE
  5
19B
330
175
100
AcDbEntity
  8
AM_9
 48
0.0015579470513975
100
AcDbEllipse
 10
1.471874999999998
 20
0.0000000000000008
 30
0.0
 11
-1.400206928262831E-15
 21
-0.2187499999999988
 31
0.0
210
0.0
220
0.0
230
1.0
 40
0.8660254037844338
 41
0.0
 42
6.283185307179586
  0
ELLIPSE
  5
19C
330
175
100
AcDbEntity
  8
AM_9
 48
0.0015579470513975
100
AcDbEllipse
 10
1.47187500000006
 20
-0.0000000000000847
 30
0.0
 11
2.353369846542886E-13
 21
-0.2057518972231545
 31
0.0
210
0.0
220
0.0
230
1.0
 40
0.8660254037844505
 41
0.0
 42
6.283185307179586
  0
ELLIPSE
  5
19D
330
175
100
AcDbEntity
  8
AM_9
 48
0.0015579470513975
100
AcDbEllipse
 10
1.357732377154738
 20
-0.0000000000001187
 30
0.0
 11
1.051354538214105E-12
 21
-0.1986176267813343
 31
0.0
210
0.0
220
0.0
230
1.0
 40
0.8660254037844727
 41
0.0
 42
6.283185307179586
  0
LWPOLYLINE
  5
19E
330
175
100
AcDbEntity
  8
AM_0
 48
0.0015579470513975
100
AcDbPolyline
 90
        3
 70
     0
 43
0.0
 10
1.616596528538923
 20
-0.1894430570778458
 10
1.662760602415867
 20
-0.1578692142315382
 10
1.706784257229538
 20
-0.1262953713852305
  0
LINE
  5
19F
330
175
100
AcDbEntity
  8
AM_0
 48
0.0015579470513975
100
AcDbLine
 10
1.706784257229538
 20
-0.1262953713852305
 30
0.0
 11
1.709052294546634
 21
-0.0876639037391227
 31
0.0
  0
LWPOLYLINE
  5
1A0
330
175
100
AcDbEntity
  8
AM_0
 48
0.0015579470513975
100
AcDbPolyline
 90
        3
 70
     0
 43
0.0
 10
1.706784257229538
 20
0.1262953713852308
 10
1.66296297708269
 20
0.1577272497321277
 10
1.616596528538923
 20
0.1894430570778461
  0
LINE
  5
1A1
330
175
100
AcDbEntity
  8
AM_0
 48
0.0015579470513975
100
AcDbLine
 10
1.709042864371098
 20
0.0878529476487881
 30
0.0
 11
1.706784257229538
 21
0.1262953713852308
 31
0.0
  0
LWPOLYLINE
  5
1A2
330
175
100
AcDbEntity
  8
AM_0
 48
0.0015579470513975
100
AcDbPolyline
 90
        3
 70
     0
 43
0.0
 10
1.616596528538923
 20
0.1894430570778461
 10
1.568039073876944
 20
0.2210168999241537
 10
1.517341200151692
 20
0.2525907427704614
  0
LWPOLYLINE
  5
1A3
330
175
100
AcDbEntity
  8
AM_0
 48
0.0015579470513975
100
AcDbPolyline
 90
        3
 70
     0
 43
0.0
 10
1.517341200151692
 20
-0.2525907427704611
 10
1.567815555045535
 20
-0.2211588644235641
 10
1.616596528538923
 20
-0.1894430570778458
  0
LINE
  5
1A4
330
175
100
AcDbEntity
  8
AM_0
 48
0.0015579470513975
100
AcDbLine
 10
1.517341200151692
 20
-0.2525907427704611
 30
0.0
 11
1.476408799848307
 21
-0.2525907427704611
 31
0.0
  0
LWPOLYLINE
  5
1A5
330
175
100
AcDbEntity
  8
AM_0
 48
0.0015579470513975
100
AcDbPolyline
 90
        3
 70
     0
 43
0.0
 10
1.427153471461077
 20
-0.1894430570778458
 10
1.473317545338021
 20
-0.2210168999241534
 10
1.517341200151692
 20
-0.2525907427704611
  0
LWPOLYLINE
  5
1A6
330
175
100
AcDbEntity
  8
AM_0
 48
0.0015579470513975
100
AcDbPolyline
 90
        3
 70
     0
 43
0.0
 10
1.377153471461077
 20
-0.1894430570778458
 10
1.330989397584132
 20
-0.1578692142315381
 10
1.286965742770461
 20
-0.1262953713852305
  0
LWPOLYLINE
  5
1A7
330
175
100
AcDbEntity
  8
AM_0
 48
0.0015579470513975
100
AcDbPolyline
 90
        3
 70
     0
 43
0.0
 10
1.476408799848307
 20
-0.2525907427704611
 10
1.425934444954464
 20
-0.2211588644235641
 10
1.377153471461077
 20
-0.1894430570778458
  0
LINE
  5
1A8
330
175
100
AcDbEntity
  8
AM_0
 48
0.0015579470513975
100
AcDbLine
 10
1.327898143073847
 20
-0.1262953713852305
 30
0.0
 11
1.286965742770461
 21
-0.1262953713852305
 31
0.0
  0
LWPOLYLINE
  5
1A9
330
175
100
AcDbEntity
  8
AM_0
 48
0.0015579470513975
100
AcDbPolyline
 90
        3
 70
     0
 43
0.0
 10
1.282431942922154
 20
0.0000000000000002
 10
1.283628633314671
 20
0.0631476856926155
 10
1.286965742770461
 20
0.1262953713852308
  0
LWPOLYLINE
  5
1AA
330
175
100
AcDbEntity
  8
AM_0
 48
0.0015579470513975
100
AcDbPolyline
 90
        4
 70
     0
 43
0.0
 10
1.286965742770461
 20
-0.1262953713852305
 10
1.285173149181076
 20
-0.0967996321117976
 10
1.28314485704369
 20
-0.0485424412477542
 10
1.282431942922154
 20
0.0000000000000002
  0
LWPOLYLINE
  5
1AB
330
175
100
AcDbEntity
  8
AM_0
 48
0.0015579470513975
100
AcDbPolyline
 90
        3
 70
     0
 43
0.0
 10
1.327898143073847
 20
0.1262953713852308
 10
1.331224680447344
 20
0.0634316146914369
 10
1.332431942922154
 20
0.0000000000000002
  0
ELLIPSE
  5
1AC
330
175
100
AcDbEntity
  8
AM_0
 48
0.0015579470513975
100
AcDbEllipse
 10
1.521875000000001
 20
-0.0000000000000005
 30
0.0
 11
1.708417540687606E-15
 21
-0.2187500000000009
 31
0.0
210
0.0
220
0.0
230
1.0
 40
0.8660254037844424
 41
2.108622323974731
 42
7.316155636794639
  0
LINE
  5
1AD
330
175
100
AcDbEntity
  8
AM_0
 48
0.0015579470513975
100
AcDbLine
 10
1.327898143073847
 20
0.1262953713852308
 30
0.0
 11
1.286965742770461
 21
0.1262953713852308
 31
0.0
  0
LWPOLYLINE
  5
1AE
330
175
100
AcDbEntity
  8
AM_0
 48
0.0015579470513975
100
AcDbPolyline
 90
        3
 70
     0
 43
0.0
 10
1.427153471461077
 20
0.1894430570778461
 10
1.378596016799098
 20
0.1578692142315385
 10
1.327898143073847
 20
0.1262953713852308
  0
LWPOLYLINE
  5
1AF
330
175
100
AcDbEntity
  8
AM_0
 48
0.0015579470513975
100
AcDbPolyline
 90
        3
 70
     0
 43
0.0
 10
1.517341200151692
 20
0.2525907427704614
 10
1.473519920004844
 20
0.2211588644235645
 10
1.427153471461077
 20
0.1894430570778461
  0
LINE
  5
1B0
330
175
100
AcDbEntity
  8
AM_0
 48
0.0015579470513975
100
AcDbLine
 10
1.517341200151692
 20
0.2525907427704614
 30
0.0
 11
1.476408799848307
 21
0.2525907427704614
 31
0.0
  0
LWPOLYLINE
  5
1B1
330
175
100
AcDbEntity
  8
AM_0
 48
0.0015579470513975
100
AcDbPolyline
 90
        3
 70
     0
 43
0.0
 10
1.377153471461077
 20
0.1894430570778461
 10
1.425710926123056
 20
0.2210168999241537
 10
1.476408799848307
 20
0.2525907427704614
  0
LWPOLYLINE
  5
1B2
330
175
100
AcDbEntity
  8
AM_0
 48
0.0015579470513975
100
AcDbPolyline
 90
        3
 70
     0
 43
0.0
 10
1.286965742770461
 20
0.1262953713852308
 10
1.330787022917309
 20
0.1577272497321278
 10
1.377153471461077
 20
0.1894430570778461
  0
LWPOLYLINE
  5
1B3
330
175
100
AcDbEntity
  8
AM_0
 48
0.0015579470513975
100
AcDbPolyline
 90
        4
 70
     0
 43
0.0
 10
1.332431942922154
 20
0.0000000000000002
 10
1.331723162563585
 20
-0.0483998160558987
 10
1.329690736663232
 20
-0.0967996321117976
 10
1.327898143073847
 20
-0.1262953713852305
  0
LWPOLYLINE
  5
1B4
330
175
100
AcDbEntity
  8
AM_0
 48
0.0015579470513975
100
AcDbPolyline
 90
        3
 70
     0
 43
0.0
 10
1.327898143073847
 20
-0.1262953713852305
 10
1.378372497967689
 20
-0.1577272497321274
 10
1.427153471461077
 20
-0.1894430570778458
  0
ELLIPSE
  5
1B5
330
175
100
AcDbEntity
  8
AM_0
 48
0.0015579470513975
100
AcDbEllipse
 10
1.521875000000001
 20
0.0000000000000008
 30
0.0
 11
1.669367996900449E-15
 21
-0.2137499999999993
 31
0.0
210
0.0
220
0.0
230
1.0
 40
0.8660254037844375
 41
2.155305801354454
 42
7.269472159414905
  0
ELLIPSE
  5
1B6
330
175
100
AcDbEntity
  8
AM_0
 48
0.0015579470513975
100
AcDbEllipse
 10
1.531034099270442
 20
0.0000000000000012
 30
0.0
 11
3.492849532740850E-15
 21
-0.1725340532830144
 31
0.0
210
0.0
220
0.0
230
1.0
 40
0.8660254037844388
 41
2.46832224344228
 42
6.95645571732705
  0
ELLIPSE
  5
1B7
330
175
100
AcDbEntity
  8
AM_0
 48
0.0015579470513975
100
AcDbEllipse
 10
1.558251560809286
 20
0.0000000000000002
 30
0.0
 11
-2.328937774040273E-16
 21
-0.1188200907348976
 31
0.0
210
0.0
220
0.0
230
1.0
 40
0.8660254037844337
 41
3.089421211179181
 42
6.335356749590202
  0
ELLIPSE
  5
1B8
330
175
100
AcDbEntity
  8
AM_0
 48
0.0015579470513975
100
AcDbEllipse
 10
1.574375
 20
0.0000000000000002
 30
0.0
 11
-6.720993255661620E-16
 21
-0.1049999999999999
 31
0.0
210
0.0
220
0.0
230
1.0
 40
0.8660254037844396
 41
3.566671979498018
 42
5.858105981271379
  0
LINE
  5
1B9
330
175
100
AcDbEntity
  8
AM_0
 48
0.0015579470513975
100
AcDbLine
 10
1.510625
 20
-0.0525
 30
0.0
 11
1.518125
 21
-0.0675
 31
0.0
  0
LINE
  5
1BA
330
175
100
AcDbEntity
  8
AM_0
 48
0.0015579470513975
100
AcDbLine
 10
1.518125
 20
0.0675000000000003
 30
0.0
 11
1.510625
 21
0.0525000000000003
 31
0.0
  0
ELLIPSE
  5
1BB
330
175
100
AcDbEntity
  8
AM_0
 48
0.0015579470513975
100
AcDbEllipse
 10
1.589374999999996
 20
0.0000000000000002
 30
0.0
 11
-1.928818708657046E-17
 21
-0.1049999999999981
 31
0.0
210
0.0
220
0.0
230
1.0
 40
0.8660254037844247
 41
4.188790204786379
 42
5.235987755983002
  0
LINE
  5
1BC
330
175
100
AcDbEntity
  8
AM_0
 48
0.0015579470513975
100
AcDbLine
 10
1.721601847792107
 20
0.0733474205218689
 30
0.0
 11
1.701190310731619
 21
0.0964365416902993
 31
0.0
  0
LINE
  5
1BD
330
175
100
AcDbEntity
  8
AM_0
 48
0.0015579470513975
100
AcDbLine
 10
1.701190310731619
 20
-0.096436541690299
 30
0.0
 11
1.721601847792107
 21
-0.0733474205218686
 31
0.0
  0
ELLIPSE
  5
1BE
330
175
100
AcDbEntity
  8
AM_0
 48
0.0015579470513975
100
AcDbEllipse
 10
1.619375
 20
-0.0000000000000006
 30
0.0
 11
2.133474462188582E-15
 21
-0.1350000000000008
 31
0.0
210
0.0
220
0.0
230
1.0
 40
0.866025403784433
 41
2.36648364287466
 42
7.058294317894694
  0
ELLIPSE
  5
1BF
330
175
100
AcDbEntity
  8
AM_0
 48
0.0015579470513975
100
AcDbEllipse
 10
1.659375
 20
0.0000000000000002
 30
0.0
 11
-1.886162459184663E-17
 21
-0.1026779019331878
 31
0.0
210
0.0
220
0.0
230
1.0
 40
0.8660254037844375
 41
0.0
 42
6.283185307179586
  0
ENDBLK
  5
178
330
175
100
AcDbEntity
  8
0
100
AcDbBlockEnd
  0
BLOCK
  5
1C2
330
1C0
100
AcDbEntity
  8
0
100
AcDbBlockBegin
  2
6_069470H_0_in_069470_4
 70
     2
 10
0.0
 20
0.0
 30
0.0
  3
6_069470H_0_in_069470_4
  1

  0
ATTDEF
  5
1C4
330
1C0
100
AcDbEntity
  8
AM_6
100
AcDbText
 10
9.625
 20
1.57265625
 30
0.0
 40
0.5
  1
P2B-IP -(Labyrinth Seal)-Housing -Inch
100
AcDbAttributeDefinition
  3

  2
NN
 70
     8
280
     0
  0
ATTDEF
  5
1C5
330
1C0
100
AcDbEntity
  8
AM_6
100
AcDbText
 10
9.625
 20
1.07265625
 30
0.0
 40
0.5
  1
Imperial 2 Bolt Piliow Block Bearings
100
AcDbAttributeDefinition
  3

  2
NT
 70
     8
280
     0
  0
ATTDEF
  5
1C6
330
1C0
100
AcDbEntity
  8
AM_6
100
AcDbText
 10
9.625
 20
0.5726562500000001
 30
0.0
 40
0.5
  1
069470H
100
AcDbAttributeDefinition
  3

  2
NB
 70
     8
280
     0
  0
ATTDEF
  5
1C7
330
1C0
100
AcDbEntity
  8
AM_6
100
AcDbText
 10
9.625
 20
0.0726562500000001
 30
0.0
 40
0.5
  1
$PN.H
100
AcDbAttributeDefinition
  3

  2
NBSYN
 70
     8
280
     0
  0
ATTDEF
  5
1C8
330
1C0
100
AcDbEntity
  8
AM_6
100
AcDbText
 10
9.625
 20
-0.4273437499999999
 30
0.0
 40
0.5
  1
069470
100
AcDbAttributeDefinition
  3

  2
LINA
 70
     8
280
     0
  0
ATTDEF
  5
1C9
330
1C0
100
AcDbEntity
  8
AM_6
100
AcDbText
 10
9.625
 20
-0.9273437499999999
 30
0.0
 40
0.5
  1
2-3/8
100
AcDbAttributeDefinition
  3

  2
SS
 70
     8
280
     0
  0
ATTDEF
  5
1CA
330
1C0
100
AcDbEntity
  8
AM_6
100
AcDbText
 10
9.625
 20
-1.42734375
 30
0.0
 40
0.5
  1
069470
100
AcDbAttributeDefinition
  3

  2
PN
 70
     8
280
     0
  0
ATTDEF
  5
1CB
330
1C0
100
AcDbEntity
  8
AM_6
100
AcDbText
 10
9.625
 20
-1.92734375
 30
0.0
 40
0.5
  1
P2B-IP-206L
100
AcDbAttributeDefinition
  3

  2
DESCRIPTION
 70
     8
280
     0
  0
ATTDEF
  5
1CC
330
1C0
100
AcDbEntity
  8
AM_6
100
AcDbText
 10
9.625
 20
-2.42734375
 30
0.0
 40
0.5
  1
Non-Expansion Type
100
AcDbAttributeDefinition
  3

  2
EF
 70
     8
280
     0
  0
ATTDEF
  5
1CD
330
1C0
100
AcDbEntity
  8
AM_6
100
AcDbText
 10
9.625
 20
-2.92734375
 30
0.0
 40
0.5
  1
Labyrinth Seal
100
AcDbAttributeDefinition
  3

  2
ST
 70
     8
280
     0
  0
ATTDEF
  5
1CE
330
1C0
100
AcDbEntity
  8
AM_6
100
AcDbText
 10
9.625
 20
-3.42734375
 30
0.0
 40
0.5
  1
3-27/64
100
AcDbAttributeDefinition
  3

  2
A
 70
     8
280
     0
  0
ATTDEF
  5
1CF
330
1C0
100
AcDbEntity
  8
AM_6
100
AcDbText
 10
9.625
 20
-3.92734375
 30
0.0
 40
0.5
  1
9-1/4
100
AcDbAttributeDefinition
  3

  2
B
 70
     8
280
     0
  0
ATTDEF
  5
1D0
330
1C0
100
AcDbEntity
  8
AM_6
100
AcDbText
 10
9.625
 20
-4.42734375
 30
0.0
 40
0.5
  1
2-55/64
100
AcDbAttributeDefinition
  3

  2
C
 70
     8
280
     0
  0
ATTDEF
  5
1D1
330
1C0
100
AcDbEntity
  8
AM_6
100
AcDbText
 10
9.625
 20
-4.92734375
 30
0.0
 40
0.5
  1
6-15/16
100
AcDbAttributeDefinition
  3

  2
DMIN
 70
     8
280
     0
  0
ATTDEF
  5
1D2
330
1C0
100
AcDbEntity
  8
AM_6
100
AcDbText
 10
9.625
 20
-5.42734375
 30
0.0
 40
0.5
  1
7-5/16
100
AcDbAttributeDefinition
  3

  2
DMAX
 70
     8
280
     0
  0
ATTDEF
  5
1D3
330
1C0
100
AcDbEntity
  8
AM_6
100
AcDbText
 10
9.625
 20
-5.92734375
 30
0.0
 40
0.5
  1
5/8
100
AcDbAttributeDefinition
  3

  2
F
 70
     8
280
     0
  0
ATTDEF
  5
1D4
330
1C0
100
AcDbEntity
  8
AM_6
100
AcDbText
 10
9.625
 20
-6.42734375
 30
0.0
 40
0.5
  1
61/64
100
AcDbAttributeDefinition
  3

  2
G
 70
     8
280
     0
  0
ATTDEF
  5
1D5
330
1C0
100
AcDbEntity
  8
AM_6
100
AcDbText
 10
9.625
 20
-6.92734375
 30
0.0
 40
0.5
  1
1-5/8
100
AcDbAttributeDefinition
  3

  2
H
 70
     8
280
     0
  0
ATTDEF
  5
1D6
330
1C0
100
AcDbEntity
  8
AM_6
100
AcDbText
 10
9.625
 20
-7.42734375
 30
0.0
 40
0.5
  1
5-19/32
100
AcDbAttributeDefinition
  3

  2
J
 70
     8
280
     0
  0
ATTDEF
  5
1D7
330
1C0
100
AcDbEntity
  8
AM_6
100
AcDbText
 10
9.625
 20
-7.92734375
 30
0.0
 40
0.5
  1
3-7/8
100
AcDbAttributeDefinition
  3

  2
L
 70
     8
280
     0
  0
ATTDEF
  5
1D8
330
1C0
100
AcDbEntity
  8
AM_6
100
AcDbText
 10
9.625
 20
-8.42734375
 30
0.0
 40
0.5
  1
2-3/4
100
AcDbAttributeDefinition
  3

  2
M
 70
     8
280
     0
  0
ATTDEF
  5
1D9
330
1C0
100
AcDbEntity
  8
AM_6
100
AcDbText
 10
9.625
 20
-8.92734375
 30
0.0
 40
0.5
  1
1-13/64
100
AcDbAttributeDefinition
  3

  2
R
 70
     8
280
     0
  0
ATTDEF
  5
1DA
330
1C0
100
AcDbEntity
  8
AM_6
100
AcDbText
 10
9.625
 20
-9.42734375
 30
0.0
 40
0.5
  1
2-7/32
100
AcDbAttributeDefinition
  3

  2
S
 70
     8
280
     0
  0
ATTDEF
  5
1DB
330
1C0
100
AcDbEntity
  8
AM_6
100
AcDbText
 10
9.625
 20
-9.92734375
 30
0.0
 40
0.5
  1
1/4
100
AcDbAttributeDefinition
  3

  2
X
 70
     8
280
     0
  0
ATTDEF
  5
1DC
330
1C0
100
AcDbEntity
  8
AM_6
100
AcDbText
 10
9.625
 20
-10.42734375
 30
0.0
 40
0.5
  1
0.025
100
AcDbAttributeDefinition
  3

  2
Y
 70
     8
280
     0
  0
ATTDEF
  5
1DD
330
1C0
100
AcDbEntity
  8
AM_6
100
AcDbText
 10
9.625
 20
-10.92734375
 30
0.0
 40
0.5
  1
2-15/16
100
AcDbAttributeDefinition
  3

  2
Z
 70
     8
280
     0
  0
ATTDEF
  5
1DE
330
1C0
100
AcDbEntity
  8
AM_6
100
AcDbText
 10
9.625
 20
-11.42734375
 30
0.0
 40
0.5
  1
baldor
100
AcDbAttributeDefinition
  3

  2
COMPANY
 70
     8
280
     0
  0
LINE
  5
1DF
330
1C0
100
AcDbEntity
  8
AM_9
 48
0.0282288834439131
100
AcDbLine
 10
2.36205
 20
-1.28671875
 30
0.0
 11
2.36205
 21
1.28671875
 31
0.0
  0
LINE
  5
1E0
330
1C0
100
AcDbEntity
  8
AM_9
 48
0.0282288834439131
100
AcDbLine
 10
-2.36205
 20
1.28671875
 30
0.0
 11
-2.36205
 21
-1.28671875
 31
0.0
  0
LWPOLYLINE
  5
1E1
330
1C0
100
AcDbEntity
  8
AM_9
 48
0.0282288834439131
100
AcDbPolyline
 90
        3
 70
     0
 43
0.0
 10
1.432930909150265
 20
0.4998365719976386
 10
1.427702166274965
 20
0.4999546615010825
 10
1.421875
 20
0.5000000000000006
  0
LWPOLYLINE
  5
1E2
330
1C0
100
AcDbEntity
  8
AM_9
 48
0.0282288834439131
100
AcDbPolyline
 90
       28
 70
     0
 43
0.0
 10
1.4697743637174
 20
-0.4968963908197304
 10
1.515029581993058
 20
-0.487985317992733
 10
1.559984159342774
 20
-0.4729354261996285
 10
1.602637341508699
 20
-0.4521948650558986
 10
1.64281771950744
 20
-0.4257447489284061
 10
1.680061022509852
 20
-0.3940019905277173
 10
1.713782135828695
 20
-0.3575479480375041
 10
1.744100003339081
 20
-0.3160689562066454
 10
1.770399821970858
 20
-0.2704623855764871
 10
1.792278099855572
 20
-0.2215673567259804
 10
1.809566354678742
 20
-0.1697193854684432
 10
1.82218461732465
 20
-0.1155075137900957
 10
1.829932374036587
 20
-0.0599705015278082
 10
1.832693949084337
 20
-0.0043887263571807
 10
1.830648423187974
 20
0.0514262248134597
 10
1.823828154143216
 20
0.1064106451112348
 10
1.812316835297906
 20
0.1596461538829748
 10
1.796209685344051
 20
0.211059503686172
 10
1.775749404553724
 20
0.2597166497360338
 10
1.750726272998556
 20
0.305591658282122
 10
1.721527548892871
 20
0.3478061818728574
 10
1.688594566701929
 20
0.3855985535582971
 10
1.651634456200568
 20
0.4189200154409413
 10
1.611308700547968
 20
0.4470532947490451
 10
1.568289569518379
 20
0.4694579126289348
 10
1.523093631513966
 20
0.4857589528333782
 10
1.475939425106294
 20
0.4959936476730848
 10
1.432930909150265
 20
0.4998365719976386
  0
LINE
  5
1E3
330
1C0
100
AcDbEntity
  8
AM_9
 48
0.0282288834439131
100
AcDbLine
 10
1.421875
 20
-0.4999999999999998
 30
0.0
 11
1.423293891242714
 21
-0.4999973147630384
 31
0.0
  0
ELLIPSE
  5
1E4
330
1C0
100
AcDbEntity
  8
AM_9
 48
0.0282288834439131
100
AcDbEllipse
 10
1.421875000004577
 20
-0.0000000000081207
 30
0.0
 11
1.864676998418721E-11
 21
-0.5000000000081213
 31
0.0
210
0.0
220
0.0
230
1.0
 40
0.8660254037843784
 41
3.127052566506883
 42
3.1415926535573
  0
ELLIPSE
  5
1E5
330
1C0
100
AcDbEntity
  8
AM_9
 48
0.0282288834439131
100
AcDbEllipse
 10
1.421875
 20
0.0000000000000001
 30
0.0
 11
3.522406999140110E-16
 21
-0.4999999999999998
 31
0.0
210
0.0
220
0.0
230
1.0
 40
0.8660254037844414
 41
0.0000000000000002
 42
3.053536334426352
  0
LINE
  5
1E8
330
1C0
100
AcDbEntity
  8
AM_7
 48
0.0282288834439131
100
AcDbLine
 10
0.0
 20
1.57265625
 30
0.0
 11
0.0
 21
-2.39109375
 31
0.0
  0
LINE
  5
1E9
330
1C0
100
AcDbEntity
  8
AM_7
 48
0.0282288834439131
100
AcDbLine
 10
3.140625
 20
-0.0000000000000001
 30
0.0
 11
3.984375
 21
-0.0000000000000001
 31
0.0
  0
LINE
  5
1EA
330
1C0
100
AcDbEntity
  8
AM_7
 48
0.0282288834439131
100
AcDbLine
 10
3.46875
 20
-0.3281250000000001
 30
0.0
 11
3.46875
 21
0.3281249999999999
 31
0.0
  0
LINE
  5
1EB
330
1C0
100
AcDbEntity
  8
AM_7
 48
0.0282288834439131
100
AcDbLine
 10
-3.984375
 20
0.0000000000000004
 30
0.0
 11
-3.140625
 21
0.0000000000000004
 31
0.0
  0
LINE
  5
1EC
330
1C0
100
AcDbEntity
  8
AM_7
 48
0.0282288834439131
100
AcDbLine
 10
-3.65625
 20
-0.3281249999999996
 30
0.0
 11
-3.65625
 21
0.3281250000000004
 31
0.0
  0
LINE
  5
1ED
330
1C0
100
AcDbEntity
  8
AM_7
 48
0.0282288834439131
100
AcDbLine
 10
-3.46875
 20
-0.3281249999999997
 30
0.0
 11
-3.46875
 21
0.3281250000000003
 31
0.0
  0
LINE
  5
1EE
330
1C0
100
AcDbEntity
  8
AM_7
 48
0.0282288834439131
100
AcDbLine
 10
3.65625
 20
-0.3281250000000001
 30
0.0
 11
3.65625
 21
0.3281249999999999
 31
0.0
  0
LINE
  5
1EF
330
1C0
100
AcDbEntity
  8
AM_0
 48
0.0282288834439131
100
AcDbLine
 10
-4.625
 20
-1.14375
 30
0.0
 11
-4.3390625
 21
-1.4296875
 31
0.0
  0
LINE
  5
1F0
330
1C0
100
AcDbEntity
  8
AM_0
 48
0.0282288834439131
100
AcDbLine
 10
-4.3390625
 20
1.4296875
 30
0.0
 11
-4.625
 21
1.14375
 31
0.0
  0
LINE
  5
1F1
330
1C0
100
AcDbEntity
  8
AM_0
 48
0.0282288834439131
100
AcDbLine
 10
-4.625
 20
-1.14375
 30
0.0
 11
-4.625
 21
1.14375
 31
0.0
  0
LINE
  5
1F2
330
1C0
100
AcDbEntity
  8
AM_0
 48
0.0282288834439131
100
AcDbLine
 10
4.3390625
 20
-1.4296875
 30
0.0
 11
3.149726746107293
 21
-1.4296875
 31
0.0
  0
LINE
  5
1F3
330
1C0
100
AcDbEntity
  8
AM_0
 48
0.0282288834439131
100
AcDbLine
 10
4.3390625
 20
1.4296875
 30
0.0
 11
3.149726746107293
 21
1.4296875
 31
0.0
  0
LINE
  5
1F4
330
1C0
100
AcDbEntity
  8
AM_0
 48
0.0282288834439131
100
AcDbLine
 10
4.3390625
 20
-1.4296875
 30
0.0
 11
4.625
 21
-1.14375
 31
0.0
  0
LINE
  5
1F5
330
1C0
100
AcDbEntity
  8
AM_0
 48
0.0282288834439131
100
AcDbLine
 10
4.625
 20
1.14375
 30
0.0
 11
4.3390625
 21
1.4296875
 31
0.0
  0
LINE
  5
1F6
330
1C0
100
AcDbEntity
  8
AM_0
 48
0.0282288834439131
100
AcDbLine
 10
3.65625
 20
0.3124999999999999
 30
0.0
 11
3.46875
 21
0.3124999999999999
 31
0.0
  0
ARC
  5
1F7
330
1C0
100
AcDbEntity
  8
AM_0
 48
0.0282288834439131
100
AcDbCircle
 10
3.65625
 20
-0.0000000000000001
 30
0.0
 40
0.3124999999999999
100
AcDbArc
 50
270.0
 51
90.0
  0
LINE
  5
1F8
330
1C0
100
AcDbEntity
  8
AM_0
 48
0.0282288834439131
100
AcDbLine
 10
3.46875
 20
-0.3125000000000001
 30
0.0
 11
3.65625
 21
-0.3125000000000001
 31
0.0
  0
ARC
  5
1F9
330
1C0
100
AcDbEntity
  8
AM_0
 48
0.0282288834439131
100
AcDbCircle
 10
3.46875
 20
-0.0000000000000001
 30
0.0
 40
0.3125
100
AcDbArc
 50
90.0
 51
270.0
  0
LINE
  5
1FA
330
1C0
100
AcDbEntity
  8
AM_0
 48
0.0282288834439131
100
AcDbLine
 10
4.625
 20
-1.14375
 30
0.0
 11
4.625
 21
1.14375
 31
0.0
  0
LINE
  5
1FB
330
1C0
100
AcDbEntity
  8
AM_4
 48
0.0282288834439131
100
AcDbLine
 10
4.4625
 20
-1.306249999999999
 30
0.0
 11
4.4625
 21
1.306249999999999
 31
0.0
  0
LINE
  5
1FC
330
1C0
100
AcDbEntity
  8
AM_0
 48
0.0282288834439131
100
AcDbLine
 10
-3.149726746107293
 20
-1.4296875
 30
0.0
 11
-4.3390625
 21
-1.4296875
 31
0.0
  0
LINE
  5
1FD
330
1C0
100
AcDbEntity
  8
AM_0
 48
0.0282288834439131
100
AcDbLine
 10
-3.149726746107293
 20
1.4296875
 30
0.0
 11
-4.3390625
 21
1.4296875
 31
0.0
  0
LINE
  5
1FE
330
1C0
100
AcDbEntity
  8
AM_0
 48
0.0282288834439131
100
AcDbLine
 10
-3.46875
 20
0.3125000000000003
 30
0.0
 11
-3.65625
 21
0.3125000000000003
 31
0.0
  0
ARC
  5
1FF
330
1C0
100
AcDbEntity
  8
AM_0
 48
0.0282288834439131
100
AcDbCircle
 10
-3.46875
 20
0.0000000000000003
 30
0.0
 40
0.3124999999999999
100
AcDbArc
 50
270.0
 51
90.0
  0
LINE
  5
200
330
1C0
100
AcDbEntity
  8
AM_0
 48
0.0282288834439131
100
AcDbLine
 10
-3.65625
 20
-0.3124999999999997
 30
0.0
 11
-3.46875
 21
-0.3124999999999996
 31
0.0
  0
ARC
  5
201
330
1C0
100
AcDbEntity
  8
AM_0
 48
0.0282288834439131
100
AcDbCircle
 10
-3.65625
 20
0.0000000000000004
 30
0.0
 40
0.3124999999999999
100
AcDbArc
 50
90.0
 51
270.0
  0
LINE
  5
202
330
1C0
100
AcDbEntity
  8
AM_4
 48
0.0282288834439131
100
AcDbLine
 10
-4.4625
 20
-1.306249999999999
 30
0.0
 11
-4.4625
 21
1.306249999999999
 31
0.0
  0
LINE
  5
203
330
1C0
100
AcDbEntity
  8
AM_4
 48
0.0282288834439131
100
AcDbLine
 10
2.8925
 20
-1.021205357142857
 30
0.0
 11
2.8925
 21
1.021205357142857
 31
0.0
  0
LINE
  5
204
330
1C0
100
AcDbEntity
  8
AM_4
 48
0.0282288834439131
100
AcDbLine
 10
-2.8925
 20
-1.021205357142857
 30
0.0
 11
-2.8925
 21
1.021205357142857
 31
0.0
  0
LINE
  5
205
330
1C0
100
AcDbEntity
  8
AM_4
 48
0.0282288834439131
100
AcDbLine
 10
3.149726746107294
 20
1.021205357142857
 30
0.0
 11
3.149726746107293
 21
1.4296875
 31
0.0
  0
LINE
  5
206
330
1C0
100
AcDbEntity
  8
AM_0
 48
0.0282288834439131
100
AcDbLine
 10
3.00625
 20
1.28671875
 30
0.0
 11
3.149218749999999
 21
1.4296875
 31
0.0
  0
LINE
  5
207
330
1C0
100
AcDbEntity
  8
AM_0
 48
0.0282288834439131
100
AcDbLine
 10
3.14921875
 20
-1.4296875
 30
0.0
 11
3.006250000000001
 21
-1.28671875
 31
0.0
  0
LINE
  5
208
330
1C0
100
AcDbEntity
  8
AM_4
 48
0.0282288834439131
100
AcDbLine
 10
3.149726746107293
 20
-1.4296875
 30
0.0
 11
3.149726746107294
 21
-1.021205357142857
 31
0.0
  0
LINE
  5
209
330
1C0
100
AcDbEntity
  8
AM_0
 48
0.0282288834439131
100
AcDbLine
 10
-3.14921875
 20
1.4296875
 30
0.0
 11
-3.00625
 21
1.286718749999999
 31
0.0
  0
LINE
  5
20A
330
1C0
100
AcDbEntity
  8
AM_4
 48
0.0282288834439131
100
AcDbLine
 10
-3.149726746107293
 20
1.021205357142857
 30
0.0
 11
-3.149726746107293
 21
1.4296875
 31
0.0
  0
LINE
  5
20B
330
1C0
100
AcDbEntity
  8
AM_4
 48
0.0282288834439131
100
AcDbLine
 10
-3.149726746107293
 20
-1.4296875
 30
0.0
 11
-3.149726746107293
 21
-1.021205357142857
 31
0.0
  0
LINE
  5
20C
330
1C0
100
AcDbEntity
  8
AM_0
 48
0.0282288834439131
100
AcDbLine
 10
-3.006249999999999
 20
-1.28671875
 30
0.0
 11
-3.149218749999999
 21
-1.4296875
 31
0.0
  0
LINE
  5
20D
330
1C0
100
AcDbEntity
  8
AM_4
 48
0.0282288834439131
100
AcDbLine
 10
-2.988478159061865
 20
1.021205357142857
 30
0.0
 11
-2.988478159061865
 21
1.286718749999999
 31
0.0
  0
LINE
  5
20E
330
1C0
100
AcDbEntity
  8
AM_4
 48
0.0282288834439131
100
AcDbLine
 10
-2.988478159061865
 20
-1.28671875
 30
0.0
 11
-2.988478159061865
 21
-1.021205357142857
 31
0.0
  0
LINE
  5
20F
330
1C0
100
AcDbEntity
  8
AM_4
 48
0.0282288834439131
100
AcDbLine
 10
2.988478159061866
 20
1.021205357142857
 30
0.0
 11
2.988478159061866
 21
1.28671875
 31
0.0
  0
LINE
  5
210
330
1C0
100
AcDbEntity
  8
AM_4
 48
0.0282288834439131
100
AcDbLine
 10
2.988478159061866
 20
-1.28671875
 30
0.0
 11
2.988478159061866
 21
-1.021205357142857
 31
0.0
  0
LINE
  5
211
330
1C0
100
AcDbEntity
  8
AM_4
 48
0.0282288834439131
100
AcDbLine
 10
-2.821850273294981
 20
1.021205357142857
 30
0.0
 11
-2.821850273294981
 21
1.28671875
 31
0.0
  0
LINE
  5
212
330
1C0
100
AcDbEntity
  8
AM_0
 48
0.0282288834439131
100
AcDbLine
 10
-2.81125
 20
1.021205357142857
 30
0.0
 11
-3.149726746107293
 21
1.021205357142857
 31
0.0
  0
LINE
  5
213
330
1C0
100
AcDbEntity
  8
AM_0
 48
0.0282288834439131
100
AcDbLine
 10
-2.81125
 20
-1.021205357142857
 30
0.0
 11
-2.81125
 21
1.021205357142857
 31
0.0
  0
LINE
  5
214
330
1C0
100
AcDbEntity
  8
AM_0
 48
0.0282288834439131
100
AcDbLine
 10
-2.81125
 20
-1.021205357142857
 30
0.0
 11
-3.149726746107293
 21
-1.021205357142857
 31
0.0
  0
LINE
  5
215
330
1C0
100
AcDbEntity
  8
AM_4
 48
0.0282288834439131
100
AcDbLine
 10
-2.821850273294981
 20
-1.28671875
 30
0.0
 11
-2.821850273294981
 21
-1.021205357142857
 31
0.0
  0
LINE
  5
216
330
1C0
100
AcDbEntity
  8
AM_4
 48
0.0282288834439131
100
AcDbLine
 10
2.821850273294981
 20
1.021205357142857
 30
0.0
 11
2.821850273294981
 21
1.28671875
 31
0.0
  0
LINE
  5
217
330
1C0
100
AcDbEntity
  8
AM_4
 48
0.0282288834439131
100
AcDbLine
 10
2.821850273294981
 20
-1.28671875
 30
0.0
 11
2.821850273294981
 21
-1.021205357142857
 31
0.0
  0
LINE
  5
218
330
1C0
100
AcDbEntity
  8
AM_0
 48
0.0282288834439131
100
AcDbLine
 10
3.149726746107294
 20
-1.021205357142857
 30
0.0
 11
2.81125
 21
-1.021205357142857
 31
0.0
  0
LINE
  5
219
330
1C0
100
AcDbEntity
  8
AM_0
 48
0.0282288834439131
100
AcDbLine
 10
2.81125
 20
1.021205357142857
 30
0.0
 11
2.81125
 21
-1.021205357142857
 31
0.0
  0
LINE
  5
21A
330
1C0
100
AcDbEntity
  8
AM_0
 48
0.0282288834439131
100
AcDbLine
 10
3.149726746107294
 20
1.021205357142857
 30
0.0
 11
2.81125
 21
1.021205357142857
 31
0.0
  0
LWPOLYLINE
  5
21B
330
1C0
100
AcDbEntity
  8
AM_0
 48
0.0282288834439131
100
AcDbPolyline
 90
       29
 70
     0
 43
0.0
 10
1.421875
 20
0.5000000000000006
 10
1.375569867030998
 20
0.4971304433391024
 10
1.329184030960735
 20
0.4886251345115913
 10
1.283544989118774
 20
0.4746391152502437
 10
1.237323013932867
 20
0.4543341117699115
 10
1.192853066443362
 20
0.4284365703976399
 10
1.151008381576621
 20
0.3974281849366169
 10
1.111802686867797
 20
0.3610392899623774
 10
1.076192214630011
 20
0.3200318355713527
 10
1.044919724293665
 20
0.2751531016554159
 10
1.018248550448551
 20
0.2263764384669565
 10
0.9967076062094189
 20
0.1745268163315533
 10
0.9807908751213603
 20
0.1205846384336282
 10
0.9702648088002992
 20
0.0607534915006299
 10
0.9667117408553528
 20
0.0000000000000002
 10
0.9697107965944343
 20
-0.05555950740242
 10
0.9785700111715596
 20
-0.1105884020092802
 10
0.9930824556265514
 20
-0.1640473415045939
 10
1.013123290012113
 20
-0.2153836766220484
 10
1.038353648304371
 20
-0.2641882831941065
 10
1.068226011009014
 20
-0.3095778667003662
 10
1.10279464110235
 20
-0.3514859439499966
 10
1.141324118026218
 20
-0.3891265590822222
 10
1.183020540823041
 20
-0.4218087723343399
 10
1.227760671624224
 20
-0.4493197862873237
 10
1.274750058806841
 20
-0.4712276403416869
 10
1.323031443080273
 20
-0.4871003679137921
 10
1.372401473274128
 20
-0.4967524517762247
 10
1.421875
 20
-0.4999999999999998
  0
ELLIPSE
  5
21C
330
1C0
100
AcDbEntity
  8
AM_4
 48
0.0282288834439131
100
AcDbEllipse
 10
1.421875
 20
0.0000000000000004
 30
0.0
 11
-9.184850993605151E-17
 21
-0.5000000000000001
 31
0.0
210
0.0
220
0.0
230
1.0
 40
0.8660254037844387
 41
3.141592653589792
 42
6.283185307179586
  0
ELLIPSE
  5
21D
330
1C0
100
AcDbEntity
  8
AM_4
 48
0.0282288834439131
100
AcDbEllipse
 10
1.471875
 20
0.0000000000000002
 30
0.0
 11
2.449293598294706E-17
 21
0.3999999999999999
 31
0.0
210
0.0
220
0.0
230
1.0
 40
0.8660254037844387
 41
0.0
 42
6.283185307179586
  0
LWPOLYLINE
  5
21E
330
1C0
100
AcDbEntity
  8
AM_0
 48
0.0282288834439131
100
AcDbPolyline
 90
       45
 70
     0
 43
0.0
 10
1.422401675880287
 20
-0.499999653265524
 10
1.425578822399596
 20
-0.4999828518258858
 10
1.458003252945301
 20
-0.4983657242441231
 10
1.490208583532536
 20
-0.4941281416263516
 10
1.522030810744292
 20
-0.4872972090184332
 10
1.553311508009048
 20
-0.4779103662857038
 10
1.583894832130896
 20
-0.4660153599786215
 10
1.613627407490249
 20
-0.4516704899971764
 10
1.642358416711565
 20
-0.4349450743428133
 10
1.66993997175667
 20
-0.415920013201999
 10
1.696227795240934
 20
-0.3946883138738417
 10
1.721082190815605
 20
-0.371355440669064
 10
1.744369233427087
 20
-0.3460393801494623
 10
1.765962075174544
 20
-0.3188703575956206
 10
1.785742247964967
 20
-0.2899901956524943
 10
1.803600852574159
 20
-0.2595513582683762
 10
1.81943955123538
 20
-0.2277157612061946
 10
1.833171319022957
 20
-0.1946534483049412
 10
1.844720948185044
 20
-0.1605412302637734
 10
1.854025331185851
 20
-0.1255613650613049
 10
1.861033568329417
 20
-0.0899003336353065
 10
1.865706954176025
 20
-0.0537477381207746
 10
1.868018895974303
 20
-0.017295327520469
 10
1.867954810526688
 20
0.0192638608213692
 10
1.865512039811896
 20
0.0557362329914951
 10
1.860700007803028
 20
0.0919271923381759
 10
1.853540091957371
 20
0.1276441423723303
 10
1.844065698883866
 20
0.1626959517511767
 10
1.832322436312475
 20
0.1968937026400359
 10
1.818368324429685
 20
0.230051535283583
 10
1.802274013071617
 20
0.2619876244465312
 10
1.784122955006116
 20
0.2925253165739505
 10
1.764011469877506
 20
0.3214944415796193
 10
1.742048622302219
 20
0.34873278915678
 10
1.718355836277746
 20
0.3740877072493801
 10
1.693066181451665
 20
0.3974177440400906
 10
1.666323297397214
 20
0.418594222274343
 10
1.638279967693049
 20
0.4375026157980558
 10
1.609096408511184
 20
0.4540436015795751
 10
1.578938384552412
 20
0.4681336899921915
 10
1.547975296070797
 20
0.479705387993568
 10
1.516378386143396
 20
0.4887069131960723
 10
1.484319196324381
 20
0.4951015373601349
 10
1.451968357619662
 20
0.4988666828606126
 10
1.421520305877867
 20
0.4999998427400746
  0
LINE
  5
21F
330
1C0
100
AcDbEntity
  8
AM_0
 48
0.0282288834439131
100
AcDbLine
 10
-0.78735
 20
-1.28671875
 30
0.0
 11
-0.78735
 21
1.28671875
 31
0.0
  0
LINE
  5
220
330
1C0
100
AcDbEntity
  8
AM_4
 48
0.0282288834439131
100
AcDbLine
 10
-0.7060999999999998
 20
-1.28671875
 30
0.0
 11
-0.7060999999999998
 21
1.28671875
 31
0.0
  0
LINE
  5
221
330
1C0
100
AcDbEntity
  8
AM_0
 48
0.0282288834439131
100
AcDbLine
 10
0.78735
 20
-1.28671875
 30
0.0
 11
0.78735
 21
1.28671875
 31
0.0
  0
LINE
  5
222
330
1C0
100
AcDbEntity
  8
AM_0
 48
0.0282288834439131
100
AcDbLine
 10
3.00625
 20
1.28671875
 30
0.0
 11
-3.00625
 21
1.28671875
 31
0.0
  0
LINE
  5
223
330
1C0
100
AcDbEntity
  8
AM_4
 48
0.0282288834439131
100
AcDbLine
 10
0.7060999999999998
 20
-1.28671875
 30
0.0
 11
0.7060999999999998
 21
1.28671875
 31
0.0
  0
LINE
  5
224
330
1C0
100
AcDbEntity
  8
AM_0
 48
0.0282288834439131
100
AcDbLine
 10
-3.006249999999999
 20
-1.28671875
 30
0.0
 11
3.006250000000002
 21
-1.28671875
 31
0.0
  0
ENDBLK
  5
1C3
330
1C0
100
AcDbEntity
  8
0
100
AcDbBlockEnd
  0
ENDSEC
  0
SECTION
  2
ENTITIES
  0
ATTDEF
  5
6F
330
1F
100
AcDbEntity
  8
AM_6
100
AcDbText
 10
9.625
 20
1.57265625
 30
0.0
 40
0.5
  1
Imperial -IP Pillow Block 1-1/8 thru 2-1/4  2-Bolt Inch Bore (Labyrinth Seal)
100
AcDbAttributeDefinition
  3

  2
NN
 70
     8
280
     0
  0
ATTDEF
  5
70
330
1F
100
AcDbEntity
  8
AM_6
100
AcDbText
 10
9.625
 20
1.07265625
 30
0.0
 40
0.5
  1
Imperial 2 Bolt Piliow Block Bearings
100
AcDbAttributeDefinition
  3

  2
NT
 70
     8
280
     0
  0
ATTDEF
  5
71
330
1F
100
AcDbEntity
  8
AM_6
100
AcDbText
 10
9.625
 20
0.5726562500000001
 30
0.0
 40
0.5
  1
069470
100
AcDbAttributeDefinition
  3

  2
NB
 70
     8
280
     0
  0
ATTDEF
  5
72
330
1F
100
AcDbEntity
  8
AM_6
100
AcDbText
 10
9.625
 20
0.0726562500000001
 30
0.0
 40
0.5
  1
$PN.
100
AcDbAttributeDefinition
  3

  2
NBSYN
 70
     8
280
     0
  0
ATTDEF
  5
73
330
1F
100
AcDbEntity
  8
AM_6
100
AcDbText
 10
9.625
 20
-0.4273437499999999
 30
0.0
 40
0.5
  1
069470
100
AcDbAttributeDefinition
  3

  2
LINA
 70
     8
280
     0
  0
ATTDEF
  5
74
330
1F
100
AcDbEntity
  8
AM_6
100
AcDbText
 10
9.625
 20
-0.9273437499999999
 30
0.0
 40
0.5
  1
2-3/8
100
AcDbAttributeDefinition
  3

  2
SS
 70
     8
280
     0
  0
ATTDEF
  5
75
330
1F
100
AcDbEntity
  8
AM_6
100
AcDbText
 10
9.625
 20
-1.42734375
 30
0.0
 40
0.5
  1
069470
100
AcDbAttributeDefinition
  3

  2
PN
 70
     8
280
     0
  0
ATTDEF
  5
76
330
1F
100
AcDbEntity
  8
AM_6
100
AcDbText
 10
9.625
 20
-1.92734375
 30
0.0
 40
0.5
  1
P2B-IP-206L
100
AcDbAttributeDefinition
  3

  2
DESCRIPTION
 70
     8
280
     0
  0
ATTDEF
  5
77
330
1F
100
AcDbEntity
  8
AM_6
100
AcDbText
 10
9.625
 20
-2.42734375
 30
0.0
 40
0.5
  1
Non-Expansion Type
100
AcDbAttributeDefinition
  3

  2
EF
 70
     8
280
     0
  0
ATTDEF
  5
78
330
1F
100
AcDbEntity
  8
AM_6
100
AcDbText
 10
9.625
 20
-2.92734375
 30
0.0
 40
0.5
  1
Labyrinth Seal
100
AcDbAttributeDefinition
  3

  2
ST
 70
     8
280
     0
  0
ATTDEF
  5
79
330
1F
100
AcDbEntity
  8
AM_6
100
AcDbText
 10
9.625
 20
-3.42734375
 30
0.0
 40
0.5
  1
3-27/64
100
AcDbAttributeDefinition
  3

  2
A
 70
     8
280
     0
  0
ATTDEF
  5
7A
330
1F
100
AcDbEntity
  8
AM_6
100
AcDbText
 10
9.625
 20
-3.92734375
 30
0.0
 40
0.5
  1
9-1/4
100
AcDbAttributeDefinition
  3

  2
B
 70
     8
280
     0
  0
ATTDEF
  5
7B
330
1F
100
AcDbEntity
  8
AM_6
100
AcDbText
 10
9.625
 20
-4.42734375
 30
0.0
 40
0.5
  1
2-55/64
100
AcDbAttributeDefinition
  3

  2
C
 70
     8
280
     0
  0
ATTDEF
  5
7C
330
1F
100
AcDbEntity
  8
AM_6
100
AcDbText
 10
9.625
 20
-4.92734375
 30
0.0
 40
0.5
  1
6-15/16
100
AcDbAttributeDefinition
  3

  2
DMIN
 70
     8
280
     0
  0
ATTDEF
  5
7D
330
1F
100
AcDbEntity
  8
AM_6
100
AcDbText
 10
9.625
 20
-5.42734375
 30
0.0
 40
0.5
  1
7-5/16
100
AcDbAttributeDefinition
  3

  2
DMAX
 70
     8
280
     0
  0
ATTDEF
  5
7E
330
1F
100
AcDbEntity
  8
AM_6
100
AcDbText
 10
9.625
 20
-5.92734375
 30
0.0
 40
0.5
  1
5/8
100
AcDbAttributeDefinition
  3

  2
F
 70
     8
280
     0
  0
ATTDEF
  5
7F
330
1F
100
AcDbEntity
  8
AM_6
100
AcDbText
 10
9.625
 20
-6.42734375
 30
0.0
 40
0.5
  1
61/64
100
AcDbAttributeDefinition
  3

  2
G
 70
     8
280
     0
  0
ATTDEF
  5
80
330
1F
100
AcDbEntity
  8
AM_6
100
AcDbText
 10
9.625
 20
-6.92734375
 30
0.0
 40
0.5
  1
1-5/8
100
AcDbAttributeDefinition
  3

  2
H
 70
     8
280
     0
  0
ATTDEF
  5
81
330
1F
100
AcDbEntity
  8
AM_6
100
AcDbText
 10
9.625
 20
-7.42734375
 30
0.0
 40
0.5
  1
5-19/32
100
AcDbAttributeDefinition
  3

  2
J
 70
     8
280
     0
  0
ATTDEF
  5
82
330
1F
100
AcDbEntity
  8
AM_6
100
AcDbText
 10
9.625
 20
-7.92734375
 30
0.0
 40
0.5
  1
3-7/8
100
AcDbAttributeDefinition
  3

  2
L
 70
     8
280
     0
  0
ATTDEF
  5
83
330
1F
100
AcDbEntity
  8
AM_6
100
AcDbText
 10
9.625
 20
-8.42734375
 30
0.0
 40
0.5
  1
2-3/4
100
AcDbAttributeDefinition
  3

  2
M
 70
     8
280
     0
  0
ATTDEF
  5
84
330
1F
100
AcDbEntity
  8
AM_6
100
AcDbText
 10
9.625
 20
-8.92734375
 30
0.0
 40
0.5
  1
1-13/64
100
AcDbAttributeDefinition
  3

  2
R
 70
     8
280
     0
  0
ATTDEF
  5
85
330
1F
100
AcDbEntity
  8
AM_6
100
AcDbText
 10
9.625
 20
-9.42734375
 30
0.0
 40
0.5
  1
2-7/32
100
AcDbAttributeDefinition
  3

  2
S
 70
     8
280
     0
  0
ATTDEF
  5
86
330
1F
100
AcDbEntity
  8
AM_6
100
AcDbText
 10
9.625
 20
-9.92734375
 30
0.0
 40
0.5
  1
1/4
100
AcDbAttributeDefinition
  3

  2
X
 70
     8
280
     0
  0
ATTDEF
  5
87
330
1F
100
AcDbEntity
  8
AM_6
100
AcDbText
 10
9.625
 20
-10.42734375
 30
0.0
 40
0.5
  1
0.025
100
AcDbAttributeDefinition
  3

  2
Y
 70
     8
280
     0
  0
ATTDEF
  5
88
330
1F
100
AcDbEntity
  8
AM_6
100
AcDbText
 10
9.625
 20
-10.92734375
 30
0.0
 40
0.5
  1
2-15/16
100
AcDbAttributeDefinition
  3

  2
Z
 70
     8
280
     0
  0
ATTDEF
  5
89
330
1F
100
AcDbEntity
  8
AM_6
100
AcDbText
 10
9.625
 20
-11.42734375
 30
0.0
 40
0.5
  1
baldor
100
AcDbAttributeDefinition
  3

  2
COMPANY
 70
     8
280
     0
  0
INSERT
  5
8B
330
1F
100
AcDbEntity
  8
0
100
AcDbBlockReference
  2
1_ASME_B18_3_10_1_0_in_069470_4
 10
0.0
 20
0.0
 30
0.0
  0
INSERT
  5
9E
330
1F
100
AcDbEntity
  8
0
100
AcDbBlockReference
  2
2_ASME_B18_3_10_2_0_in_069470_4
 10
0.0
 20
0.0
 30
0.0
  0
INSERT
  5
C3
330
1F
100
AcDbEntity
  8
0
100
AcDbBlockReference
  2
3_070894LW_0_in_069470_4
 10
0.0
 20
0.0
 30
0.0
  0
INSERT
  5
F9
330
1F
100
AcDbEntity
  8
0
100
AcDbBlockReference
  2
4_070926I_0_in_069470_4
 10
0.0
 20
0.0
 30
0.0
  0
INSERT
  5
176
330
1F
100
AcDbEntity
  8
0
100
AcDbBlockReference
  2
5_405015E_Inch_0_in_069470_4
 10
0.0
 20
0.0
 30
0.0
  0
INSERT
  5
1C1
330
1F
100
AcDbEntity
  8
0
100
AcDbBlockReference
  2
6_069470H_0_in_069470_4
 10
0.0
 20
0.0
 30
0.0
  0
POINT
  5
226
330
1F
100
AcDbEntity
  8
ConnectionPoints
100
AcDbPoint
 10
0.0
 20
-2.017416666666667
 30
1.628472222222223
  0
POINT
  5
227
330
1F
100
AcDbEntity
  8
ConnectionPoints
100
AcDbPoint
 10
0.0
 20
-1.947416666666667
 30
0.0000000000000001
  0
POINT
  5
228
330
1F
100
AcDbEntity
  8
ConnectionPoints
100
AcDbPoint
 10
0.0
 20
-2.21875
 30
0.0000000000000001
  0
POINT
  5
229
330
1F
100
AcDbEntity
  8
ConnectionPoints
100
AcDbPoint
 10
0.0
 20
-2.146416666666667
 30
0.0000000000000001
  0
POINT
  5
22A
330
1F
100
AcDbEntity
  8
ConnectionPoints
100
AcDbPoint
 10
0.0
 20
-1.947416666666667
 30
1.628472222222223
  0
POINT
  5
22B
330
1F
100
AcDbEntity
  8
ConnectionPoints
100
AcDbPoint
 10
0.0
 20
-2.11775
 30
1.628472222222223
  0
POINT
  5
22C
330
1F
100
AcDbEntity
  8
ConnectionPoints
100
AcDbPoint
 10
0.0
 20
-1.947416666666667
 30
-1.628472222222222
  0
POINT
  5
22D
330
1F
100
AcDbEntity
  8
ConnectionPoints
100
AcDbPoint
 10
0.0
 20
-2.11775
 30
-1.628472222222222
  0
POINT
  5
22E
330
1F
100
AcDbEntity
  8
ConnectionPoints
100
AcDbPoint
 10
0.0
 20
-1.947416666666667
 30
0.0000000000000001
  0
POINT
  5
22F
330
1F
100
AcDbEntity
  8
ConnectionPoints
100
AcDbPoint
 10
1.471875
 20
0.0000000000000002
 30
2.549362282390442
  0
POINT
  5
230
330
1F
100
AcDbEntity
  8
ConnectionPoints
100
AcDbPoint
 10
1.471875
 20
0.0000000000000002
 30
2.549362282390442
  0
POINT
  5
231
330
1F
100
AcDbEntity
  8
ConnectionPoints
100
AcDbPoint
 10
0.0
 20
-1.96875
 30
0.0000000000000001
  0
POINT
  5
232
330
1F
100
AcDbEntity
  8
ConnectionPoints
100
AcDbPoint
 10
0.0
 20
-2.21875
 30
0.0000000000000001
  0
ENDSEC
  0
SECTION
  2
OBJECTS
  0
DICTIONARY
  5
C
330
0
100
AcDbDictionary
281
     1
  3
ACAD_DETAILVIEWSTYLE
350
23A
  3
ACAD_GROUP
350
D
  3
ACAD_LAYOUT
350
1A
  3
ACAD_MATERIAL
350
43
  3
ACAD_MLEADERSTYLE
350
6B
  3
ACAD_MLINESTYLE
350
17
  3
ACAD_PLOTSETTINGS
350
19
  3
ACAD_PLOTSTYLENAME
350
E
  3
ACAD_SCALELIST
350
47
  3
ACAD_SECTIONVIEWSTYLE
350
23B
  3
ACAD_TABLESTYLE
350
69
  3
ACAD_VISUALSTYLE
350
2A
  3
ACDB_RECOMPOSE_DATA
350
237
  3
AcDbVariableDictionary
350
233
  0
SUN
  5
6D
330
29
100
AcDbSun
 90
        1
290
     0
 63
     7
421
 16777215
 40
1.0
291
     1
 91
  2455826
 92
 54000000
292
     0
 70
     2
 71
   256
280
     1
  0
DICTIONARY
  5
23A
102
{ACAD_REACTORS
330
C
102
}
330
C
100
AcDbDictionary
281
     1
  0
DICTIONARY
  5
D
102
{ACAD_REACTORS
330
C
102
}
330
C
100
AcDbDictionary
281
     1
  0
DICTIONARY
  5
1A
102
{ACAD_REACTORS
330
C
102
}
330
C
100
AcDbDictionary
281
     1
  3
Layout1
350
1E
  3
Layout2
350
26
  3
Model
350
22
  0
DICTIONARY
  5
43
102
{ACAD_REACTORS
330
C
102
}
330
C
100
AcDbDictionary
281
     1
  3
ByBlock
350
45
  3
ByLayer
350
44
  3
Global
350
46
  0
DICTIONARY
  5
6B
102
{ACAD_REACTORS
330
C
102
}
330
C
100
AcDbDictionary
281
     1
  3
Standard
350
6C
  0
DICTIONARY
  5
17
102
{ACAD_REACTORS
330
C
102
}
330
C
100
AcDbDictionary
281
     1
  3
Standard
350
18
  0
DICTIONARY
  5
19
102
{ACAD_REACTORS
330
C
102
}
330
C
100
AcDbDictionary
281
     1
  0
ACDBDICTIONARYWDFLT
  5
E
102
{ACAD_REACTORS
330
C
102
}
330
C
100
AcDbDictionary
281
     1
  3
Normal
350
F
100
AcDbDictionaryWithDefault
340
F
  0
DICTIONARY
  5
47
102
{ACAD_REACTORS
330
C
102
}
330
C
100
AcDbDictionary
281
     1
  3
A0
350
48
  3
A1
350
49
  3
A2
350
4A
  3
A3
350
4B
  3
A4
350
4C
  3
A5
350
4D
  3
A6
350
4E
  3
A7
350
4F
  3
A8
350
50
  3
A9
350
51
  3
B0
350
52
  3
B1
350
53
  3
B2
350
54
  3
B3
350
55
  3
B4
350
56
  3
B5
350
57
  3
B6
350
58
  3
B7
350
59
  3
B8
350
5A
  3
B9
350
5B
  3
C0
350
5C
  3
C1
350
5D
  3
C2
350
5E
  3
C3
350
5F
  3
C4
350
60
  3
C5
350
61
  3
C6
350
62
  3
C7
350
63
  3
C8
350
64
  3
C9
350
65
  3
D0
350
66
  3
D1
350
67
  3
D2
350
68
  0
DICTIONARY
  5
23B
102
{ACAD_REACTORS
330
C
102
}
330
C
100
AcDbDictionary
281
     1
  0
DICTIONARY
  5
69
102
{ACAD_REACTORS
330
C
102
}
330
C
100
AcDbDictionary
281
     1
  3
Standard
350
6A
  0
DICTIONARY
  5
2A
102
{ACAD_REACTORS
330
C
102
}
330
C
100
AcDbDictionary
281
     1
  3
2dWireframe
350
2F
  3
Basic
350
32
  3
Brighten
350
36
  3
ColorChange
350
3A
  3
Conceptual
350
34
  3
Dim
350
35
  3
EdgeColorOff
350
3D
  3
Facepattern
350
39
  3
Flat
350
2B
  3
FlatWithEdges
350
2C
  3
Gouraud
350
2D
  3
GouraudWithEdges
350
2E
  3
Hidden
350
31
  3
JitterOff
350
3B
  3
Linepattern
350
38
  3
OverhangOff
350
3C
  3
Realistic
350
33
  3
Shaded
350
42
  3
Shaded with edges
350
41
  3
Shades of Gray
350
3E
  3
Sketchy
350
3F
  3
Thicken
350
37
  3
Wireframe
350
30
  3
X-Ray
350
40
  0
XRECORD
  5
237
102
{ACAD_REACTORS
330
C
102
}
330
C
100
AcDbXrecord
280
     1
 90
        1
330
6A
  0
DICTIONARY
  5
233
102
{ACAD_REACTORS
330
C
102
}
330
C
100
AcDbDictionary
281
     1
  3
CANNOSCALE
350
234
  3
CMLEADERSTYLE
350
239
  3
CTABLESTYLE
350
238
  0
LAYOUT
  5
1E
102
{ACAD_REACTORS
330
1A
102
}
330
1A
100
AcDbPlotSettings
  1

  2
none_device
  4

  6

 40
0.0
 41
0.0
 42
0.0
 43
0.0
 44
0.0
 45
0.0
 46
0.0
 47
0.0
 48
0.0
 49
0.0
140
0.0
141
0.0
142
1.0
143
1.0
 70
   688
 72
     0
 73
     0
 74
     5
  7

 75
    16
 76
     0
 77
     2
 78
   300
147
1.0
148
0.0
149
0.0
100
AcDbLayout
  1
Layout1
 70
     1
 71
     1
 10
0.0
 20
0.0
 11
12.0
 21
9.0
 12
0.0
 22
0.0
 32
0.0
 14
1.000000000000000E+20
 24
1.000000000000000E+20
 34
1.000000000000000E+20
 15
-1.000000000000000E+20
 25
-1.000000000000000E+20
 35
-1.000000000000000E+20
146
0.0
 13
0.0
 23
0.0
 33
0.0
 16
1.0
 26
0.0
 36
0.0
 17
0.0
 27
1.0
 37
0.0
 76
     0
330
1B
  0
LAYOUT
  5
26
102
{ACAD_REACTORS
330
1A
102
}
330
1A
100
AcDbPlotSettings
  1

  2
none_device
  4

  6

 40
0.0
 41
0.0
 42
0.0
 43
0.0
 44
0.0
 45
0.0
 46
0.0
 47
0.0
 48
0.0
 49
0.0
140
0.0
141
0.0
142
1.0
143
1.0
 70
   688
 72
     0
 73
     0
 74
     5
  7

 75
    16
 76
     0
 77
     2
 78
   300
147
1.0
148
0.0
149
0.0
100
AcDbLayout
  1
Layout2
 70
     1
 71
     2
 10
0.0
 20
0.0
 11
0.0
 21
0.0
 12
0.0
 22
0.0
 32
0.0
 14
0.0
 24
0.0
 34
0.0
 15
0.0
 25
0.0
 35
0.0
146
0.0
 13
0.0
 23
0.0
 33
0.0
 16
1.0
 26
0.0
 36
0.0
 17
0.0
 27
1.0
 37
0.0
 76
     0
330
23
  0
LAYOUT
  5
22
102
{ACAD_REACTORS
330
1A
102
}
330
1A
100
AcDbPlotSettings
  1

  2
none_device
  4
Letter_(8.50_x_11.00_Inches)
  6

 40
6.35
 41
6.35
 42
6.35000508
 43
6.35000508
 44
215.9
 45
279.4
 46
0.0
 47
0.0
 48
0.0
 49
0.0
140
0.0
141
0.0
142
1.0
143
1.0
 70
  1712
 72
     0
 73
     0
 74
     0
  7

 75
     0
 76
     0
 77
     2
 78
   300
147
1.0
148
0.0
149
0.0
100
AcDbLayout
  1
Model
 70
     1
 71
     0
 10
0.0
 20
0.0
 11
12.0
 21
9.0
 12
0.0
 22
0.0
 32
0.0
 14
1.000000000000000E+20
 24
1.000000000000000E+20
 34
1.000000000000000E+20
 15
-1.000000000000000E+20
 25
-1.000000000000000E+20
 35
-1.000000000000000E+20
146
0.0
 13
0.0
 23
0.0
 33
0.0
 16
1.0
 26
0.0
 36
0.0
 17
0.0
 27
1.0
 37
0.0
 76
     0
330
1F
331
29
  0
MATERIAL
  5
45
102
{ACAD_REACTORS
330
43
102
}
330
43
100
AcDbMaterial
  1
ByBlock
 72
     1
 94
      127
  0
MATERIAL
  5
44
102
{ACAD_REACTORS
330
43
102
}
330
43
100
AcDbMaterial
  1
ByLayer
 72
     1
 94
      127
  0
MATERIAL
  5
46
102
{ACAD_REACTORS
330
43
102
}
330
43
100
AcDbMaterial
  1
Global
 72
     1
 94
      127
  0
MLEADERSTYLE
  5
6C
102
{ACAD_REACTORS
330
6B
102
}
330
6B
100
AcDbMLeaderStyle
179
     2
170
     2
171
     1
172
     0
 90
        2
 40
0.0
 41
0.0
173
     1
 91
-1056964608
340
14
 92
       -2
290
     1
 42
0.09
291
     1
 43
0.36
  3
Standard
341
0
 44
0.18
300

342
11
174
     1
178
     6
175
     1
176
     0
 93
-1056964608
 45
0.18
292
     0
297
     0
 46
0.18
343
0
 94
-1056964608
 47
1.0
 49
1.0
140
1.0
293
     1
141
0.0
294
     1
177
     0
142
1.0
295
     0
296
     0
143
0.125
271
     0
272
     9
273
     9
298
     0
  0
MLINESTYLE
  5
18
102
{ACAD_REACTORS
330
17
102
}
330
17
100
AcDbMlineStyle
  2
Standard
 70
     0
  3

 62
   256
 51
90.0
 52
90.0
 71
     2
 49
0.5
 62
   256
  6
BYLAYER
 49
-0.5
 62
   256
  6
BYLAYER
  0
ACDBPLACEHOLDER
  5
F
102
{ACAD_REACTORS
330
E
102
}
330
E
  0
SCALE
  5
48
102
{ACAD_REACTORS
330
47
102
}
330
47
100
AcDbScale
 70
     0
300
1:1
140
1.0
141
1.0
290
     1
  0
SCALE
  5
49
102
{ACAD_REACTORS
330
47
102
}
330
47
100
AcDbScale
 70
     0
300
1:2
140
1.0
141
2.0
290
     0
  0
SCALE
  5
4A
102
{ACAD_REACTORS
330
47
102
}
330
47
100
AcDbScale
 70
     0
300
1:4
140
1.0
141
4.0
290
     0
  0
SCALE
  5
4B
102
{ACAD_REACTORS
330
47
102
}
330
47
100
AcDbScale
 70
     0
300
1:5
140
1.0
141
5.0
290
     0
  0
SCALE
  5
4C
102
{ACAD_REACTORS
330
47
102
}
330
47
100
AcDbScale
 70
     0
300
1:8
140
1.0
141
8.0
290
     0
  0
SCALE
  5
4D
102
{ACAD_REACTORS
330
47
102
}
330
47
100
AcDbScale
 70
     0
300
1:10
140
1.0
141
10.0
290
     0
  0
SCALE
  5
4E
102
{ACAD_REACTORS
330
47
102
}
330
47
100
AcDbScale
 70
     0
300
1:16
140
1.0
141
16.0
290
     0
  0
SCALE
  5
4F
102
{ACAD_REACTORS
330
47
102
}
330
47
100
AcDbScale
 70
     0
300
1:20
140
1.0
141
20.0
290
     0
  0
SCALE
  5
50
102
{ACAD_REACTORS
330
47
102
}
330
47
100
AcDbScale
 70
     0
300
1:30
140
1.0
141
30.0
290
     0
  0
SCALE
  5
51
102
{ACAD_REACTORS
330
47
102
}
330
47
100
AcDbScale
 70
     0
300
1:40
140
1.0
141
40.0
290
     0
  0
SCALE
  5
52
102
{ACAD_REACTORS
330
47
102
}
330
47
100
AcDbScale
 70
     0
300
1:50
140
1.0
141
50.0
290
     0
  0
SCALE
  5
53
102
{ACAD_REACTORS
330
47
102
}
330
47
100
AcDbScale
 70
     0
300
1:100
140
1.0
141
100.0
290
     0
  0
SCALE
  5
54
102
{ACAD_REACTORS
330
47
102
}
330
47
100
AcDbScale
 70
     0
300
2:1
140
2.0
141
1.0
290
     0
  0
SCALE
  5
55
102
{ACAD_REACTORS
330
47
102
}
330
47
100
AcDbScale
 70
     0
300
4:1
140
4.0
141
1.0
290
     0
  0
SCALE
  5
56
102
{ACAD_REACTORS
330
47
102
}
330
47
100
AcDbScale
 70
     0
300
8:1
140
8.0
141
1.0
290
     0
  0
SCALE
  5
57
102
{ACAD_REACTORS
330
47
102
}
330
47
100
AcDbScale
 70
     0
300
10:1
140
10.0
141
1.0
290
     0
  0
SCALE
  5
58
102
{ACAD_REACTORS
330
47
102
}
330
47
100
AcDbScale
 70
     0
300
100:1
140
100.0
141
1.0
290
     0
  0
SCALE
  5
59
102
{ACAD_REACTORS
330
47
102
}
330
47
100
AcDbScale
 70
     0
300
1/128" = 1'-0"
140
0.0078125
141
12.0
290
     0
  0
SCALE
  5
5A
102
{ACAD_REACTORS
330
47
102
}
330
47
100
AcDbScale
 70
     0
300
1/64" = 1'-0"
140
0.015625
141
12.0
290
     0
  0
SCALE
  5
5B
102
{ACAD_REACTORS
330
47
102
}
330
47
100
AcDbScale
 70
     0
300
1/32" = 1'-0"
140
0.03125
141
12.0
290
     0
  0
SCALE
  5
5C
102
{ACAD_REACTORS
330
47
102
}
330
47
100
AcDbScale
 70
     0
300
1/16" = 1'-0"
140
0.0625
141
12.0
290
     0
  0
SCALE
  5
5D
102
{ACAD_REACTORS
330
47
102
}
330
47
100
AcDbScale
 70
     0
300
3/32" = 1'-0"
140
0.09375
141
12.0
290
     0
  0
SCALE
  5
5E
102
{ACAD_REACTORS
330
47
102
}
330
47
100
AcDbScale
 70
     0
300
1/8" = 1'-0"
140
0.125
141
12.0
290
     0
  0
SCALE
  5
5F
102
{ACAD_REACTORS
330
47
102
}
330
47
100
AcDbScale
 70
     0
300
3/16" = 1'-0"
140
0.1875
141
12.0
290
     0
  0
SCALE
  5
60
102
{ACAD_REACTORS
330
47
102
}
330
47
100
AcDbScale
 70
     0
300
1/4" = 1'-0"
140
0.25
141
12.0
290
     0
  0
SCALE
  5
61
102
{ACAD_REACTORS
330
47
102
}
330
47
100
AcDbScale
 70
     0
300
3/8" = 1'-0"
140
0.375
141
12.0
290
     0
  0
SCALE
  5
62
102
{ACAD_REACTORS
330
47
102
}
330
47
100
AcDbScale
 70
     0
300
1/2" = 1'-0"
140
0.5
141
12.0
290
     0
  0
SCALE
  5
63
102
{ACAD_REACTORS
330
47
102
}
330
47
100
AcDbScale
 70
     0
300
3/4" = 1'-0"
140
0.75
141
12.0
290
     0
  0
SCALE
  5
64
102
{ACAD_REACTORS
330
47
102
}
330
47
100
AcDbScale
 70
     0
300
1" = 1'-0"
140
1.0
141
12.0
290
     0
  0
SCALE
  5
65
102
{ACAD_REACTORS
330
47
102
}
330
47
100
AcDbScale
 70
     0
300
1-1/2" = 1'-0"
140
1.5
141
12.0
290
     0
  0
SCALE
  5
66
102
{ACAD_REACTORS
330
47
102
}
330
47
100
AcDbScale
 70
     0
300
3" = 1'-0"
140
3.0
141
12.0
290
     0
  0
SCALE
  5
67
102
{ACAD_REACTORS
330
47
102
}
330
47
100
AcDbScale
 70
     0
300
6" = 1'-0"
140
6.0
141
12.0
290
     0
  0
SCALE
  5
68
102
{ACAD_REACTORS
330
47
102
}
330
47
100
AcDbScale
 70
     0
300
1'-0" = 1'-0"
140
12.0
141
12.0
290
     0
  0
TABLESTYLE
  5
6A
102
{ACAD_REACTORS
330
69
102
}
102
{ACAD_XDICTIONARY
360
235
102
}
330
69
100
AcDbTableStyle
  3
Standard
 70
     0
 71
     0
 40
0.06
 41
0.06
280
     0
281
     0
  7
Standard
140
0.18
170
     2
 62
     0
 63
   257
283
     0
 90
        4
 91
        0
  1

274
    -2
284
     1
 64
     0
275
    -2
285
     1
 65
     0
276
    -2
286
     1
 66
     0
277
    -2
287
     1
 67
     0
278
    -2
288
     1
 68
     0
279
    -2
289
     1
 69
     0
  7
Standard
140
0.25
170
     5
 62
     0
 63
   257
283
     0
 90
        4
 91
        0
  1

274
    -2
284
     1
 64
     0
275
    -2
285
     1
 65
     0
276
    -2
286
     1
 66
     0
277
    -2
287
     1
 67
     0
278
    -2
288
     1
 68
     0
279
    -2
289
     1
 69
     0
  7
Standard
140
0.18
170
     5
 62
     0
 63
   257
283
     0
 90
        4
 91
        0
  1

274
    -2
284
     1
 64
     0
275
    -2
285
     1
 65
     0
276
    -2
286
     1
 66
     0
277
    -2
287
     1
 67
     0
278
    -2
288
     1
 68
     0
279
    -2
289
     1
 69
     0
  0
VISUALSTYLE
  5
2F
102
{ACAD_REACTORS
330
2A
102
}
330
2A
100
AcDbVisualStyle
  2
2dWireframe
 70
     4
177
     3
291
     0
 70
    58
 90
        0
176
     1
 90
        2
176
     1
 90
        0
176
     1
 90
        0
176
     1
 40
0.6
176
     1
 40
30.0
176
     1
 62
     7
420
 16777215
176
     1
 90
        1
176
     1
 90
        4
176
     1
 62
     7
176
     1
 62
   257
176
     1
 90
        1
176
     1
 90
        1
176
     1
 40
1.0
176
     1
 90
        0
176
     1
 62
   257
176
     1
 40
1.0
176
     1
 90
        1
176
     1
 90
        6
176
     1
 90
        2
176
     1
 62
     7
176
     1
 90
        5
176
     1
 90
        0
176
     1
 90
        0
176
     1
290
     0
176
     1
 90
        1
176
     1
 40
0.0
176
     1
 90
        0
176
     1
290
     1
176
     1
290
     1
176
     1
290
     0
176
     1
290
     0
176
     1
290
     0
176
     1
290
     0
176
     1
290
     0
176
     1
290
     0
176
     1
290
     0
176
     1
 90
       50
176
     1
 40
0.0
176
     1
 40
1.0
176
     1
 90
        0
176
     1
 62
    18
420
        0
176
     1
 90
       50
176
     1
 90
        3
176
     1
 62
     5
420
      255
176
     1
290
     0
176
     1
 90
       50
176
     1
 90
       50
176
     1
 90
       50
176
     1
290
     0
176
     1
 90
       50
176
     1
 62
   256
176
     0
 40
1.0
176
     0
 90
        2
176
     1
  1
strokes_ogs.tif
176
     1
290
     0
176
     1
 40
1.0
176
     1
 40
1.0
176
     1
  0
VISUALSTYLE
  5
32
102
{ACAD_REACTORS
330
2A
102
}
330
2A
100
AcDbVisualStyle
  2
Basic
 70
     7
177
     3
291
     1
 70
    58
 90
        1
176
     1
 90
        0
176
     1
 90
        1
176
     1
 90
        0
176
     1
 40
0.6
176
     1
 40
30.0
176
     1
 62
     7
420
 16777215
176
     1
 90
        0
176
     1
 90
        4
176
     1
 62
     7
176
     1
 62
   257
176
     1
 90
        1
176
     1
 90
        1
176
     1
 40
1.0
176
     1
 90
        8
176
     1
 62
     7
176
     1
 40
1.0
176
     1
 90
        1
176
     1
 90
        6
176
     1
 90
        2
176
     1
 62
     7
176
     1
 90
        5
176
     1
 90
        0
176
     1
 90
        0
176
     1
290
     0
176
     1
 90
        1
176
     1
 40
0.0
176
     1
 90
        0
176
     1
290
     0
176
     1
290
     1
176
     1
290
     1
176
     1
290
     0
176
     1
290
     0
176
     1
290
     0
176
     1
290
     0
176
     1
290
     0
176
     1
290
     0
176
     1
 90
       50
176
     1
 40
0.0
176
     1
 40
1.0
176
     1
 90
        0
176
     1
 62
    18
420
        0
176
     1
 90
       50
176
     1
 90
        3
176
     1
 62
     5
420
      255
176
     1
290
     0
176
     1
 90
       50
176
     1
 90
       50
176
     1
 90
       50
176
     1
290
     0
176
     1
 90
       50
176
     1
 62
   256
176
     0
 40
1.0
176
     0
 90
        2
176
     1
  1
strokes_ogs.tif
176
     1
290
     0
176
     1
 40
1.0
176
     1
 40
1.0
176
     1
  0
VISUALSTYLE
  5
36
102
{ACAD_REACTORS
330
2A
102
}
330
2A
100
AcDbVisualStyle
  2
Brighten
 70
    12
177
     3
291
     1
 70
    58
 90
        2
176
     1
 90
        2
176
     1
 90
        0
176
     1
 90
        0
176
     1
 40
0.6
176
     1
 40
30.0
176
     1
 62
     7
420
 16777215
176
     1
 90
        1
176
     1
 90
        4
176
     1
 62
     7
176
     1
 62
   257
176
     1
 90
        1
176
     1
 90
        1
176
     1
 40
1.0
176
     1
 90
        8
176
     1
 62
     7
176
     1
 40
1.0
176
     1
 90
        1
176
     1
 90
        6
176
     1
 90
        2
176
     1
 62
     7
176
     1
 90
        5
176
     1
 90
        0
176
     1
 90
        0
176
     1
290
     0
176
     1
 90
        1
176
     1
 40
50.0
176
     1
 90
        0
176
     1
290
     0
176
     1
290
     1
176
     1
290
     1
176
     1
290
     0
176
     1
290
     0
176
     1
290
     0
176
     1
290
     0
176
     1
290
     0
176
     1
290
     0
176
     1
 90
       50
176
     1
 40
0.0
176
     1
 40
1.0
176
     1
 90
        0
176
     1
 62
    18
420
        0
176
     1
 90
       50
176
     1
 90
        3
176
     1
 62
     5
420
      255
176
     1
290
     0
176
     1
 90
       50
176
     1
 90
       50
176
     1
 90
       50
176
     1
290
     0
176
     1
 90
       50
176
     1
 62
   256
176
     0
 40
1.0
176
     0
 90
        2
176
     1
  1
strokes_ogs.tif
176
     1
290
     0
176
     1
 40
1.0
176
     1
 40
1.0
176
     1
  0
VISUALSTYLE
  5
3A
102
{ACAD_REACTORS
330
2A
102
}
330
2A
100
AcDbVisualStyle
  2
ColorChange
 70
    16
177
     3
291
     1
 70
    58
 90
        2
176
     1
 90
        2
176
     1
 90
        3
176
     1
 90
        0
176
     1
 40
0.6
176
     1
 40
30.0
176
     1
 62
     8
420
  8421504
176
     1
 90
        1
176
     1
 90
        4
176
     1
 62
     7
176
     1
 62
   257
176
     1
 90
        1
176
     1
 90
        1
176
     1
 40
1.0
176
     1
 90
        8
176
     1
 62
     8
420
  8421504
176
     1
 40
1.0
176
     1
 90
        1
176
     1
 90
        6
176
     1
 90
        2
176
     1
 62
     7
176
     1
 90
        5
176
     1
 90
        0
176
     1
 90
        0
176
     1
290
     0
176
     1
 90
        1
176
     1
 40
0.0
176
     1
 90
        0
176
     1
290
     0
176
     1
290
     1
176
     1
290
     1
176
     1
290
     0
176
     1
290
     0
176
     1
290
     0
176
     1
290
     0
176
     1
290
     0
176
     1
290
     0
176
     1
 90
       50
176
     1
 40
0.0
176
     1
 40
1.0
176
     1
 90
        0
176
     1
 62
    18
420
        0
176
     1
 90
       50
176
     1
 90
        3
176
     1
 62
     5
420
      255
176
     1
290
     0
176
     1
 90
       50
176
     1
 90
       50
176
     1
 90
       50
176
     1
290
     0
176
     1
 90
       50
176
     1
 62
   256
176
     0
 40
1.0
176
     0
 90
        2
176
     1
  1
strokes_ogs.tif
176
     1
290
     0
176
     1
 40
1.0
176
     1
 40
1.0
176
     1
  0
VISUALSTYLE
  5
34
102
{ACAD_REACTORS
330
2A
102
}
330
2A
100
AcDbVisualStyle
  2
Conceptual
 70
     9
177
     3
291
     0
 70
    58
 90
        3
176
     1
 90
        2
176
     1
 90
        0
176
     1
 90
        0
176
     1
 40
0.6
176
     1
 40
30.0
176
     1
 62
     7
420
 16777215
176
     1
 90
        2
176
     1
 90
        2
176
     1
 62
     7
176
     1
 62
   257
176
     1
 90
        1
176
     1
 90
        1
176
     1
 40
179.0
176
     1
 90
        8
176
     1
 62
     7
176
     1
 40
1.0
176
     1
 90
        1
176
     1
 90
        6
176
     1
 90
        2
176
     1
 62
     7
176
     1
 90
        3
176
     1
 90
        0
176
     1
 90
        0
176
     1
290
     0
176
     1
 90
        1
176
     1
 40
0.0
176
     1
 90
        0
176
     1
290
     0
176
     1
290
     1
176
     1
290
     1
176
     1
290
     0
176
     1
290
     0
176
     1
290
     0
176
     1
290
     0
176
     1
290
     0
176
     1
290
     0
176
     1
 90
       50
176
     1
 40
0.0
176
     1
 40
1.0
176
     1
 90
        0
176
     1
 62
    18
420
        0
176
     1
 90
       50
176
     1
 90
        3
176
     1
 62
     5
420
      255
176
     1
290
     0
176
     1
 90
       50
176
     1
 90
       50
176
     1
 90
       50
176
     1
290
     0
176
     1
 90
       50
176
     1
 62
   256
176
     0
 40
1.0
176
     0
 90
        2
176
     1
  1
strokes_ogs.tif
176
     1
290
     0
176
     1
 40
1.0
176
     1
 40
1.0
176
     1
  0
VISUALSTYLE
  5
35
102
{ACAD_REACTORS
330
2A
102
}
330
2A
100
AcDbVisualStyle
  2
Dim
 70
    11
177
     3
291
     1
 70
    58
 90
        2
176
     1
 90
        2
176
     1
 90
        0
176
     1
 90
        0
176
     1
 40
0.6
176
     1
 40
30.0
176
     1
 62
     7
420
 16777215
176
     1
 90
        1
176
     1
 90
        4
176
     1
 62
     7
176
     1
 62
   257
176
     1
 90
        1
176
     1
 90
        1
176
     1
 40
1.0
176
     1
 90
        8
176
     1
 62
     7
176
     1
 40
1.0
176
     1
 90
        1
176
     1
 90
        6
176
     1
 90
        2
176
     1
 62
     7
176
     1
 90
        5
176
     1
 90
        0
176
     1
 90
        0
176
     1
290
     0
176
     1
 90
        1
176
     1
 40
-50.0
176
     1
 90
        0
176
     1
290
     0
176
     1
290
     1
176
     1
290
     1
176
     1
290
     0
176
     1
290
     0
176
     1
290
     0
176
     1
290
     0
176
     1
290
     0
176
     1
290
     0
176
     1
 90
       50
176
     1
 40
0.0
176
     1
 40
1.0
176
     1
 90
        0
176
     1
 62
    18
420
        0
176
     1
 90
       50
176
     1
 90
        3
176
     1
 62
     5
420
      255
176
     1
290
     0
176
     1
 90
       50
176
     1
 90
       50
176
     1
 90
       50
176
     1
290
     0
176
     1
 90
       50
176
     1
 62
   256
176
     0
 40
1.0
176
     0
 90
        2
176
     1
  1
strokes_ogs.tif
176
     1
290
     0
176
     1
 40
1.0
176
     1
 40
1.0
176
     1
  0
VISUALSTYLE
  5
3D
102
{ACAD_REACTORS
330
2A
102
}
330
2A
100
AcDbVisualStyle
  2
EdgeColorOff
 70
    22
177
     3
291
     1
 70
    58
 90
        2
176
     0
 90
        2
176
     0
 90
        0
176
     0
 90
        0
176
     0
 40
0.6
176
     0
 40
30.0
176
     0
 62
     7
420
 16777215
176
     0
 90
        1
176
     0
 90
        4
176
     0
 62
     7
176
     0
 62
   257
176
     0
 90
        1
176
     0
 90
        1
176
     0
 40
1.0
176
     0
 90
        8
176
     2
 62
     7
176
     0
 40
1.0
176
     0
 90
        1
176
     0
 90
        6
176
     0
 90
        2
176
     0
 62
     7
176
     0
 90
        5
176
     0
 90
        0
176
     0
 90
        0
176
     0
290
     0
176
     0
 90
        1
176
     0
 40
0.0
176
     0
 90
        0
176
     0
290
     0
176
     0
290
     1
176
     0
290
     1
176
     0
290
     0
176
     0
290
     0
176
     0
290
     0
176
     0
290
     0
176
     0
290
     0
176
     0
290
     0
176
     0
 90
       50
176
     0
 40
0.0
176
     0
 40
1.0
176
     0
 90
        0
176
     0
 62
    18
420
        0
176
     0
 90
       50
176
     0
 90
        3
176
     0
 62
     5
420
      255
176
     0
290
     0
176
     0
 90
       50
176
     0
 90
       50
176
     0
 90
       50
176
     0
290
     0
176
     0
 90
       50
176
     0
 62
   256
176
     0
 40
1.0
176
     0
 90
        2
176
     0
  1
strokes_ogs.tif
176
     0
290
     0
176
     0
 40
1.0
176
     0
 40
1.0
176
     0
  0
VISUALSTYLE
  5
39
102
{ACAD_REACTORS
330
2A
102
}
330
2A
100
AcDbVisualStyle
  2
Facepattern
 70
    15
177
     3
291
     1
 70
    58
 90
        2
176
     1
 90
        2
176
     1
 90
        0
176
     1
 90
        0
176
     1
 40
0.6
176
     1
 40
30.0
176
     1
 62
     7
420
 16777215
176
     1
 90
        1
176
     1
 90
        4
176
     1
 62
     7
176
     1
 62
   257
176
     1
 90
        1
176
     1
 90
        1
176
     1
 40
1.0
176
     1
 90
        8
176
     1
 62
     7
176
     1
 40
1.0
176
     1
 90
        1
176
     1
 90
        6
176
     1
 90
        2
176
     1
 62
     7
176
     1
 90
        5
176
     1
 90
        0
176
     1
 90
        0
176
     1
290
     0
176
     1
 90
        1
176
     1
 40
0.0
176
     1
 90
        0
176
     1
290
     0
176
     1
290
     1
176
     1
290
     1
176
     1
290
     0
176
     1
290
     0
176
     1
290
     0
176
     1
290
     0
176
     1
290
     0
176
     1
290
     0
176
     1
 90
       50
176
     1
 40
0.0
176
     1
 40
1.0
176
     1
 90
        0
176
     1
 62
    18
420
        0
176
     1
 90
       50
176
     1
 90
        3
176
     1
 62
     5
420
      255
176
     1
290
     0
176
     1
 90
       50
176
     1
 90
       50
176
     1
 90
       50
176
     1
290
     0
176
     1
 90
       50
176
     1
 62
   256
176
     0
 40
1.0
176
     0
 90
        2
176
     1
  1
strokes_ogs.tif
176
     1
290
     0
176
     1
 40
1.0
176
     1
 40
1.0
176
     1
  0
VISUALSTYLE
  5
2B
102
{ACAD_REACTORS
330
2A
102
}
330
2A
100
AcDbVisualStyle
  2
Flat
 70
     0
177
     3
291
     1
 70
    58
 90
        2
176
     1
 90
        1
176
     1
 90
        1
176
     1
 90
        2
176
     1
 40
0.6
176
     1
 40
30.0
176
     1
 62
     7
420
 16777215
176
     1
 90
        0
176
     1
 90
        0
176
     1
 62
     7
176
     1
 62
   257
176
     1
 90
        1
176
     1
 90
        1
176
     1
 40
1.0
176
     1
 90
        8
176
     1
 62
     7
176
     1
 40
1.0
176
     1
 90
        1
176
     1
 90
        6
176
     1
 90
        2
176
     1
 62
     7
176
     1
 90
        5
176
     1
 90
        0
176
     1
 90
        0
176
     1
290
     0
176
     1
 90
       13
176
     1
 40
0.0
176
     1
 90
        0
176
     1
290
     0
176
     1
290
     1
176
     1
290
     1
176
     1
290
     0
176
     1
290
     0
176
     1
290
     0
176
     1
290
     0
176
     1
290
     0
176
     1
290
     0
176
     1
 90
       50
176
     1
 40
0.0
176
     1
 40
1.0
176
     1
 90
        0
176
     1
 62
    18
420
        0
176
     1
 90
       50
176
     1
 90
        3
176
     1
 62
     5
420
      255
176
     1
290
     0
176
     1
 90
       50
176
     1
 90
       50
176
     1
 90
       50
176
     1
290
     0
176
     1
 90
       50
176
     1
 62
   256
176
     0
 40
1.0
176
     0
 90
        2
176
     1
  1
strokes_ogs.tif
176
     1
290
     0
176
     1
 40
1.0
176
     1
 40
1.0
176
     1
  0
VISUALSTYLE
  5
2C
102
{ACAD_REACTORS
330
2A
102
}
330
2A
100
AcDbVisualStyle
  2
FlatWithEdges
 70
     1
177
     3
291
     1
 70
    58
 90
        2
176
     1
 90
        1
176
     1
 90
        1
176
     1
 90
        2
176
     1
 40
0.6
176
     1
 40
30.0
176
     1
 62
     7
420
 16777215
176
     1
 90
        1
176
     1
 90
        0
176
     1
 62
     7
176
     1
 62
   257
176
     1
 90
        1
176
     1
 90
        1
176
     1
 40
1.0
176
     1
 90
        0
176
     1
 62
   257
176
     1
 40
1.0
176
     1
 90
        1
176
     1
 90
        6
176
     1
 90
        2
176
     1
 62
     7
176
     1
 90
        5
176
     1
 90
        0
176
     1
 90
        0
176
     1
290
     0
176
     1
 90
       13
176
     1
 40
0.0
176
     1
 90
        0
176
     1
290
     0
176
     1
290
     1
176
     1
290
     1
176
     1
290
     0
176
     1
290
     0
176
     1
290
     0
176
     1
290
     0
176
     1
290
     0
176
     1
290
     0
176
     1
 90
       50
176
     1
 40
0.0
176
     1
 40
1.0
176
     1
 90
        0
176
     1
 62
    18
420
        0
176
     1
 90
       50
176
     1
 90
        3
176
     1
 62
     5
420
      255
176
     1
290
     0
176
     1
 90
       50
176
     1
 90
       50
176
     1
 90
       50
176
     1
290
     0
176
     1
 90
       50
176
     1
 62
   256
176
     0
 40
1.0
176
     0
 90
        2
176
     1
  1
strokes_ogs.tif
176
     1
290
     0
176
     1
 40
1.0
176
     1
 40
1.0
176
     1
  0
VISUALSTYLE
  5
2D
102
{ACAD_REACTORS
330
2A
102
}
330
2A
100
AcDbVisualStyle
  2
Gouraud
 70
     2
177
     3
291
     1
 70
    58
 90
        2
176
     1
 90
        2
176
     1
 90
        1
176
     1
 90
        2
176
     1
 40
0.6
176
     1
 40
30.0
176
     1
 62
     7
420
 16777215
176
     1
 90
        0
176
     1
 90
        0
176
     1
 62
     7
176
     1
 62
   257
176
     1
 90
        1
176
     1
 90
        1
176
     1
 40
1.0
176
     1
 90
        0
176
     1
 62
     7
176
     1
 40
1.0
176
     1
 90
        1
176
     1
 90
        6
176
     1
 90
        2
176
     1
 62
     7
176
     1
 90
        5
176
     1
 90
        0
176
     1
 90
        0
176
     1
290
     0
176
     1
 90
       13
176
     1
 40
0.0
176
     1
 90
        0
176
     1
290
     0
176
     1
290
     1
176
     1
290
     1
176
     1
290
     0
176
     1
290
     0
176
     1
290
     0
176
     1
290
     0
176
     1
290
     0
176
     1
290
     0
176
     1
 90
       50
176
     1
 40
0.0
176
     1
 40
1.0
176
     1
 90
        0
176
     1
 62
    18
420
        0
176
     1
 90
       50
176
     1
 90
        3
176
     1
 62
     5
420
      255
176
     1
290
     0
176
     1
 90
       50
176
     1
 90
       50
176
     1
 90
       50
176
     1
290
     0
176
     1
 90
       50
176
     1
 62
   256
176
     0
 40
1.0
176
     0
 90
        2
176
     1
  1
strokes_ogs.tif
176
     1
290
     0
176
     1
 40
1.0
176
     1
 40
1.0
176
     1
  0
VISUALSTYLE
  5
2E
102
{ACAD_REACTORS
330
2A
102
}
330
2A
100
AcDbVisualStyle
  2
GouraudWithEdges
 70
     3
177
     3
291
     1
 70
    58
 90
        2
176
     1
 90
        2
176
     1
 90
        1
176
     1
 90
        2
176
     1
 40
0.6
176
     1
 40
30.0
176
     1
 62
     7
420
 16777215
176
     1
 90
        1
176
     1
 90
        0
176
     1
 62
     7
176
     1
 62
   257
176
     1
 90
        1
176
     1
 90
        1
176
     1
 40
1.0
176
     1
 90
        0
176
     1
 62
   257
176
     1
 40
1.0
176
     1
 90
        1
176
     1
 90
        6
176
     1
 90
        2
176
     1
 62
     7
176
     1
 90
        5
176
     1
 90
        0
176
     1
 90
        0
176
     1
290
     0
176
     1
 90
       13
176
     1
 40
0.0
176
     1
 90
        0
176
     1
290
     0
176
     1
290
     1
176
     1
290
     1
176
     1
290
     0
176
     1
290
     0
176
     1
290
     0
176
     1
290
     0
176
     1
290
     0
176
     1
290
     0
176
     1
 90
       50
176
     1
 40
0.0
176
     1
 40
1.0
176
     1
 90
        0
176
     1
 62
    18
420
        0
176
     1
 90
       50
176
     1
 90
        3
176
     1
 62
     5
420
      255
176
     1
290
     0
176
     1
 90
       50
176
     1
 90
       50
176
     1
 90
       50
176
     1
290
     0
176
     1
 90
       50
176
     1
 62
   256
176
     0
 40
1.0
176
     0
 90
        2
176
     1
  1
strokes_ogs.tif
176
     1
290
     0
176
     1
 40
1.0
176
     1
 40
1.0
176
     1
  0
VISUALSTYLE
  5
31
102
{ACAD_REACTORS
330
2A
102
}
330
2A
100
AcDbVisualStyle
  2
Hidden
 70
     6
177
     3
291
     0
 70
    58
 90
        1
176
     1
 90
        2
176
     1
 90
        2
176
     1
 90
        0
176
     1
 40
0.6
176
     1
 40
30.0
176
     1
 62
     7
420
 16777215
176
     1
 90
        2
176
     1
 90
        2
176
     1
 62
     7
176
     1
 62
   257
176
     1
 90
        2
176
     1
 90
        1
176
     1
 40
40.0
176
     1
 90
        0
176
     1
 62
   257
176
     1
 40
1.0
176
     1
 90
        1
176
     1
 90
        6
176
     1
 90
        2
176
     1
 62
     7
176
     1
 90
        3
176
     1
 90
        0
176
     1
 90
        0
176
     1
290
     0
176
     1
 90
        1
176
     1
 40
0.0
176
     1
 90
        0
176
     1
290
     0
176
     1
290
     1
176
     1
290
     1
176
     1
290
     0
176
     1
290
     0
176
     1
290
     0
176
     1
290
     0
176
     1
290
     0
176
     1
290
     0
176
     1
 90
       50
176
     1
 40
0.0
176
     1
 40
1.0
176
     1
 90
        0
176
     1
 62
    18
420
        0
176
     1
 90
       50
176
     1
 90
        3
176
     1
 62
     5
420
      255
176
     1
290
     0
176
     1
 90
       50
176
     1
 90
       50
176
     1
 90
       50
176
     1
290
     0
176
     1
 90
       50
176
     1
 62
   256
176
     0
 40
1.0
176
     0
 90
        2
176
     1
  1
strokes_ogs.tif
176
     1
290
     0
176
     1
 40
1.0
176
     1
 40
1.0
176
     1
  0
VISUALSTYLE
  5
3B
102
{ACAD_REACTORS
330
2A
102
}
330
2A
100
AcDbVisualStyle
  2
JitterOff
 70
    20
177
     3
291
     1
 70
    58
 90
        2
176
     0
 90
        2
176
     0
 90
        0
176
     0
 90
        0
176
     0
 40
0.6
176
     0
 40
30.0
176
     0
 62
     7
420
 16777215
176
     0
 90
        1
176
     0
 90
        4
176
     0
 62
     7
176
     0
 62
   257
176
     0
 90
        1
176
     0
 90
        1
176
     0
 40
1.0
176
     0
 90
       10
176
     2
 62
     7
176
     0
 40
1.0
176
     0
 90
        1
176
     0
 90
        6
176
     0
 90
        2
176
     0
 62
     7
176
     0
 90
        5
176
     0
 90
        0
176
     0
 90
        0
176
     0
290
     0
176
     0
 90
        1
176
     0
 40
0.0
176
     0
 90
        0
176
     0
290
     0
176
     0
290
     1
176
     0
290
     1
176
     0
290
     0
176
     0
290
     0
176
     0
290
     0
176
     0
290
     0
176
     0
290
     0
176
     0
290
     0
176
     0
 90
       50
176
     0
 40
0.0
176
     0
 40
1.0
176
     0
 90
        0
176
     0
 62
    18
420
        0
176
     0
 90
       50
176
     0
 90
        3
176
     0
 62
     5
420
      255
176
     0
290
     0
176
     0
 90
       50
176
     0
 90
       50
176
     0
 90
       50
176
     0
290
     0
176
     0
 90
       50
176
     0
 62
   256
176
     0
 40
1.0
176
     0
 90
        2
176
     0
  1
strokes_ogs.tif
176
     0
290
     0
176
     0
 40
1.0
176
     0
 40
1.0
176
     0
  0
VISUALSTYLE
  5
38
102
{ACAD_REACTORS
330
2A
102
}
330
2A
100
AcDbVisualStyle
  2
Linepattern
 70
    14
177
     3
291
     1
 70
    58
 90
        2
176
     1
 90
        2
176
     1
 90
        0
176
     1
 90
        0
176
     1
 40
0.6
176
     1
 40
30.0
176
     1
 62
     7
420
 16777215
176
     1
 90
        1
176
     1
 90
        4
176
     1
 62
     7
176
     1
 62
   257
176
     1
 90
        7
176
     1
 90
        7
176
     1
 40
1.0
176
     1
 90
        8
176
     1
 62
     7
176
     1
 40
1.0
176
     1
 90
        1
176
     1
 90
        6
176
     1
 90
        2
176
     1
 62
     7
176
     1
 90
        5
176
     1
 90
        0
176
     1
 90
        0
176
     1
290
     0
176
     1
 90
        1
176
     1
 40
0.0
176
     1
 90
        0
176
     1
290
     0
176
     1
290
     1
176
     1
290
     1
176
     1
290
     0
176
     1
290
     0
176
     1
290
     0
176
     1
290
     0
176
     1
290
     0
176
     1
290
     0
176
     1
 90
       50
176
     1
 40
0.0
176
     1
 40
1.0
176
     1
 90
        0
176
     1
 62
    18
420
        0
176
     1
 90
       50
176
     1
 90
        3
176
     1
 62
     5
420
      255
176
     1
290
     0
176
     1
 90
       50
176
     1
 90
       50
176
     1
 90
       50
176
     1
290
     0
176
     1
 90
       50
176
     1
 62
   256
176
     0
 40
1.0
176
     0
 90
        2
176
     1
  1
strokes_ogs.tif
176
     1
290
     0
176
     1
 40
1.0
176
     1
 40
1.0
176
     1
  0
VISUALSTYLE
  5
3C
102
{ACAD_REACTORS
330
2A
102
}
330
2A
100
AcDbVisualStyle
  2
OverhangOff
 70
    21
177
     3
291
     1
 70
    58
 90
        2
176
     0
 90
        2
176
     0
 90
        0
176
     0
 90
        0
176
     0
 40
0.6
176
     0
 40
30.0
176
     0
 62
     7
420
 16777215
176
     0
 90
        1
176
     0
 90
        4
176
     0
 62
     7
176
     0
 62
   257
176
     0
 90
        1
176
     0
 90
        1
176
     0
 40
1.0
176
     0
 90
        9
176
     2
 62
     7
176
     0
 40
1.0
176
     0
 90
        1
176
     0
 90
        6
176
     0
 90
        2
176
     0
 62
     7
176
     0
 90
        5
176
     0
 90
        0
176
     0
 90
        0
176
     0
290
     0
176
     0
 90
        1
176
     0
 40
0.0
176
     0
 90
        0
176
     0
290
     0
176
     0
290
     1
176
     0
290
     1
176
     0
290
     0
176
     0
290
     0
176
     0
290
     0
176
     0
290
     0
176
     0
290
     0
176
     0
290
     0
176
     0
 90
       50
176
     0
 40
0.0
176
     0
 40
1.0
176
     0
 90
        0
176
     0
 62
    18
420
        0
176
     0
 90
       50
176
     0
 90
        3
176
     0
 62
     5
420
      255
176
     0
290
     0
176
     0
 90
       50
176
     0
 90
       50
176
     0
 90
       50
176
     0
290
     0
176
     0
 90
       50
176
     0
 62
   256
176
     0
 40
1.0
176
     0
 90
        2
176
     0
  1
strokes_ogs.tif
176
     0
290
     0
176
     0
 40
1.0
176
     0
 40
1.0
176
     0
  0
VISUALSTYLE
  5
33
102
{ACAD_REACTORS
330
2A
102
}
330
2A
100
AcDbVisualStyle
  2
Realistic
 70
     8
177
     3
291
     0
 70
    58
 90
        2
176
     1
 90
        3
176
     1
 90
        0
176
     1
 90
        2
176
     1
 40
0.6
176
     1
 40
30.0
176
     1
 62
     7
420
 16777215
176
     1
 90
        0
176
     1
 90
        0
176
     1
 62
     7
176
     1
 62
   257
176
     1
 90
        1
176
     1
 90
        1
176
     1
 40
1.0
176
     1
 90
        8
176
     1
 62
   257
176
     1
 40
1.0
176
     1
 90
        1
176
     1
 90
        6
176
     1
 90
        2
176
     1
 62
     7
176
     1
 90
        3
176
     1
 90
        0
176
     1
 90
        0
176
     1
290
     0
176
     1
 90
       13
176
     1
 40
0.0
176
     1
 90
        0
176
     1
290
     0
176
     1
290
     1
176
     1
290
     1
176
     1
290
     0
176
     1
290
     0
176
     1
290
     0
176
     1
290
     0
176
     1
290
     0
176
     1
290
     0
176
     1
 90
       50
176
     1
 40
0.0
176
     1
 40
1.0
176
     1
 90
        0
176
     1
 62
    18
420
        0
176
     1
 90
       50
176
     1
 90
        3
176
     1
 62
     5
420
      255
176
     1
290
     0
176
     1
 90
       50
176
     1
 90
       50
176
     1
 90
       50
176
     1
290
     0
176
     1
 90
       50
176
     1
 62
   256
176
     0
 40
1.0
176
     0
 90
        2
176
     1
  1
strokes_ogs.tif
176
     1
290
     0
176
     1
 40
1.0
176
     1
 40
1.0
176
     1
  0
VISUALSTYLE
  5
42
102
{ACAD_REACTORS
330
2A
102
}
330
2A
100
AcDbVisualStyle
  2
Shaded
 70
    27
177
     3
291
     0
 70
    58
 90
        2
176
     1
 90
        2
176
     1
 90
        1
176
     1
 90
        2
176
     1
 40
0.6
176
     1
 40
30.0
176
     1
 62
     7
420
 16777215
176
     1
 90
        0
176
     1
 90
        4
176
     1
 62
     7
176
     1
 62
   257
176
     1
 90
        1
176
     1
 90
        1
176
     1
 40
1.0
176
     1
 90
        8
176
     1
 62
   257
176
     1
 40
1.0
176
     1
 90
        1
176
     1
 90
        6
176
     1
 90
        2
176
     1
 62
     8
420
  7895160
176
     1
 90
        3
176
     1
 90
        0
176
     1
 90
        0
176
     1
290
     0
176
     1
 90
        5
176
     1
 40
0.0
176
     1
 90
        0
176
     1
290
     0
176
     1
290
     1
176
     1
290
     1
176
     1
290
     0
176
     1
290
     0
176
     1
290
     0
176
     1
290
     0
176
     1
290
     0
176
     1
290
     0
176
     1
 90
       50
176
     1
 40
0.0
176
     1
 40
1.0
176
     1
 90
        0
176
     1
 62
    18
420
        0
176
     1
 90
       50
176
     1
 90
        3
176
     1
 62
     5
420
      255
176
     1
290
     0
176
     1
 90
       50
176
     1
 90
       50
176
     1
 90
       50
176
     1
290
     0
176
     1
 90
       50
176
     1
 62
   256
176
     0
 40
1.0
176
     0
 90
        2
176
     1
  1
strokes_ogs.tif
176
     1
290
     0
176
     1
 40
1.0
176
     1
 40
1.0
176
     1
  0
VISUALSTYLE
  5
41
102
{ACAD_REACTORS
330
2A
102
}
330
2A
100
AcDbVisualStyle
  2
Shaded with edges
 70
    26
177
     3
291
     0
 70
    58
 90
        2
176
     1
 90
        2
176
     1
 90
        1
176
     1
 90
        2
176
     1
 40
0.6
176
     1
 40
30.0
176
     1
 62
     7
420
 16777215
176
     1
 90
        1
176
     1
 90
       10
176
     1
 62
     7
176
     1
 62
   257
176
     1
 90
        2
176
     1
 90
        1
176
     1
 40
1.0
176
     1
 90
        8
176
     1
 62
   257
176
     1
 40
1.0
176
     1
 90
        1
176
     1
 90
        6
176
     1
 90
        2
176
     1
 62
     7
176
     1
 90
        3
176
     1
 90
        0
176
     1
 90
        0
176
     1
290
     0
176
     1
 90
        5
176
     1
 40
0.0
176
     1
 90
        0
176
     1
290
     0
176
     1
290
     1
176
     1
290
     1
176
     1
290
     0
176
     1
290
     0
176
     1
290
     0
176
     1
290
     0
176
     1
290
     0
176
     1
290
     0
176
     1
 90
       50
176
     1
 40
0.0
176
     1
 40
1.0
176
     1
 90
        0
176
     1
 62
    18
420
        0
176
     1
 90
       50
176
     1
 90
        3
176
     1
 62
     5
420
      255
176
     1
290
     0
176
     1
 90
       50
176
     1
 90
       50
176
     1
 90
       50
176
     1
290
     0
176
     1
 90
       50
176
     1
 62
   256
176
     0
 40
1.0
176
     0
 90
        2
176
     1
  1
strokes_ogs.tif
176
     1
290
     0
176
     1
 40
1.0
176
     1
 40
1.0
176
     1
  0
VISUALSTYLE
  5
3E
102
{ACAD_REACTORS
330
2A
102
}
330
2A
100
AcDbVisualStyle
  2
Shades of Gray
 70
    23
177
     3
291
     0
 70
    58
 90
        2
176
     1
 90
        2
176
     1
 90
        3
176
     1
 90
        0
176
     1
 40
0.6
176
     1
 40
30.0
176
     1
 62
     7
420
 16777215
176
     1
 90
        2
176
     1
 90
        2
176
     1
 62
     7
176
     1
 62
     7
176
     1
 90
        1
176
     1
 90
        1
176
     1
 40
40.0
176
     1
 90
        8
176
     1
 62
     7
176
     1
 40
1.0
176
     1
 90
        1
176
     1
 90
        6
176
     1
 90
        2
176
     1
 62
     7
176
     1
 90
        3
176
     1
 90
        0
176
     1
 90
        0
176
     1
290
     0
176
     1
 90
        1
176
     1
 40
0.0
176
     1
 90
        0
176
     1
290
     0
176
     1
290
     1
176
     1
290
     1
176
     1
290
     0
176
     1
290
     0
176
     1
290
     0
176
     1
290
     0
176
     1
290
     0
176
     1
290
     0
176
     1
 90
       50
176
     1
 40
0.0
176
     1
 40
1.0
176
     1
 90
        0
176
     1
 62
    18
420
        0
176
     1
 90
       50
176
     1
 90
        3
176
     1
 62
     5
420
      255
176
     1
290
     0
176
     1
 90
       50
176
     1
 90
       50
176
     1
 90
       50
176
     1
290
     0
176
     1
 90
       50
176
     1
 62
   256
176
     0
 40
1.0
176
     0
 90
        2
176
     1
  1
strokes_ogs.tif
176
     1
290
     0
176
     1
 40
1.0
176
     1
 40
1.0
176
     1
  0
VISUALSTYLE
  5
3F
102
{ACAD_REACTORS
330
2A
102
}
330
2A
100
AcDbVisualStyle
  2
Sketchy
 70
    24
177
     3
291
     0
 70
    58
 90
        1
176
     1
 90
        2
176
     1
 90
        2
176
     1
 90
        0
176
     1
 40
0.6
176
     1
 40
30.0
176
     1
 62
     7
420
 16777215
176
     1
 90
        2
176
     1
 90
        2
176
     1
 62
     7
176
     1
 62
     7
176
     1
 90
        1
176
     1
 90
        1
176
     1
 40
40.0
176
     1
 90
       11
176
     1
 62
     7
176
     1
 40
1.0
176
     1
 90
        1
176
     1
 90
        6
176
     1
 90
        2
176
     1
 62
     7
176
     1
 90
        6
176
     1
 90
        0
176
     1
 90
        0
176
     1
290
     0
176
     1
 90
        1
176
     1
 40
0.0
176
     1
 90
        0
176
     1
290
     0
176
     1
290
     1
176
     1
290
     1
176
     1
290
     0
176
     1
290
     0
176
     1
290
     0
176
     1
290
     0
176
     1
290
     0
176
     1
290
     0
176
     1
 90
       50
176
     1
 40
0.0
176
     1
 40
1.0
176
     1
 90
        0
176
     1
 62
    18
420
        0
176
     1
 90
       50
176
     1
 90
        3
176
     1
 62
     5
420
      255
176
     1
290
     0
176
     1
 90
       50
176
     1
 90
       50
176
     1
 90
       50
176
     1
290
     0
176
     1
 90
       50
176
     1
 62
   256
176
     0
 40
1.0
176
     0
 90
        2
176
     1
  1
strokes_ogs.tif
176
     1
290
     0
176
     1
 40
1.0
176
     1
 40
1.0
176
     1
  0
VISUALSTYLE
  5
37
102
{ACAD_REACTORS
330
2A
102
}
330
2A
100
AcDbVisualStyle
  2
Thicken
 70
    13
177
     3
291
     1
 70
    58
 90
        2
176
     1
 90
        2
176
     1
 90
        0
176
     1
 90
        0
176
     1
 40
0.6
176
     1
 40
30.0
176
     1
 62
     7
420
 16777215
176
     1
 90
        1
176
     1
 90
        4
176
     1
 62
     7
176
     1
 62
   257
176
     1
 90
        1
176
     1
 90
        1
176
     1
 40
1.0
176
     1
 90
       12
176
     1
 62
     7
176
     1
 40
1.0
176
     1
 90
        1
176
     1
 90
        6
176
     1
 90
        2
176
     1
 62
     7
176
     1
 90
        5
176
     1
 90
        0
176
     1
 90
        0
176
     1
290
     0
176
     1
 90
        1
176
     1
 40
0.0
176
     1
 90
        0
176
     1
290
     0
176
     1
290
     1
176
     1
290
     1
176
     1
290
     0
176
     1
290
     0
176
     1
290
     0
176
     1
290
     0
176
     1
290
     0
176
     1
290
     0
176
     1
 90
       50
176
     1
 40
0.0
176
     1
 40
1.0
176
     1
 90
        0
176
     1
 62
    18
420
        0
176
     1
 90
       50
176
     1
 90
        3
176
     1
 62
     5
420
      255
176
     1
290
     0
176
     1
 90
       50
176
     1
 90
       50
176
     1
 90
       50
176
     1
290
     0
176
     1
 90
       50
176
     1
 62
   256
176
     0
 40
1.0
176
     0
 90
        2
176
     1
  1
strokes_ogs.tif
176
     1
290
     0
176
     1
 40
1.0
176
     1
 40
1.0
176
     1
  0
VISUALSTYLE
  5
30
102
{ACAD_REACTORS
330
2A
102
}
330
2A
100
AcDbVisualStyle
  2
Wireframe
 70
     5
177
     3
291
     0
 70
    58
 90
        0
176
     1
 90
        2
176
     1
 90
        0
176
     1
 90
        0
176
     1
 40
0.6
176
     1
 40
30.0
176
     1
 62
     7
420
 16777215
176
     1
 90
        1
176
     1
 90
        4
176
     1
 62
     7
176
     1
 62
   257
176
     1
 90
        1
176
     1
 90
        1
176
     1
 40
1.0
176
     1
 90
        0
176
     1
 62
   257
176
     1
 40
1.0
176
     1
 90
        1
176
     1
 90
        6
176
     1
 90
        2
176
     1
 62
     7
176
     1
 90
        3
176
     1
 90
        0
176
     1
 90
        0
176
     1
290
     0
176
     1
 90
        1
176
     1
 40
0.0
176
     1
 90
        0
176
     1
290
     0
176
     1
290
     1
176
     1
290
     1
176
     1
290
     0
176
     1
290
     0
176
     1
290
     0
176
     1
290
     0
176
     1
290
     0
176
     1
290
     0
176
     1
 90
       50
176
     1
 40
0.0
176
     1
 40
1.0
176
     1
 90
        0
176
     1
 62
    18
420
        0
176
     1
 90
       50
176
     1
 90
        3
176
     1
 62
     5
420
      255
176
     1
290
     0
176
     1
 90
       50
176
     1
 90
       50
176
     1
 90
       50
176
     1
290
     0
176
     1
 90
       50
176
     1
 62
   256
176
     0
 40
1.0
176
     0
 90
        2
176
     1
  1
strokes_ogs.tif
176
     1
290
     0
176
     1
 40
1.0
176
     1
 40
1.0
176
     1
  0
VISUALSTYLE
  5
40
102
{ACAD_REACTORS
330
2A
102
}
330
2A
100
AcDbVisualStyle
  2
X-Ray
 70
    25
177
     3
291
     0
 70
    58
 90
        2
176
     1
 90
        2
176
     1
 90
        1
176
     1
 90
        1
176
     1
 40
0.5
176
     1
 40
30.0
176
     1
 62
     7
420
 16777215
176
     1
 90
        1
176
     1
 90
        0
176
     1
 62
     7
176
     1
 62
   257
176
     1
 90
        1
176
     1
 90
        1
176
     1
 40
1.0
176
     1
 90
        8
176
     1
 62
     7
176
     1
 40
1.0
176
     1
 90
        1
176
     1
 90
        6
176
     1
 90
        2
176
     1
 62
     7
176
     1
 90
        3
176
     1
 90
        0
176
     1
 90
        0
176
     1
290
     0
176
     1
 90
       13
176
     1
 40
0.0
176
     1
 90
        0
176
     1
290
     0
176
     1
290
     1
176
     1
290
     1
176
     1
290
     0
176
     1
290
     0
176
     1
290
     0
176
     1
290
     0
176
     1
290
     0
176
     1
290
     0
176
     1
 90
       50
176
     1
 40
0.0
176
     1
 40
1.0
176
     1
 90
        0
176
     1
 62
    18
420
        0
176
     1
 90
       50
176
     1
 90
        3
176
     1
 62
     5
420
      255
176
     1
290
     0
176
     1
 90
       50
176
     1
 90
       50
176
     1
 90
       50
176
     1
290
     0
176
     1
 90
       50
176
     1
 62
   256
176
     0
 40
1.0
176
     0
 90
        2
176
     1
  1
strokes_ogs.tif
176
     1
290
     0
176
     1
 40
1.0
176
     1
 40
1.0
176
     1
  0
DICTIONARYVAR
  5
234
102
{ACAD_REACTORS
330
233
102
}
330
233
100
DictionaryVariables
280
     0
  1
1:1
  0
DICTIONARYVAR
  5
239
102
{ACAD_REACTORS
330
233
102
}
330
233
100
DictionaryVariables
280
     0
  1
Standard
  0
DICTIONARYVAR
  5
238
102
{ACAD_REACTORS
330
233
102
}
330
233
100
DictionaryVariables
280
     0
  1
Standard
  0
DICTIONARY
  5
235
330
6A
100
AcDbDictionary
280
     1
281
     1
  3
ACAD_ROUNDTRIP_2008_TABLESTYLE_CELLSTYLEMAP
360
236
  0
CELLSTYLEMAP
  5
236
102
{ACAD_REACTORS
330
235
102
}
330
235
100
AcDbCellStyleMap
 90
        3
300
CELLSTYLE
  1
TABLEFORMAT_BEGIN
 90
        5
170
     1
 91
        0
 92
    32768
 62
   257
 93
        1
300
CONTENTFORMAT
  1
CONTENTFORMAT_BEGIN
 90
        0
 91
        0
 92
        4
 93
        0
300

 40
0.0
140
1.0
 94
        5
 62
     0
340
11
144
0.25
309
CONTENTFORMAT_END
171
     1
301
MARGIN
  1
CELLMARGIN_BEGIN
 40
0.06
 40
0.06
 40
0.06
 40
0.06
 40
0.06
 40
0.06
309
CELLMARGIN_END
 94
        6
 95
        1
302
GRIDFORMAT
  1
GRIDFORMAT_BEGIN
 90
        0
 91
        1
 62
     0
 92
       -2
340
14
 93
        0
 40
0.045
309
GRIDFORMAT_END
 95
        2
302
GRIDFORMAT
  1
GRIDFORMAT_BEGIN
 90
        0
 91
        1
 62
     0
 92
       -2
340
14
 93
        0
 40
0.045
309
GRIDFORMAT_END
 95
        4
302
GRIDFORMAT
  1
GRIDFORMAT_BEGIN
 90
        0
 91
        1
 62
     0
 92
       -2
340
14
 93
        0
 40
0.045
309
GRIDFORMAT_END
 95
        8
302
GRIDFORMAT
  1
GRIDFORMAT_BEGIN
 90
        0
 91
        1
 62
     0
 92
       -2
340
14
 93
        0
 40
0.045
309
GRIDFORMAT_END
 95
       16
302
GRIDFORMAT
  1
GRIDFORMAT_BEGIN
 90
        0
 91
        1
 62
     0
 92
       -2
340
14
 93
        0
 40
0.045
309
GRIDFORMAT_END
 95
       32
302
GRIDFORMAT
  1
GRIDFORMAT_BEGIN
 90
        0
 91
        1
 62
     0
 92
       -2
340
14
 93
        0
 40
0.045
309
GRIDFORMAT_END
309
TABLEFORMAT_END
  1
CELLSTYLE_BEGIN
 90
        1
 91
        1
300
_TITLE
309
CELLSTYLE_END
300
CELLSTYLE
  1
TABLEFORMAT_BEGIN
 90
        5
170
     1
 91
        0
 92
        0
 62
   257
 93
        1
300
CONTENTFORMAT
  1
CONTENTFORMAT_BEGIN
 90
        0
 91
        0
 92
        4
 93
        0
300

 40
0.0
140
1.0
 94
        5
 62
     0
340
11
144
0.18
309
CONTENTFORMAT_END
171
     1
301
MARGIN
  1
CELLMARGIN_BEGIN
 40
0.06
 40
0.06
 40
0.06
 40
0.06
 40
0.06
 40
0.06
309
CELLMARGIN_END
 94
        6
 95
        1
302
GRIDFORMAT
  1
GRIDFORMAT_BEGIN
 90
        0
 91
        1
 62
     0
 92
       -2
340
14
 93
        0
 40
0.045
309
GRIDFORMAT_END
 95
        2
302
GRIDFORMAT
  1
GRIDFORMAT_BEGIN
 90
        0
 91
        1
 62
     0
 92
       -2
340
14
 93
        0
 40
0.045
309
GRIDFORMAT_END
 95
        4
302
GRIDFORMAT
  1
GRIDFORMAT_BEGIN
 90
        0
 91
        1
 62
     0
 92
       -2
340
14
 93
        0
 40
0.045
309
GRIDFORMAT_END
 95
        8
302
GRIDFORMAT
  1
GRIDFORMAT_BEGIN
 90
        0
 91
        1
 62
     0
 92
       -2
340
14
 93
        0
 40
0.045
309
GRIDFORMAT_END
 95
       16
302
GRIDFORMAT
  1
GRIDFORMAT_BEGIN
 90
        0
 91
        1
 62
     0
 92
       -2
340
14
 93
        0
 40
0.045
309
GRIDFORMAT_END
 95
       32
302
GRIDFORMAT
  1
GRIDFORMAT_BEGIN
 90
        0
 91
        1
 62
     0
 92
       -2
340
14
 93
        0
 40
0.045
309
GRIDFORMAT_END
309
TABLEFORMAT_END
  1
CELLSTYLE_BEGIN
 90
        2
 91
        1
300
_HEADER
309
CELLSTYLE_END
300
CELLSTYLE
  1
TABLEFORMAT_BEGIN
 90
        5
170
     1
 91
        0
 92
        0
 62
   257
 93
        1
300
CONTENTFORMAT
  1
CONTENTFORMAT_BEGIN
 90
        0
 91
        0
 92
        4
 93
        0
300

 40
0.0
140
1.0
 94
        2
 62
     0
340
11
144
0.18
309
CONTENTFORMAT_END
171
     1
301
MARGIN
  1
CELLMARGIN_BEGIN
 40
0.06
 40
0.06
 40
0.06
 40
0.06
 40
0.06
 40
0.06
309
CELLMARGIN_END
 94
        6
 95
        1
302
GRIDFORMAT
  1
GRIDFORMAT_BEGIN
 90
        0
 91
        1
 62
     0
 92
       -2
340
14
 93
        0
 40
0.045
309
GRIDFORMAT_END
 95
        2
302
GRIDFORMAT
  1
GRIDFORMAT_BEGIN
 90
        0
 91
        1
 62
     0
 92
       -2
340
14
 93
        0
 40
0.045
309
GRIDFORMAT_END
 95
        4
302
GRIDFORMAT
  1
GRIDFORMAT_BEGIN
 90
        0
 91
        1
 62
     0
 92
       -2
340
14
 93
        0
 40
0.045
309
GRIDFORMAT_END
 95
        8
302
GRIDFORMAT
  1
GRIDFORMAT_BEGIN
 90
        0
 91
        1
 62
     0
 92
       -2
340
14
 93
        0
 40
0.045
309
GRIDFORMAT_END
 95
       16
302
GRIDFORMAT
  1
GRIDFORMAT_BEGIN
 90
        0
 91
        1
 62
     0
 92
       -2
340
14
 93
        0
 40
0.045
309
GRIDFORMAT_END
 95
       32
302
GRIDFORMAT
  1
GRIDFORMAT_BEGIN
 90
        0
 91
        1
 62
     0
 92
       -2
340
14
 93
        0
 40
0.045
309
GRIDFORMAT_END
309
TABLEFORMAT_END
  1
CELLSTYLE_BEGIN
 90
        3
 91
        2
300
_DATA
309
CELLSTYLE_END
  0
ENDSEC
  0
EOF