0
SECTION
  2
HEADER
  9
$ACADVER
  1
AC1027
  9
$ACADMAINTVER
 70
   105
  9
$DWGCODEPAGE
  3
ANSI_1252
  9
$REQUIREDVERSIONS
160
                 0
  9
$COMMENTS
  1
File was created by Cadenas
  9
$CUSTOMPROPERTYTAG
  1
NN
  9
$CUSTOMPROPERTY
  1
Imperial -IP Pillow Block 1-1/8 thru 2-1/4  2-Bolt Inch Bore (Labyrinth Seal)
  9
$CUSTOMPROPERTYTAG
  1
NT
  9
$CUSTOMPROPERTY
  1
Imperial 2 Bolt Piliow Block Bearings
  9
$CUSTOMPROPERTYTAG
  1
NB
  9
$CUSTOMPROPERTY
  1
069470
  9
$CUSTOMPROPERTYTAG
  1
NBSYN
  9
$CUSTOMPROPERTY
  1
$PN.
  9
$CUSTOMPROPERTYTAG
  1
LINA
  9
$CUSTOMPROPERTY
  1
069470
  9
$CUSTOMPROPERTYTAG
  1
SS
  9
$CUSTOMPROPERTY
  1
2-3/8
  9
$CUSTOMPROPERTYTAG
  1
PN
  9
$CUSTOMPROPERTY
  1
069470
  9
$CUSTOMPROPERTYTAG
  1
DESCRIPTION
  9
$CUSTOMPROPERTY
  1
P2B-IP-206L
  9
$CUSTOMPROPERTYTAG
  1
EF
  9
$CUSTOMPROPERTY
  1
Non-Expansion Type
  9
$CUSTOMPROPERTYTAG
  1
ST
  9
$CUSTOMPROPERTY
  1
Labyrinth Seal
  9
$CUSTOMPROPERTYTAG
  1
A
  9
$CUSTOMPROPERTY
  1
3-27/64
  9
$CUSTOMPROPERTYTAG
  1
B
  9
$CUSTOMPROPERTY
  1
9-1/4
  9
$CUSTOMPROPERTYTAG
  1
C
  9
$CUSTOMPROPERTY
  1
2-55/64
  9
$CUSTOMPROPERTYTAG
  1
DMIN
  9
$CUSTOMPROPERTY
  1
6-15/16
  9
$CUSTOMPROPERTYTAG
  1
DMAX
  9
$CUSTOMPROPERTY
  1
7-5/16
  9
$CUSTOMPROPERTYTAG
  1
F
  9
$CUSTOMPROPERTY
  1
5/8
  9
$CUSTOMPROPERTYTAG
  1
G
  9
$CUSTOMPROPERTY
  1
61/64
  9
$CUSTOMPROPERTYTAG
  1
H
  9
$CUSTOMPROPERTY
  1
1-5/8
  9
$CUSTOMPROPERTYTAG
  1
J
  9
$CUSTOMPROPERTY
  1
5-19/32
  9
$CUSTOMPROPERTYTAG
  1
L
  9
$CUSTOMPROPERTY
  1
3-7/8
  9
$CUSTOMPROPERTYTAG
  1
M
  9
$CUSTOMPROPERTY
  1
2-3/4
  9
$CUSTOMPROPERTYTAG
  1
R
  9
$CUSTOMPROPERTY
  1
1-13/64
  9
$CUSTOMPROPERTYTAG
  1
S
  9
$CUSTOMPROPERTY
  1
2-7/32
  9
$CUSTOMPROPERTYTAG
  1
X
  9
$CUSTOMPROPERTY
  1
1/4
  9
$CUSTOMPROPERTYTAG
  1
Y
  9
$CUSTOMPROPERTY
  1
0.025
  9
$CUSTOMPROPERTYTAG
  1
Z
  9
$CUSTOMPROPERTY
  1
2-15/16
  9
$CUSTOMPROPERTYTAG
  1
COMPANY
  9
$CUSTOMPROPERTY
  1
baldor
  9
$INSBASE
 10
0.0
 20
0.0
 30
0.0
  9
$EXTMIN
 10
1.000000000000000E+20
 20
1.000000000000000E+20
 30
1.000000000000000E+20
  9
$EXTMAX
 10
-1.000000000000000E+20
 20
-1.000000000000000E+20
 30
-1.000000000000000E+20
  9
$LIMMIN
 10
0.0
 20
0.0
  9
$LIMMAX
 10
12.0
 20
9.0
  9
$ORTHOMODE
 70
     0
  9
$REGENMODE
 70
     1
  9
$FILLMODE
 70
     1
  9
$QTEXTMODE
 70
     0
  9
$MIRRTEXT
 70
     1
  9
$LTSCALE
 40
1.0
  9
$ATTMODE
 70
     1
  9
$TEXTSIZE
 40
0.2
  9
$TRACEWID
 40
0.05
  9
$TEXTSTYLE
  7
Standard
  9
$CLAYER
  8
0
  9
$CELTYPE
  6
ByLayer
  9
$CECOLOR
 62
   256
  9
$CELTSCALE
 40
1.0
  9
$DISPSILH
 70
     0
  9
$DIMSCALE
 40
1.0
  9
$DIMASZ
 40
0.18
  9
$DIMEXO
 40
0.0625
  9
$DIMDLI
 40
0.38
  9
$DIMRND
 40
0.0
  9
$DIMDLE
 40
0.0
  9
$DIMEXE
 40
0.18
  9
$DIMTP
 40
0.0
  9
$DIMTM
 40
0.0
  9
$DIMTXT
 40
0.18
  9
$DIMCEN
 40
0.09
  9
$DIMTSZ
 40
0.0
  9
$DIMTOL
 70
     0
  9
$DIMLIM
 70
     0
  9
$DIMTIH
 70
     1
  9
$DIMTOH
 70
     1
  9
$DIMSE1
 70
     0
  9
$DIMSE2
 70
     0
  9
$DIMTAD
 70
     0
  9
$DIMZIN
 70
     0
  9
$DIMBLK
  1

  9
$DIMASO
 70
     1
  9
$DIMSHO
 70
     1
  9
$DIMPOST
  1

  9
$DIMAPOST
  1

  9
$DIMALT
 70
     0
  9
$DIMALTD
 70
     2
  9
$DIMALTF
 40
25.4
  9
$DIMLFAC
 40
1.0
  9
$DIMTOFL
 70
     0
  9
$DIMTVP
 40
0.0
  9
$DIMTIX
 70
     0
  9
$DIMSOXD
 70
     0
  9
$DIMSAH
 70
     0
  9
$DIMBLK1
  1

  9
$DIMBLK2
  1

  9
$DIMSTYLE
  2
Standard
  9
$DIMCLRD
 70
     0
  9
$DIMCLRE
 70
     0
  9
$DIMCLRT
 70
     0
  9
$DIMTFAC
 40
1.0
  9
$DIMGAP
 40
0.09
  9
$DIMJUST
 70
     0
  9
$DIMSD1
 70
     0
  9
$DIMSD2
 70
     0
  9
$DIMTOLJ
 70
     1
  9
$DIMTZIN
 70
     0
  9
$DIMALTZ
 70
     0
  9
$DIMALTTZ
 70
     0
  9
$DIMUPT
 70
     0
  9
$DIMDEC
 70
     4
  9
$DIMTDEC
 70
     4
  9
$DIMALTU
 70
     2
  9
$DIMALTTD
 70
     2
  9
$DIMTXSTY
  7
Standard
  9
$DIMAUNIT
 70
     0
  9
$DIMADEC
 70
     0
  9
$DIMALTRND
 40
0.0
  9
$DIMAZIN
 70
     0
  9
$DIMDSEP
 70
    46
  9
$DIMATFIT
 70
     3
  9
$DIMFRAC
 70
     0
  9
$DIMLDRBLK
  1

  9
$DIMLUNIT
 70
     2
  9
$DIMLWD
 70
    -2
  9
$DIMLWE
 70
    -2
  9
$DIMTMOVE
 70
     0
  9
$DIMFXL
 40
1.0
  9
$DIMFXLON
 70
     0
  9
$DIMJOGANG
 40
0.7853981633974483
  9
$DIMTFILL
 70
     0
  9
$DIMTFILLCLR
 70
     0
  9
$DIMARCSYM
 70
     0
  9
$DIMLTYPE
  6

  9
$DIMLTEX1
  6

  9
$DIMLTEX2
  6

  9
$DIMTXTDIRECTION
 70
     0
  9
$LUNITS
 70
     2
  9
$LUPREC
 70
     4
  9
$SKETCHINC
 40
0.1
  9
$FILLETRAD
 40
0.5
  9
$AUNITS
 70
     0
  9
$AUPREC
 70
     0
  9
$MENU
  1
.
  9
$ELEVATION
 40
0.0
  9
$PELEVATION
 40
0.0
  9
$THICKNESS
 40
0.0
  9
$LIMCHECK
 70
     0
  9
$CHAMFERA
 40
0.0
  9
$CHAMFERB
 40
0.0
  9
$CHAMFERC
 40
0.0
  9
$CHAMFERD
 40
0.0
  9
$SKPOLY
 70
     0
  9
$TDCREATE
 40
2458168.988745868
  9
$TDUCREATE
 40
2458168.947079201
  9
$TDUPDATE
 40
2458168.988746053
  9
$TDUUPDATE
 40
2458168.947079387
  9
$TDINDWG
 40
0.0000000116
  9
$TDUSRTIMER
 40
0.0000000116
  9
$USRTIMER
 70
     1
  9
$ANGBASE
 50
0.0
  9
$ANGDIR
 70
     0
  9
$PDMODE
 70
     0
  9
$PDSIZE
 40
0.0
  9
$PLINEWID
 40
0.0
  9
$SPLFRAME
 70
     0
  9
$SPLINETYPE
 70
     6
  9
$SPLINESEGS
 70
     8
  9
$HANDSEED
  5
20D
  9
$SURFTAB1
 70
     6
  9
$SURFTAB2
 70
     6
  9
$SURFTYPE
 70
     6
  9
$SURFU
 70
     6
  9
$SURFV
 70
     6
  9
$UCSBASE
  2

  9
$UCSNAME
  2

  9
$UCSORG
 10
0.0
 20
0.0
 30
0.0
  9
$UCSXDIR
 10
1.0
 20
0.0
 30
0.0
  9
$UCSYDIR
 10
0.0
 20
1.0
 30
0.0
  9
$UCSORTHOREF
  2

  9
$UCSORTHOVIEW
 70
     0
  9
$UCSORGTOP
 10
0.0
 20
0.0
 30
0.0
  9
$UCSORGBOTTOM
 10
0.0
 20
0.0
 30
0.0
  9
$UCSORGLEFT
 10
0.0
 20
0.0
 30
0.0
  9
$UCSORGRIGHT
 10
0.0
 20
0.0
 30
0.0
  9
$UCSORGFRONT
 10
0.0
 20
0.0
 30
0.0
  9
$UCSORGBACK
 10
0.0
 20
0.0
 30
0.0
  9
$PUCSBASE
  2

  9
$PUCSNAME
  2

  9
$PUCSORG
 10
0.0
 20
0.0
 30
0.0
  9
$PUCSXDIR
 10
1.0
 20
0.0
 30
0.0
  9
$PUCSYDIR
 10
0.0
 20
1.0
 30
0.0
  9
$PUCSORTHOREF
  2

  9
$PUCSORTHOVIEW
 70
     0
  9
$PUCSORGTOP
 10
0.0
 20
0.0
 30
0.0
  9
$PUCSORGBOTTOM
 10
0.0
 20
0.0
 30
0.0
  9
$PUCSORGLEFT
 10
0.0
 20
0.0
 30
0.0
  9
$PUCSORGRIGHT
 10
0.0
 20
0.0
 30
0.0
  9
$PUCSORGFRONT
 10
0.0
 20
0.0
 30
0.0
  9
$PUCSORGBACK
 10
0.0
 20
0.0
 30
0.0
  9
$USERI1
 70
     0
  9
$USERI2
 70
     0
  9
$USERI3
 70
     0
  9
$USERI4
 70
     0
  9
$USERI5
 70
     0
  9
$USERR1
 40
0.0
  9
$USERR2
 40
0.0
  9
$USERR3
 40
0.0
  9
$USERR4
 40
0.0
  9
$USERR5
 40
0.0
  9
$WORLDVIEW
 70
     1
  9
$SHADEDGE
 70
     3
  9
$SHADEDIF
 70
    70
  9
$TILEMODE
 70
     1
  9
$MAXACTVP
 70
    64
  9
$PINSBASE
 10
0.0
 20
0.0
 30
0.0
  9
$PLIMCHECK
 70
     0
  9
$PEXTMIN
 10
1.000000000000000E+20
 20
1.000000000000000E+20
 30
1.000000000000000E+20
  9
$PEXTMAX
 10
-1.000000000000000E+20
 20
-1.000000000000000E+20
 30
-1.000000000000000E+20
  9
$PLIMMIN
 10
0.0
 20
0.0
  9
$PLIMMAX
 10
12.0
 20
9.0
  9
$UNITMODE
 70
     0
  9
$VISRETAIN
 70
     1
  9
$PLINEGEN
 70
     0
  9
$PSLTSCALE
 70
     1
  9
$TREEDEPTH
 70
  3020
  9
$CMLSTYLE
  2
Standard
  9
$CMLJUST
 70
     0
  9
$CMLSCALE
 40
1.0
  9
$PROXYGRAPHICS
 70
     1
  9
$MEASUREMENT
 70
     0
  9
$CELWEIGHT
370
    -1
  9
$ENDCAPS
280
     0
  9
$JOINSTYLE
280
     0
  9
$LWDISPLAY
290
     0
  9
$INSUNITS
 70
     1
  9
$HYPERLINKBASE
  1

  9
$STYLESHEET
  1

  9
$XEDIT
290
     1
  9
$CEPSNTYPE
380
     0
  9
$PSTYLEMODE
290
     1
  9
$FINGERPRINTGUID
  2
{DDFD8A1D-8CDA-45F0-AA87-22D0B78DAB78}
  9
$VERSIONGUID
  2
{FAEB1C32-E019-11D5-929B-00C0DF256EC4}
  9
$EXTNAMES
290
     1
  9
$PSVPSCALE
 40
0.0
  9
$OLESTARTUP
290
     0
  9
$SORTENTS
280
   127
  9
$INDEXCTL
280
     0
  9
$HIDETEXT
280
     1
  9
$XCLIPFRAME
280
     2
  9
$HALOGAP
280
     0
  9
$OBSCOLOR
 70
   257
  9
$OBSLTYPE
280
     0
  9
$INTERSECTIONDISPLAY
280
     0
  9
$INTERSECTIONCOLOR
 70
   257
  9
$DIMASSOC
280
     2
  9
$PROJECTNAME
  1

  9
$CAMERADISPLAY
290
     0
  9
$LENSLENGTH
 40
50.0
  9
$CAMERAHEIGHT
 40
0.0
  9
$STEPSPERSEC
 40
2.0
  9
$STEPSIZE
 40
6.0
  9
$3DDWFPREC
 40
2.0
  9
$PSOLWIDTH
 40
0.25
  9
$PSOLHEIGHT
 40
4.0
  9
$LOFTANG1
 40
1.570796326794897
  9
$LOFTANG2
 40
1.570796326794897
  9
$LOFTMAG1
 40
0.0
  9
$LOFTMAG2
 40
0.0
  9
$LOFTPARAM
 70
     7
  9
$LOFTNORMALS
280
     1
  9
$LATITUDE
 40
37.795
  9
$LONGITUDE
 40
-122.394
  9
$NORTHDIRECTION
 40
0.0
  9
$TIMEZONE
 70
 -8000
  9
$LIGHTGLYPHDISPLAY
280
     1
  9
$TILEMODELIGHTSYNCH
280
     1
  9
$CMATERIAL
347
44
  9
$SOLIDHIST
280
     0
  9
$SHOWHIST
280
     1
  9
$DWFFRAME
280
     2
  9
$DGNFRAME
280
     2
  9
$REALWORLDSCALE
290
     1
  9
$INTERFERECOLOR
 62
   256
  9
$CSHADOW
280
     0
  9
$SHADOWPLANELOCATION
 40
0.0
  0
ENDSEC
  0
SECTION
  2
CLASSES
  0
CLASS
  1
ACDBDICTIONARYWDFLT
  2
AcDbDictionaryWithDefault
  3
ObjectDBX Classes
 90
        0
 91
        4
280
     0
281
     0
  0
CLASS
  1
VISUALSTYLE
  2
AcDbVisualStyle
  3
ObjectDBX Classes
 90
     4095
 91
        4
280
     0
281
     0
  0
CLASS
  1
MATERIAL
  2
AcDbMaterial
  3
ObjectDBX Classes
 90
     1153
 91
        4
280
     0
281
     0
  0
CLASS
  1
SCALE
  2
AcDbScale
  3
ObjectDBX Classes
 90
     1153
 91
        4
280
     0
281
     0
  0
CLASS
  1
TABLESTYLE
  2
AcDbTableStyle
  3
ObjectDBX Classes
 90
     4095
 91
        4
280
     0
281
     0
  0
CLASS
  1
MLEADERSTYLE
  2
AcDbMLeaderStyle
  3
ACDB_MLEADERSTYLE_CLASS
 90
     4095
 91
        4
280
     0
281
     0
  0
CLASS
  1
SUN
  2
AcDbSun
  3
SCENEOE
 90
     1153
 91
        4
280
     0
281
     0
  0
CLASS
  1
DICTIONARYVAR
  2
AcDbDictionaryVar
  3
ObjectDBX Classes
 90
        0
 91
        4
280
     0
281
     0
  0
CLASS
  1
CELLSTYLEMAP
  2
AcDbCellStyleMap
  3
ObjectDBX Classes
 90
     1152
 91
        4
280
     0
281
     0
  0
ENDSEC
  0
SECTION
  2
TABLES
  0
TABLE
  2
VPORT
  5
8
330
0
100
AcDbSymbolTable
 70
     1
  0
VPORT
  5
29
330
8
100
AcDbSymbolTableRecord
100
AcDbViewportTableRecord
  2
*Active
 70
     0
 10
0.0
 20
0.0
 11
1.0
 21
1.0
 12
4.821428571428571
 22
-3.3245392402238
 13
0.0
 23
0.0
 14
0.5
 24
0.5
 15
0.5
 25
0.5
 16
0.0
 26
0.0
 36
1.0
 17
0.0
 27
0.0
 37
0.0
 40
13.77
 41
1.399470899470899
 42
50.0
 43
0.0
 44
0.0
 50
0.0
 51
0.0
 71
     0
 72
   100
 73
     1
 74
     3
 75
     0
 76
     0
 77
     0
 78
     0
281
     0
 65
     1
110
0.0
120
0.0
130
0.0
111
1.0
121
0.0
131
0.0
112
0.0
122
1.0
132
0.0
 79
     0
146
0.0
348
2F
 60
     3
 61
     5
292
     1
282
     1
141
0.0
142
0.0
 63
   250
361
6D
  0
ENDTAB
  0
TABLE
  2
LTYPE
  5
5
330
0
100
AcDbSymbolTable
 70
     3
  0
LTYPE
  5
14
330
5
100
AcDbSymbolTableRecord
100
AcDbLinetypeTableRecord
  2
ByBlock
 70
     0
  3

 72
    65
 73
     0
 40
0.0
  0
LTYPE
  5
15
330
5
100
AcDbSymbolTableRecord
100
AcDbLinetypeTableRecord
  2
ByLayer
 70
     0
  3

 72
    65
 73
     0
 40
0.0
  0
LTYPE
  5
16
330
5
100
AcDbSymbolTableRecord
100
AcDbLinetypeTableRecord
  2
Continuous
 70
     0
  3
Solid line
 72
    65
 73
     0
 40
0.0
  0
LTYPE
  5
9A
330
5
100
AcDbSymbolTableRecord
100
AcDbLinetypeTableRecord
  2
Dashed
 70
     0
  3

 72
    65
 73
     2
 40
2.0
 49
1.0
 74
     0
 49
-1.0
 74
     0
  0
LTYPE
  5
9F
330
5
100
AcDbSymbolTableRecord
100
AcDbLinetypeTableRecord
  2
Center
 70
     0
  3

 72
    65
 73
     4
 40
1.5
 49
0.45
 74
     0
 49
-0.5
 74
     0
 49
0.05
 74
     0
 49
-0.5
 74
     0
  0
ENDTAB
  0
TABLE
  2
LAYER
  5
2
330
0
100
AcDbSymbolTable
 70
     8
  0
LAYER
  5
10
330
2
100
AcDbSymbolTableRecord
100
AcDbLayerTableRecord
  2
0
 70
     0
 62
     7
  6
Continuous
370
    -3
390
F
347
46
348
0
  0
LAYER
  5
6E
330
2
100
AcDbSymbolTableRecord
100
AcDbLayerTableRecord
  2
AM_6
 70
     0
 62
    -2
  6
Continuous
370
    35
390
F
347
46
348
0
  0
LAYER
  5
9B
330
2
100
AcDbSymbolTableRecord
100
AcDbLayerTableRecord
  2
AM_9
 70
     0
 62
     6
  6
Dashed
370
    25
390
F
347
46
348
0
  0
LAYER
  5
9D
330
2
100
AcDbSymbolTableRecord
100
AcDbLayerTableRecord
  2
AM_5
 70
     0
 62
     3
  6
Continuous
370
    25
390
F
347
46
348
0
  0
LAYER
  5
A0
330
2
100
AcDbSymbolTableRecord
100
AcDbLayerTableRecord
  2
AM_7
 70
     0
 62
     7
  6
Center
370
    25
390
F
347
46
348
0
  0
LAYER
  5
A2
330
2
100
AcDbSymbolTableRecord
100
AcDbLayerTableRecord
  2
AM_0
 70
     0
 62
     7
  6
Continuous
370
    50
390
F
347
46
348
0
  0
LAYER
  5
A9
330
2
100
AcDbSymbolTableRecord
100
AcDbLayerTableRecord
  2
AM_4
 70
     0
 62
     3
  6
Continuous
370
    25
390
F
347
46
348
0
  0
LAYER
  5
1F6
330
2
100
AcDbSymbolTableRecord
100
AcDbLayerTableRecord
  2
ConnectionPoints
 70
     0
 62
     7
  6
Continuous
370
    50
390
F
347
46
348
0
  0
ENDTAB
  0
TABLE
  2
STYLE
  5
3
330
0
100
AcDbSymbolTable
 70
     1
  0
STYLE
  5
11
330
3
100
AcDbSymbolTableRecord
100
AcDbTextStyleTableRecord
  2
Standard
 70
     0
 40
0.0
 41
1.0
 50
0.0
 71
     0
 42
0.2
  3
txt
  4

  0
ENDTAB
  0
TABLE
  2
VIEW
  5
6
330
0
100
AcDbSymbolTable
 70
     0
  0
ENDTAB
  0
TABLE
  2
UCS
  5
7
330
0
100
AcDbSymbolTable
 70
     0
  0
ENDTAB
  0
TABLE
  2
APPID
  5
9
330
0
100
AcDbSymbolTable
 70
     1
  0
APPID
  5
12
330
9
100
AcDbSymbolTableRecord
100
AcDbRegAppTableRecord
  2
ACAD
 70
     0
  0
ENDTAB
  0
TABLE
  2
DIMSTYLE
  5
A
330
0
100
AcDbSymbolTable
 70
     1
100
AcDbDimStyleTable
  0
DIMSTYLE
105
27
330
A
100
AcDbSymbolTableRecord
100
AcDbDimStyleTableRecord
  2
Standard
 70
     0
178
     0
340
11
  0
ENDTAB
  0
TABLE
  2
BLOCK_RECORD
  5
1
330
0
100
AcDbSymbolTable
 70
     7
  0
BLOCK_RECORD
  5
1F
330
1
100
AcDbSymbolTableRecord
100
AcDbBlockTableRecord
  2
*Model_Space
340
22
 70
     0
280
     1
281
     0
  0
BLOCK_RECORD
  5
1B
330
1
100
AcDbSymbolTableRecord
100
AcDbBlockTableRecord
  2
*Paper_Space
340
1E
 70
     0
280
     1
281
     0
  0
BLOCK_RECORD
  5
23
330
1
100
AcDbSymbolTableRecord
100
AcDbBlockTableRecord
  2
*Paper_Space0
340
26
 70
     0
280
     1
281
     0
  0
BLOCK_RECORD
  5
8A
330
1
100
AcDbSymbolTableRecord
100
AcDbBlockTableRecord
  2
1_ASME_B18_3_10_1_0_in_069470_0
340
0
102
{BLKREFS
331
8B
102
}
 70
     0
280
     1
281
     0
  0
BLOCK_RECORD
  5
AD
330
1
100
AcDbSymbolTableRecord
100
AcDbBlockTableRecord
  2
2_ASME_B18_3_10_2_0_in_069470_0
340
0
102
{BLKREFS
331
AE
102
}
 70
     0
280
     1
281
     0
  0
BLOCK_RECORD
  5
C9
330
1
100
AcDbSymbolTableRecord
100
AcDbBlockTableRecord
  2
3_070894LW_0_in_069470_0
340
0
102
{BLKREFS
331
CA
102
}
 70
     0
280
     1
281
     0
  0
BLOCK_RECORD
  5
116
330
1
100
AcDbSymbolTableRecord
100
AcDbBlockTableRecord
  2
4_070926I_0_in_069470_0
340
0
102
{BLKREFS
331
117
102
}
 70
     0
280
     1
281
     0
  0
BLOCK_RECORD
  5
170
330
1
100
AcDbSymbolTableRecord
100
AcDbBlockTableRecord
  2
5_405015E_Inch_0_in_069470_0
340
0
102
{BLKREFS
331
171
102
}
 70
     0
280
     1
281
     0
  0
BLOCK_RECORD
  5
1A5
330
1
100
AcDbSymbolTableRecord
100
AcDbBlockTableRecord
  2
6_069470H_0_in_069470_0
340
0
102
{BLKREFS
331
1A6
102
}
 70
     0
280
     1
281
     0
  0
ENDTAB
  0
ENDSEC
  0
SECTION
  2
BLOCKS
  0
BLOCK
  5
20
330
1F
100
AcDbEntity
  8
0
100
AcDbBlockBegin
  2
*Model_Space
 70
     0
 10
0.0
 20
0.0
 30
0.0
  3
*Model_Space
  1

  0
ENDBLK
  5
21
330
1F
100
AcDbEntity
  8
0
100
AcDbBlockEnd
  0
BLOCK
  5
1C
330
1B
100
AcDbEntity
 67
     1
  8
0
100
AcDbBlockBegin
  2
*Paper_Space
 70
     0
 10
0.0
 20
0.0
 30
0.0
  3
*Paper_Space
  1

  0
ENDBLK
  5
1D
330
1B
100
AcDbEntity
 67
     1
  8
0
100
AcDbBlockEnd
  0
BLOCK
  5
24
330
23
100
AcDbEntity
  8
0
100
AcDbBlockBegin
  2
*Paper_Space0
 70
     0
 10
0.0
 20
0.0
 30
0.0
  3
*Paper_Space0
  1

  0
ENDBLK
  5
25
330
23
100
AcDbEntity
  8
0
100
AcDbBlockEnd
  0
BLOCK
  5
8C
330
8A
100
AcDbEntity
  8
0
100
AcDbBlockBegin
  2
1_ASME_B18_3_10_1_0_in_069470_0
 70
     2
 10
0.0
 20
0.0
 30
0.0
  3
1_ASME_B18_3_10_1_0_in_069470_0
  1

  0
ATTDEF
  5
8E
330
8A
100
AcDbEntity
  8
AM_6
100
AcDbText
 10
5.189525
 20
-1.447972222222222
 30
0.0
 40
0.5
  1
ANSI/ASME B18.3-1998
100
AcDbAttributeDefinition
  3

  2
NN
 70
     8
280
     0
  0
ATTDEF
  5
8F
330
8A
100
AcDbEntity
  8
AM_6
100
AcDbText
 10
5.189525
 20
-1.947972222222222
 30
0.0
 40
0.5
  1
Socket Button Head Cap Screws
100
AcDbAttributeDefinition
  3

  2
NT
 70
     8
280
     0
  0
ATTDEF
  5
90
330
8A
100
AcDbEntity
  8
AM_6
100
AcDbText
 10
5.189525
 20
-2.447972222222222
 30
0.0
 40
0.5
  1
ASME B18.3-10
100
AcDbAttributeDefinition
  3

  2
NB
 70
     8
280
     0
  0
ATTDEF
  5
91
330
8A
100
AcDbEntity
  8
AM_6
100
AcDbText
 10
5.189525
 20
-2.947972222222222
 30
0.0
 40
0.5
  1
ASME B18.3-$NS.
100
AcDbAttributeDefinition
  3

  2
NBSYN
 70
     8
280
     0
  0
ATTDEF
  5
92
330
8A
100
AcDbEntity
  8
AM_6
100
AcDbText
 10
5.189525
 20
-3.447972222222222
 30
0.0
 40
0.5
  1
ASME B18.3-10
100
AcDbAttributeDefinition
  3

  2
LINA
 70
     8
280
     0
  0
ATTDEF
  5
93
330
8A
100
AcDbEntity
  8
AM_6
100
AcDbText
 10
5.189525
 20
-3.947972222222222
 30
0.0
 40
0.5
  1
10
100
AcDbAttributeDefinition
  3

  2
NS
 70
     8
280
     0
  0
ATTDEF
  5
94
330
8A
100
AcDbEntity
  8
AM_6
100
AcDbText
 10
5.189525
 20
-4.447972222222223
 30
0.0
 40
0.5
  1
0.361
100
AcDbAttributeDefinition
  3

  2
A
 70
     8
280
     0
  0
ATTDEF
  5
95
330
8A
100
AcDbEntity
  8
AM_6
100
AcDbText
 10
5.189525
 20
-4.947972222222223
 30
0.0
 40
0.5
  1
0.101
100
AcDbAttributeDefinition
  3

  2
H
 70
     8
280
     0
  0
ATTDEF
  5
96
330
8A
100
AcDbEntity
  8
AM_6
100
AcDbText
 10
5.189525
 20
-5.447972222222223
 30
0.0
 40
0.5
  1
0.800
100
AcDbAttributeDefinition
  3

  2
L
 70
     8
280
     0
  0
ATTDEF
  5
97
330
8A
100
AcDbEntity
  8
AM_6
100
AcDbText
 10
5.189525
 20
-5.947972222222223
 30
0.0
 40
0.5
  1
0.020
100
AcDbAttributeDefinition
  3

  2
S
 70
     8
280
     0
  0
ATTDEF
  5
98
330
8A
100
AcDbEntity
  8
AM_6
100
AcDbText
 10
5.189525
 20
-6.447972222222223
 30
0.0
 40
0.5
  1
0.125000
100
AcDbAttributeDefinition
  3

  2
J
 70
     8
280
     0
  0
ATTDEF
  5
99
330
8A
100
AcDbEntity
  8
AM_6
100
AcDbText
 10
5.189525
 20
-6.947972222222223
 30
0.0
 40
0.5
  1
baldor
100
AcDbAttributeDefinition
  3

  2
COMPANY
 70
     8
280
     0
  0
CIRCLE
  5
9C
330
8A
100
AcDbEntity
  8
AM_9
 48
0.0010688199922
100
AcDbCircle
 10
0.0
 20
-1.628472222222222
 30
0.0
 40
0.095
  0
ARC
  5
9E
330
8A
100
AcDbEntity
  8
AM_5
 48
0.0010688199922
100
AcDbCircle
 10
0.0000000000000003
 20
-1.628472222222222
 30
0.0
 40
0.0702
100
AcDbArc
 50
75.00000000000023
 51
15.00000000000024
  0
LINE
  5
A1
330
8A
100
AcDbEntity
  8
AM_7
 48
0.0010688199922
100
AcDbLine
 10
-0.1895249999999999
 20
-1.628472222222222
 30
0.0
 11
0.1895249999999999
 21
-1.628472222222222
 31
0.0
  0
LINE
  5
A3
330
8A
100
AcDbEntity
  8
AM_0
 48
0.0010688199922
100
AcDbLine
 10
0.0625
 20
-1.592387830397871
 30
0.0
 11
0.0625
 21
-1.664556614046574
 31
0.0
  0
LINE
  5
A4
330
8A
100
AcDbEntity
  8
AM_0
 48
0.0010688199922
100
AcDbLine
 10
-0.0625
 20
-1.664556614046574
 30
0.0
 11
-0.0625
 21
-1.592387830397871
 31
0.0
  0
LINE
  5
A5
330
8A
100
AcDbEntity
  8
AM_0
 48
0.0010688199922
100
AcDbLine
 10
-0.0625
 20
-1.592387830397871
 30
0.0
 11
0.0
 21
-1.556303438573519
 31
0.0
  0
LINE
  5
A6
330
8A
100
AcDbEntity
  8
AM_0
 48
0.0010688199922
100
AcDbLine
 10
0.0
 20
-1.556303438573519
 30
0.0
 11
0.0625
 21
-1.592387830397871
 31
0.0
  0
LINE
  5
A7
330
8A
100
AcDbEntity
  8
AM_0
 48
0.0010688199922
100
AcDbLine
 10
0.0625
 20
-1.664556614046574
 30
0.0
 11
0.0
 21
-1.700641005870926
 31
0.0
  0
LINE
  5
A8
330
8A
100
AcDbEntity
  8
AM_0
 48
0.0010688199922
100
AcDbLine
 10
0.0
 20
-1.700641005870926
 30
0.0
 11
-0.0625
 21
-1.664556614046574
 31
0.0
  0
CIRCLE
  5
AA
330
8A
100
AcDbEntity
  8
AM_4
 48
0.0010688199922
100
AcDbCircle
 10
0.0
 20
-1.628472222222222
 30
0.0
 40
0.0995
  0
ARC
  5
AB
330
8A
100
AcDbEntity
  8
AM_5
 48
0.0010688199922
100
AcDbCircle
 10
0.0
 20
-1.628472222222222
 30
0.0
 40
0.0764
100
AcDbArc
 50
75.00000000000001
 51
15.00000000000005
  0
CIRCLE
  5
AC
330
8A
100
AcDbEntity
  8
AM_0
 48
0.0010688199922
100
AcDbCircle
 10
0.0
 20
-1.628472222222222
 30
0.0
 40
0.1804999999999999
  0
ENDBLK
  5
8D
330
8A
100
AcDbEntity
  8
0
100
AcDbBlockEnd
  0
BLOCK
  5
AF
330
AD
100
AcDbEntity
  8
0
100
AcDbBlockBegin
  2
2_ASME_B18_3_10_2_0_in_069470_0
 70
     2
 10
0.0
 20
0.0
 30
0.0
  3
2_ASME_B18_3_10_2_0_in_069470_0
  1

  0
ATTDEF
  5
B1
330
AD
100
AcDbEntity
  8
AM_6
100
AcDbText
 10
5.189525
 20
1.808972222222222
 30
0.0
 40
0.5
  1
ANSI/ASME B18.3-1998
100
AcDbAttributeDefinition
  3

  2
NN
 70
     8
280
     0
  0
ATTDEF
  5
B2
330
AD
100
AcDbEntity
  8
AM_6
100
AcDbText
 10
5.189525
 20
1.308972222222222
 30
0.0
 40
0.5
  1
Socket Button Head Cap Screws
100
AcDbAttributeDefinition
  3

  2
NT
 70
     8
280
     0
  0
ATTDEF
  5
B3
330
AD
100
AcDbEntity
  8
AM_6
100
AcDbText
 10
5.189525
 20
0.8089722222222222
 30
0.0
 40
0.5
  1
ASME B18.3-10
100
AcDbAttributeDefinition
  3

  2
NB
 70
     8
280
     0
  0
ATTDEF
  5
B4
330
AD
100
AcDbEntity
  8
AM_6
100
AcDbText
 10
5.189525
 20
0.3089722222222222
 30
0.0
 40
0.5
  1
ASME B18.3-$NS.
100
AcDbAttributeDefinition
  3

  2
NBSYN
 70
     8
280
     0
  0
ATTDEF
  5
B5
330
AD
100
AcDbEntity
  8
AM_6
100
AcDbText
 10
5.189525
 20
-0.1910277777777778
 30
0.0
 40
0.5
  1
ASME B18.3-10
100
AcDbAttributeDefinition
  3

  2
LINA
 70
     8
280
     0
  0
ATTDEF
  5
B6
330
AD
100
AcDbEntity
  8
AM_6
100
AcDbText
 10
5.189525
 20
-0.6910277777777778
 30
0.0
 40
0.5
  1
10
100
AcDbAttributeDefinition
  3

  2
NS
 70
     8
280
     0
  0
ATTDEF
  5
B7
330
AD
100
AcDbEntity
  8
AM_6
100
AcDbText
 10
5.189525
 20
-1.191027777777778
 30
0.0
 40
0.5
  1
0.361
100
AcDbAttributeDefinition
  3

  2
A
 70
     8
280
     0
  0
ATTDEF
  5
B8
330
AD
100
AcDbEntity
  8
AM_6
100
AcDbText
 10
5.189525
 20
-1.691027777777778
 30
0.0
 40
0.5
  1
0.101
100
AcDbAttributeDefinition
  3

  2
H
 70
     8
280
     0
  0
ATTDEF
  5
B9
330
AD
100
AcDbEntity
  8
AM_6
100
AcDbText
 10
5.189525
 20
-2.191027777777778
 30
0.0
 40
0.5
  1
0.800
100
AcDbAttributeDefinition
  3

  2
L
 70
     8
280
     0
  0
ATTDEF
  5
BA
330
AD
100
AcDbEntity
  8
AM_6
100
AcDbText
 10
5.189525
 20
-2.691027777777778
 30
0.0
 40
0.5
  1
0.020
100
AcDbAttributeDefinition
  3

  2
S
 70
     8
280
     0
  0
ATTDEF
  5
BB
330
AD
100
AcDbEntity
  8
AM_6
100
AcDbText
 10
5.189525
 20
-3.191027777777778
 30
0.0
 40
0.5
  1
0.125000
100
AcDbAttributeDefinition
  3

  2
J
 70
     8
280
     0
  0
ATTDEF
  5
BC
330
AD
100
AcDbEntity
  8
AM_6
100
AcDbText
 10
5.189525
 20
-3.691027777777778
 30
0.0
 40
0.5
  1
baldor
100
AcDbAttributeDefinition
  3

  2
COMPANY
 70
     8
280
     0
  0
CIRCLE
  5
BD
330
AD
100
AcDbEntity
  8
AM_9
 48
0.0010688199922
100
AcDbCircle
 10
0.0
 20
1.628472222222222
 30
0.0
 40
0.095
  0
ARC
  5
BE
330
AD
100
AcDbEntity
  8
AM_5
 48
0.0010688199922
100
AcDbCircle
 10
-0.0000000000000001
 20
1.628472222222222
 30
0.0
 40
0.0702000000000003
100
AcDbArc
 50
75.0000000000001
 51
15.00000000000018
  0
LINE
  5
BF
330
AD
100
AcDbEntity
  8
AM_7
 48
0.0010688199922
100
AcDbLine
 10
-0.1895249999999999
 20
1.628472222222222
 30
0.0
 11
0.1895249999999999
 21
1.628472222222222
 31
0.0
  0
LINE
  5
C0
330
AD
100
AcDbEntity
  8
AM_0
 48
0.0010688199922
100
AcDbLine
 10
0.0625
 20
1.592387830397871
 30
0.0
 11
0.0
 21
1.556303438573519
 31
0.0
  0
LINE
  5
C1
330
AD
100
AcDbEntity
  8
AM_0
 48
0.0010688199922
100
AcDbLine
 10
-0.0625
 20
1.664556614046574
 30
0.0
 11
0.0
 21
1.700641005870926
 31
0.0
  0
LINE
  5
C2
330
AD
100
AcDbEntity
  8
AM_0
 48
0.0010688199922
100
AcDbLine
 10
0.0
 20
1.700641005870926
 30
0.0
 11
0.0625
 21
1.664556614046574
 31
0.0
  0
LINE
  5
C3
330
AD
100
AcDbEntity
  8
AM_0
 48
0.0010688199922
100
AcDbLine
 10
0.0625
 20
1.664556614046574
 30
0.0
 11
0.0625
 21
1.592387830397871
 31
0.0
  0
LINE
  5
C4
330
AD
100
AcDbEntity
  8
AM_0
 48
0.0010688199922
100
AcDbLine
 10
-0.0625
 20
1.592387830397871
 30
0.0
 11
-0.0625
 21
1.664556614046574
 31
0.0
  0
LINE
  5
C5
330
AD
100
AcDbEntity
  8
AM_0
 48
0.0010688199922
100
AcDbLine
 10
0.0
 20
1.556303438573519
 30
0.0
 11
-0.0625
 21
1.592387830397871
 31
0.0
  0
CIRCLE
  5
C6
330
AD
100
AcDbEntity
  8
AM_4
 48
0.0010688199922
100
AcDbCircle
 10
0.0
 20
1.628472222222222
 30
0.0
 40
0.0995
  0
ARC
  5
C7
330
AD
100
AcDbEntity
  8
AM_5
 48
0.0010688199922
100
AcDbCircle
 10
0.0
 20
1.628472222222222
 30
0.0
 40
0.0764
100
AcDbArc
 50
75.00000000000001
 51
15.00000000000005
  0
CIRCLE
  5
C8
330
AD
100
AcDbEntity
  8
AM_0
 48
0.0010688199922
100
AcDbCircle
 10
0.0
 20
1.628472222222222
 30
0.0
 40
0.1804999999999999
  0
ENDBLK
  5
B0
330
AD
100
AcDbEntity
  8
0
100
AcDbBlockEnd
  0
BLOCK
  5
CB
330
C9
100
AcDbEntity
  8
0
100
AcDbBlockBegin
  2
3_070894LW_0_in_069470_0
 70
     2
 10
0.0
 20
0.0
 30
0.0
  3
3_070894LW_0_in_069470_0
  1

  0
ATTDEF
  5
CD
330
C9
100
AcDbEntity
  8
AM_6
100
AcDbText
 10
6.9375
 20
1.9375
 30
0.0
 40
0.5
  1
Imperial Insert Lockwasher -Inch
100
AcDbAttributeDefinition
  3

  2
NN
 70
     8
280
     0
  0
ATTDEF
  5
CE
330
C9
100
AcDbEntity
  8
AM_6
100
AcDbText
 10
6.9375
 20
1.4375
 30
0.0
 40
0.5
  1
Imperial Bearings
100
AcDbAttributeDefinition
  3

  2
NT
 70
     8
280
     0
  0
ATTDEF
  5
CF
330
C9
100
AcDbEntity
  8
AM_6
100
AcDbText
 10
6.9375
 20
0.9375
 30
0.0
 40
0.5
  1
070894LW
100
AcDbAttributeDefinition
  3

  2
NB
 70
     8
280
     0
  0
ATTDEF
  5
D0
330
C9
100
AcDbEntity
  8
AM_6
100
AcDbText
 10
6.9375
 20
0.4375
 30
0.0
 40
0.5
  1
$PN.LW
100
AcDbAttributeDefinition
  3

  2
NBSYN
 70
     8
280
     0
  0
ATTDEF
  5
D1
330
C9
100
AcDbEntity
  8
AM_6
100
AcDbText
 10
6.9375
 20
-0.0625
 30
0.0
 40
0.5
  1
070894
100
AcDbAttributeDefinition
  3

  2
LINA
 70
     8
280
     0
  0
ATTDEF
  5
D2
330
C9
100
AcDbEntity
  8
AM_6
100
AcDbText
 10
6.9375
 20
-0.5625
 30
0.0
 40
0.5
  1
2-3/8
100
AcDbAttributeDefinition
  3

  2
SS
 70
     8
280
     0
  0
ATTDEF
  5
D3
330
C9
100
AcDbEntity
  8
AM_6
100
AcDbText
 10
6.9375
 20
-1.0625
 30
0.0
 40
0.5
  1
2.375000
100
AcDbAttributeDefinition
  3

  2
SS1
 70
     8
280
     0
  0
ATTDEF
  5
D4
330
C9
100
AcDbEntity
  8
AM_6
100
AcDbText
 10
6.9375
 20
-1.5625
 30
0.0
 40
0.5
  1
070894
100
AcDbAttributeDefinition
  3

  2
PN
 70
     8
280
     0
  0
ATTDEF
  5
D5
330
C9
100
AcDbEntity
  8
AM_6
100
AcDbText
 10
6.9375
 20
-2.0625
 30
0.0
 40
0.5
  1
INS-IP-206R
100
AcDbAttributeDefinition
  3

  2
DESCRIPTION
 70
     8
280
     0
  0
ATTDEF
  5
D6
330
C9
100
AcDbEntity
  8
AM_6
100
AcDbText
 10
6.9375
 20
-2.5625
 30
0.0
 40
0.5
  1
4.7241
100
AcDbAttributeDefinition
  3

  2
A
 70
     8
280
     0
  0
ATTDEF
  5
D7
330
C9
100
AcDbEntity
  8
AM_6
100
AcDbText
 10
6.9375
 20
-3.0625
 30
0.0
 40
0.5
  1
1-9/32
100
AcDbAttributeDefinition
  3

  2
B
 70
     8
280
     0
  0
ATTDEF
  5
D8
330
C9
100
AcDbEntity
  8
AM_6
100
AcDbText
 10
6.9375
 20
-3.5625
 30
0.0
 40
0.5
  1
3-27/64
100
AcDbAttributeDefinition
  3

  2
C
 70
     8
280
     0
  0
ATTDEF
  5
D9
330
C9
100
AcDbEntity
  8
AM_6
100
AcDbText
 10
6.9375
 20
-4.0625
 30
0.0
 40
0.5
  1
1.208
100
AcDbAttributeDefinition
  3

  2
D
 70
     8
280
     0
  0
ATTDEF
  5
DA
330
C9
100
AcDbEntity
  8
AM_6
100
AcDbText
 10
6.9375
 20
-4.5625
 30
0.0
 40
0.5
  1
3-7/8
100
AcDbAttributeDefinition
  3

  2
E
 70
     8
280
     0
  0
ATTDEF
  5
DB
330
C9
100
AcDbEntity
  8
AM_6
100
AcDbText
 10
6.9375
 20
-5.0625
 30
0.0
 40
0.5
  1
0.1900
100
AcDbAttributeDefinition
  3

  2
NDM
 70
     8
280
     0
  0
ATTDEF
  5
DC
330
C9
100
AcDbEntity
  8
AM_6
100
AcDbText
 10
6.9375
 20
-5.5625
 30
0.0
 40
0.5
  1
0.1450
100
AcDbAttributeDefinition
  3

  2
KDM
 70
     8
280
     0
  0
ATTDEF
  5
DD
330
C9
100
AcDbEntity
  8
AM_6
100
AcDbText
 10
6.9375
 20
-6.0625
 30
0.0
 40
0.5
  1
3.35
100
AcDbAttributeDefinition
  3

  2
AL
 70
     8
280
     0
  0
ATTDEF
  5
DE
330
C9
100
AcDbEntity
  8
AM_6
100
AcDbText
 10
6.9375
 20
-6.5625
 30
0.0
 40
0.5
  1
0.50
100
AcDbAttributeDefinition
  3

  2
BL
 70
     8
280
     0
  0
ATTDEF
  5
DF
330
C9
100
AcDbEntity
  8
AM_6
100
AcDbText
 10
6.9375
 20
-7.0625
 30
0.0
 40
0.5
  1
0.07
100
AcDbAttributeDefinition
  3

  2
CL
 70
     8
280
     0
  0
ATTDEF
  5
E0
330
C9
100
AcDbEntity
  8
AM_6
100
AcDbText
 10
6.9375
 20
-7.5625
 30
0.0
 40
0.5
  1
0.44
100
AcDbAttributeDefinition
  3

  2
DL
 70
     8
280
     0
  0
ATTDEF
  5
E1
330
C9
100
AcDbEntity
  8
AM_6
100
AcDbText
 10
6.9375
 20
-8.0625
 30
0.0
 40
0.5
  1
baldor
100
AcDbAttributeDefinition
  3

  2
COMPANY
 70
     8
280
     0
  0
ARC
  5
E2
330
C9
100
AcDbEntity
  8
AM_9
 48
0.0133626551083915
100
AcDbCircle
 10
0.000000000000016
 20
-0.0000000000000386
 30
0.0
 40
1.250000000000042
100
AcDbArc
 50
106.7608295227334
 51
118.2391704772666
  0
LINE
  5
E3
330
C9
100
AcDbEntity
  8
AM_9
 48
0.0133626551083915
100
AcDbLine
 10
-0.0949999999999998
 20
-1.628472222222222
 30
0.0
 11
-0.0949999999999999
 21
-1.474995025218889
 31
0.0
  0
ARC
  5
E4
330
C9
100
AcDbEntity
  8
AM_9
 48
0.0133626551083915
100
AcDbCircle
 10
0.0000000000000001
 20
-1.628512686805576
 30
0.0
 40
0.0950000086178022
100
AcDbArc
 50
179.9755952662555
 51
0.02440473374455
  0
LINE
  5
E5
330
C9
100
AcDbEntity
  8
AM_9
 48
0.0133626551083915
100
AcDbLine
 10
0.095
 20
-1.474995025218889
 30
0.0
 11
0.0950000000000001
 21
-1.628472222222222
 31
0.0
  0
LINE
  5
E6
330
C9
100
AcDbEntity
  8
AM_9
 48
0.0133626551083915
100
AcDbLine
 10
-0.095
 20
1.474995025218889
 30
0.0
 11
-0.0950000000000001
 21
1.628472222222222
 31
0.0
  0
ARC
  5
E7
330
C9
100
AcDbEntity
  8
AM_9
 48
0.0133626551083915
100
AcDbCircle
 10
-0.0000000000000001
 20
1.628512686805576
 30
0.0
 40
0.0950000086178022
100
AcDbArc
 50
359.9755952662554
 51
180.0244047337445
  0
LINE
  5
E8
330
C9
100
AcDbEntity
  8
AM_9
 48
0.0133626551083915
100
AcDbLine
 10
0.0949999999999998
 20
1.628472222222222
 30
0.0
 11
0.0949999999999998
 21
1.474995025218889
 31
0.0
  0
LINE
  5
E9
330
C9
100
AcDbEntity
  8
AM_7
 48
0.0133626551083915
100
AcDbLine
 10
-1.628512686805576
 20
-0.0997500090486925
 30
0.0
 11
-1.628512686805576
 21
0.0997500090486922
 31
0.0
  0
LINE
  5
EA
330
C9
100
AcDbEntity
  8
AM_7
 48
0.0133626551083915
100
AcDbLine
 10
1.628512686805576
 20
-0.0997500090486923
 30
0.0
 11
1.628512686805576
 21
0.0997500090486924
 31
0.0
  0
LINE
  5
EB
330
C9
100
AcDbEntity
  8
AM_7
 48
0.0133626551083915
100
AcDbLine
 10
1.051782355039855
 20
1.151532364088547
 30
0.0
 11
1.251282373137239
 21
1.151532364088547
 31
0.0
  0
LINE
  5
EC
330
C9
100
AcDbEntity
  8
AM_7
 48
0.0133626551083915
100
AcDbLine
 10
1.151532364088547
 20
1.051782355039855
 30
0.0
 11
1.151532364088547
 21
1.251282373137239
 31
0.0
  0
LINE
  5
ED
330
C9
100
AcDbEntity
  8
AM_7
 48
0.0133626551083915
100
AcDbLine
 10
-1.251282373137239
 20
1.151532364088547
 30
0.0
 11
-1.051782355039855
 21
1.151532364088547
 31
0.0
  0
LINE
  5
EE
330
C9
100
AcDbEntity
  8
AM_7
 48
0.0133626551083915
100
AcDbLine
 10
-1.151532364088547
 20
1.051782355039855
 30
0.0
 11
-1.151532364088547
 21
1.251282373137239
 31
0.0
  0
LINE
  5
EF
330
C9
100
AcDbEntity
  8
AM_7
 48
0.0133626551083915
100
AcDbLine
 10
1.051782355039855
 20
-1.151532364088547
 30
0.0
 11
1.25128237313724
 21
-1.151532364088547
 31
0.0
  0
LINE
  5
F0
330
C9
100
AcDbEntity
  8
AM_7
 48
0.0133626551083915
100
AcDbLine
 10
1.151532364088547
 20
-1.25128237313724
 30
0.0
 11
1.151532364088547
 21
-1.051782355039855
 31
0.0
  0
LINE
  5
F1
330
C9
100
AcDbEntity
  8
AM_7
 48
0.0133626551083915
100
AcDbLine
 10
-1.25128237313724
 20
-1.151532364088547
 30
0.0
 11
-1.051782355039855
 21
-1.151532364088547
 31
0.0
  0
LINE
  5
F2
330
C9
100
AcDbEntity
  8
AM_7
 48
0.0133626551083915
100
AcDbLine
 10
-1.151532364088547
 20
-1.25128237313724
 30
0.0
 11
-1.151532364088547
 21
-1.051782355039855
 31
0.0
  0
LINE
  5
F3
330
C9
100
AcDbEntity
  8
AM_0
 48
0.0133626551083915
100
AcDbLine
 10
-0.0949999999999999
 20
-1.474995025218889
 30
0.0
 11
-0.0949999999999999
 21
-1.280263958528165
 31
0.0
  0
ARC
  5
F4
330
C9
100
AcDbEntity
  8
AM_0
 48
0.0133626551083915
100
AcDbCircle
 10
0.000000000000002
 20
0.0000000000000075
 30
0.0
 40
1.283783783783791
100
AcDbArc
 50
229.2437668548038
 51
265.7562331451963
  0
ARC
  5
F5
330
C9
100
AcDbEntity
  8
AM_0
 48
0.0133626551083915
100
AcDbCircle
 10
1.151532364088547
 20
1.151532364088547
 30
0.0
 40
0.0950000086178022
100
AcDbArc
 50
314.9755952662558
 51
135.0244047337443
  0
LINE
  5
F6
330
C9
100
AcDbEntity
  8
AM_0
 48
0.0133626551083915
100
AcDbLine
 10
0.0950000000000008
 20
-1.280263958528165
 30
0.0
 11
0.095
 21
-1.474995025218889
 31
0.0
  0
ARC
  5
F7
330
C9
100
AcDbEntity
  8
AM_0
 48
0.0133626551083915
100
AcDbCircle
 10
-1.151532364088547
 20
1.151532364088547
 30
0.0
 40
0.0950000086178024
100
AcDbArc
 50
44.97559526625565
 51
225.0244047337442
  0
LINE
  5
F8
330
C9
100
AcDbEntity
  8
AM_0
 48
0.0133626551083915
100
AcDbLine
 10
-0.3604715679262208
 20
1.19689608935647
 30
0.0
 11
-0.3734634671276457
 21
1.228261308609534
 31
0.0
  0
CIRCLE
  5
F9
330
C9
100
AcDbEntity
  8
AM_0
 48
0.0133626551083915
100
AcDbCircle
 10
0.0
 20
0.0
 30
0.0
 40
1.9375
  0
LINE
  5
FA
330
C9
100
AcDbEntity
  8
AM_0
 48
0.0133626551083915
100
AcDbLine
 10
-0.8381081825712764
 20
-0.9724584709967217
 30
0.0
 11
-1.084328607094538
 21
-1.218678895519982
 31
0.0
  0
LINE
  5
FB
330
C9
100
AcDbEntity
  8
AM_0
 48
0.0133626551083915
100
AcDbLine
 10
-1.084328607094538
 20
1.218678895519982
 30
0.0
 11
-0.8381081825712768
 21
0.9724584709967207
 31
0.0
  0
ARC
  5
FC
330
C9
100
AcDbEntity
  8
AM_0
 48
0.0133626551083915
100
AcDbCircle
 10
0.0000000000000002
 20
0.0000000000000022
 30
0.0
 40
1.283783783783786
100
AcDbArc
 50
274.2437668548037
 51
310.7562331451963
  0
LINE
  5
FD
330
C9
100
AcDbEntity
  8
AM_0
 48
0.0133626551083915
100
AcDbLine
 10
1.084328607094538
 20
-1.218678895519982
 30
0.0
 11
0.8381081825712771
 21
-0.972458470996721
 31
0.0
  0
ARC
  5
FE
330
C9
100
AcDbEntity
  8
AM_0
 48
0.0133626551083915
100
AcDbCircle
 10
0.0000000000000013
 20
0.0000000000000004
 30
0.0
 40
1.283783783783782
100
AcDbArc
 50
4.243766854803634
 51
40.75623314519639
  0
LINE
  5
FF
330
C9
100
AcDbEntity
  8
AM_0
 48
0.0133626551083915
100
AcDbLine
 10
1.218678895519982
 20
1.084328607094538
 30
0.0
 11
0.9724584709967206
 21
0.838108182571277
 31
0.0
  0
ARC
  5
100
330
C9
100
AcDbEntity
  8
AM_0
 48
0.0133626551083915
100
AcDbCircle
 10
0.0000000000000188
 20
-0.0000000000000233
 30
0.0
 40
1.283783783783814
100
AcDbArc
 50
118.0876524752612
 51
130.7562331451963
  0
ARC
  5
101
330
C9
100
AcDbEntity
  8
AM_0
 48
0.0133626551083915
100
AcDbCircle
 10
-0.0000000000000071
 20
0.0000000000000018
 30
0.0
 40
1.283783783783791
100
AcDbArc
 50
319.2437668548038
 51
355.7562331451963
  0
ARC
  5
102
330
C9
100
AcDbEntity
  8
AM_0
 48
0.0133626551083915
100
AcDbCircle
 10
0.0000000000000009
 20
-0.0000000000000004
 30
0.0
 40
1.283783783783784
100
AcDbArc
 50
184.2437668548036
 51
220.7562331451963
  0
LINE
  5
103
330
C9
100
AcDbEntity
  8
AM_0
 48
0.0133626551083915
100
AcDbLine
 10
1.280263958528166
 20
0.0949999999999999
 30
0.0
 11
1.628472222222222
 21
0.0950000000000001
 31
0.0
  0
ARC
  5
104
330
C9
100
AcDbEntity
  8
AM_0
 48
0.0133626551083915
100
AcDbCircle
 10
0.0000000000000017
 20
-0.0000000000000051
 30
0.0
 40
1.187500000000005
100
AcDbArc
 50
106.4576715809459
 51
118.5423284190541
  0
ARC
  5
105
330
C9
100
AcDbEntity
  8
AM_0
 48
0.0133626551083915
100
AcDbCircle
 10
1.151532364088547
 20
-1.151532364088547
 30
0.0
 40
0.0950000086178024
100
AcDbArc
 50
224.9755952662557
 51
45.02440473374445
  0
LINE
  5
106
330
C9
100
AcDbEntity
  8
AM_0
 48
0.0133626551083915
100
AcDbLine
 10
0.9724584709967216
 20
-0.8381081825712765
 30
0.0
 11
1.218678895519982
 21
-1.084328607094538
 31
0.0
  0
LINE
  5
107
330
C9
100
AcDbEntity
  8
AM_0
 48
0.0133626551083915
100
AcDbLine
 10
0.8381081825712763
 20
0.972458470996721
 30
0.0
 11
1.084328607094538
 21
1.218678895519982
 31
0.0
  0
LINE
  5
108
330
C9
100
AcDbEntity
  8
AM_0
 48
0.0133626551083915
100
AcDbLine
 10
-0.9724584709967209
 20
0.8381081825712773
 30
0.0
 11
-1.218678895519982
 21
1.084328607094538
 31
0.0
  0
ARC
  5
109
330
C9
100
AcDbEntity
  8
AM_0
 48
0.0133626551083915
100
AcDbCircle
 10
-1.151532364088547
 20
-1.151532364088547
 30
0.0
 40
0.0950000086178024
100
AcDbArc
 50
134.9755952662557
 51
315.0244047337445
  0
LINE
  5
10A
330
C9
100
AcDbEntity
  8
AM_0
 48
0.0133626551083915
100
AcDbLine
 10
-0.0949999999999995
 20
1.280263958528165
 30
0.0
 11
-0.095
 21
1.474995025218889
 31
0.0
  0
ARC
  5
10B
330
C9
100
AcDbEntity
  8
AM_0
 48
0.0133626551083915
100
AcDbCircle
 10
-0.0000000000000069
 20
0.0000000000000409
 30
0.0
 40
1.283783783783742
100
AcDbArc
 50
94.24376685480348
 51
106.9123475247393
  0
ARC
  5
10C
330
C9
100
AcDbEntity
  8
AM_0
 48
0.0133626551083915
100
AcDbCircle
 10
1.628512686805576
 20
0.0
 30
0.0
 40
0.0950000086178022
100
AcDbArc
 50
269.9755952662556
 51
90.02440473374457
  0
LINE
  5
10D
330
C9
100
AcDbEntity
  8
AM_0
 48
0.0133626551083915
100
AcDbLine
 10
1.628472222222223
 20
-0.0949999999999999
 30
0.0
 11
1.280263958528165
 21
-0.0949999999999999
 31
0.0
  0
LINE
  5
10E
330
C9
100
AcDbEntity
  8
AM_0
 48
0.0133626551083915
100
AcDbLine
 10
-1.218678895519982
 20
-1.084328607094538
 30
0.0
 11
-0.972458470996721
 21
-0.8381081825712771
 31
0.0
  0
LINE
  5
10F
330
C9
100
AcDbEntity
  8
AM_0
 48
0.0133626551083915
100
AcDbLine
 10
-1.280263958528165
 20
-0.0949999999999999
 30
0.0
 11
-1.628472222222222
 21
-0.0950000000000001
 31
0.0
  0
ARC
  5
110
330
C9
100
AcDbEntity
  8
AM_0
 48
0.0133626551083915
100
AcDbCircle
 10
-1.628512686805576
 20
-0.0000000000000001
 30
0.0
 40
0.0950000086178022
100
AcDbArc
 50
89.97559526625545
 51
270.0244047337446
  0
LINE
  5
111
330
C9
100
AcDbEntity
  8
AM_0
 48
0.0133626551083915
100
AcDbLine
 10
-1.628472222222222
 20
0.0949999999999998
 30
0.0
 11
-1.280263958528166
 21
0.0949999999999997
 31
0.0
  0
ARC
  5
112
330
C9
100
AcDbEntity
  8
AM_0
 48
0.0133626551083915
100
AcDbCircle
 10
-0.0000000000000047
 20
0.0000000000000022
 30
0.0
 40
1.283783783783779
100
AcDbArc
 50
139.2437668548036
 51
175.7562331451964
  0
LINE
  5
113
330
C9
100
AcDbEntity
  8
AM_0
 48
0.0133626551083915
100
AcDbLine
 10
-0.6044333502554678
 20
1.132590450518262
 30
0.0
 11
-0.5914414510540428
 21
1.101225231265198
 31
0.0
  0
LINE
  5
114
330
C9
100
AcDbEntity
  8
AM_0
 48
0.0133626551083915
100
AcDbLine
 10
0.0949999999999998
 20
1.474995025218889
 30
0.0
 11
0.0949999999999998
 21
1.280263958528166
 31
0.0
  0
ARC
  5
115
330
C9
100
AcDbEntity
  8
AM_0
 48
0.0133626551083915
100
AcDbCircle
 10
0.0000000000000003
 20
0.0000000000000016
 30
0.0
 40
1.283783783783782
100
AcDbArc
 50
49.24376685480364
 51
85.75623314519639
  0
ENDBLK
  5
CC
330
C9
100
AcDbEntity
  8
0
100
AcDbBlockEnd
  0
BLOCK
  5
118
330
116
100
AcDbEntity
  8
0
100
AcDbBlockBegin
  2
4_070926I_0_in_069470_0
 70
     2
 10
0.0
 20
0.0
 30
0.0
  3
4_070926I_0_in_069470_0
  1

  0
ATTDEF
  5
11A
330
116
100
AcDbEntity
  8
AM_6
100
AcDbText
 10
7.31205
 20
2.31205
 30
0.0
 40
0.5
  1
Imperial Insert -Inch
100
AcDbAttributeDefinition
  3

  2
NN
 70
     8
280
     0
  0
ATTDEF
  5
11B
330
116
100
AcDbEntity
  8
AM_6
100
AcDbText
 10
7.31205
 20
1.81205
 30
0.0
 40
0.5
  1
Imperial Bearings
100
AcDbAttributeDefinition
  3

  2
NT
 70
     8
280
     0
  0
ATTDEF
  5
11C
330
116
100
AcDbEntity
  8
AM_6
100
AcDbText
 10
7.31205
 20
1.31205
 30
0.0
 40
0.5
  1
070926I
100
AcDbAttributeDefinition
  3

  2
NB
 70
     8
280
     0
  0
ATTDEF
  5
11D
330
116
100
AcDbEntity
  8
AM_6
100
AcDbText
 10
7.31205
 20
0.8120500000000002
 30
0.0
 40
0.5
  1
$PN.I
100
AcDbAttributeDefinition
  3

  2
NBSYN
 70
     8
280
     0
  0
ATTDEF
  5
11E
330
116
100
AcDbEntity
  8
AM_6
100
AcDbText
 10
7.31205
 20
0.3120500000000002
 30
0.0
 40
0.5
  1
070926
100
AcDbAttributeDefinition
  3

  2
LINA
 70
     8
280
     0
  0
ATTDEF
  5
11F
330
116
100
AcDbEntity
  8
AM_6
100
AcDbText
 10
7.31205
 20
-0.1879499999999998
 30
0.0
 40
0.5
  1
2-3/8
100
AcDbAttributeDefinition
  3

  2
SS
 70
     8
280
     0
  0
ATTDEF
  5
120
330
116
100
AcDbEntity
  8
AM_6
100
AcDbText
 10
7.31205
 20
-0.6879499999999998
 30
0.0
 40
0.5
  1
2.375000
100
AcDbAttributeDefinition
  3

  2
SS1
 70
     8
280
     0
  0
ATTDEF
  5
121
330
116
100
AcDbEntity
  8
AM_6
100
AcDbText
 10
7.31205
 20
-1.18795
 30
0.0
 40
0.5
  1
070926
100
AcDbAttributeDefinition
  3

  2
PN
 70
     8
280
     0
  0
ATTDEF
  5
122
330
116
100
AcDbEntity
  8
AM_6
100
AcDbText
 10
7.31205
 20
-1.68795
 30
0.0
 40
0.5
  1
INS-IP-206L
100
AcDbAttributeDefinition
  3

  2
DESCRIPTION
 70
     8
280
     0
  0
ATTDEF
  5
123
330
116
100
AcDbEntity
  8
AM_6
100
AcDbText
 10
7.31205
 20
-2.18795
 30
0.0
 40
0.5
  1
Labyrinth Seal
100
AcDbAttributeDefinition
  3

  2
ST
 70
     8
280
     0
  0
ATTDEF
  5
124
330
116
100
AcDbEntity
  8
AM_6
100
AcDbText
 10
7.31205
 20
-2.68795
 30
0.0
 40
0.5
  1
4.7241
100
AcDbAttributeDefinition
  3

  2
A
 70
     8
280
     0
  0
ATTDEF
  5
125
330
116
100
AcDbEntity
  8
AM_6
100
AcDbText
 10
7.31205
 20
-3.18795
 30
0.0
 40
0.5
  1
1-9/32
100
AcDbAttributeDefinition
  3

  2
B
 70
     8
280
     0
  0
ATTDEF
  5
126
330
116
100
AcDbEntity
  8
AM_6
100
AcDbText
 10
7.31205
 20
-3.68795
 30
0.0
 40
0.5
  1
3-27/64
100
AcDbAttributeDefinition
  3

  2
C
 70
     8
280
     0
  0
ATTDEF
  5
127
330
116
100
AcDbEntity
  8
AM_6
100
AcDbText
 10
7.31205
 20
-4.18795
 30
0.0
 40
0.5
  1
1.208
100
AcDbAttributeDefinition
  3

  2
D
 70
     8
280
     0
  0
ATTDEF
  5
128
330
116
100
AcDbEntity
  8
AM_6
100
AcDbText
 10
7.31205
 20
-4.68795
 30
0.0
 40
0.5
  1
3-7/8
100
AcDbAttributeDefinition
  3

  2
E
 70
     8
280
     0
  0
ATTDEF
  5
129
330
116
100
AcDbEntity
  8
AM_6
100
AcDbText
 10
7.31205
 20
-5.18795
 30
0.0
 40
0.5
  1
0.1900
100
AcDbAttributeDefinition
  3

  2
NDM
 70
     8
280
     0
  0
ATTDEF
  5
12A
330
116
100
AcDbEntity
  8
AM_6
100
AcDbText
 10
7.31205
 20
-5.68795
 30
0.0
 40
0.5
  1
0.101
100
AcDbAttributeDefinition
  3

  2
H
 70
     8
280
     0
  0
ATTDEF
  5
12B
330
116
100
AcDbEntity
  8
AM_6
100
AcDbText
 10
7.31205
 20
-6.18795
 30
0.0
 40
0.5
  1
0.1450
100
AcDbAttributeDefinition
  3

  2
KDM
 70
     8
280
     0
  0
ATTDEF
  5
12C
330
116
100
AcDbEntity
  8
AM_6
100
AcDbText
 10
7.31205
 20
-6.68795
 30
0.0
 40
0.5
  1
3.35
100
AcDbAttributeDefinition
  3

  2
AL
 70
     8
280
     0
  0
ATTDEF
  5
12D
330
116
100
AcDbEntity
  8
AM_6
100
AcDbText
 10
7.31205
 20
-7.18795
 30
0.0
 40
0.5
  1
0.50
100
AcDbAttributeDefinition
  3

  2
BL
 70
     8
280
     0
  0
ATTDEF
  5
12E
330
116
100
AcDbEntity
  8
AM_6
100
AcDbText
 10
7.31205
 20
-7.68795
 30
0.0
 40
0.5
  1
0.07
100
AcDbAttributeDefinition
  3

  2
CL
 70
     8
280
     0
  0
ATTDEF
  5
12F
330
116
100
AcDbEntity
  8
AM_6
100
AcDbText
 10
7.31205
 20
-8.18795
 30
0.0
 40
0.5
  1
0.44
100
AcDbAttributeDefinition
  3

  2
DL
 70
     8
280
     0
  0
ATTDEF
  5
130
330
116
100
AcDbEntity
  8
AM_6
100
AcDbText
 10
7.31205
 20
-8.68795
 30
0.0
 40
0.5
  1
0.8000
100
AcDbAttributeDefinition
  3

  2
LL
 70
     8
280
     0
  0
ATTDEF
  5
131
330
116
100
AcDbEntity
  8
AM_6
100
AcDbText
 10
7.31205
 20
-9.18795
 30
0.0
 40
0.5
  1
0.025
100
AcDbAttributeDefinition
  3

  2
Y
 70
     8
280
     0
  0
ATTDEF
  5
132
330
116
100
AcDbEntity
  8
AM_6
100
AcDbText
 10
7.31205
 20
-9.68795
 30
0.0
 40
0.5
  1
0.025000
100
AcDbAttributeDefinition
  3

  2
Y1
 70
     8
280
     0
  0
ATTDEF
  5
133
330
116
100
AcDbEntity
  8
AM_6
100
AcDbText
 10
7.31205
 20
-10.18795
 30
0.0
 40
0.5
  1
2-15/16
100
AcDbAttributeDefinition
  3

  2
Z
 70
     8
280
     0
  0
ATTDEF
  5
134
330
116
100
AcDbEntity
  8
AM_6
100
AcDbText
 10
7.31205
 20
-10.68795
 30
0.0
 40
0.5
  1
2.937500
100
AcDbAttributeDefinition
  3

  2
Z1
 70
     8
280
     0
  0
ATTDEF
  5
135
330
116
100
AcDbEntity
  8
AM_6
100
AcDbText
 10
7.31205
 20
-11.18795
 30
0.0
 40
0.5
  1
baldor
100
AcDbAttributeDefinition
  3

  2
COMPANY
 70
     8
280
     0
  0
CIRCLE
  5
136
330
116
100
AcDbEntity
  8
AM_9
 48
0.0165000979971389
100
AcDbCircle
 10
0.0
 20
0.0
 30
0.0
 40
1.46875
  0
CIRCLE
  5
137
330
116
100
AcDbEntity
  8
AM_9
 48
0.0165000979971389
100
AcDbCircle
 10
0.0
 20
0.0
 30
0.0
 40
1.594284188034188
  0
CIRCLE
  5
138
330
116
100
AcDbEntity
  8
AM_9
 48
0.0165000979971389
100
AcDbCircle
 10
0.0
 20
0.0
 30
0.0
 40
1.631944444444444
  0
CIRCLE
  5
139
330
116
100
AcDbEntity
  8
AM_9
 48
0.0165000979971389
100
AcDbCircle
 10
0.0
 20
0.0
 30
0.0
 40
1.956368966601196
  0
CIRCLE
  5
13A
330
116
100
AcDbEntity
  8
AM_9
 48
0.0165000979971389
100
AcDbCircle
 10
0.0
 20
0.0
 30
0.0
 40
2.042971506979639
  0
CIRCLE
  5
13B
330
116
100
AcDbEntity
  8
AM_9
 48
0.0165000979971389
100
AcDbCircle
 10
0.0
 20
0.0
 30
0.0
 40
2.16205
  0
CIRCLE
  5
13C
330
116
100
AcDbEntity
  8
AM_9
 48
0.0165000979971389
100
AcDbCircle
 10
0.0
 20
0.0
 30
0.0
 40
2.2979875
  0
LINE
  5
13D
330
116
100
AcDbEntity
  8
AM_9
 48
0.0165000979971389
100
AcDbLine
 10
-1.361180553784104
 20
1.00762716319083
 30
0.0
 11
-1.536544848730685
 21
1.182991458137411
 31
0.0
  0
LINE
  5
13E
330
116
100
AcDbEntity
  8
AM_9
 48
0.0165000979971389
100
AcDbLine
 10
-1.536544848730685
 20
-1.182991458137411
 30
0.0
 11
-1.361180553784104
 21
-1.00762716319083
 31
0.0
  0
LINE
  5
13F
330
116
100
AcDbEntity
  8
AM_9
 48
0.0165000979971389
100
AcDbLine
 10
1.182991458137411
 20
-1.536544848730685
 30
0.0
 11
1.00762716319083
 21
-1.361180553784104
 31
0.0
  0
LINE
  5
140
330
116
100
AcDbEntity
  8
AM_9
 48
0.0165000979971389
100
AcDbLine
 10
-1.00762716319083
 20
-1.361180553784104
 30
0.0
 11
-1.182991458137411
 21
-1.536544848730685
 31
0.0
  0
LINE
  5
141
330
116
100
AcDbEntity
  8
AM_9
 48
0.0165000979971389
100
AcDbLine
 10
1.361180553784104
 20
-1.00762716319083
 30
0.0
 11
1.536544848730685
 21
-1.182991458137411
 31
0.0
  0
LINE
  5
142
330
116
100
AcDbEntity
  8
AM_9
 48
0.0165000979971389
100
AcDbLine
 10
1.536544848730685
 20
1.182991458137411
 30
0.0
 11
1.361180553784104
 21
1.00762716319083
 31
0.0
  0
CIRCLE
  5
143
330
116
100
AcDbEntity
  8
AM_9
 48
0.0165000979971389
100
AcDbCircle
 10
0.0
 20
1.628472222222222
 30
0.0
 40
0.0724499999999999
  0
LINE
  5
144
330
116
100
AcDbEntity
  8
AM_9
 48
0.0165000979971389
100
AcDbLine
 10
1.00762716319083
 20
1.361180553784104
 30
0.0
 11
1.182991458137411
 21
1.536544848730685
 31
0.0
  0
LINE
  5
145
330
116
100
AcDbEntity
  8
AM_9
 48
0.0165000979971389
100
AcDbLine
 10
-1.182991458137411
 20
1.536544848730685
 30
0.0
 11
-1.00762716319083
 21
1.361180553784104
 31
0.0
  0
LINE
  5
146
330
116
100
AcDbEntity
  8
AM_9
 48
0.0165000979971389
100
AcDbLine
 10
-1.242986839588407
 20
1.125820877386528
 30
0.0
 11
-1.361180553784104
 21
1.00762716319083
 31
0.0
  0
LINE
  5
147
330
116
100
AcDbEntity
  8
AM_9
 48
0.0165000979971389
100
AcDbLine
 10
-1.00762716319083
 20
1.361180553784104
 30
0.0
 11
-1.125820877386528
 21
1.242986839588407
 31
0.0
  0
ARC
  5
148
330
116
100
AcDbEntity
  8
AM_9
 48
0.0165000979971389
100
AcDbCircle
 10
0.0000000000000002
 20
-0.0000000000000003
 30
0.0
 40
1.889215561259645
100
AcDbArc
 50
142.6042581316177
 51
217.3957418683823
  0
LINE
  5
149
330
116
100
AcDbEntity
  8
AM_9
 48
0.0165000979971389
100
AcDbLine
 10
-1.125820877386528
 20
-1.242986839588407
 30
0.0
 11
-1.00762716319083
 21
-1.361180553784104
 31
0.0
  0
LINE
  5
14A
330
116
100
AcDbEntity
  8
AM_9
 48
0.0165000979971389
100
AcDbLine
 10
-1.361180553784104
 20
-1.00762716319083
 30
0.0
 11
-1.242986839588407
 21
-1.125820877386528
 31
0.0
  0
ARC
  5
14B
330
116
100
AcDbEntity
  8
AM_9
 48
0.0165000979971389
100
AcDbCircle
 10
0.0
 20
0.0000000000000004
 30
0.0
 40
1.889215561259645
100
AcDbArc
 50
232.6042581316177
 51
307.3957418683823
  0
LINE
  5
14C
330
116
100
AcDbEntity
  8
AM_9
 48
0.0165000979971389
100
AcDbLine
 10
1.242986839588407
 20
-1.125820877386527
 30
0.0
 11
1.361180553784104
 21
-1.00762716319083
 31
0.0
  0
LINE
  5
14D
330
116
100
AcDbEntity
  8
AM_9
 48
0.0165000979971389
100
AcDbLine
 10
1.00762716319083
 20
-1.361180553784104
 30
0.0
 11
1.125820877386527
 21
-1.242986839588407
 31
0.0
  0
ARC
  5
14E
330
116
100
AcDbEntity
  8
AM_9
 48
0.0165000979971389
100
AcDbCircle
 10
0.0000000000000002
 20
0.0000000000000002
 30
0.0
 40
1.889215561259645
100
AcDbArc
 50
322.6042581316177
 51
37.39574186838234
  0
LINE
  5
14F
330
116
100
AcDbEntity
  8
AM_9
 48
0.0165000979971389
100
AcDbLine
 10
1.125820877386528
 20
1.242986839588407
 30
0.0
 11
1.00762716319083
 21
1.361180553784104
 31
0.0
  0
LINE
  5
150
330
116
100
AcDbEntity
  8
AM_9
 48
0.0165000979971389
100
AcDbLine
 10
1.361180553784104
 20
1.00762716319083
 30
0.0
 11
1.242986839588406
 21
1.125820877386528
 31
0.0
  0
ARC
  5
151
330
116
100
AcDbEntity
  8
AM_9
 48
0.0165000979971389
100
AcDbCircle
 10
0.0000000000000012
 20
-0.0000000000000038
 30
0.0
 40
1.253298153034305
100
AcDbArc
 50
106.7759831175789
 51
118.224016882421
  0
CIRCLE
  5
152
330
116
100
AcDbEntity
  8
AM_9
 48
0.0165000979971389
100
AcDbCircle
 10
0.0
 20
-1.628472222222222
 30
0.0
 40
0.0724499999999999
  0
ARC
  5
153
330
116
100
AcDbEntity
  8
AM_9
 48
0.0165000979971389
100
AcDbCircle
 10
0.0000000000000001
 20
-0.0000000000000007
 30
0.0
 40
1.889215561259645
100
AcDbArc
 50
52.60425813161768
 51
127.3957418683823
  0
ARC
  5
154
330
116
100
AcDbEntity
  8
AM_5
 48
0.0165000979971389
100
AcDbCircle
 10
0.0000000000000001
 20
1.628472222222222
 30
0.0
 40
0.095
100
AcDbArc
 50
75.00000000000004
 51
14.99999999999994
  0
ARC
  5
155
330
116
100
AcDbEntity
  8
AM_5
 48
0.0165000979971389
100
AcDbCircle
 10
0.0000000000000001
 20
-1.628472222222222
 30
0.0
 40
0.0950000000000001
100
AcDbArc
 50
75.00000000000004
 51
14.99999999999994
  0
CIRCLE
  5
156
330
116
100
AcDbEntity
  8
AM_4
 48
0.0165000979971389
100
AcDbCircle
 10
0.0
 20
0.0
 30
0.0
 40
2.31205
  0
LINE
  5
157
330
116
100
AcDbEntity
  8
AM_0
 48
0.0165000979971389
100
AcDbLine
 10
1.182991458137411
 20
1.536544848730685
 30
0.0
 11
1.192745529690401
 21
1.546298920283676
 31
0.0
  0
LINE
  5
158
330
116
100
AcDbEntity
  8
AM_0
 48
0.0165000979971389
100
AcDbLine
 10
1.192745529690401
 20
-1.546298920283676
 30
0.0
 11
1.182991458137411
 21
-1.536544848730685
 31
0.0
  0
LINE
  5
159
330
116
100
AcDbEntity
  8
AM_0
 48
0.0165000979971389
100
AcDbLine
 10
1.536544848730685
 20
-1.182991458137411
 30
0.0
 11
1.546298920283675
 21
-1.192745529690402
 31
0.0
  0
LINE
  5
15A
330
116
100
AcDbEntity
  8
AM_0
 48
0.0165000979971389
100
AcDbLine
 10
1.546298920283676
 20
1.192745529690401
 30
0.0
 11
1.536544848730685
 21
1.182991458137411
 31
0.0
  0
LINE
  5
15B
330
116
100
AcDbEntity
  8
AM_0
 48
0.0165000979971389
100
AcDbLine
 10
-1.536544848730685
 20
1.182991458137411
 30
0.0
 11
-1.546298920283675
 21
1.192745529690402
 31
0.0
  0
LINE
  5
15C
330
116
100
AcDbEntity
  8
AM_0
 48
0.0165000979971389
100
AcDbLine
 10
-1.192745529690401
 20
1.546298920283676
 30
0.0
 11
-1.182991458137411
 21
1.536544848730685
 31
0.0
  0
LINE
  5
15D
330
116
100
AcDbEntity
  8
AM_0
 48
0.0165000979971389
100
AcDbLine
 10
-1.546298920283676
 20
-1.192745529690401
 30
0.0
 11
-1.536544848730685
 21
-1.182991458137411
 31
0.0
  0
LINE
  5
15E
330
116
100
AcDbEntity
  8
AM_0
 48
0.0165000979971389
100
AcDbLine
 10
-1.182991458137411
 20
-1.536544848730685
 30
0.0
 11
-1.192745529690402
 21
-1.546298920283676
 31
0.0
  0
CIRCLE
  5
15F
330
116
100
AcDbEntity
  8
AM_0
 48
0.0165000979971389
100
AcDbCircle
 10
0.0
 20
0.0
 30
0.0
 40
1.982963931814131
  0
ARC
  5
160
330
116
100
AcDbEntity
  8
AM_0
 48
0.0165000979971389
100
AcDbCircle
 10
0.000000000000034
 20
-0.0000000000000353
 30
0.0
 40
1.95286513857632
100
AcDbArc
 50
307.6449808014885
 51
322.3550191985115
  0
ARC
  5
161
330
116
100
AcDbEntity
  8
AM_0
 48
0.0165000979971389
100
AcDbCircle
 10
0.0000000000000042
 20
0.0000000000000033
 30
0.0
 40
1.952865138576374
100
AcDbArc
 50
217.6449808014887
 51
232.3550191985113
  0
ARC
  5
162
330
116
100
AcDbEntity
  8
AM_0
 48
0.0165000979971389
100
AcDbCircle
 10
-0.0000000000000349
 20
0.0000000000000362
 30
0.0
 40
1.952865138576318
100
AcDbArc
 50
127.6449808014886
 51
142.3550191985115
  0
ARC
  5
163
330
116
100
AcDbEntity
  8
AM_0
 48
0.0165000979971389
100
AcDbCircle
 10
-0.0000000000000078
 20
-0.0000000000000069
 30
0.0
 40
1.952865138576379
100
AcDbArc
 50
37.64498080148873
 51
52.35501919851124
  0
ARC
  5
164
330
116
100
AcDbEntity
  8
AM_4
 48
0.0165000979971389
100
AcDbCircle
 10
0.0000000000000004
 20
-0.0000000000000001
 30
0.0
 40
1.9391851026106
100
AcDbArc
 50
142.4071953589901
 51
217.5928046410099
  0
ARC
  5
165
330
116
100
AcDbEntity
  8
AM_4
 48
0.0165000979971389
100
AcDbCircle
 10
0.0000000000000001
 20
-0.0000000000000007
 30
0.0
 40
1.939185102610599
100
AcDbArc
 50
232.40719535899
 51
307.59280464101
  0
ARC
  5
166
330
116
100
AcDbEntity
  8
AM_4
 48
0.0165000979971389
100
AcDbCircle
 10
0.0000000000000007
 20
0.0000000000000001
 30
0.0
 40
1.939185102610599
100
AcDbArc
 50
322.40719535899
 51
37.59280464100995
  0
LINE
  5
167
330
116
100
AcDbEntity
  8
AM_0
 48
0.0165000979971389
100
AcDbLine
 10
-1.125820877386528
 20
1.242986839588407
 30
0.0
 11
-1.242986839588407
 21
1.125820877386528
 31
0.0
  0
LINE
  5
168
330
116
100
AcDbEntity
  8
AM_0
 48
0.0165000979971389
100
AcDbLine
 10
-1.242986839588407
 20
-1.125820877386528
 30
0.0
 11
-1.125820877386528
 21
-1.242986839588407
 31
0.0
  0
LINE
  5
169
330
116
100
AcDbEntity
  8
AM_0
 48
0.0165000979971389
100
AcDbLine
 10
1.125820877386527
 20
-1.242986839588407
 30
0.0
 11
1.242986839588407
 21
-1.125820877386527
 31
0.0
  0
LINE
  5
16A
330
116
100
AcDbEntity
  8
AM_0
 48
0.0165000979971389
100
AcDbLine
 10
1.242986839588406
 20
1.125820877386528
 30
0.0
 11
1.125820877386528
 21
1.242986839588407
 31
0.0
  0
ARC
  5
16B
330
116
100
AcDbEntity
  8
AM_4
 48
0.0165000979971389
100
AcDbCircle
 10
0.0
 20
0.0000000000000002
 30
0.0
 40
1.939185102610599
100
AcDbArc
 50
52.40719535899006
 51
127.5928046410099
  0
LINE
  5
16C
330
116
100
AcDbEntity
  8
AM_0
 48
0.0165000979971389
100
AcDbLine
 10
-0.3364269671906868
 20
1.138847288158898
 30
0.0
 11
-0.3604715679262208
 21
1.19689608935647
 31
0.0
  0
ARC
  5
16D
330
116
100
AcDbEntity
  8
AM_0
 48
0.0165000979971389
100
AcDbCircle
 10
0.0000000000000016
 20
0.0000000000000007
 30
0.0
 40
1.1875
100
AcDbArc
 50
118.5423284190542
 51
106.457671580946
  0
LINE
  5
16E
330
116
100
AcDbEntity
  8
AM_0
 48
0.0165000979971389
100
AcDbLine
 10
-0.5914414510540424
 20
1.101225231265198
 30
0.0
 11
-0.5673968503185084
 21
1.043176430067626
 31
0.0
  0
ARC
  5
16F
330
116
100
AcDbEntity
  8
AM_0
 48
0.0165000979971389
100
AcDbCircle
 10
-0.0000000000000023
 20
-0.0000000000000009
 30
0.0
 40
1.25
100
AcDbArc
 50
118.2391704772667
 51
106.7608295227331
  0
ENDBLK
  5
119
330
116
100
AcDbEntity
  8
0
100
AcDbBlockEnd
  0
BLOCK
  5
172
330
170
100
AcDbEntity
  8
0
100
AcDbBlockBegin
  2
5_405015E_Inch_0_in_069470_0
 70
     2
 10
0.0
 20
0.0
 30
0.0
  3
5_405015E_Inch_0_in_069470_0
  1

  0
ATTDEF
  5
174
330
170
100
AcDbEntity
  8
AM_6
100
AcDbText
 10
6.748296671481428
 20
2.9254607597762
 30
0.0
 40
0.5
  1
405015E -Inch
100
AcDbAttributeDefinition
  3

  2
NN
 70
     8
280
     0
  0
ATTDEF
  5
175
330
170
100
AcDbEntity
  8
AM_6
100
AcDbText
 10
6.748296671481428
 20
2.4254607597762
 30
0.0
 40
0.5
  1
Grease Fitting
100
AcDbAttributeDefinition
  3

  2
NT
 70
     8
280
     0
  0
ATTDEF
  5
176
330
170
100
AcDbEntity
  8
AM_6
100
AcDbText
 10
6.748296671481428
 20
1.9254607597762
 30
0.0
 40
0.5
  1
405015E-Inch
100
AcDbAttributeDefinition
  3

  2
NB
 70
     8
280
     0
  0
ATTDEF
  5
177
330
170
100
AcDbEntity
  8
AM_6
100
AcDbText
 10
6.748296671481428
 20
1.4254607597762
 30
0.0
 40
0.5
  1
$MN.-Inch
100
AcDbAttributeDefinition
  3

  2
NBSYN
 70
     8
280
     0
  0
ATTDEF
  5
178
330
170
100
AcDbEntity
  8
AM_6
100
AcDbText
 10
6.748296671481428
 20
0.9254607597761999
 30
0.0
 40
0.5
  1
405015E
100
AcDbAttributeDefinition
  3

  2
LINA
 70
     8
280
     0
  0
ATTDEF
  5
179
330
170
100
AcDbEntity
  8
AM_6
100
AcDbText
 10
6.748296671481428
 20
0.4254607597761999
 30
0.0
 40
0.5
  1
405015E
100
AcDbAttributeDefinition
  3

  2
MN
 70
     8
280
     0
  0
ATTDEF
  5
17A
330
170
100
AcDbEntity
  8
AM_6
100
AcDbText
 10
6.748296671481428
 20
-0.0745392402238001
 30
0.0
 40
0.5
  1
1/8 x 27PTF
100
AcDbAttributeDefinition
  3

  2
T
 70
     8
280
     0
  0
ATTDEF
  5
17B
330
170
100
AcDbEntity
  8
AM_6
100
AcDbText
 10
6.748296671481428
 20
-0.5745392402238001
 30
0.0
 40
0.5
  1
baldor
100
AcDbAttributeDefinition
  3

  2
COMPANY
 70
     8
280
     0
  0
LINE
  5
17C
330
170
100
AcDbEntity
  8
AM_9
 48
0.0018382267275702
100
AcDbLine
 10
1.479587000506657
 20
2.23891411415143
 30
0.0
 11
1.529740287586382
 21
2.252352646922209
 31
0.0
  0
LINE
  5
17D
330
170
100
AcDbEntity
  8
AM_9
 48
0.0018382267275702
100
AcDbLine
 10
1.185724466722564
 20
2.450970273703425
 30
0.0
 11
1.199162999493343
 21
2.4008169866237
 31
0.0
  0
LINE
  5
17E
330
170
100
AcDbEntity
  8
AM_9
 48
0.0018382267275702
100
AcDbLine
 10
1.199162999493343
 20
2.4008169866237
 30
0.0
 11
1.479587000506657
 21
2.23891411415143
 31
0.0
  0
LINE
  5
17F
330
170
100
AcDbEntity
  8
AM_9
 48
0.0018382267275702
100
AcDbLine
 10
1.529740287586382
 20
2.252352646922209
 30
0.0
 11
1.650061369872023
 21
2.446486333778906
 31
0.0
  0
LINE
  5
180
330
170
100
AcDbEntity
  8
AM_9
 48
0.0018382267275702
100
AcDbLine
 10
1.293688630127977
 20
2.652238231001977
 30
0.0
 11
1.185724466722564
 21
2.450970273703425
 31
0.0
  0
LINE
  5
181
330
170
100
AcDbEntity
  8
AM_9
 48
0.0018382267275702
100
AcDbLine
 10
1.185724466722564
 20
2.450970273703425
 30
0.0
 11
1.529740287586382
 21
2.252352646922209
 31
0.0
  0
LINE
  5
182
330
170
100
AcDbEntity
  8
AM_5
 48
0.0018382267275702
100
AcDbLine
 10
1.584931457620486
 20
2.408883561408185
 30
0.0
 11
1.479587000506657
 21
2.238914114151431
 31
0.0
  0
LINE
  5
183
330
170
100
AcDbEntity
  8
AM_5
 48
0.0018382267275702
100
AcDbLine
 10
1.650061369872023
 20
2.446486333778906
 30
0.0
 11
1.584931457620486
 21
2.408883561408185
 31
0.0
  0
LINE
  5
184
330
170
100
AcDbEntity
  8
AM_5
 48
0.0018382267275702
100
AcDbLine
 10
1.262886392043693
 20
2.594816366710138
 30
0.0
 11
1.61573369570477
 21
2.391099880958581
 31
0.0
  0
LINE
  5
185
330
170
100
AcDbEntity
  8
AM_5
 48
0.0018382267275702
100
AcDbLine
 10
1.293688630127977
 20
2.577032686260533
 30
0.0
 11
1.199162999493343
 21
2.4008169866237
 31
0.0
  0
LINE
  5
186
330
170
100
AcDbEntity
  8
AM_5
 48
0.0018382267275702
100
AcDbLine
 10
1.293688630127977
 20
2.652238231001976
 30
0.0
 11
1.293688630127977
 21
2.577032686260533
 31
0.0
  0
LINE
  5
187
330
170
100
AcDbEntity
  8
AM_0
 48
0.0018382267275702
100
AcDbLine
 10
1.665307667397366
 20
2.674397490166252
 30
0.0
 11
1.680307667397366
 21
2.700378252279785
 31
0.0
  0
LINE
  5
188
330
170
100
AcDbEntity
  8
AM_0
 48
0.0018382267275702
100
AcDbLine
 10
1.498442332602634
 20
2.805378252279785
 30
0.0
 11
1.483442332602634
 21
2.779397490166251
 31
0.0
  0
LINE
  5
189
330
170
100
AcDbEntity
  8
AM_0
 48
0.0018382267275702
100
AcDbLine
 10
1.483442332602634
 20
2.779397490166251
 30
0.0
 11
1.455350343752893
 21
2.758380919662637
 31
0.0
  0
LINE
  5
18A
330
170
100
AcDbEntity
  8
AM_0
 48
0.0018382267275702
100
AcDbLine
 10
1.661152777865679
 20
2.639560828927739
 30
0.0
 11
1.665307667397366
 21
2.674397490166252
 31
0.0
  0
LINE
  5
18B
330
170
100
AcDbEntity
  8
AM_0
 48
0.0018382267275702
100
AcDbLine
 10
1.483442332602634
 20
2.779397490166251
 30
0.0
 11
1.665307667397366
 21
2.674397490166252
 31
0.0
  0
LINE
  5
18C
330
170
100
AcDbEntity
  8
AM_0
 48
0.0018382267275702
100
AcDbLine
 10
1.680307667397366
 20
2.700378252279785
 30
0.0
 11
1.736288429510899
 21
2.737339776506851
 31
0.0
  0
LINE
  5
18D
330
170
100
AcDbEntity
  8
AM_0
 48
0.0018382267275702
100
AcDbLine
 10
1.502461570489101
 20
2.872339776506851
 30
0.0
 11
1.498442332602634
 21
2.805378252279785
 31
0.0
  0
LINE
  5
18E
330
170
100
AcDbEntity
  8
AM_0
 48
0.0018382267275702
100
AcDbLine
 10
1.498442332602634
 20
2.805378252279785
 30
0.0
 11
1.680307667397366
 21
2.700378252279785
 31
0.0
  0
LINE
  5
18F
330
170
100
AcDbEntity
  8
AM_0
 48
0.0018382267275702
100
AcDbLine
 10
1.570453328518572
 20
2.9254607597762
 30
0.0
 11
1.502461570489101
 21
2.872339776506851
 31
0.0
  0
LINE
  5
190
330
170
100
AcDbEntity
  8
AM_0
 48
0.0018382267275702
100
AcDbLine
 10
1.736288429510899
 20
2.737339776506851
 30
0.0
 11
1.748296671481428
 21
2.822782857843012
 31
0.0
  0
LINE
  5
191
330
170
100
AcDbEntity
  8
AM_0
 48
0.0018382267275702
100
AcDbLine
 10
1.570453328518572
 20
2.9254607597762
 30
0.0
 11
1.748296671481428
 21
2.822782857843012
 31
0.0
  0
LINE
  5
192
330
170
100
AcDbEntity
  8
AM_0
 48
0.0018382267275702
100
AcDbLine
 10
1.502461570489101
 20
2.872339776506851
 30
0.0
 11
1.736288429510899
 21
2.737339776506851
 31
0.0
  0
LINE
  5
193
330
170
100
AcDbEntity
  8
AM_0
 48
0.0018382267275702
100
AcDbLine
 10
1.455350343752893
 20
2.758380919662637
 30
0.0
 11
1.381615226109451
 21
2.738095874698364
 31
0.0
  0
LINE
  5
194
330
170
100
AcDbEntity
  8
AM_0
 48
0.0018382267275702
100
AcDbLine
 10
1.68045297243143
 20
2.565561821415348
 30
0.0
 11
1.661152777865679
 21
2.639560828927739
 31
0.0
  0
LINE
  5
195
330
170
100
AcDbEntity
  8
AM_0
 48
0.0018382267275702
100
AcDbLine
 10
1.455350343752893
 20
2.758380919662637
 30
0.0
 11
1.661152777865679
 21
2.639560828927739
 31
0.0
  0
LINE
  5
196
330
170
100
AcDbEntity
  8
AM_0
 48
0.0018382267275702
100
AcDbLine
 10
1.332431942922154
 20
2.745339822768885
 30
0.0
 11
1.711318057077846
 21
2.526589822768885
 31
0.0
  0
LINE
  5
197
330
170
100
AcDbEntity
  8
AM_0
 48
0.0018382267275702
100
AcDbLine
 10
1.661318057077846
 20
2.439987282390442
 30
0.0
 11
1.711318057077846
 21
2.526589822768885
 31
0.0
  0
LINE
  5
198
330
170
100
AcDbEntity
  8
AM_0
 48
0.0018382267275702
100
AcDbLine
 10
1.332431942922154
 20
2.745339822768885
 30
0.0
 11
1.282431942922154
 21
2.658737282390442
 31
0.0
  0
LINE
  5
199
330
170
100
AcDbEntity
  8
AM_0
 48
0.0018382267275702
100
AcDbLine
 10
1.381615226109451
 20
2.738095874698364
 30
0.0
 11
1.336762069941076
 21
2.742839822768885
 31
0.0
  0
LINE
  5
19A
330
170
100
AcDbEntity
  8
AM_0
 48
0.0018382267275702
100
AcDbLine
 10
1.706987930058924
 20
2.529089822768885
 30
0.0
 11
1.68045297243143
 21
2.565561821415348
 31
0.0
  0
LINE
  5
19B
330
170
100
AcDbEntity
  8
AM_0
 48
0.0018382267275702
100
AcDbLine
 10
1.381615226109451
 20
2.738095874698364
 30
0.0
 11
1.68045297243143
 21
2.565561821415348
 31
0.0
  0
LWPOLYLINE
  5
19C
330
170
100
AcDbEntity
  8
AM_0
 48
0.0018382267275702
100
AcDbPolyline
 90
        3
 70
     0
 43
0.0
 10
1.616596528538923
 20
2.581277322768885
 10
1.662760602415867
 20
2.551860844208116
 10
1.706784257229538
 20
2.518737051080269
  0
LWPOLYLINE
  5
19D
330
170
100
AcDbEntity
  8
AM_0
 48
0.0018382267275702
100
AcDbPolyline
 90
        3
 70
     0
 43
0.0
 10
1.566596528538923
 20
2.494674782390442
 10
1.520432454661979
 20
2.524091260951211
 10
1.476408799848307
 20
2.557215054079057
  0
LWPOLYLINE
  5
19E
330
170
100
AcDbEntity
  8
AM_0
 48
0.0018382267275702
100
AcDbPolyline
 90
        3
 70
     0
 43
0.0
 10
1.665851856926153
 20
2.447840054079057
 10
1.61537750203231
 20
2.469299127471959
 10
1.566596528538923
 20
2.494674782390442
  0
LWPOLYLINE
  5
19F
330
170
100
AcDbEntity
  8
AM_0
 48
0.0018382267275702
100
AcDbPolyline
 90
        3
 70
     0
 43
0.0
 10
1.517341200151692
 20
2.628112051080269
 10
1.567815555045535
 20
2.606652977687368
 10
1.616596528538923
 20
2.581277322768885
  0
LINE
  5
1A0
330
170
100
AcDbEntity
  8
AM_0
 48
0.0018382267275702
100
AcDbLine
 10
1.517341200151692
 20
2.628112051080269
 30
0.0
 11
1.476408799848307
 21
2.557215054079057
 31
0.0
  0
LWPOLYLINE
  5
1A1
330
170
100
AcDbEntity
  8
AM_0
 48
0.0018382267275702
100
AcDbPolyline
 90
        3
 70
     0
 43
0.0
 10
1.427153471461077
 20
2.690652322768885
 10
1.473317545338021
 20
2.661235844208116
 10
1.517341200151692
 20
2.628112051080269
  0
LWPOLYLINE
  5
1A2
330
170
100
AcDbEntity
  8
AM_0
 48
0.0018382267275702
100
AcDbPolyline
 90
        3
 70
     0
 43
0.0
 10
1.327898143073847
 20
2.737487051080269
 10
1.378372497967689
 20
2.716027977687368
 10
1.427153471461077
 20
2.690652322768885
  0
LWPOLYLINE
  5
1A3
330
170
100
AcDbEntity
  8
AM_0
 48
0.0018382267275702
100
AcDbPolyline
 90
        3
 70
     0
 43
0.0
 10
1.377153471461077
 20
2.604049782390441
 10
1.330989397584132
 20
2.633466260951211
 10
1.286965742770461
 20
2.666590054079058
  0
LWPOLYLINE
  5
1A4
330
170
100
AcDbEntity
  8
AM_0
 48
0.0018382267275702
100
AcDbPolyline
 90
        3
 70
     0
 43
0.0
 10
1.476408799848307
 20
2.557215054079057
 10
1.425934444954464
 20
2.578674127471958
 10
1.377153471461077
 20
2.604049782390441
  0
ENDBLK
  5
173
330
170
100
AcDbEntity
  8
0
100
AcDbBlockEnd
  0
BLOCK
  5
1A7
330
1A5
100
AcDbEntity
  8
0
100
AcDbBlockBegin
  2
6_069470H_0_in_069470_0
 70
     2
 10
0.0
 20
0.0
 30
0.0
  3
6_069470H_0_in_069470_0
  1

  0
ATTDEF
  5
1A9
330
1A5
100
AcDbEntity
  8
AM_6
100
AcDbText
 10
9.625
 20
2.901834621730708
 30
0.0
 40
0.5
  1
P2B-IP -(Labyrinth Seal)-Housing -Inch
100
AcDbAttributeDefinition
  3

  2
NN
 70
     8
280
     0
  0
ATTDEF
  5
1AA
330
1A5
100
AcDbEntity
  8
AM_6
100
AcDbText
 10
9.625
 20
2.401834621730708
 30
0.0
 40
0.5
  1
Imperial 2 Bolt Piliow Block Bearings
100
AcDbAttributeDefinition
  3

  2
NT
 70
     8
280
     0
  0
ATTDEF
  5
1AB
330
1A5
100
AcDbEntity
  8
AM_6
100
AcDbText
 10
9.625
 20
1.901834621730708
 30
0.0
 40
0.5
  1
069470H
100
AcDbAttributeDefinition
  3

  2
NB
 70
     8
280
     0
  0
ATTDEF
  5
1AC
330
1A5
100
AcDbEntity
  8
AM_6
100
AcDbText
 10
9.625
 20
1.401834621730708
 30
0.0
 40
0.5
  1
$PN.H
100
AcDbAttributeDefinition
  3

  2
NBSYN
 70
     8
280
     0
  0
ATTDEF
  5
1AD
330
1A5
100
AcDbEntity
  8
AM_6
100
AcDbText
 10
9.625
 20
0.9018346217307083
 30
0.0
 40
0.5
  1
069470
100
AcDbAttributeDefinition
  3

  2
LINA
 70
     8
280
     0
  0
ATTDEF
  5
1AE
330
1A5
100
AcDbEntity
  8
AM_6
100
AcDbText
 10
9.625
 20
0.4018346217307083
 30
0.0
 40
0.5
  1
2-3/8
100
AcDbAttributeDefinition
  3

  2
SS
 70
     8
280
     0
  0
ATTDEF
  5
1AF
330
1A5
100
AcDbEntity
  8
AM_6
100
AcDbText
 10
9.625
 20
-0.0981653782692917
 30
0.0
 40
0.5
  1
069470
100
AcDbAttributeDefinition
  3

  2
PN
 70
     8
280
     0
  0
ATTDEF
  5
1B0
330
1A5
100
AcDbEntity
  8
AM_6
100
AcDbText
 10
9.625
 20
-0.5981653782692917
 30
0.0
 40
0.5
  1
P2B-IP-206L
100
AcDbAttributeDefinition
  3

  2
DESCRIPTION
 70
     8
280
     0
  0
ATTDEF
  5
1B1
330
1A5
100
AcDbEntity
  8
AM_6
100
AcDbText
 10
9.625
 20
-1.098165378269292
 30
0.0
 40
0.5
  1
Non-Expansion Type
100
AcDbAttributeDefinition
  3

  2
EF
 70
     8
280
     0
  0
ATTDEF
  5
1B2
330
1A5
100
AcDbEntity
  8
AM_6
100
AcDbText
 10
9.625
 20
-1.598165378269292
 30
0.0
 40
0.5
  1
Labyrinth Seal
100
AcDbAttributeDefinition
  3

  2
ST
 70
     8
280
     0
  0
ATTDEF
  5
1B3
330
1A5
100
AcDbEntity
  8
AM_6
100
AcDbText
 10
9.625
 20
-2.098165378269292
 30
0.0
 40
0.5
  1
3-27/64
100
AcDbAttributeDefinition
  3

  2
A
 70
     8
280
     0
  0
ATTDEF
  5
1B4
330
1A5
100
AcDbEntity
  8
AM_6
100
AcDbText
 10
9.625
 20
-2.598165378269292
 30
0.0
 40
0.5
  1
9-1/4
100
AcDbAttributeDefinition
  3

  2
B
 70
     8
280
     0
  0
ATTDEF
  5
1B5
330
1A5
100
AcDbEntity
  8
AM_6
100
AcDbText
 10
9.625
 20
-3.098165378269292
 30
0.0
 40
0.5
  1
2-55/64
100
AcDbAttributeDefinition
  3

  2
C
 70
     8
280
     0
  0
ATTDEF
  5
1B6
330
1A5
100
AcDbEntity
  8
AM_6
100
AcDbText
 10
9.625
 20
-3.598165378269292
 30
0.0
 40
0.5
  1
6-15/16
100
AcDbAttributeDefinition
  3

  2
DMIN
 70
     8
280
     0
  0
ATTDEF
  5
1B7
330
1A5
100
AcDbEntity
  8
AM_6
100
AcDbText
 10
9.625
 20
-4.098165378269291
 30
0.0
 40
0.5
  1
7-5/16
100
AcDbAttributeDefinition
  3

  2
DMAX
 70
     8
280
     0
  0
ATTDEF
  5
1B8
330
1A5
100
AcDbEntity
  8
AM_6
100
AcDbText
 10
9.625
 20
-4.598165378269291
 30
0.0
 40
0.5
  1
5/8
100
AcDbAttributeDefinition
  3

  2
F
 70
     8
280
     0
  0
ATTDEF
  5
1B9
330
1A5
100
AcDbEntity
  8
AM_6
100
AcDbText
 10
9.625
 20
-5.098165378269291
 30
0.0
 40
0.5
  1
61/64
100
AcDbAttributeDefinition
  3

  2
G
 70
     8
280
     0
  0
ATTDEF
  5
1BA
330
1A5
100
AcDbEntity
  8
AM_6
100
AcDbText
 10
9.625
 20
-5.598165378269291
 30
0.0
 40
0.5
  1
1-5/8
100
AcDbAttributeDefinition
  3

  2
H
 70
     8
280
     0
  0
ATTDEF
  5
1BB
330
1A5
100
AcDbEntity
  8
AM_6
100
AcDbText
 10
9.625
 20
-6.098165378269291
 30
0.0
 40
0.5
  1
5-19/32
100
AcDbAttributeDefinition
  3

  2
J
 70
     8
280
     0
  0
ATTDEF
  5
1BC
330
1A5
100
AcDbEntity
  8
AM_6
100
AcDbText
 10
9.625
 20
-6.598165378269291
 30
0.0
 40
0.5
  1
3-7/8
100
AcDbAttributeDefinition
  3

  2
L
 70
     8
280
     0
  0
ATTDEF
  5
1BD
330
1A5
100
AcDbEntity
  8
AM_6
100
AcDbText
 10
9.625
 20
-7.098165378269291
 30
0.0
 40
0.5
  1
2-3/4
100
AcDbAttributeDefinition
  3

  2
M
 70
     8
280
     0
  0
ATTDEF
  5
1BE
330
1A5
100
AcDbEntity
  8
AM_6
100
AcDbText
 10
9.625
 20
-7.598165378269291
 30
0.0
 40
0.5
  1
1-13/64
100
AcDbAttributeDefinition
  3

  2
R
 70
     8
280
     0
  0
ATTDEF
  5
1BF
330
1A5
100
AcDbEntity
  8
AM_6
100
AcDbText
 10
9.625
 20
-8.098165378269291
 30
0.0
 40
0.5
  1
2-7/32
100
AcDbAttributeDefinition
  3

  2
S
 70
     8
280
     0
  0
ATTDEF
  5
1C0
330
1A5
100
AcDbEntity
  8
AM_6
100
AcDbText
 10
9.625
 20
-8.598165378269291
 30
0.0
 40
0.5
  1
1/4
100
AcDbAttributeDefinition
  3

  2
X
 70
     8
280
     0
  0
ATTDEF
  5
1C1
330
1A5
100
AcDbEntity
  8
AM_6
100
AcDbText
 10
9.625
 20
-9.098165378269291
 30
0.0
 40
0.5
  1
0.025
100
AcDbAttributeDefinition
  3

  2
Y
 70
     8
280
     0
  0
ATTDEF
  5
1C2
330
1A5
100
AcDbEntity
  8
AM_6
100
AcDbText
 10
9.625
 20
-9.598165378269291
 30
0.0
 40
0.5
  1
2-15/16
100
AcDbAttributeDefinition
  3

  2
Z
 70
     8
280
     0
  0
ATTDEF
  5
1C3
330
1A5
100
AcDbEntity
  8
AM_6
100
AcDbText
 10
9.625
 20
-10.09816537826929
 30
0.0
 40
0.5
  1
baldor
100
AcDbAttributeDefinition
  3

  2
COMPANY
 70
     8
280
     0
  0
LINE
  5
1C4
330
1A5
100
AcDbEntity
  8
AM_9
 48
0.0310804711834882
100
AcDbLine
 10
-3.46875
 20
-1.125
 30
0.0
 11
-3.46875
 21
-2.75
 31
0.0
  0
LINE
  5
1C5
330
1A5
100
AcDbEntity
  8
AM_9
 48
0.0310804711834882
100
AcDbLine
 10
-3.15625
 20
-2.75
 30
0.0
 11
-3.15625
 21
-1.125
 31
0.0
  0
LINE
  5
1C6
330
1A5
100
AcDbEntity
  8
AM_9
 48
0.0310804711834882
100
AcDbLine
 10
-3.65625
 20
-1.125
 30
0.0
 11
-3.65625
 21
-2.75
 31
0.0
  0
LINE
  5
1C7
330
1A5
100
AcDbEntity
  8
AM_9
 48
0.0310804711834882
100
AcDbLine
 10
-3.96875
 20
-1.125
 30
0.0
 11
-3.96875
 21
-2.75
 31
0.0
  0
LINE
  5
1C8
330
1A5
100
AcDbEntity
  8
AM_9
 48
0.0310804711834882
100
AcDbLine
 10
3.46875
 20
-1.125
 30
0.0
 11
3.46875
 21
-2.75
 31
0.0
  0
LINE
  5
1C9
330
1A5
100
AcDbEntity
  8
AM_9
 48
0.0310804711834882
100
AcDbLine
 10
3.15625
 20
-1.125
 30
0.0
 11
3.15625
 21
-2.75
 31
0.0
  0
LINE
  5
1CA
330
1A5
100
AcDbEntity
  8
AM_9
 48
0.0310804711834882
100
AcDbLine
 10
3.65625
 20
-1.125
 30
0.0
 11
3.65625
 21
-2.75
 31
0.0
  0
LINE
  5
1CB
330
1A5
100
AcDbEntity
  8
AM_9
 48
0.0310804711834882
100
AcDbLine
 10
3.96875
 20
-2.75
 30
0.0
 11
3.96875
 21
-1.125
 31
0.0
  0
LINE
  5
1CC
330
1A5
100
AcDbEntity
  8
AM_9
 48
0.0310804711834882
100
AcDbLine
 10
2.81125
 20
0.42870444364387
 30
0.0
 11
2.81125
 21
-1.04375
 31
0.0
  0
ARC
  5
1CD
330
1A5
100
AcDbEntity
  8
AM_9
 48
0.0310804711834882
100
AcDbCircle
 10
2.892500000000001
 20
-1.04375
 30
0.0
 40
0.0812500000000007
100
AcDbArc
 50
180.0000000000003
 51
269.9999999999994
  0
LINE
  5
1CE
330
1A5
100
AcDbEntity
  8
AM_9
 48
0.0310804711834882
100
AcDbLine
 10
-2.81125
 20
-1.043749999999998
 30
0.0
 11
-2.81125
 21
0.4287044436438716
 31
0.0
  0
LINE
  5
1CF
330
1A5
100
AcDbEntity
  8
AM_9
 48
0.0310804711834882
100
AcDbLine
 10
2.8925
 20
-1.125
 30
0.0
 11
3.149726746107294
 21
-1.125
 31
0.0
  0
ARC
  5
1D0
330
1A5
100
AcDbEntity
  8
AM_9
 48
0.0310804711834882
100
AcDbCircle
 10
-2.892499999999999
 20
-1.04375
 30
0.0
 40
0.0812499999999996
100
AcDbArc
 50
269.9999999999997
 51
0.0000000000014092
  0
LINE
  5
1D1
330
1A5
100
AcDbEntity
  8
AM_9
 48
0.0310804711834882
100
AcDbLine
 10
-3.149726746107293
 20
-1.125
 30
0.0
 11
-2.8925
 21
-1.125
 31
0.0
  0
LINE
  5
1D2
330
1A5
100
AcDbEntity
  8
AM_7
 48
0.0310804711834882
100
AcDbLine
 10
-2.4801525
 20
0.0
 30
0.0
 11
2.4801525
 21
0.0
 31
0.0
  0
LINE
  5
1D3
330
1A5
100
AcDbEntity
  8
AM_7
 48
0.0310804711834882
100
AcDbLine
 10
0.0
 20
-2.4801525
 30
0.0
 11
0.0
 21
2.4801525
 31
0.0
  0
LINE
  5
1D4
330
1A5
100
AcDbEntity
  8
AM_7
 48
0.0310804711834882
100
AcDbLine
 10
1.143589797284314
 20
1.980755631913826
 30
0.0
 11
1.675375
 21
2.901834621730708
 31
0.0
  0
LINE
  5
1D5
330
1A5
100
AcDbEntity
  8
AM_0
 48
0.0310804711834882
100
AcDbLine
 10
1.83286959450446
 20
2.174623261329892
 30
0.0
 11
1.854887701892219
 21
2.212759742011998
 31
0.0
  0
LINE
  5
1D6
330
1A5
100
AcDbEntity
  8
AM_4
 48
0.0310804711834882
100
AcDbLine
 10
0.9888622981077804
 20
2.712759742011998
 30
0.0
 11
1.854887701892219
 21
2.212759742011998
 31
0.0
  0
LINE
  5
1D7
330
1A5
100
AcDbEntity
  8
AM_0
 48
0.0310804711834882
100
AcDbLine
 10
1.125464838486224
 20
2.749362282390441
 30
0.0
 11
1.818285160901552
 21
2.349362282743909
 31
0.0
  0
ARC
  5
1D8
330
1A5
100
AcDbEntity
  8
AM_0
 48
0.0310804711834882
100
AcDbCircle
 10
1.768285161513776
 20
2.262759742011998
 30
0.0
 40
0.0999999999999991
100
AcDbArc
 50
329.9999999999995
 51
60.00000000000064
  0
ARC
  5
1D9
330
1A5
100
AcDbEntity
  8
AM_0
 48
0.0310804711834882
100
AcDbCircle
 10
1.075464838486224
 20
2.662759742011998
 30
0.0
 40
0.0999999999999992
100
AcDbArc
 50
59.99999999999972
 51
150.0000000000003
  0
LINE
  5
1DA
330
1A5
100
AcDbEntity
  8
AM_0
 48
0.0310804711834882
100
AcDbLine
 10
0.9888622981077807
 20
2.712759742011998
 30
0.0
 11
0.9667117408553528
 21
2.67439385143483
 31
0.0
  0
ARC
  5
1DB
330
1A5
100
AcDbEntity
  8
AM_0
 48
0.0310804711834882
100
AcDbCircle
 10
3.149726746107306
 20
-0.9624999999999949
 30
0.0
 40
0.1625000000000129
100
AcDbArc
 50
187.1152534365932
 51
208.0016805681361
  0
ARC
  5
1DC
330
1A5
100
AcDbEntity
  8
AM_0
 48
0.0310804711834882
100
AcDbCircle
 10
-3.149726746107246
 20
-0.9625000000000136
 30
0.0
 40
0.162499999999952
100
AcDbArc
 50
331.9983194318619
 51
352.8847465634108
  0
LINE
  5
1DD
330
1A5
100
AcDbEntity
  8
AM_0
 48
0.0310804711834882
100
AcDbLine
 10
-0.7060999999999998
 20
2.84375
 30
0.0
 11
0.7060999999999998
 21
2.84375
 31
0.0
  0
LINE
  5
1DE
330
1A5
100
AcDbEntity
  8
AM_0
 48
0.0310804711834882
100
AcDbLine
 10
0.78735
 20
2.7625
 30
0.0
 11
0.78735
 21
2.732580106785528
 31
0.0
  0
LINE
  5
1DF
330
1A5
100
AcDbEntity
  8
AM_0
 48
0.0310804711834882
100
AcDbLine
 10
2.821850273294981
 20
0.3522429525271453
 30
0.0
 11
2.988478159061866
 21
-0.9826281687158369
 31
0.0
  0
ARC
  5
1E0
330
1A5
100
AcDbEntity
  8
AM_0
 48
0.0310804711834882
100
AcDbCircle
 10
-0.0000000000000027
 20
-0.0000000000000009
 30
0.0
 40
2.843750000000003
100
AcDbArc
 50
7.115253436591978
 51
73.926495340563
  0
ARC
  5
1E1
330
1A5
100
AcDbEntity
  8
AM_0
 48
0.0310804711834882
100
AcDbCircle
 10
-0.7060999999999997
 20
2.7625
 30
0.0
 40
0.0812500000000003
100
AcDbArc
 50
90.00000000000009
 51
179.9999999999997
  0
ARC
  5
1E2
330
1A5
100
AcDbEntity
  8
AM_0
 48
0.0310804711834882
100
AcDbCircle
 10
0.0000000000000004
 20
0.0
 30
0.0
 40
2.84375
100
AcDbArc
 50
106.073504659437
 51
172.8847465634081
  0
ARC
  5
1E3
330
1A5
100
AcDbEntity
  8
AM_0
 48
0.0310804711834882
100
AcDbCircle
 10
0.7061000000000011
 20
2.762500000000001
 30
0.0
 40
0.0812499999999989
100
AcDbArc
 50
359.9999999999993
 51
90.00000000000085
  0
LINE
  5
1E4
330
1A5
100
AcDbEntity
  8
AM_0
 48
0.0310804711834882
100
AcDbLine
 10
-0.78735
 20
2.732580106785527
 30
0.0
 11
-0.78735
 21
2.7625
 31
0.0
  0
LINE
  5
1E5
330
1A5
100
AcDbEntity
  8
AM_0
 48
0.0310804711834882
100
AcDbLine
 10
-2.988478159061865
 20
-0.9826281687158366
 30
0.0
 11
-2.821850273294981
 21
0.3522429525271418
 31
0.0
  0
CIRCLE
  5
1E6
330
1A5
100
AcDbEntity
  8
AM_0
 48
0.0310804711834882
100
AcDbCircle
 10
0.0
 20
0.0
 30
0.0
 40
2.36205
  0
LWPOLYLINE
  5
1E7
330
1A5
100
AcDbEntity
  8
AM_0
 48
0.0310804711834882
100
AcDbPolyline
 90
       14
 70
     0
 43
0.0
 10
3.14921875
 20
-1.124999205967152
 10
3.135057944086585
 20
-1.124336572650552
 10
3.121008776613812
 20
-1.122442265296486
 10
3.107178170229269
 20
-1.119330700727734
 10
3.093671384198689
 20
-1.115025559829477
 10
3.080591213319387
 20
-1.109559607323467
 10
3.068037205589778
 20
-1.102974442408707
 10
3.056104904589
 20
-1.095320182166429
 10
3.044885122332589
 20
-1.086655080138846
 10
3.034463248138207
 20
-1.077045082984519
 10
3.024918598761372
 20
-1.066563328584468
 10
3.016323814747061
 20
-1.055289589418733
 10
3.008744307591293
 20
-1.043309665449636
 10
3.006250000000001
 20
-1.03879333736614
  0
LINE
  5
1E8
330
1A5
100
AcDbEntity
  8
AM_0
 48
0.0310804711834882
100
AcDbLine
 10
3.006250000000002
 20
-1.038793337366141
 30
0.0
 11
3.006250000000002
 21
-2.75
 31
0.0
  0
LINE
  5
1E9
330
1A5
100
AcDbEntity
  8
AM_0
 48
0.0310804711834882
100
AcDbLine
 10
-3.149726746107293
 20
-1.125
 30
0.0
 11
-4.4625
 21
-1.125
 31
0.0
  0
LINE
  5
1EA
330
1A5
100
AcDbEntity
  8
AM_0
 48
0.0310804711834882
100
AcDbLine
 10
-4.625
 20
-2.75
 30
0.0
 11
4.625
 21
-2.75
 31
0.0
  0
LINE
  5
1EB
330
1A5
100
AcDbEntity
  8
AM_0
 48
0.0310804711834882
100
AcDbLine
 10
3.149726746107293
 20
-1.125
 30
0.0
 11
4.4625
 21
-1.125
 31
0.0
  0
LINE
  5
1EC
330
1A5
100
AcDbEntity
  8
AM_0
 48
0.0310804711834882
100
AcDbLine
 10
4.625
 20
-1.2875
 30
0.0
 11
4.625
 21
-2.75
 31
0.0
  0
LWPOLYLINE
  5
1ED
330
1A5
100
AcDbEntity
  8
AM_0
 48
0.0310804711834882
100
AcDbPolyline
 90
       19
 70
     0
 43
0.0
 10
4.4625
 20
-1.125
 10
4.476662808196495
 20
-1.125618361560091
 10
4.490717828870876
 20
-1.127468740135516
 10
4.50455809482916
 20
-1.130537053228026
 10
4.518078273290421
 20
-1.13479994912229
 10
4.531175467532864
 20
-1.140224984606544
 10
4.54375
 20
-1.146770871885028
 10
4.555706170907045
 20
-1.154387792803039
 10
4.566952986574062
 20
-1.163017777993166
 10
4.577404851942814
 20
-1.172595148057186
 10
4.586982222006834
 20
-1.183047013425937
 10
4.595612207196961
 20
-1.194293829092955
 10
4.603229128114971
 20
-1.206249999999999
 10
4.609775015393455
 20
-1.218824532467136
 10
4.615200050877711
 20
-1.231921726709578
 10
4.619462946771973
 20
-1.24544190517084
 10
4.622531259864484
 20
-1.259282171129123
 10
4.624381638439909
 20
-1.273337191803505
 10
4.625
 20
-1.287499999999999
  0
LINE
  5
1EE
330
1A5
100
AcDbEntity
  8
AM_0
 48
0.0310804711834882
100
AcDbLine
 10
-4.625
 20
-1.287499999999999
 30
0.0
 11
-4.625
 21
-2.75
 31
0.0
  0
LINE
  5
1EF
330
1A5
100
AcDbEntity
  8
AM_0
 48
0.0310804711834882
100
AcDbLine
 10
-4.3390625
 20
-2.75
 30
0.0
 11
-4.3390625
 21
-1.124999999999998
 31
0.0
  0
LWPOLYLINE
  5
1F0
330
1A5
100
AcDbEntity
  8
AM_0
 48
0.0310804711834882
100
AcDbPolyline
 90
       19
 70
     0
 43
0.0
 10
-4.625
 20
-1.2875
 10
-4.624381638439909
 20
-1.273337191803505
 10
-4.622531259864484
 20
-1.259282171129124
 10
-4.619462946771973
 20
-1.24544190517084
 10
-4.61520005087771
 20
-1.231921726709579
 10
-4.609775015393455
 20
-1.218824532467136
 10
-4.603229128114971
 20
-1.20625
 10
-4.595612207196961
 20
-1.194293829092955
 10
-4.586982222006834
 20
-1.183047013425937
 10
-4.577404851942814
 20
-1.172595148057186
 10
-4.566952986574062
 20
-1.163017777993166
 10
-4.555706170907045
 20
-1.154387792803039
 10
-4.54375
 20
-1.146770871885029
 10
-4.531175467532864
 20
-1.140224984606544
 10
-4.518078273290421
 20
-1.13479994912229
 10
-4.50455809482916
 20
-1.130537053228026
 10
-4.490717828870877
 20
-1.127468740135516
 10
-4.476662808196495
 20
-1.125618361560091
 10
-4.4625
 20
-1.125
  0
LINE
  5
1F1
330
1A5
100
AcDbEntity
  8
AM_0
 48
0.0310804711834882
100
AcDbLine
 10
4.3390625
 20
-1.125
 30
0.0
 11
4.3390625
 21
-2.75
 31
0.0
  0
LINE
  5
1F2
330
1A5
100
AcDbEntity
  8
AM_0
 48
0.0310804711834882
100
AcDbLine
 10
3.14921875
 20
-2.75
 30
0.0
 11
3.14921875
 21
-1.124999205967151
 31
0.0
  0
LWPOLYLINE
  5
1F3
330
1A5
100
AcDbEntity
  8
AM_0
 48
0.0310804711834882
100
AcDbPolyline
 90
       14
 70
     0
 43
0.0
 10
-3.006249999999999
 20
-1.038793337366137
 10
-3.013445374820594
 20
-1.051007840557868
 10
-3.021677933165623
 20
-1.06254874564046
 10
-3.030885020295125
 20
-1.073328219357643
 10
-3.040996564716655
 20
-1.083264223405605
 10
-3.051935611471645
 20
-1.09228113879402
 10
-3.063618907809114
 20
-1.100310341352218
 10
-3.075957536789366
 20
-1.107290724000566
 10
-3.088857593995594
 20
-1.11316916181224
 10
-3.102220902203192
 20
-1.117900916325996
 10
-3.115945758567712
 20
-1.121449976032872
 10
-3.129927708644926
 20
-1.123789330445519
 10
-3.144060341352215
 20
-1.124901175664314
 10
-3.149218749999999
 20
-1.124999205967152
  0
LINE
  5
1F4
330
1A5
100
AcDbEntity
  8
AM_0
 48
0.0310804711834882
100
AcDbLine
 10
-3.149218749999999
 20
-1.124999205967152
 30
0.0
 11
-3.14921875
 21
-2.75
 31
0.0
  0
LINE
  5
1F5
330
1A5
100
AcDbEntity
  8
AM_0
 48
0.0310804711834882
100
AcDbLine
 10
-3.006249999999999
 20
-1.038793337366136
 30
0.0
 11
-3.006249999999999
 21
-2.75
 31
0.0
  0
ENDBLK
  5
1A8
330
1A5
100
AcDbEntity
  8
0
100
AcDbBlockEnd
  0
ENDSEC
  0
SECTION
  2
ENTITIES
  0
ATTDEF
  5
6F
330
1F
100
AcDbEntity
  8
AM_6
100
AcDbText
 10
9.625
 20
2.9254607597762
 30
0.0
 40
0.5
  1
Imperial -IP Pillow Block 1-1/8 thru 2-1/4  2-Bolt Inch Bore (Labyrinth Seal)
100
AcDbAttributeDefinition
  3

  2
NN
 70
     8
280
     0
  0
ATTDEF
  5
70
330
1F
100
AcDbEntity
  8
AM_6
100
AcDbText
 10
9.625
 20
2.4254607597762
 30
0.0
 40
0.5
  1
Imperial 2 Bolt Piliow Block Bearings
100
AcDbAttributeDefinition
  3

  2
NT
 70
     8
280
     0
  0
ATTDEF
  5
71
330
1F
100
AcDbEntity
  8
AM_6
100
AcDbText
 10
9.625
 20
1.9254607597762
 30
0.0
 40
0.5
  1
069470
100
AcDbAttributeDefinition
  3

  2
NB
 70
     8
280
     0
  0
ATTDEF
  5
72
330
1F
100
AcDbEntity
  8
AM_6
100
AcDbText
 10
9.625
 20
1.4254607597762
 30
0.0
 40
0.5
  1
$PN.
100
AcDbAttributeDefinition
  3

  2
NBSYN
 70
     8
280
     0
  0
ATTDEF
  5
73
330
1F
100
AcDbEntity
  8
AM_6
100
AcDbText
 10
9.625
 20
0.9254607597761999
 30
0.0
 40
0.5
  1
069470
100
AcDbAttributeDefinition
  3

  2
LINA
 70
     8
280
     0
  0
ATTDEF
  5
74
330
1F
100
AcDbEntity
  8
AM_6
100
AcDbText
 10
9.625
 20
0.4254607597761999
 30
0.0
 40
0.5
  1
2-3/8
100
AcDbAttributeDefinition
  3

  2
SS
 70
     8
280
     0
  0
ATTDEF
  5
75
330
1F
100
AcDbEntity
  8
AM_6
100
AcDbText
 10
9.625
 20
-0.0745392402238001
 30
0.0
 40
0.5
  1
069470
100
AcDbAttributeDefinition
  3

  2
PN
 70
     8
280
     0
  0
ATTDEF
  5
76
330
1F
100
AcDbEntity
  8
AM_6
100
AcDbText
 10
9.625
 20
-0.5745392402238001
 30
0.0
 40
0.5
  1
P2B-IP-206L
100
AcDbAttributeDefinition
  3

  2
DESCRIPTION
 70
     8
280
     0
  0
ATTDEF
  5
77
330
1F
100
AcDbEntity
  8
AM_6
100
AcDbText
 10
9.625
 20
-1.0745392402238
 30
0.0
 40
0.5
  1
Non-Expansion Type
100
AcDbAttributeDefinition
  3

  2
EF
 70
     8
280
     0
  0
ATTDEF
  5
78
330
1F
100
AcDbEntity
  8
AM_6
100
AcDbText
 10
9.625
 20
-1.5745392402238
 30
0.0
 40
0.5
  1
Labyrinth Seal
100
AcDbAttributeDefinition
  3

  2
ST
 70
     8
280
     0
  0
ATTDEF
  5
79
330
1F
100
AcDbEntity
  8
AM_6
100
AcDbText
 10
9.625
 20
-2.0745392402238
 30
0.0
 40
0.5
  1
3-27/64
100
AcDbAttributeDefinition
  3

  2
A
 70
     8
280
     0
  0
ATTDEF
  5
7A
330
1F
100
AcDbEntity
  8
AM_6
100
AcDbText
 10
9.625
 20
-2.5745392402238
 30
0.0
 40
0.5
  1
9-1/4
100
AcDbAttributeDefinition
  3

  2
B
 70
     8
280
     0
  0
ATTDEF
  5
7B
330
1F
100
AcDbEntity
  8
AM_6
100
AcDbText
 10
9.625
 20
-3.0745392402238
 30
0.0
 40
0.5
  1
2-55/64
100
AcDbAttributeDefinition
  3

  2
C
 70
     8
280
     0
  0
ATTDEF
  5
7C
330
1F
100
AcDbEntity
  8
AM_6
100
AcDbText
 10
9.625
 20
-3.5745392402238
 30
0.0
 40
0.5
  1
6-15/16
100
AcDbAttributeDefinition
  3

  2
DMIN
 70
     8
280
     0
  0
ATTDEF
  5
7D
330
1F
100
AcDbEntity
  8
AM_6
100
AcDbText
 10
9.625
 20
-4.0745392402238
 30
0.0
 40
0.5
  1
7-5/16
100
AcDbAttributeDefinition
  3

  2
DMAX
 70
     8
280
     0
  0
ATTDEF
  5
7E
330
1F
100
AcDbEntity
  8
AM_6
100
AcDbText
 10
9.625
 20
-4.5745392402238
 30
0.0
 40
0.5
  1
5/8
100
AcDbAttributeDefinition
  3

  2
F
 70
     8
280
     0
  0
ATTDEF
  5
7F
330
1F
100
AcDbEntity
  8
AM_6
100
AcDbText
 10
9.625
 20
-5.0745392402238
 30
0.0
 40
0.5
  1
61/64
100
AcDbAttributeDefinition
  3

  2
G
 70
     8
280
     0
  0
ATTDEF
  5
80
330
1F
100
AcDbEntity
  8
AM_6
100
AcDbText
 10
9.625
 20
-5.5745392402238
 30
0.0
 40
0.5
  1
1-5/8
100
AcDbAttributeDefinition
  3

  2
H
 70
     8
280
     0
  0
ATTDEF
  5
81
330
1F
100
AcDbEntity
  8
AM_6
100
AcDbText
 10
9.625
 20
-6.0745392402238
 30
0.0
 40
0.5
  1
5-19/32
100
AcDbAttributeDefinition
  3

  2
J
 70
     8
280
     0
  0
ATTDEF
  5
82
330
1F
100
AcDbEntity
  8
AM_6
100
AcDbText
 10
9.625
 20
-6.5745392402238
 30
0.0
 40
0.5
  1
3-7/8
100
AcDbAttributeDefinition
  3

  2
L
 70
     8
280
     0
  0
ATTDEF
  5
83
330
1F
100
AcDbEntity
  8
AM_6
100
AcDbText
 10
9.625
 20
-7.0745392402238
 30
0.0
 40
0.5
  1
2-3/4
100
AcDbAttributeDefinition
  3

  2
M
 70
     8
280
     0
  0
ATTDEF
  5
84
330
1F
100
AcDbEntity
  8
AM_6
100
AcDbText
 10
9.625
 20
-7.5745392402238
 30
0.0
 40
0.5
  1
1-13/64
100
AcDbAttributeDefinition
  3

  2
R
 70
     8
280
     0
  0
ATTDEF
  5
85
330
1F
100
AcDbEntity
  8
AM_6
100
AcDbText
 10
9.625
 20
-8.0745392402238
 30
0.0
 40
0.5
  1
2-7/32
100
AcDbAttributeDefinition
  3

  2
S
 70
     8
280
     0
  0
ATTDEF
  5
86
330
1F
100
AcDbEntity
  8
AM_6
100
AcDbText
 10
9.625
 20
-8.5745392402238
 30
0.0
 40
0.5
  1
1/4
100
AcDbAttributeDefinition
  3

  2
X
 70
     8
280
     0
  0
ATTDEF
  5
87
330
1F
100
AcDbEntity
  8
AM_6
100
AcDbText
 10
9.625
 20
-9.0745392402238
 30
0.0
 40
0.5
  1
0.025
100
AcDbAttributeDefinition
  3

  2
Y
 70
     8
280
     0
  0
ATTDEF
  5
88
330
1F
100
AcDbEntity
  8
AM_6
100
AcDbText
 10
9.625
 20
-9.5745392402238
 30
0.0
 40
0.5
  1
2-15/16
100
AcDbAttributeDefinition
  3

  2
Z
 70
     8
280
     0
  0
ATTDEF
  5
89
330
1F
100
AcDbEntity
  8
AM_6
100
AcDbText
 10
9.625
 20
-10.0745392402238
 30
0.0
 40
0.5
  1
baldor
100
AcDbAttributeDefinition
  3

  2
COMPANY
 70
     8
280
     0
  0
INSERT
  5
8B
330
1F
100
AcDbEntity
  8
0
100
AcDbBlockReference
  2
1_ASME_B18_3_10_1_0_in_069470_0
 10
0.0
 20
0.0
 30
0.0
  0
INSERT
  5
AE
330
1F
100
AcDbEntity
  8
0
100
AcDbBlockReference
  2
2_ASME_B18_3_10_2_0_in_069470_0
 10
0.0
 20
0.0
 30
0.0
  0
INSERT
  5
CA
330
1F
100
AcDbEntity
  8
0
100
AcDbBlockReference
  2
3_070894LW_0_in_069470_0
 10
0.0
 20
0.0
 30
0.0
  0
INSERT
  5
117
330
1F
100
AcDbEntity
  8
0
100
AcDbBlockReference
  2
4_070926I_0_in_069470_0
 10
0.0
 20
0.0
 30
0.0
  0
INSERT
  5
171
330
1F
100
AcDbEntity
  8
0
100
AcDbBlockReference
  2
5_405015E_Inch_0_in_069470_0
 10
0.0
 20
0.0
 30
0.0
  0
INSERT
  5
1A6
330
1F
100
AcDbEntity
  8
0
100
AcDbBlockReference
  2
6_069470H_0_in_069470_0
 10
0.0
 20
0.0
 30
0.0
  0
POINT
  5
1F7
330
1F
100
AcDbEntity
  8
ConnectionPoints
100
AcDbPoint
 10
0.0
 20
1.628472222222222
 30
2.017416666666667
  0
POINT
  5
1F8
330
1F
100
AcDbEntity
  8
ConnectionPoints
100
AcDbPoint
 10
0.0
 20
0.0
 30
1.947416666666667
  0
POINT
  5
1F9
330
1F
100
AcDbEntity
  8
ConnectionPoints
100
AcDbPoint
 10
0.0
 20
0.0
 30
2.21875
  0
POINT
  5
1FA
330
1F
100
AcDbEntity
  8
ConnectionPoints
100
AcDbPoint
 10
0.0
 20
0.0
 30
2.146416666666667
  0
POINT
  5
1FB
330
1F
100
AcDbEntity
  8
ConnectionPoints
100
AcDbPoint
 10
0.0
 20
1.628472222222222
 30
1.947416666666667
  0
POINT
  5
1FC
330
1F
100
AcDbEntity
  8
ConnectionPoints
100
AcDbPoint
 10
0.0
 20
1.628472222222222
 30
2.11775
  0
POINT
  5
1FD
330
1F
100
AcDbEntity
  8
ConnectionPoints
100
AcDbPoint
 10
0.0
 20
-1.628472222222222
 30
1.947416666666667
  0
POINT
  5
1FE
330
1F
100
AcDbEntity
  8
ConnectionPoints
100
AcDbPoint
 10
0.0
 20
-1.628472222222222
 30
2.11775
  0
POINT
  5
1FF
330
1F
100
AcDbEntity
  8
ConnectionPoints
100
AcDbPoint
 10
0.0
 20
0.0
 30
1.947416666666667
  0
POINT
  5
200
330
1F
100
AcDbEntity
  8
ConnectionPoints
100
AcDbPoint
 10
1.471875
 20
2.549362282390442
 30
0.0
  0
POINT
  5
201
330
1F
100
AcDbEntity
  8
ConnectionPoints
100
AcDbPoint
 10
1.471875
 20
2.549362282390442
 30
0.0
  0
POINT
  5
202
330
1F
100
AcDbEntity
  8
ConnectionPoints
100
AcDbPoint
 10
0.0
 20
0.0
 30
1.96875
  0
POINT
  5
203
330
1F
100
AcDbEntity
  8
ConnectionPoints
100
AcDbPoint
 10
0.0
 20
0.0
 30
2.21875
  0
ENDSEC
  0
SECTION
  2
OBJECTS
  0
DICTIONARY
  5
C
330
0
100
AcDbDictionary
281
     1
  3
ACAD_DETAILVIEWSTYLE
350
20B
  3
ACAD_GROUP
350
D
  3
ACAD_LAYOUT
350
1A
  3
ACAD_MATERIAL
350
43
  3
ACAD_MLEADERSTYLE
350
6B
  3
ACAD_MLINESTYLE
350
17
  3
ACAD_PLOTSETTINGS
350
19
  3
ACAD_PLOTSTYLENAME
350
E
  3
ACAD_SCALELIST
350
47
  3
ACAD_SECTIONVIEWSTYLE
350
20C
  3
ACAD_TABLESTYLE
350
69
  3
ACAD_VISUALSTYLE
350
2A
  3
ACDB_RECOMPOSE_DATA
350
208
  3
AcDbVariableDictionary
350
204
  0
SUN
  5
6D
330
29
100
AcDbSun
 90
        1
290
     0
 63
     7
421
 16777215
 40
1.0
291
     1
 91
  2455826
 92
 54000000
292
     0
 70
     2
 71
   256
280
     1
  0
DICTIONARY
  5
20B
102
{ACAD_REACTORS
330
C
102
}
330
C
100
AcDbDictionary
281
     1
  0
DICTIONARY
  5
D
102
{ACAD_REACTORS
330
C
102
}
330
C
100
AcDbDictionary
281
     1
  0
DICTIONARY
  5
1A
102
{ACAD_REACTORS
330
C
102
}
330
C
100
AcDbDictionary
281
     1
  3
Layout1
350
1E
  3
Layout2
350
26
  3
Model
350
22
  0
DICTIONARY
  5
43
102
{ACAD_REACTORS
330
C
102
}
330
C
100
AcDbDictionary
281
     1
  3
ByBlock
350
45
  3
ByLayer
350
44
  3
Global
350
46
  0
DICTIONARY
  5
6B
102
{ACAD_REACTORS
330
C
102
}
330
C
100
AcDbDictionary
281
     1
  3
Standard
350
6C
  0
DICTIONARY
  5
17
102
{ACAD_REACTORS
330
C
102
}
330
C
100
AcDbDictionary
281
     1
  3
Standard
350
18
  0
DICTIONARY
  5
19
102
{ACAD_REACTORS
330
C
102
}
330
C
100
AcDbDictionary
281
     1
  0
ACDBDICTIONARYWDFLT
  5
E
102
{ACAD_REACTORS
330
C
102
}
330
C
100
AcDbDictionary
281
     1
  3
Normal
350
F
100
AcDbDictionaryWithDefault
340
F
  0
DICTIONARY
  5
47
102
{ACAD_REACTORS
330
C
102
}
330
C
100
AcDbDictionary
281
     1
  3
A0
350
48
  3
A1
350
49
  3
A2
350
4A
  3
A3
350
4B
  3
A4
350
4C
  3
A5
350
4D
  3
A6
350
4E
  3
A7
350
4F
  3
A8
350
50
  3
A9
350
51
  3
B0
350
52
  3
B1
350
53
  3
B2
350
54
  3
B3
350
55
  3
B4
350
56
  3
B5
350
57
  3
B6
350
58
  3
B7
350
59
  3
B8
350
5A
  3
B9
350
5B
  3
C0
350
5C
  3
C1
350
5D
  3
C2
350
5E
  3
C3
350
5F
  3
C4
350
60
  3
C5
350
61
  3
C6
350
62
  3
C7
350
63
  3
C8
350
64
  3
C9
350
65
  3
D0
350
66
  3
D1
350
67
  3
D2
350
68
  0
DICTIONARY
  5
20C
102
{ACAD_REACTORS
330
C
102
}
330
C
100
AcDbDictionary
281
     1
  0
DICTIONARY
  5
69
102
{ACAD_REACTORS
330
C
102
}
330
C
100
AcDbDictionary
281
     1
  3
Standard
350
6A
  0
DICTIONARY
  5
2A
102
{ACAD_REACTORS
330
C
102
}
330
C
100
AcDbDictionary
281
     1
  3
2dWireframe
350
2F
  3
Basic
350
32
  3
Brighten
350
36
  3
ColorChange
350
3A
  3
Conceptual
350
34
  3
Dim
350
35
  3
EdgeColorOff
350
3D
  3
Facepattern
350
39
  3
Flat
350
2B
  3
FlatWithEdges
350
2C
  3
Gouraud
350
2D
  3
GouraudWithEdges
350
2E
  3
Hidden
350
31
  3
JitterOff
350
3B
  3
Linepattern
350
38
  3
OverhangOff
350
3C
  3
Realistic
350
33
  3
Shaded
350
42
  3
Shaded with edges
350
41
  3
Shades of Gray
350
3E
  3
Sketchy
350
3F
  3
Thicken
350
37
  3
Wireframe
350
30
  3
X-Ray
350
40
  0
XRECORD
  5
208
102
{ACAD_REACTORS
330
C
102
}
330
C
100
AcDbXrecord
280
     1
 90
        1
330
6A
  0
DICTIONARY
  5
204
102
{ACAD_REACTORS
330
C
102
}
330
C
100
AcDbDictionary
281
     1
  3
CANNOSCALE
350
205
  3
CMLEADERSTYLE
350
20A
  3
CTABLESTYLE
350
209
  0
LAYOUT
  5
1E
102
{ACAD_REACTORS
330
1A
102
}
330
1A
100
AcDbPlotSettings
  1

  2
none_device
  4

  6

 40
0.0
 41
0.0
 42
0.0
 43
0.0
 44
0.0
 45
0.0
 46
0.0
 47
0.0
 48
0.0
 49
0.0
140
0.0
141
0.0
142
1.0
143
1.0
 70
   688
 72
     0
 73
     0
 74
     5
  7

 75
    16
 76
     0
 77
     2
 78
   300
147
1.0
148
0.0
149
0.0
100
AcDbLayout
  1
Layout1
 70
     1
 71
     1
 10
0.0
 20
0.0
 11
12.0
 21
9.0
 12
0.0
 22
0.0
 32
0.0
 14
1.000000000000000E+20
 24
1.000000000000000E+20
 34
1.000000000000000E+20
 15
-1.000000000000000E+20
 25
-1.000000000000000E+20
 35
-1.000000000000000E+20
146
0.0
 13
0.0
 23
0.0
 33
0.0
 16
1.0
 26
0.0
 36
0.0
 17
0.0
 27
1.0
 37
0.0
 76
     0
330
1B
  0
LAYOUT
  5
26
102
{ACAD_REACTORS
330
1A
102
}
330
1A
100
AcDbPlotSettings
  1

  2
none_device
  4

  6

 40
0.0
 41
0.0
 42
0.0
 43
0.0
 44
0.0
 45
0.0
 46
0.0
 47
0.0
 48
0.0
 49
0.0
140
0.0
141
0.0
142
1.0
143
1.0
 70
   688
 72
     0
 73
     0
 74
     5
  7

 75
    16
 76
     0
 77
     2
 78
   300
147
1.0
148
0.0
149
0.0
100
AcDbLayout
  1
Layout2
 70
     1
 71
     2
 10
0.0
 20
0.0
 11
0.0
 21
0.0
 12
0.0
 22
0.0
 32
0.0
 14
0.0
 24
0.0
 34
0.0
 15
0.0
 25
0.0
 35
0.0
146
0.0
 13
0.0
 23
0.0
 33
0.0
 16
1.0
 26
0.0
 36
0.0
 17
0.0
 27
1.0
 37
0.0
 76
     0
330
23
  0
LAYOUT
  5
22
102
{ACAD_REACTORS
330
1A
102
}
330
1A
100
AcDbPlotSettings
  1

  2
none_device
  4
Letter_(8.50_x_11.00_Inches)
  6

 40
6.35
 41
6.35
 42
6.35000508
 43
6.35000508
 44
215.9
 45
279.4
 46
0.0
 47
0.0
 48
0.0
 49
0.0
140
0.0
141
0.0
142
1.0
143
1.0
 70
  1712
 72
     0
 73
     0
 74
     0
  7

 75
     0
 76
     0
 77
     2
 78
   300
147
1.0
148
0.0
149
0.0
100
AcDbLayout
  1
Model
 70
     1
 71
     0
 10
0.0
 20
0.0
 11
12.0
 21
9.0
 12
0.0
 22
0.0
 32
0.0
 14
1.000000000000000E+20
 24
1.000000000000000E+20
 34
1.000000000000000E+20
 15
-1.000000000000000E+20
 25
-1.000000000000000E+20
 35
-1.000000000000000E+20
146
0.0
 13
0.0
 23
0.0
 33
0.0
 16
1.0
 26
0.0
 36
0.0
 17
0.0
 27
1.0
 37
0.0
 76
     0
330
1F
331
29
  0
MATERIAL
  5
45
102
{ACAD_REACTORS
330
43
102
}
330
43
100
AcDbMaterial
  1
ByBlock
 72
     1
 94
      127
  0
MATERIAL
  5
44
102
{ACAD_REACTORS
330
43
102
}
330
43
100
AcDbMaterial
  1
ByLayer
 72
     1
 94
      127
  0
MATERIAL
  5
46
102
{ACAD_REACTORS
330
43
102
}
330
43
100
AcDbMaterial
  1
Global
 72
     1
 94
      127
  0
MLEADERSTYLE
  5
6C
102
{ACAD_REACTORS
330
6B
102
}
330
6B
100
AcDbMLeaderStyle
179
     2
170
     2
171
     1
172
     0
 90
        2
 40
0.0
 41
0.0
173
     1
 91
-1056964608
340
14
 92
       -2
290
     1
 42
0.09
291
     1
 43
0.36
  3
Standard
341
0
 44
0.18
300

342
11
174
     1
178
     6
175
     1
176
     0
 93
-1056964608
 45
0.18
292
     0
297
     0
 46
0.18
343
0
 94
-1056964608
 47
1.0
 49
1.0
140
1.0
293
     1
141
0.0
294
     1
177
     0
142
1.0
295
     0
296
     0
143
0.125
271
     0
272
     9
273
     9
298
     0
  0
MLINESTYLE
  5
18
102
{ACAD_REACTORS
330
17
102
}
330
17
100
AcDbMlineStyle
  2
Standard
 70
     0
  3

 62
   256
 51
90.0
 52
90.0
 71
     2
 49
0.5
 62
   256
  6
BYLAYER
 49
-0.5
 62
   256
  6
BYLAYER
  0
ACDBPLACEHOLDER
  5
F
102
{ACAD_REACTORS
330
E
102
}
330
E
  0
SCALE
  5
48
102
{ACAD_REACTORS
330
47
102
}
330
47
100
AcDbScale
 70
     0
300
1:1
140
1.0
141
1.0
290
     1
  0
SCALE
  5
49
102
{ACAD_REACTORS
330
47
102
}
330
47
100
AcDbScale
 70
     0
300
1:2
140
1.0
141
2.0
290
     0
  0
SCALE
  5
4A
102
{ACAD_REACTORS
330
47
102
}
330
47
100
AcDbScale
 70
     0
300
1:4
140
1.0
141
4.0
290
     0
  0
SCALE
  5
4B
102
{ACAD_REACTORS
330
47
102
}
330
47
100
AcDbScale
 70
     0
300
1:5
140
1.0
141
5.0
290
     0
  0
SCALE
  5
4C
102
{ACAD_REACTORS
330
47
102
}
330
47
100
AcDbScale
 70
     0
300
1:8
140
1.0
141
8.0
290
     0
  0
SCALE
  5
4D
102
{ACAD_REACTORS
330
47
102
}
330
47
100
AcDbScale
 70
     0
300
1:10
140
1.0
141
10.0
290
     0
  0
SCALE
  5
4E
102
{ACAD_REACTORS
330
47
102
}
330
47
100
AcDbScale
 70
     0
300
1:16
140
1.0
141
16.0
290
     0
  0
SCALE
  5
4F
102
{ACAD_REACTORS
330
47
102
}
330
47
100
AcDbScale
 70
     0
300
1:20
140
1.0
141
20.0
290
     0
  0
SCALE
  5
50
102
{ACAD_REACTORS
330
47
102
}
330
47
100
AcDbScale
 70
     0
300
1:30
140
1.0
141
30.0
290
     0
  0
SCALE
  5
51
102
{ACAD_REACTORS
330
47
102
}
330
47
100
AcDbScale
 70
     0
300
1:40
140
1.0
141
40.0
290
     0
  0
SCALE
  5
52
102
{ACAD_REACTORS
330
47
102
}
330
47
100
AcDbScale
 70
     0
300
1:50
140
1.0
141
50.0
290
     0
  0
SCALE
  5
53
102
{ACAD_REACTORS
330
47
102
}
330
47
100
AcDbScale
 70
     0
300
1:100
140
1.0
141
100.0
290
     0
  0
SCALE
  5
54
102
{ACAD_REACTORS
330
47
102
}
330
47
100
AcDbScale
 70
     0
300
2:1
140
2.0
141
1.0
290
     0
  0
SCALE
  5
55
102
{ACAD_REACTORS
330
47
102
}
330
47
100
AcDbScale
 70
     0
300
4:1
140
4.0
141
1.0
290
     0
  0
SCALE
  5
56
102
{ACAD_REACTORS
330
47
102
}
330
47
100
AcDbScale
 70
     0
300
8:1
140
8.0
141
1.0
290
     0
  0
SCALE
  5
57
102
{ACAD_REACTORS
330
47
102
}
330
47
100
AcDbScale
 70
     0
300
10:1
140
10.0
141
1.0
290
     0
  0
SCALE
  5
58
102
{ACAD_REACTORS
330
47
102
}
330
47
100
AcDbScale
 70
     0
300
100:1
140
100.0
141
1.0
290
     0
  0
SCALE
  5
59
102
{ACAD_REACTORS
330
47
102
}
330
47
100
AcDbScale
 70
     0
300
1/128" = 1'-0"
140
0.0078125
141
12.0
290
     0
  0
SCALE
  5
5A
102
{ACAD_REACTORS
330
47
102
}
330
47
100
AcDbScale
 70
     0
300
1/64" = 1'-0"
140
0.015625
141
12.0
290
     0
  0
SCALE
  5
5B
102
{ACAD_REACTORS
330
47
102
}
330
47
100
AcDbScale
 70
     0
300
1/32" = 1'-0"
140
0.03125
141
12.0
290
     0
  0
SCALE
  5
5C
102
{ACAD_REACTORS
330
47
102
}
330
47
100
AcDbScale
 70
     0
300
1/16" = 1'-0"
140
0.0625
141
12.0
290
     0
  0
SCALE
  5
5D
102
{ACAD_REACTORS
330
47
102
}
330
47
100
AcDbScale
 70
     0
300
3/32" = 1'-0"
140
0.09375
141
12.0
290
     0
  0
SCALE
  5
5E
102
{ACAD_REACTORS
330
47
102
}
330
47
100
AcDbScale
 70
     0
300
1/8" = 1'-0"
140
0.125
141
12.0
290
     0
  0
SCALE
  5
5F
102
{ACAD_REACTORS
330
47
102
}
330
47
100
AcDbScale
 70
     0
300
3/16" = 1'-0"
140
0.1875
141
12.0
290
     0
  0
SCALE
  5
60
102
{ACAD_REACTORS
330
47
102
}
330
47
100
AcDbScale
 70
     0
300
1/4" = 1'-0"
140
0.25
141
12.0
290
     0
  0
SCALE
  5
61
102
{ACAD_REACTORS
330
47
102
}
330
47
100
AcDbScale
 70
     0
300
3/8" = 1'-0"
140
0.375
141
12.0
290
     0
  0
SCALE
  5
62
102
{ACAD_REACTORS
330
47
102
}
330
47
100
AcDbScale
 70
     0
300
1/2" = 1'-0"
140
0.5
141
12.0
290
     0
  0
SCALE
  5
63
102
{ACAD_REACTORS
330
47
102
}
330
47
100
AcDbScale
 70
     0
300
3/4" = 1'-0"
140
0.75
141
12.0
290
     0
  0
SCALE
  5
64
102
{ACAD_REACTORS
330
47
102
}
330
47
100
AcDbScale
 70
     0
300
1" = 1'-0"
140
1.0
141
12.0
290
     0
  0
SCALE
  5
65
102
{ACAD_REACTORS
330
47
102
}
330
47
100
AcDbScale
 70
     0
300
1-1/2" = 1'-0"
140
1.5
141
12.0
290
     0
  0
SCALE
  5
66
102
{ACAD_REACTORS
330
47
102
}
330
47
100
AcDbScale
 70
     0
300
3" = 1'-0"
140
3.0
141
12.0
290
     0
  0
SCALE
  5
67
102
{ACAD_REACTORS
330
47
102
}
330
47
100
AcDbScale
 70
     0
300
6" = 1'-0"
140
6.0
141
12.0
290
     0
  0
SCALE
  5
68
102
{ACAD_REACTORS
330
47
102
}
330
47
100
AcDbScale
 70
     0
300
1'-0" = 1'-0"
140
12.0
141
12.0
290
     0
  0
TABLESTYLE
  5
6A
102
{ACAD_REACTORS
330
69
102
}
102
{ACAD_XDICTIONARY
360
206
102
}
330
69
100
AcDbTableStyle
  3
Standard
 70
     0
 71
     0
 40
0.06
 41
0.06
280
     0
281
     0
  7
Standard
140
0.18
170
     2
 62
     0
 63
   257
283
     0
 90
        4
 91
        0
  1

274
    -2
284
     1
 64
     0
275
    -2
285
     1
 65
     0
276
    -2
286
     1
 66
     0
277
    -2
287
     1
 67
     0
278
    -2
288
     1
 68
     0
279
    -2
289
     1
 69
     0
  7
Standard
140
0.25
170
     5
 62
     0
 63
   257
283
     0
 90
        4
 91
        0
  1

274
    -2
284
     1
 64
     0
275
    -2
285
     1
 65
     0
276
    -2
286
     1
 66
     0
277
    -2
287
     1
 67
     0
278
    -2
288
     1
 68
     0
279
    -2
289
     1
 69
     0
  7
Standard
140
0.18
170
     5
 62
     0
 63
   257
283
     0
 90
        4
 91
        0
  1

274
    -2
284
     1
 64
     0
275
    -2
285
     1
 65
     0
276
    -2
286
     1
 66
     0
277
    -2
287
     1
 67
     0
278
    -2
288
     1
 68
     0
279
    -2
289
     1
 69
     0
  0
VISUALSTYLE
  5
2F
102
{ACAD_REACTORS
330
2A
102
}
330
2A
100
AcDbVisualStyle
  2
2dWireframe
 70
     4
177
     3
291
     0
 70
    58
 90
        0
176
     1
 90
        2
176
     1
 90
        0
176
     1
 90
        0
176
     1
 40
0.6
176
     1
 40
30.0
176
     1
 62
     7
420
 16777215
176
     1
 90
        1
176
     1
 90
        4
176
     1
 62
     7
176
     1
 62
   257
176
     1
 90
        1
176
     1
 90
        1
176
     1
 40
1.0
176
     1
 90
        0
176
     1
 62
   257
176
     1
 40
1.0
176
     1
 90
        1
176
     1
 90
        6
176
     1
 90
        2
176
     1
 62
     7
176
     1
 90
        5
176
     1
 90
        0
176
     1
 90
        0
176
     1
290
     0
176
     1
 90
        1
176
     1
 40
0.0
176
     1
 90
        0
176
     1
290
     1
176
     1
290
     1
176
     1
290
     0
176
     1
290
     0
176
     1
290
     0
176
     1
290
     0
176
     1
290
     0
176
     1
290
     0
176
     1
290
     0
176
     1
 90
       50
176
     1
 40
0.0
176
     1
 40
1.0
176
     1
 90
        0
176
     1
 62
    18
420
        0
176
     1
 90
       50
176
     1
 90
        3
176
     1
 62
     5
420
      255
176
     1
290
     0
176
     1
 90
       50
176
     1
 90
       50
176
     1
 90
       50
176
     1
290
     0
176
     1
 90
       50
176
     1
 62
   256
176
     0
 40
1.0
176
     0
 90
        2
176
     1
  1
strokes_ogs.tif
176
     1
290
     0
176
     1
 40
1.0
176
     1
 40
1.0
176
     1
  0
VISUALSTYLE
  5
32
102
{ACAD_REACTORS
330
2A
102
}
330
2A
100
AcDbVisualStyle
  2
Basic
 70
     7
177
     3
291
     1
 70
    58
 90
        1
176
     1
 90
        0
176
     1
 90
        1
176
     1
 90
        0
176
     1
 40
0.6
176
     1
 40
30.0
176
     1
 62
     7
420
 16777215
176
     1
 90
        0
176
     1
 90
        4
176
     1
 62
     7
176
     1
 62
   257
176
     1
 90
        1
176
     1
 90
        1
176
     1
 40
1.0
176
     1
 90
        8
176
     1
 62
     7
176
     1
 40
1.0
176
     1
 90
        1
176
     1
 90
        6
176
     1
 90
        2
176
     1
 62
     7
176
     1
 90
        5
176
     1
 90
        0
176
     1
 90
        0
176
     1
290
     0
176
     1
 90
        1
176
     1
 40
0.0
176
     1
 90
        0
176
     1
290
     0
176
     1
290
     1
176
     1
290
     1
176
     1
290
     0
176
     1
290
     0
176
     1
290
     0
176
     1
290
     0
176
     1
290
     0
176
     1
290
     0
176
     1
 90
       50
176
     1
 40
0.0
176
     1
 40
1.0
176
     1
 90
        0
176
     1
 62
    18
420
        0
176
     1
 90
       50
176
     1
 90
        3
176
     1
 62
     5
420
      255
176
     1
290
     0
176
     1
 90
       50
176
     1
 90
       50
176
     1
 90
       50
176
     1
290
     0
176
     1
 90
       50
176
     1
 62
   256
176
     0
 40
1.0
176
     0
 90
        2
176
     1
  1
strokes_ogs.tif
176
     1
290
     0
176
     1
 40
1.0
176
     1
 40
1.0
176
     1
  0
VISUALSTYLE
  5
36
102
{ACAD_REACTORS
330
2A
102
}
330
2A
100
AcDbVisualStyle
  2
Brighten
 70
    12
177
     3
291
     1
 70
    58
 90
        2
176
     1
 90
        2
176
     1
 90
        0
176
     1
 90
        0
176
     1
 40
0.6
176
     1
 40
30.0
176
     1
 62
     7
420
 16777215
176
     1
 90
        1
176
     1
 90
        4
176
     1
 62
     7
176
     1
 62
   257
176
     1
 90
        1
176
     1
 90
        1
176
     1
 40
1.0
176
     1
 90
        8
176
     1
 62
     7
176
     1
 40
1.0
176
     1
 90
        1
176
     1
 90
        6
176
     1
 90
        2
176
     1
 62
     7
176
     1
 90
        5
176
     1
 90
        0
176
     1
 90
        0
176
     1
290
     0
176
     1
 90
        1
176
     1
 40
50.0
176
     1
 90
        0
176
     1
290
     0
176
     1
290
     1
176
     1
290
     1
176
     1
290
     0
176
     1
290
     0
176
     1
290
     0
176
     1
290
     0
176
     1
290
     0
176
     1
290
     0
176
     1
 90
       50
176
     1
 40
0.0
176
     1
 40
1.0
176
     1
 90
        0
176
     1
 62
    18
420
        0
176
     1
 90
       50
176
     1
 90
        3
176
     1
 62
     5
420
      255
176
     1
290
     0
176
     1
 90
       50
176
     1
 90
       50
176
     1
 90
       50
176
     1
290
     0
176
     1
 90
       50
176
     1
 62
   256
176
     0
 40
1.0
176
     0
 90
        2
176
     1
  1
strokes_ogs.tif
176
     1
290
     0
176
     1
 40
1.0
176
     1
 40
1.0
176
     1
  0
VISUALSTYLE
  5
3A
102
{ACAD_REACTORS
330
2A
102
}
330
2A
100
AcDbVisualStyle
  2
ColorChange
 70
    16
177
     3
291
     1
 70
    58
 90
        2
176
     1
 90
        2
176
     1
 90
        3
176
     1
 90
        0
176
     1
 40
0.6
176
     1
 40
30.0
176
     1
 62
     8
420
  8421504
176
     1
 90
        1
176
     1
 90
        4
176
     1
 62
     7
176
     1
 62
   257
176
     1
 90
        1
176
     1
 90
        1
176
     1
 40
1.0
176
     1
 90
        8
176
     1
 62
     8
420
  8421504
176
     1
 40
1.0
176
     1
 90
        1
176
     1
 90
        6
176
     1
 90
        2
176
     1
 62
     7
176
     1
 90
        5
176
     1
 90
        0
176
     1
 90
        0
176
     1
290
     0
176
     1
 90
        1
176
     1
 40
0.0
176
     1
 90
        0
176
     1
290
     0
176
     1
290
     1
176
     1
290
     1
176
     1
290
     0
176
     1
290
     0
176
     1
290
     0
176
     1
290
     0
176
     1
290
     0
176
     1
290
     0
176
     1
 90
       50
176
     1
 40
0.0
176
     1
 40
1.0
176
     1
 90
        0
176
     1
 62
    18
420
        0
176
     1
 90
       50
176
     1
 90
        3
176
     1
 62
     5
420
      255
176
     1
290
     0
176
     1
 90
       50
176
     1
 90
       50
176
     1
 90
       50
176
     1
290
     0
176
     1
 90
       50
176
     1
 62
   256
176
     0
 40
1.0
176
     0
 90
        2
176
     1
  1
strokes_ogs.tif
176
     1
290
     0
176
     1
 40
1.0
176
     1
 40
1.0
176
     1
  0
VISUALSTYLE
  5
34
102
{ACAD_REACTORS
330
2A
102
}
330
2A
100
AcDbVisualStyle
  2
Conceptual
 70
     9
177
     3
291
     0
 70
    58
 90
        3
176
     1
 90
        2
176
     1
 90
        0
176
     1
 90
        0
176
     1
 40
0.6
176
     1
 40
30.0
176
     1
 62
     7
420
 16777215
176
     1
 90
        2
176
     1
 90
        2
176
     1
 62
     7
176
     1
 62
   257
176
     1
 90
        1
176
     1
 90
        1
176
     1
 40
179.0
176
     1
 90
        8
176
     1
 62
     7
176
     1
 40
1.0
176
     1
 90
        1
176
     1
 90
        6
176
     1
 90
        2
176
     1
 62
     7
176
     1
 90
        3
176
     1
 90
        0
176
     1
 90
        0
176
     1
290
     0
176
     1
 90
        1
176
     1
 40
0.0
176
     1
 90
        0
176
     1
290
     0
176
     1
290
     1
176
     1
290
     1
176
     1
290
     0
176
     1
290
     0
176
     1
290
     0
176
     1
290
     0
176
     1
290
     0
176
     1
290
     0
176
     1
 90
       50
176
     1
 40
0.0
176
     1
 40
1.0
176
     1
 90
        0
176
     1
 62
    18
420
        0
176
     1
 90
       50
176
     1
 90
        3
176
     1
 62
     5
420
      255
176
     1
290
     0
176
     1
 90
       50
176
     1
 90
       50
176
     1
 90
       50
176
     1
290
     0
176
     1
 90
       50
176
     1
 62
   256
176
     0
 40
1.0
176
     0
 90
        2
176
     1
  1
strokes_ogs.tif
176
     1
290
     0
176
     1
 40
1.0
176
     1
 40
1.0
176
     1
  0
VISUALSTYLE
  5
35
102
{ACAD_REACTORS
330
2A
102
}
330
2A
100
AcDbVisualStyle
  2
Dim
 70
    11
177
     3
291
     1
 70
    58
 90
        2
176
     1
 90
        2
176
     1
 90
        0
176
     1
 90
        0
176
     1
 40
0.6
176
     1
 40
30.0
176
     1
 62
     7
420
 16777215
176
     1
 90
        1
176
     1
 90
        4
176
     1
 62
     7
176
     1
 62
   257
176
     1
 90
        1
176
     1
 90
        1
176
     1
 40
1.0
176
     1
 90
        8
176
     1
 62
     7
176
     1
 40
1.0
176
     1
 90
        1
176
     1
 90
        6
176
     1
 90
        2
176
     1
 62
     7
176
     1
 90
        5
176
     1
 90
        0
176
     1
 90
        0
176
     1
290
     0
176
     1
 90
        1
176
     1
 40
-50.0
176
     1
 90
        0
176
     1
290
     0
176
     1
290
     1
176
     1
290
     1
176
     1
290
     0
176
     1
290
     0
176
     1
290
     0
176
     1
290
     0
176
     1
290
     0
176
     1
290
     0
176
     1
 90
       50
176
     1
 40
0.0
176
     1
 40
1.0
176
     1
 90
        0
176
     1
 62
    18
420
        0
176
     1
 90
       50
176
     1
 90
        3
176
     1
 62
     5
420
      255
176
     1
290
     0
176
     1
 90
       50
176
     1
 90
       50
176
     1
 90
       50
176
     1
290
     0
176
     1
 90
       50
176
     1
 62
   256
176
     0
 40
1.0
176
     0
 90
        2
176
     1
  1
strokes_ogs.tif
176
     1
290
     0
176
     1
 40
1.0
176
     1
 40
1.0
176
     1
  0
VISUALSTYLE
  5
3D
102
{ACAD_REACTORS
330
2A
102
}
330
2A
100
AcDbVisualStyle
  2
EdgeColorOff
 70
    22
177
     3
291
     1
 70
    58
 90
        2
176
     0
 90
        2
176
     0
 90
        0
176
     0
 90
        0
176
     0
 40
0.6
176
     0
 40
30.0
176
     0
 62
     7
420
 16777215
176
     0
 90
        1
176
     0
 90
        4
176
     0
 62
     7
176
     0
 62
   257
176
     0
 90
        1
176
     0
 90
        1
176
     0
 40
1.0
176
     0
 90
        8
176
     2
 62
     7
176
     0
 40
1.0
176
     0
 90
        1
176
     0
 90
        6
176
     0
 90
        2
176
     0
 62
     7
176
     0
 90
        5
176
     0
 90
        0
176
     0
 90
        0
176
     0
290
     0
176
     0
 90
        1
176
     0
 40
0.0
176
     0
 90
        0
176
     0
290
     0
176
     0
290
     1
176
     0
290
     1
176
     0
290
     0
176
     0
290
     0
176
     0
290
     0
176
     0
290
     0
176
     0
290
     0
176
     0
290
     0
176
     0
 90
       50
176
     0
 40
0.0
176
     0
 40
1.0
176
     0
 90
        0
176
     0
 62
    18
420
        0
176
     0
 90
       50
176
     0
 90
        3
176
     0
 62
     5
420
      255
176
     0
290
     0
176
     0
 90
       50
176
     0
 90
       50
176
     0
 90
       50
176
     0
290
     0
176
     0
 90
       50
176
     0
 62
   256
176
     0
 40
1.0
176
     0
 90
        2
176
     0
  1
strokes_ogs.tif
176
     0
290
     0
176
     0
 40
1.0
176
     0
 40
1.0
176
     0
  0
VISUALSTYLE
  5
39
102
{ACAD_REACTORS
330
2A
102
}
330
2A
100
AcDbVisualStyle
  2
Facepattern
 70
    15
177
     3
291
     1
 70
    58
 90
        2
176
     1
 90
        2
176
     1
 90
        0
176
     1
 90
        0
176
     1
 40
0.6
176
     1
 40
30.0
176
     1
 62
     7
420
 16777215
176
     1
 90
        1
176
     1
 90
        4
176
     1
 62
     7
176
     1
 62
   257
176
     1
 90
        1
176
     1
 90
        1
176
     1
 40
1.0
176
     1
 90
        8
176
     1
 62
     7
176
     1
 40
1.0
176
     1
 90
        1
176
     1
 90
        6
176
     1
 90
        2
176
     1
 62
     7
176
     1
 90
        5
176
     1
 90
        0
176
     1
 90
        0
176
     1
290
     0
176
     1
 90
        1
176
     1
 40
0.0
176
     1
 90
        0
176
     1
290
     0
176
     1
290
     1
176
     1
290
     1
176
     1
290
     0
176
     1
290
     0
176
     1
290
     0
176
     1
290
     0
176
     1
290
     0
176
     1
290
     0
176
     1
 90
       50
176
     1
 40
0.0
176
     1
 40
1.0
176
     1
 90
        0
176
     1
 62
    18
420
        0
176
     1
 90
       50
176
     1
 90
        3
176
     1
 62
     5
420
      255
176
     1
290
     0
176
     1
 90
       50
176
     1
 90
       50
176
     1
 90
       50
176
     1
290
     0
176
     1
 90
       50
176
     1
 62
   256
176
     0
 40
1.0
176
     0
 90
        2
176
     1
  1
strokes_ogs.tif
176
     1
290
     0
176
     1
 40
1.0
176
     1
 40
1.0
176
     1
  0
VISUALSTYLE
  5
2B
102
{ACAD_REACTORS
330
2A
102
}
330
2A
100
AcDbVisualStyle
  2
Flat
 70
     0
177
     3
291
     1
 70
    58
 90
        2
176
     1
 90
        1
176
     1
 90
        1
176
     1
 90
        2
176
     1
 40
0.6
176
     1
 40
30.0
176
     1
 62
     7
420
 16777215
176
     1
 90
        0
176
     1
 90
        0
176
     1
 62
     7
176
     1
 62
   257
176
     1
 90
        1
176
     1
 90
        1
176
     1
 40
1.0
176
     1
 90
        8
176
     1
 62
     7
176
     1
 40
1.0
176
     1
 90
        1
176
     1
 90
        6
176
     1
 90
        2
176
     1
 62
     7
176
     1
 90
        5
176
     1
 90
        0
176
     1
 90
        0
176
     1
290
     0
176
     1
 90
       13
176
     1
 40
0.0
176
     1
 90
        0
176
     1
290
     0
176
     1
290
     1
176
     1
290
     1
176
     1
290
     0
176
     1
290
     0
176
     1
290
     0
176
     1
290
     0
176
     1
290
     0
176
     1
290
     0
176
     1
 90
       50
176
     1
 40
0.0
176
     1
 40
1.0
176
     1
 90
        0
176
     1
 62
    18
420
        0
176
     1
 90
       50
176
     1
 90
        3
176
     1
 62
     5
420
      255
176
     1
290
     0
176
     1
 90
       50
176
     1
 90
       50
176
     1
 90
       50
176
     1
290
     0
176
     1
 90
       50
176
     1
 62
   256
176
     0
 40
1.0
176
     0
 90
        2
176
     1
  1
strokes_ogs.tif
176
     1
290
     0
176
     1
 40
1.0
176
     1
 40
1.0
176
     1
  0
VISUALSTYLE
  5
2C
102
{ACAD_REACTORS
330
2A
102
}
330
2A
100
AcDbVisualStyle
  2
FlatWithEdges
 70
     1
177
     3
291
     1
 70
    58
 90
        2
176
     1
 90
        1
176
     1
 90
        1
176
     1
 90
        2
176
     1
 40
0.6
176
     1
 40
30.0
176
     1
 62
     7
420
 16777215
176
     1
 90
        1
176
     1
 90
        0
176
     1
 62
     7
176
     1
 62
   257
176
     1
 90
        1
176
     1
 90
        1
176
     1
 40
1.0
176
     1
 90
        0
176
     1
 62
   257
176
     1
 40
1.0
176
     1
 90
        1
176
     1
 90
        6
176
     1
 90
        2
176
     1
 62
     7
176
     1
 90
        5
176
     1
 90
        0
176
     1
 90
        0
176
     1
290
     0
176
     1
 90
       13
176
     1
 40
0.0
176
     1
 90
        0
176
     1
290
     0
176
     1
290
     1
176
     1
290
     1
176
     1
290
     0
176
     1
290
     0
176
     1
290
     0
176
     1
290
     0
176
     1
290
     0
176
     1
290
     0
176
     1
 90
       50
176
     1
 40
0.0
176
     1
 40
1.0
176
     1
 90
        0
176
     1
 62
    18
420
        0
176
     1
 90
       50
176
     1
 90
        3
176
     1
 62
     5
420
      255
176
     1
290
     0
176
     1
 90
       50
176
     1
 90
       50
176
     1
 90
       50
176
     1
290
     0
176
     1
 90
       50
176
     1
 62
   256
176
     0
 40
1.0
176
     0
 90
        2
176
     1
  1
strokes_ogs.tif
176
     1
290
     0
176
     1
 40
1.0
176
     1
 40
1.0
176
     1
  0
VISUALSTYLE
  5
2D
102
{ACAD_REACTORS
330
2A
102
}
330
2A
100
AcDbVisualStyle
  2
Gouraud
 70
     2
177
     3
291
     1
 70
    58
 90
        2
176
     1
 90
        2
176
     1
 90
        1
176
     1
 90
        2
176
     1
 40
0.6
176
     1
 40
30.0
176
     1
 62
     7
420
 16777215
176
     1
 90
        0
176
     1
 90
        0
176
     1
 62
     7
176
     1
 62
   257
176
     1
 90
        1
176
     1
 90
        1
176
     1
 40
1.0
176
     1
 90
        0
176
     1
 62
     7
176
     1
 40
1.0
176
     1
 90
        1
176
     1
 90
        6
176
     1
 90
        2
176
     1
 62
     7
176
     1
 90
        5
176
     1
 90
        0
176
     1
 90
        0
176
     1
290
     0
176
     1
 90
       13
176
     1
 40
0.0
176
     1
 90
        0
176
     1
290
     0
176
     1
290
     1
176
     1
290
     1
176
     1
290
     0
176
     1
290
     0
176
     1
290
     0
176
     1
290
     0
176
     1
290
     0
176
     1
290
     0
176
     1
 90
       50
176
     1
 40
0.0
176
     1
 40
1.0
176
     1
 90
        0
176
     1
 62
    18
420
        0
176
     1
 90
       50
176
     1
 90
        3
176
     1
 62
     5
420
      255
176
     1
290
     0
176
     1
 90
       50
176
     1
 90
       50
176
     1
 90
       50
176
     1
290
     0
176
     1
 90
       50
176
     1
 62
   256
176
     0
 40
1.0
176
     0
 90
        2
176
     1
  1
strokes_ogs.tif
176
     1
290
     0
176
     1
 40
1.0
176
     1
 40
1.0
176
     1
  0
VISUALSTYLE
  5
2E
102
{ACAD_REACTORS
330
2A
102
}
330
2A
100
AcDbVisualStyle
  2
GouraudWithEdges
 70
     3
177
     3
291
     1
 70
    58
 90
        2
176
     1
 90
        2
176
     1
 90
        1
176
     1
 90
        2
176
     1
 40
0.6
176
     1
 40
30.0
176
     1
 62
     7
420
 16777215
176
     1
 90
        1
176
     1
 90
        0
176
     1
 62
     7
176
     1
 62
   257
176
     1
 90
        1
176
     1
 90
        1
176
     1
 40
1.0
176
     1
 90
        0
176
     1
 62
   257
176
     1
 40
1.0
176
     1
 90
        1
176
     1
 90
        6
176
     1
 90
        2
176
     1
 62
     7
176
     1
 90
        5
176
     1
 90
        0
176
     1
 90
        0
176
     1
290
     0
176
     1
 90
       13
176
     1
 40
0.0
176
     1
 90
        0
176
     1
290
     0
176
     1
290
     1
176
     1
290
     1
176
     1
290
     0
176
     1
290
     0
176
     1
290
     0
176
     1
290
     0
176
     1
290
     0
176
     1
290
     0
176
     1
 90
       50
176
     1
 40
0.0
176
     1
 40
1.0
176
     1
 90
        0
176
     1
 62
    18
420
        0
176
     1
 90
       50
176
     1
 90
        3
176
     1
 62
     5
420
      255
176
     1
290
     0
176
     1
 90
       50
176
     1
 90
       50
176
     1
 90
       50
176
     1
290
     0
176
     1
 90
       50
176
     1
 62
   256
176
     0
 40
1.0
176
     0
 90
        2
176
     1
  1
strokes_ogs.tif
176
     1
290
     0
176
     1
 40
1.0
176
     1
 40
1.0
176
     1
  0
VISUALSTYLE
  5
31
102
{ACAD_REACTORS
330
2A
102
}
330
2A
100
AcDbVisualStyle
  2
Hidden
 70
     6
177
     3
291
     0
 70
    58
 90
        1
176
     1
 90
        2
176
     1
 90
        2
176
     1
 90
        0
176
     1
 40
0.6
176
     1
 40
30.0
176
     1
 62
     7
420
 16777215
176
     1
 90
        2
176
     1
 90
        2
176
     1
 62
     7
176
     1
 62
   257
176
     1
 90
        2
176
     1
 90
        1
176
     1
 40
40.0
176
     1
 90
        0
176
     1
 62
   257
176
     1
 40
1.0
176
     1
 90
        1
176
     1
 90
        6
176
     1
 90
        2
176
     1
 62
     7
176
     1
 90
        3
176
     1
 90
        0
176
     1
 90
        0
176
     1
290
     0
176
     1
 90
        1
176
     1
 40
0.0
176
     1
 90
        0
176
     1
290
     0
176
     1
290
     1
176
     1
290
     1
176
     1
290
     0
176
     1
290
     0
176
     1
290
     0
176
     1
290
     0
176
     1
290
     0
176
     1
290
     0
176
     1
 90
       50
176
     1
 40
0.0
176
     1
 40
1.0
176
     1
 90
        0
176
     1
 62
    18
420
        0
176
     1
 90
       50
176
     1
 90
        3
176
     1
 62
     5
420
      255
176
     1
290
     0
176
     1
 90
       50
176
     1
 90
       50
176
     1
 90
       50
176
     1
290
     0
176
     1
 90
       50
176
     1
 62
   256
176
     0
 40
1.0
176
     0
 90
        2
176
     1
  1
strokes_ogs.tif
176
     1
290
     0
176
     1
 40
1.0
176
     1
 40
1.0
176
     1
  0
VISUALSTYLE
  5
3B
102
{ACAD_REACTORS
330
2A
102
}
330
2A
100
AcDbVisualStyle
  2
JitterOff
 70
    20
177
     3
291
     1
 70
    58
 90
        2
176
     0
 90
        2
176
     0
 90
        0
176
     0
 90
        0
176
     0
 40
0.6
176
     0
 40
30.0
176
     0
 62
     7
420
 16777215
176
     0
 90
        1
176
     0
 90
        4
176
     0
 62
     7
176
     0
 62
   257
176
     0
 90
        1
176
     0
 90
        1
176
     0
 40
1.0
176
     0
 90
       10
176
     2
 62
     7
176
     0
 40
1.0
176
     0
 90
        1
176
     0
 90
        6
176
     0
 90
        2
176
     0
 62
     7
176
     0
 90
        5
176
     0
 90
        0
176
     0
 90
        0
176
     0
290
     0
176
     0
 90
        1
176
     0
 40
0.0
176
     0
 90
        0
176
     0
290
     0
176
     0
290
     1
176
     0
290
     1
176
     0
290
     0
176
     0
290
     0
176
     0
290
     0
176
     0
290
     0
176
     0
290
     0
176
     0
290
     0
176
     0
 90
       50
176
     0
 40
0.0
176
     0
 40
1.0
176
     0
 90
        0
176
     0
 62
    18
420
        0
176
     0
 90
       50
176
     0
 90
        3
176
     0
 62
     5
420
      255
176
     0
290
     0
176
     0
 90
       50
176
     0
 90
       50
176
     0
 90
       50
176
     0
290
     0
176
     0
 90
       50
176
     0
 62
   256
176
     0
 40
1.0
176
     0
 90
        2
176
     0
  1
strokes_ogs.tif
176
     0
290
     0
176
     0
 40
1.0
176
     0
 40
1.0
176
     0
  0
VISUALSTYLE
  5
38
102
{ACAD_REACTORS
330
2A
102
}
330
2A
100
AcDbVisualStyle
  2
Linepattern
 70
    14
177
     3
291
     1
 70
    58
 90
        2
176
     1
 90
        2
176
     1
 90
        0
176
     1
 90
        0
176
     1
 40
0.6
176
     1
 40
30.0
176
     1
 62
     7
420
 16777215
176
     1
 90
        1
176
     1
 90
        4
176
     1
 62
     7
176
     1
 62
   257
176
     1
 90
        7
176
     1
 90
        7
176
     1
 40
1.0
176
     1
 90
        8
176
     1
 62
     7
176
     1
 40
1.0
176
     1
 90
        1
176
     1
 90
        6
176
     1
 90
        2
176
     1
 62
     7
176
     1
 90
        5
176
     1
 90
        0
176
     1
 90
        0
176
     1
290
     0
176
     1
 90
        1
176
     1
 40
0.0
176
     1
 90
        0
176
     1
290
     0
176
     1
290
     1
176
     1
290
     1
176
     1
290
     0
176
     1
290
     0
176
     1
290
     0
176
     1
290
     0
176
     1
290
     0
176
     1
290
     0
176
     1
 90
       50
176
     1
 40
0.0
176
     1
 40
1.0
176
     1
 90
        0
176
     1
 62
    18
420
        0
176
     1
 90
       50
176
     1
 90
        3
176
     1
 62
     5
420
      255
176
     1
290
     0
176
     1
 90
       50
176
     1
 90
       50
176
     1
 90
       50
176
     1
290
     0
176
     1
 90
       50
176
     1
 62
   256
176
     0
 40
1.0
176
     0
 90
        2
176
     1
  1
strokes_ogs.tif
176
     1
290
     0
176
     1
 40
1.0
176
     1
 40
1.0
176
     1
  0
VISUALSTYLE
  5
3C
102
{ACAD_REACTORS
330
2A
102
}
330
2A
100
AcDbVisualStyle
  2
OverhangOff
 70
    21
177
     3
291
     1
 70
    58
 90
        2
176
     0
 90
        2
176
     0
 90
        0
176
     0
 90
        0
176
     0
 40
0.6
176
     0
 40
30.0
176
     0
 62
     7
420
 16777215
176
     0
 90
        1
176
     0
 90
        4
176
     0
 62
     7
176
     0
 62
   257
176
     0
 90
        1
176
     0
 90
        1
176
     0
 40
1.0
176
     0
 90
        9
176
     2
 62
     7
176
     0
 40
1.0
176
     0
 90
        1
176
     0
 90
        6
176
     0
 90
        2
176
     0
 62
     7
176
     0
 90
        5
176
     0
 90
        0
176
     0
 90
        0
176
     0
290
     0
176
     0
 90
        1
176
     0
 40
0.0
176
     0
 90
        0
176
     0
290
     0
176
     0
290
     1
176
     0
290
     1
176
     0
290
     0
176
     0
290
     0
176
     0
290
     0
176
     0
290
     0
176
     0
290
     0
176
     0
290
     0
176
     0
 90
       50
176
     0
 40
0.0
176
     0
 40
1.0
176
     0
 90
        0
176
     0
 62
    18
420
        0
176
     0
 90
       50
176
     0
 90
        3
176
     0
 62
     5
420
      255
176
     0
290
     0
176
     0
 90
       50
176
     0
 90
       50
176
     0
 90
       50
176
     0
290
     0
176
     0
 90
       50
176
     0
 62
   256
176
     0
 40
1.0
176
     0
 90
        2
176
     0
  1
strokes_ogs.tif
176
     0
290
     0
176
     0
 40
1.0
176
     0
 40
1.0
176
     0
  0
VISUALSTYLE
  5
33
102
{ACAD_REACTORS
330
2A
102
}
330
2A
100
AcDbVisualStyle
  2
Realistic
 70
     8
177
     3
291
     0
 70
    58
 90
        2
176
     1
 90
        3
176
     1
 90
        0
176
     1
 90
        2
176
     1
 40
0.6
176
     1
 40
30.0
176
     1
 62
     7
420
 16777215
176
     1
 90
        0
176
     1
 90
        0
176
     1
 62
     7
176
     1
 62
   257
176
     1
 90
        1
176
     1
 90
        1
176
     1
 40
1.0
176
     1
 90
        8
176
     1
 62
   257
176
     1
 40
1.0
176
     1
 90
        1
176
     1
 90
        6
176
     1
 90
        2
176
     1
 62
     7
176
     1
 90
        3
176
     1
 90
        0
176
     1
 90
        0
176
     1
290
     0
176
     1
 90
       13
176
     1
 40
0.0
176
     1
 90
        0
176
     1
290
     0
176
     1
290
     1
176
     1
290
     1
176
     1
290
     0
176
     1
290
     0
176
     1
290
     0
176
     1
290
     0
176
     1
290
     0
176
     1
290
     0
176
     1
 90
       50
176
     1
 40
0.0
176
     1
 40
1.0
176
     1
 90
        0
176
     1
 62
    18
420
        0
176
     1
 90
       50
176
     1
 90
        3
176
     1
 62
     5
420
      255
176
     1
290
     0
176
     1
 90
       50
176
     1
 90
       50
176
     1
 90
       50
176
     1
290
     0
176
     1
 90
       50
176
     1
 62
   256
176
     0
 40
1.0
176
     0
 90
        2
176
     1
  1
strokes_ogs.tif
176
     1
290
     0
176
     1
 40
1.0
176
     1
 40
1.0
176
     1
  0
VISUALSTYLE
  5
42
102
{ACAD_REACTORS
330
2A
102
}
330
2A
100
AcDbVisualStyle
  2
Shaded
 70
    27
177
     3
291
     0
 70
    58
 90
        2
176
     1
 90
        2
176
     1
 90
        1
176
     1
 90
        2
176
     1
 40
0.6
176
     1
 40
30.0
176
     1
 62
     7
420
 16777215
176
     1
 90
        0
176
     1
 90
        4
176
     1
 62
     7
176
     1
 62
   257
176
     1
 90
        1
176
     1
 90
        1
176
     1
 40
1.0
176
     1
 90
        8
176
     1
 62
   257
176
     1
 40
1.0
176
     1
 90
        1
176
     1
 90
        6
176
     1
 90
        2
176
     1
 62
     8
420
  7895160
176
     1
 90
        3
176
     1
 90
        0
176
     1
 90
        0
176
     1
290
     0
176
     1
 90
        5
176
     1
 40
0.0
176
     1
 90
        0
176
     1
290
     0
176
     1
290
     1
176
     1
290
     1
176
     1
290
     0
176
     1
290
     0
176
     1
290
     0
176
     1
290
     0
176
     1
290
     0
176
     1
290
     0
176
     1
 90
       50
176
     1
 40
0.0
176
     1
 40
1.0
176
     1
 90
        0
176
     1
 62
    18
420
        0
176
     1
 90
       50
176
     1
 90
        3
176
     1
 62
     5
420
      255
176
     1
290
     0
176
     1
 90
       50
176
     1
 90
       50
176
     1
 90
       50
176
     1
290
     0
176
     1
 90
       50
176
     1
 62
   256
176
     0
 40
1.0
176
     0
 90
        2
176
     1
  1
strokes_ogs.tif
176
     1
290
     0
176
     1
 40
1.0
176
     1
 40
1.0
176
     1
  0
VISUALSTYLE
  5
41
102
{ACAD_REACTORS
330
2A
102
}
330
2A
100
AcDbVisualStyle
  2
Shaded with edges
 70
    26
177
     3
291
     0
 70
    58
 90
        2
176
     1
 90
        2
176
     1
 90
        1
176
     1
 90
        2
176
     1
 40
0.6
176
     1
 40
30.0
176
     1
 62
     7
420
 16777215
176
     1
 90
        1
176
     1
 90
       10
176
     1
 62
     7
176
     1
 62
   257
176
     1
 90
        2
176
     1
 90
        1
176
     1
 40
1.0
176
     1
 90
        8
176
     1
 62
   257
176
     1
 40
1.0
176
     1
 90
        1
176
     1
 90
        6
176
     1
 90
        2
176
     1
 62
     7
176
     1
 90
        3
176
     1
 90
        0
176
     1
 90
        0
176
     1
290
     0
176
     1
 90
        5
176
     1
 40
0.0
176
     1
 90
        0
176
     1
290
     0
176
     1
290
     1
176
     1
290
     1
176
     1
290
     0
176
     1
290
     0
176
     1
290
     0
176
     1
290
     0
176
     1
290
     0
176
     1
290
     0
176
     1
 90
       50
176
     1
 40
0.0
176
     1
 40
1.0
176
     1
 90
        0
176
     1
 62
    18
420
        0
176
     1
 90
       50
176
     1
 90
        3
176
     1
 62
     5
420
      255
176
     1
290
     0
176
     1
 90
       50
176
     1
 90
       50
176
     1
 90
       50
176
     1
290
     0
176
     1
 90
       50
176
     1
 62
   256
176
     0
 40
1.0
176
     0
 90
        2
176
     1
  1
strokes_ogs.tif
176
     1
290
     0
176
     1
 40
1.0
176
     1
 40
1.0
176
     1
  0
VISUALSTYLE
  5
3E
102
{ACAD_REACTORS
330
2A
102
}
330
2A
100
AcDbVisualStyle
  2
Shades of Gray
 70
    23
177
     3
291
     0
 70
    58
 90
        2
176
     1
 90
        2
176
     1
 90
        3
176
     1
 90
        0
176
     1
 40
0.6
176
     1
 40
30.0
176
     1
 62
     7
420
 16777215
176
     1
 90
        2
176
     1
 90
        2
176
     1
 62
     7
176
     1
 62
     7
176
     1
 90
        1
176
     1
 90
        1
176
     1
 40
40.0
176
     1
 90
        8
176
     1
 62
     7
176
     1
 40
1.0
176
     1
 90
        1
176
     1
 90
        6
176
     1
 90
        2
176
     1
 62
     7
176
     1
 90
        3
176
     1
 90
        0
176
     1
 90
        0
176
     1
290
     0
176
     1
 90
        1
176
     1
 40
0.0
176
     1
 90
        0
176
     1
290
     0
176
     1
290
     1
176
     1
290
     1
176
     1
290
     0
176
     1
290
     0
176
     1
290
     0
176
     1
290
     0
176
     1
290
     0
176
     1
290
     0
176
     1
 90
       50
176
     1
 40
0.0
176
     1
 40
1.0
176
     1
 90
        0
176
     1
 62
    18
420
        0
176
     1
 90
       50
176
     1
 90
        3
176
     1
 62
     5
420
      255
176
     1
290
     0
176
     1
 90
       50
176
     1
 90
       50
176
     1
 90
       50
176
     1
290
     0
176
     1
 90
       50
176
     1
 62
   256
176
     0
 40
1.0
176
     0
 90
        2
176
     1
  1
strokes_ogs.tif
176
     1
290
     0
176
     1
 40
1.0
176
     1
 40
1.0
176
     1
  0
VISUALSTYLE
  5
3F
102
{ACAD_REACTORS
330
2A
102
}
330
2A
100
AcDbVisualStyle
  2
Sketchy
 70
    24
177
     3
291
     0
 70
    58
 90
        1
176
     1
 90
        2
176
     1
 90
        2
176
     1
 90
        0
176
     1
 40
0.6
176
     1
 40
30.0
176
     1
 62
     7
420
 16777215
176
     1
 90
        2
176
     1
 90
        2
176
     1
 62
     7
176
     1
 62
     7
176
     1
 90
        1
176
     1
 90
        1
176
     1
 40
40.0
176
     1
 90
       11
176
     1
 62
     7
176
     1
 40
1.0
176
     1
 90
        1
176
     1
 90
        6
176
     1
 90
        2
176
     1
 62
     7
176
     1
 90
        6
176
     1
 90
        0
176
     1
 90
        0
176
     1
290
     0
176
     1
 90
        1
176
     1
 40
0.0
176
     1
 90
        0
176
     1
290
     0
176
     1
290
     1
176
     1
290
     1
176
     1
290
     0
176
     1
290
     0
176
     1
290
     0
176
     1
290
     0
176
     1
290
     0
176
     1
290
     0
176
     1
 90
       50
176
     1
 40
0.0
176
     1
 40
1.0
176
     1
 90
        0
176
     1
 62
    18
420
        0
176
     1
 90
       50
176
     1
 90
        3
176
     1
 62
     5
420
      255
176
     1
290
     0
176
     1
 90
       50
176
     1
 90
       50
176
     1
 90
       50
176
     1
290
     0
176
     1
 90
       50
176
     1
 62
   256
176
     0
 40
1.0
176
     0
 90
        2
176
     1
  1
strokes_ogs.tif
176
     1
290
     0
176
     1
 40
1.0
176
     1
 40
1.0
176
     1
  0
VISUALSTYLE
  5
37
102
{ACAD_REACTORS
330
2A
102
}
330
2A
100
AcDbVisualStyle
  2
Thicken
 70
    13
177
     3
291
     1
 70
    58
 90
        2
176
     1
 90
        2
176
     1
 90
        0
176
     1
 90
        0
176
     1
 40
0.6
176
     1
 40
30.0
176
     1
 62
     7
420
 16777215
176
     1
 90
        1
176
     1
 90
        4
176
     1
 62
     7
176
     1
 62
   257
176
     1
 90
        1
176
     1
 90
        1
176
     1
 40
1.0
176
     1
 90
       12
176
     1
 62
     7
176
     1
 40
1.0
176
     1
 90
        1
176
     1
 90
        6
176
     1
 90
        2
176
     1
 62
     7
176
     1
 90
        5
176
     1
 90
        0
176
     1
 90
        0
176
     1
290
     0
176
     1
 90
        1
176
     1
 40
0.0
176
     1
 90
        0
176
     1
290
     0
176
     1
290
     1
176
     1
290
     1
176
     1
290
     0
176
     1
290
     0
176
     1
290
     0
176
     1
290
     0
176
     1
290
     0
176
     1
290
     0
176
     1
 90
       50
176
     1
 40
0.0
176
     1
 40
1.0
176
     1
 90
        0
176
     1
 62
    18
420
        0
176
     1
 90
       50
176
     1
 90
        3
176
     1
 62
     5
420
      255
176
     1
290
     0
176
     1
 90
       50
176
     1
 90
       50
176
     1
 90
       50
176
     1
290
     0
176
     1
 90
       50
176
     1
 62
   256
176
     0
 40
1.0
176
     0
 90
        2
176
     1
  1
strokes_ogs.tif
176
     1
290
     0
176
     1
 40
1.0
176
     1
 40
1.0
176
     1
  0
VISUALSTYLE
  5
30
102
{ACAD_REACTORS
330
2A
102
}
330
2A
100
AcDbVisualStyle
  2
Wireframe
 70
     5
177
     3
291
     0
 70
    58
 90
        0
176
     1
 90
        2
176
     1
 90
        0
176
     1
 90
        0
176
     1
 40
0.6
176
     1
 40
30.0
176
     1
 62
     7
420
 16777215
176
     1
 90
        1
176
     1
 90
        4
176
     1
 62
     7
176
     1
 62
   257
176
     1
 90
        1
176
     1
 90
        1
176
     1
 40
1.0
176
     1
 90
        0
176
     1
 62
   257
176
     1
 40
1.0
176
     1
 90
        1
176
     1
 90
        6
176
     1
 90
        2
176
     1
 62
     7
176
     1
 90
        3
176
     1
 90
        0
176
     1
 90
        0
176
     1
290
     0
176
     1
 90
        1
176
     1
 40
0.0
176
     1
 90
        0
176
     1
290
     0
176
     1
290
     1
176
     1
290
     1
176
     1
290
     0
176
     1
290
     0
176
     1
290
     0
176
     1
290
     0
176
     1
290
     0
176
     1
290
     0
176
     1
 90
       50
176
     1
 40
0.0
176
     1
 40
1.0
176
     1
 90
        0
176
     1
 62
    18
420
        0
176
     1
 90
       50
176
     1
 90
        3
176
     1
 62
     5
420
      255
176
     1
290
     0
176
     1
 90
       50
176
     1
 90
       50
176
     1
 90
       50
176
     1
290
     0
176
     1
 90
       50
176
     1
 62
   256
176
     0
 40
1.0
176
     0
 90
        2
176
     1
  1
strokes_ogs.tif
176
     1
290
     0
176
     1
 40
1.0
176
     1
 40
1.0
176
     1
  0
VISUALSTYLE
  5
40
102
{ACAD_REACTORS
330
2A
102
}
330
2A
100
AcDbVisualStyle
  2
X-Ray
 70
    25
177
     3
291
     0
 70
    58
 90
        2
176
     1
 90
        2
176
     1
 90
        1
176
     1
 90
        1
176
     1
 40
0.5
176
     1
 40
30.0
176
     1
 62
     7
420
 16777215
176
     1
 90
        1
176
     1
 90
        0
176
     1
 62
     7
176
     1
 62
   257
176
     1
 90
        1
176
     1
 90
        1
176
     1
 40
1.0
176
     1
 90
        8
176
     1
 62
     7
176
     1
 40
1.0
176
     1
 90
        1
176
     1
 90
        6
176
     1
 90
        2
176
     1
 62
     7
176
     1
 90
        3
176
     1
 90
        0
176
     1
 90
        0
176
     1
290
     0
176
     1
 90
       13
176
     1
 40
0.0
176
     1
 90
        0
176
     1
290
     0
176
     1
290
     1
176
     1
290
     1
176
     1
290
     0
176
     1
290
     0
176
     1
290
     0
176
     1
290
     0
176
     1
290
     0
176
     1
290
     0
176
     1
 90
       50
176
     1
 40
0.0
176
     1
 40
1.0
176
     1
 90
        0
176
     1
 62
    18
420
        0
176
     1
 90
       50
176
     1
 90
        3
176
     1
 62
     5
420
      255
176
     1
290
     0
176
     1
 90
       50
176
     1
 90
       50
176
     1
 90
       50
176
     1
290
     0
176
     1
 90
       50
176
     1
 62
   256
176
     0
 40
1.0
176
     0
 90
        2
176
     1
  1
strokes_ogs.tif
176
     1
290
     0
176
     1
 40
1.0
176
     1
 40
1.0
176
     1
  0
DICTIONARYVAR
  5
205
102
{ACAD_REACTORS
330
204
102
}
330
204
100
DictionaryVariables
280
     0
  1
1:1
  0
DICTIONARYVAR
  5
20A
102
{ACAD_REACTORS
330
204
102
}
330
204
100
DictionaryVariables
280
     0
  1
Standard
  0
DICTIONARYVAR
  5
209
102
{ACAD_REACTORS
330
204
102
}
330
204
100
DictionaryVariables
280
     0
  1
Standard
  0
DICTIONARY
  5
206
330
6A
100
AcDbDictionary
280
     1
281
     1
  3
ACAD_ROUNDTRIP_2008_TABLESTYLE_CELLSTYLEMAP
360
207
  0
CELLSTYLEMAP
  5
207
102
{ACAD_REACTORS
330
206
102
}
330
206
100
AcDbCellStyleMap
 90
        3
300
CELLSTYLE
  1
TABLEFORMAT_BEGIN
 90
        5
170
     1
 91
        0
 92
    32768
 62
   257
 93
        1
300
CONTENTFORMAT
  1
CONTENTFORMAT_BEGIN
 90
        0
 91
        0
 92
        4
 93
        0
300

 40
0.0
140
1.0
 94
        5
 62
     0
340
11
144
0.25
309
CONTENTFORMAT_END
171
     1
301
MARGIN
  1
CELLMARGIN_BEGIN
 40
0.06
 40
0.06
 40
0.06
 40
0.06
 40
0.06
 40
0.06
309
CELLMARGIN_END
 94
        6
 95
        1
302
GRIDFORMAT
  1
GRIDFORMAT_BEGIN
 90
        0
 91
        1
 62
     0
 92
       -2
340
14
 93
        0
 40
0.045
309
GRIDFORMAT_END
 95
        2
302
GRIDFORMAT
  1
GRIDFORMAT_BEGIN
 90
        0
 91
        1
 62
     0
 92
       -2
340
14
 93
        0
 40
0.045
309
GRIDFORMAT_END
 95
        4
302
GRIDFORMAT
  1
GRIDFORMAT_BEGIN
 90
        0
 91
        1
 62
     0
 92
       -2
340
14
 93
        0
 40
0.045
309
GRIDFORMAT_END
 95
        8
302
GRIDFORMAT
  1
GRIDFORMAT_BEGIN
 90
        0
 91
        1
 62
     0
 92
       -2
340
14
 93
        0
 40
0.045
309
GRIDFORMAT_END
 95
       16
302
GRIDFORMAT
  1
GRIDFORMAT_BEGIN
 90
        0
 91
        1
 62
     0
 92
       -2
340
14
 93
        0
 40
0.045
309
GRIDFORMAT_END
 95
       32
302
GRIDFORMAT
  1
GRIDFORMAT_BEGIN
 90
        0
 91
        1
 62
     0
 92
       -2
340
14
 93
        0
 40
0.045
309
GRIDFORMAT_END
309
TABLEFORMAT_END
  1
CELLSTYLE_BEGIN
 90
        1
 91
        1
300
_TITLE
309
CELLSTYLE_END
300
CELLSTYLE
  1
TABLEFORMAT_BEGIN
 90
        5
170
     1
 91
        0
 92
        0
 62
   257
 93
        1
300
CONTENTFORMAT
  1
CONTENTFORMAT_BEGIN
 90
        0
 91
        0
 92
        4
 93
        0
300

 40
0.0
140
1.0
 94
        5
 62
     0
340
11
144
0.18
309
CONTENTFORMAT_END
171
     1
301
MARGIN
  1
CELLMARGIN_BEGIN
 40
0.06
 40
0.06
 40
0.06
 40
0.06
 40
0.06
 40
0.06
309
CELLMARGIN_END
 94
        6
 95
        1
302
GRIDFORMAT
  1
GRIDFORMAT_BEGIN
 90
        0
 91
        1
 62
     0
 92
       -2
340
14
 93
        0
 40
0.045
309
GRIDFORMAT_END
 95
        2
302
GRIDFORMAT
  1
GRIDFORMAT_BEGIN
 90
        0
 91
        1
 62
     0
 92
       -2
340
14
 93
        0
 40
0.045
309
GRIDFORMAT_END
 95
        4
302
GRIDFORMAT
  1
GRIDFORMAT_BEGIN
 90
        0
 91
        1
 62
     0
 92
       -2
340
14
 93
        0
 40
0.045
309
GRIDFORMAT_END
 95
        8
302
GRIDFORMAT
  1
GRIDFORMAT_BEGIN
 90
        0
 91
        1
 62
     0
 92
       -2
340
14
 93
        0
 40
0.045
309
GRIDFORMAT_END
 95
       16
302
GRIDFORMAT
  1
GRIDFORMAT_BEGIN
 90
        0
 91
        1
 62
     0
 92
       -2
340
14
 93
        0
 40
0.045
309
GRIDFORMAT_END
 95
       32
302
GRIDFORMAT
  1
GRIDFORMAT_BEGIN
 90
        0
 91
        1
 62
     0
 92
       -2
340
14
 93
        0
 40
0.045
309
GRIDFORMAT_END
309
TABLEFORMAT_END
  1
CELLSTYLE_BEGIN
 90
        2
 91
        1
300
_HEADER
309
CELLSTYLE_END
300
CELLSTYLE
  1
TABLEFORMAT_BEGIN
 90
        5
170
     1
 91
        0
 92
        0
 62
   257
 93
        1
300
CONTENTFORMAT
  1
CONTENTFORMAT_BEGIN
 90
        0
 91
        0
 92
        4
 93
        0
300

 40
0.0
140
1.0
 94
        2
 62
     0
340
11
144
0.18
309
CONTENTFORMAT_END
171
     1
301
MARGIN
  1
CELLMARGIN_BEGIN
 40
0.06
 40
0.06
 40
0.06
 40
0.06
 40
0.06
 40
0.06
309
CELLMARGIN_END
 94
        6
 95
        1
302
GRIDFORMAT
  1
GRIDFORMAT_BEGIN
 90
        0
 91
        1
 62
     0
 92
       -2
340
14
 93
        0
 40
0.045
309
GRIDFORMAT_END
 95
        2
302
GRIDFORMAT
  1
GRIDFORMAT_BEGIN
 90
        0
 91
        1
 62
     0
 92
       -2
340
14
 93
        0
 40
0.045
309
GRIDFORMAT_END
 95
        4
302
GRIDFORMAT
  1
GRIDFORMAT_BEGIN
 90
        0
 91
        1
 62
     0
 92
       -2
340
14
 93
        0
 40
0.045
309
GRIDFORMAT_END
 95
        8
302
GRIDFORMAT
  1
GRIDFORMAT_BEGIN
 90
        0
 91
        1
 62
     0
 92
       -2
340
14
 93
        0
 40
0.045
309
GRIDFORMAT_END
 95
       16
302
GRIDFORMAT
  1
GRIDFORMAT_BEGIN
 90
        0
 91
        1
 62
     0
 92
       -2
340
14
 93
        0
 40
0.045
309
GRIDFORMAT_END
 95
       32
302
GRIDFORMAT
  1
GRIDFORMAT_BEGIN
 90
        0
 91
        1
 62
     0
 92
       -2
340
14
 93
        0
 40
0.045
309
GRIDFORMAT_END
309
TABLEFORMAT_END
  1
CELLSTYLE_BEGIN
 90
        3
 91
        2
300
_DATA
309
CELLSTYLE_END
  0
ENDSEC
  0
EOF