0
SECTION
  2
HEADER
  9
$ACADVER
  1
AC1027
  9
$ACADMAINTVER
 70
     8
  9
$DWGCODEPAGE
  3
ANSI_1252
  9
$REQUIREDVERSIONS
160
                 0
  9
$COMMENTS
  1
File was created by Cadenas
  9
$CUSTOMPROPERTYTAG
  1
NN
  9
$CUSTOMPROPERTY
  1
Imperial -IP Pillow Block 1-1/8 thru 2-1/4  2-Bolt Inch Bore (Labyrinth Seal)
  9
$CUSTOMPROPERTYTAG
  1
NT
  9
$CUSTOMPROPERTY
  1
Imperial 2 Bolt Piliow Block Bearings
  9
$CUSTOMPROPERTYTAG
  1
NB
  9
$CUSTOMPROPERTY
  1
069466
  9
$CUSTOMPROPERTYTAG
  1
NBSYN
  9
$CUSTOMPROPERTY
  1
$PN.
  9
$CUSTOMPROPERTYTAG
  1
LINA
  9
$CUSTOMPROPERTY
  1
069466
  9
$CUSTOMPROPERTYTAG
  1
SS
  9
$CUSTOMPROPERTY
  1
1-15/16
  9
$CUSTOMPROPERTYTAG
  1
PN
  9
$CUSTOMPROPERTY
  1
069466
  9
$CUSTOMPROPERTYTAG
  1
DESCRIPTION
  9
$CUSTOMPROPERTY
  1
P2B-IP-115L
  9
$CUSTOMPROPERTYTAG
  1
EF
  9
$CUSTOMPROPERTY
  1
Non-Expansion Type
  9
$CUSTOMPROPERTYTAG
  1
ST
  9
$CUSTOMPROPERTY
  1
Labyrinth Seal
  9
$CUSTOMPROPERTYTAG
  1
A
  9
$CUSTOMPROPERTY
  1
2-55/64
  9
$CUSTOMPROPERTYTAG
  1
B
  9
$CUSTOMPROPERTY
  1
8-3/8
  9
$CUSTOMPROPERTYTAG
  1
C
  9
$CUSTOMPROPERTY
  1
2-1/2
  9
$CUSTOMPROPERTYTAG
  1
DMIN
  9
$CUSTOMPROPERTY
  1
6-1/16
  9
$CUSTOMPROPERTYTAG
  1
DMAX
  9
$CUSTOMPROPERTY
  1
6-7/16
  9
$CUSTOMPROPERTYTAG
  1
F
  9
$CUSTOMPROPERTY
  1
5/8
  9
$CUSTOMPROPERTYTAG
  1
G
  9
$CUSTOMPROPERTY
  1
61/64
  9
$CUSTOMPROPERTYTAG
  1
H
  9
$CUSTOMPROPERTY
  1
1-5/16
  9
$CUSTOMPROPERTYTAG
  1
J
  9
$CUSTOMPROPERTY
  1
4-9/16
  9
$CUSTOMPROPERTYTAG
  1
L
  9
$CUSTOMPROPERTY
  1
3-9/32
  9
$CUSTOMPROPERTYTAG
  1
M
  9
$CUSTOMPROPERTY
  1
2-1/4
  9
$CUSTOMPROPERTYTAG
  1
R
  9
$CUSTOMPROPERTY
  1
55/64
  9
$CUSTOMPROPERTYTAG
  1
S
  9
$CUSTOMPROPERTY
  1
2
  9
$CUSTOMPROPERTYTAG
  1
X
  9
$CUSTOMPROPERTY
  1
1/4
  9
$CUSTOMPROPERTYTAG
  1
Y
  9
$CUSTOMPROPERTY
  1
0.020
  9
$CUSTOMPROPERTYTAG
  1
Z
  9
$CUSTOMPROPERTY
  1
2-19/64
  9
$CUSTOMPROPERTYTAG
  1
COMPANY
  9
$CUSTOMPROPERTY
  1
baldor
  9
$INSBASE
 10
0.0
 20
0.0
 30
0.0
  9
$EXTMIN
 10
1.000000000000000E+20
 20
1.000000000000000E+20
 30
1.000000000000000E+20
  9
$EXTMAX
 10
-1.000000000000000E+20
 20
-1.000000000000000E+20
 30
-1.000000000000000E+20
  9
$LIMMIN
 10
0.0
 20
0.0
  9
$LIMMAX
 10
12.0
 20
9.0
  9
$ORTHOMODE
 70
     0
  9
$REGENMODE
 70
     1
  9
$FILLMODE
 70
     1
  9
$QTEXTMODE
 70
     0
  9
$MIRRTEXT
 70
     1
  9
$LTSCALE
 40
1.0
  9
$ATTMODE
 70
     1
  9
$TEXTSIZE
 40
0.2
  9
$TRACEWID
 40
0.05
  9
$TEXTSTYLE
  7
Standard
  9
$CLAYER
  8
0
  9
$CELTYPE
  6
ByLayer
  9
$CECOLOR
 62
   256
  9
$CELTSCALE
 40
1.0
  9
$DISPSILH
 70
     0
  9
$DIMSCALE
 40
1.0
  9
$DIMASZ
 40
0.18
  9
$DIMEXO
 40
0.0625
  9
$DIMDLI
 40
0.38
  9
$DIMRND
 40
0.0
  9
$DIMDLE
 40
0.0
  9
$DIMEXE
 40
0.18
  9
$DIMTP
 40
0.0
  9
$DIMTM
 40
0.0
  9
$DIMTXT
 40
0.18
  9
$DIMCEN
 40
0.09
  9
$DIMTSZ
 40
0.0
  9
$DIMTOL
 70
     0
  9
$DIMLIM
 70
     0
  9
$DIMTIH
 70
     1
  9
$DIMTOH
 70
     1
  9
$DIMSE1
 70
     0
  9
$DIMSE2
 70
     0
  9
$DIMTAD
 70
     0
  9
$DIMZIN
 70
     0
  9
$DIMBLK
  1

  9
$DIMASO
 70
     1
  9
$DIMSHO
 70
     1
  9
$DIMPOST
  1

  9
$DIMAPOST
  1

  9
$DIMALT
 70
     0
  9
$DIMALTD
 70
     2
  9
$DIMALTF
 40
25.4
  9
$DIMLFAC
 40
1.0
  9
$DIMTOFL
 70
     0
  9
$DIMTVP
 40
0.0
  9
$DIMTIX
 70
     0
  9
$DIMSOXD
 70
     0
  9
$DIMSAH
 70
     0
  9
$DIMBLK1
  1

  9
$DIMBLK2
  1

  9
$DIMSTYLE
  2
Standard
  9
$DIMCLRD
 70
     0
  9
$DIMCLRE
 70
     0
  9
$DIMCLRT
 70
     0
  9
$DIMTFAC
 40
1.0
  9
$DIMGAP
 40
0.09
  9
$DIMJUST
 70
     0
  9
$DIMSD1
 70
     0
  9
$DIMSD2
 70
     0
  9
$DIMTOLJ
 70
     1
  9
$DIMTZIN
 70
     0
  9
$DIMALTZ
 70
     0
  9
$DIMALTTZ
 70
     0
  9
$DIMUPT
 70
     0
  9
$DIMDEC
 70
     4
  9
$DIMTDEC
 70
     4
  9
$DIMALTU
 70
     2
  9
$DIMALTTD
 70
     2
  9
$DIMTXSTY
  7
Standard
  9
$DIMAUNIT
 70
     0
  9
$DIMADEC
 70
     0
  9
$DIMALTRND
 40
0.0
  9
$DIMAZIN
 70
     0
  9
$DIMDSEP
 70
    46
  9
$DIMATFIT
 70
     3
  9
$DIMFRAC
 70
     0
  9
$DIMLDRBLK
  1

  9
$DIMLUNIT
 70
     2
  9
$DIMLWD
 70
    -2
  9
$DIMLWE
 70
    -2
  9
$DIMTMOVE
 70
     0
  9
$DIMFXL
 40
1.0
  9
$DIMFXLON
 70
     0
  9
$DIMJOGANG
 40
0.7853981633974483
  9
$DIMTFILL
 70
     0
  9
$DIMTFILLCLR
 70
     0
  9
$DIMARCSYM
 70
     0
  9
$DIMLTYPE
  6

  9
$DIMLTEX1
  6

  9
$DIMLTEX2
  6

  9
$DIMTXTDIRECTION
 70
     0
  9
$LUNITS
 70
     2
  9
$LUPREC
 70
     4
  9
$SKETCHINC
 40
0.1
  9
$FILLETRAD
 40
0.5
  9
$AUNITS
 70
     0
  9
$AUPREC
 70
     0
  9
$MENU
  1
.
  9
$ELEVATION
 40
0.0
  9
$PELEVATION
 40
0.0
  9
$THICKNESS
 40
0.0
  9
$LIMCHECK
 70
     0
  9
$CHAMFERA
 40
0.0
  9
$CHAMFERB
 40
0.0
  9
$CHAMFERC
 40
0.0
  9
$CHAMFERD
 40
0.0
  9
$SKPOLY
 70
     0
  9
$TDCREATE
 40
2458168.976675162
  9
$TDUCREATE
 40
2458168.935008496
  9
$TDUPDATE
 40
2458168.976675347
  9
$TDUUPDATE
 40
2458168.93500868
  9
$TDINDWG
 40
0.0000000116
  9
$TDUSRTIMER
 40
0.0000000116
  9
$USRTIMER
 70
     1
  9
$ANGBASE
 50
0.0
  9
$ANGDIR
 70
     0
  9
$PDMODE
 70
     0
  9
$PDSIZE
 40
0.0
  9
$PLINEWID
 40
0.0
  9
$SPLFRAME
 70
     0
  9
$SPLINETYPE
 70
     6
  9
$SPLINESEGS
 70
     8
  9
$HANDSEED
  5
241
  9
$SURFTAB1
 70
     6
  9
$SURFTAB2
 70
     6
  9
$SURFTYPE
 70
     6
  9
$SURFU
 70
     6
  9
$SURFV
 70
     6
  9
$UCSBASE
  2

  9
$UCSNAME
  2

  9
$UCSORG
 10
0.0
 20
0.0
 30
0.0
  9
$UCSXDIR
 10
1.0
 20
0.0
 30
0.0
  9
$UCSYDIR
 10
0.0
 20
1.0
 30
0.0
  9
$UCSORTHOREF
  2

  9
$UCSORTHOVIEW
 70
     0
  9
$UCSORGTOP
 10
0.0
 20
0.0
 30
0.0
  9
$UCSORGBOTTOM
 10
0.0
 20
0.0
 30
0.0
  9
$UCSORGLEFT
 10
0.0
 20
0.0
 30
0.0
  9
$UCSORGRIGHT
 10
0.0
 20
0.0
 30
0.0
  9
$UCSORGFRONT
 10
0.0
 20
0.0
 30
0.0
  9
$UCSORGBACK
 10
0.0
 20
0.0
 30
0.0
  9
$PUCSBASE
  2

  9
$PUCSNAME
  2

  9
$PUCSORG
 10
0.0
 20
0.0
 30
0.0
  9
$PUCSXDIR
 10
1.0
 20
0.0
 30
0.0
  9
$PUCSYDIR
 10
0.0
 20
1.0
 30
0.0
  9
$PUCSORTHOREF
  2

  9
$PUCSORTHOVIEW
 70
     0
  9
$PUCSORGTOP
 10
0.0
 20
0.0
 30
0.0
  9
$PUCSORGBOTTOM
 10
0.0
 20
0.0
 30
0.0
  9
$PUCSORGLEFT
 10
0.0
 20
0.0
 30
0.0
  9
$PUCSORGRIGHT
 10
0.0
 20
0.0
 30
0.0
  9
$PUCSORGFRONT
 10
0.0
 20
0.0
 30
0.0
  9
$PUCSORGBACK
 10
0.0
 20
0.0
 30
0.0
  9
$USERI1
 70
     0
  9
$USERI2
 70
     0
  9
$USERI3
 70
     0
  9
$USERI4
 70
     0
  9
$USERI5
 70
     0
  9
$USERR1
 40
0.0
  9
$USERR2
 40
0.0
  9
$USERR3
 40
0.0
  9
$USERR4
 40
0.0
  9
$USERR5
 40
0.0
  9
$WORLDVIEW
 70
     1
  9
$SHADEDGE
 70
     3
  9
$SHADEDIF
 70
    70
  9
$TILEMODE
 70
     1
  9
$MAXACTVP
 70
    64
  9
$PINSBASE
 10
0.0
 20
0.0
 30
0.0
  9
$PLIMCHECK
 70
     0
  9
$PEXTMIN
 10
1.000000000000000E+20
 20
1.000000000000000E+20
 30
1.000000000000000E+20
  9
$PEXTMAX
 10
-1.000000000000000E+20
 20
-1.000000000000000E+20
 30
-1.000000000000000E+20
  9
$PLIMMIN
 10
0.0
 20
0.0
  9
$PLIMMAX
 10
12.0
 20
9.0
  9
$UNITMODE
 70
     0
  9
$VISRETAIN
 70
     1
  9
$PLINEGEN
 70
     0
  9
$PSLTSCALE
 70
     1
  9
$TREEDEPTH
 70
  3020
  9
$CMLSTYLE
  2
Standard
  9
$CMLJUST
 70
     0
  9
$CMLSCALE
 40
1.0
  9
$PROXYGRAPHICS
 70
     1
  9
$MEASUREMENT
 70
     0
  9
$CELWEIGHT
370
    -1
  9
$ENDCAPS
280
     0
  9
$JOINSTYLE
280
     0
  9
$LWDISPLAY
290
     0
  9
$INSUNITS
 70
     1
  9
$HYPERLINKBASE
  1

  9
$STYLESHEET
  1

  9
$XEDIT
290
     1
  9
$CEPSNTYPE
380
     0
  9
$PSTYLEMODE
290
     1
  9
$FINGERPRINTGUID
  2
{5336C659-BE6D-4730-A566-5C6901720417}
  9
$VERSIONGUID
  2
{FAEB1C32-E019-11D5-929B-00C0DF256EC4}
  9
$EXTNAMES
290
     1
  9
$PSVPSCALE
 40
0.0
  9
$OLESTARTUP
290
     0
  9
$SORTENTS
280
   127
  9
$INDEXCTL
280
     0
  9
$HIDETEXT
280
     1
  9
$XCLIPFRAME
280
     2
  9
$HALOGAP
280
     0
  9
$OBSCOLOR
 70
   257
  9
$OBSLTYPE
280
     0
  9
$INTERSECTIONDISPLAY
280
     0
  9
$INTERSECTIONCOLOR
 70
   257
  9
$DIMASSOC
280
     2
  9
$PROJECTNAME
  1

  9
$CAMERADISPLAY
290
     0
  9
$LENSLENGTH
 40
50.0
  9
$CAMERAHEIGHT
 40
0.0
  9
$STEPSPERSEC
 40
2.0
  9
$STEPSIZE
 40
6.0
  9
$3DDWFPREC
 40
2.0
  9
$PSOLWIDTH
 40
0.25
  9
$PSOLHEIGHT
 40
4.0
  9
$LOFTANG1
 40
1.570796326794897
  9
$LOFTANG2
 40
1.570796326794897
  9
$LOFTMAG1
 40
0.0
  9
$LOFTMAG2
 40
0.0
  9
$LOFTPARAM
 70
     7
  9
$LOFTNORMALS
280
     1
  9
$LATITUDE
 40
37.795
  9
$LONGITUDE
 40
-122.394
  9
$NORTHDIRECTION
 40
0.0
  9
$TIMEZONE
 70
 -8000
  9
$LIGHTGLYPHDISPLAY
280
     1
  9
$TILEMODELIGHTSYNCH
280
     1
  9
$CMATERIAL
347
44
  9
$SOLIDHIST
280
     0
  9
$SHOWHIST
280
     1
  9
$DWFFRAME
280
     2
  9
$DGNFRAME
280
     2
  9
$REALWORLDSCALE
290
     1
  9
$INTERFERECOLOR
 62
   256
  9
$CSHADOW
280
     0
  9
$SHADOWPLANELOCATION
 40
0.0
  0
ENDSEC
  0
SECTION
  2
CLASSES
  0
CLASS
  1
ACDBDICTIONARYWDFLT
  2
AcDbDictionaryWithDefault
  3
ObjectDBX Classes
 90
        0
 91
        4
280
     0
281
     0
  0
CLASS
  1
VISUALSTYLE
  2
AcDbVisualStyle
  3
ObjectDBX Classes
 90
     4095
 91
        4
280
     0
281
     0
  0
CLASS
  1
MATERIAL
  2
AcDbMaterial
  3
ObjectDBX Classes
 90
     1153
 91
        4
280
     0
281
     0
  0
CLASS
  1
SCALE
  2
AcDbScale
  3
ObjectDBX Classes
 90
     1153
 91
        4
280
     0
281
     0
  0
CLASS
  1
TABLESTYLE
  2
AcDbTableStyle
  3
ObjectDBX Classes
 90
     4095
 91
        4
280
     0
281
     0
  0
CLASS
  1
MLEADERSTYLE
  2
AcDbMLeaderStyle
  3
ACDB_MLEADERSTYLE_CLASS
 90
     4095
 91
        4
280
     0
281
     0
  0
CLASS
  1
SUN
  2
AcDbSun
  3
SCENEOE
 90
     1153
 91
        4
280
     0
281
     0
  0
CLASS
  1
DICTIONARYVAR
  2
AcDbDictionaryVar
  3
ObjectDBX Classes
 90
        0
 91
        4
280
     0
281
     0
  0
CLASS
  1
CELLSTYLEMAP
  2
AcDbCellStyleMap
  3
ObjectDBX Classes
 90
     1152
 91
        4
280
     0
281
     0
  0
ENDSEC
  0
SECTION
  2
TABLES
  0
TABLE
  2
VPORT
  5
8
330
0
100
AcDbSymbolTable
 70
     1
  0
VPORT
  5
29
330
8
100
AcDbSymbolTableRecord
100
AcDbViewportTableRecord
  2
*Active
 70
     0
 10
0.0
 20
0.0
 11
1.0
 21
1.0
 12
0.0
 22
-0.3844843749999995
 13
0.0
 23
0.0
 14
0.5
 24
0.5
 15
0.5
 25
0.5
 16
0.0
 26
0.0
 36
1.0
 17
0.0
 27
0.0
 37
0.0
 40
3.589348124999999
 41
2.379958617137479
 42
50.0
 43
0.0
 44
0.0
 50
0.0
 51
0.0
 71
     0
 72
   100
 73
     1
 74
     3
 75
     0
 76
     0
 77
     0
 78
     0
281
     0
 65
     1
110
0.0
120
0.0
130
0.0
111
1.0
121
0.0
131
0.0
112
0.0
122
1.0
132
0.0
 79
     0
146
0.0
348
2F
 60
     3
 61
     5
292
     1
282
     1
141
0.0
142
0.0
 63
   250
361
6D
  0
ENDTAB
  0
TABLE
  2
LTYPE
  5
5
330
0
100
AcDbSymbolTable
 70
     3
  0
LTYPE
  5
14
330
5
100
AcDbSymbolTableRecord
100
AcDbLinetypeTableRecord
  2
ByBlock
 70
     0
  3

 72
    65
 73
     0
 40
0.0
  0
LTYPE
  5
15
330
5
100
AcDbSymbolTableRecord
100
AcDbLinetypeTableRecord
  2
ByLayer
 70
     0
  3

 72
    65
 73
     0
 40
0.0
  0
LTYPE
  5
16
330
5
100
AcDbSymbolTableRecord
100
AcDbLinetypeTableRecord
  2
Continuous
 70
     0
  3
Solid line
 72
    65
 73
     0
 40
0.0
  0
LTYPE
  5
B1
330
5
100
AcDbSymbolTableRecord
100
AcDbLinetypeTableRecord
  2
Dashed
 70
     0
  3

 72
    65
 73
     2
 40
2.0
 49
1.0
 74
     0
 49
-1.0
 74
     0
  0
LTYPE
  5
1EB
330
5
100
AcDbSymbolTableRecord
100
AcDbLinetypeTableRecord
  2
Center
 70
     0
  3

 72
    65
 73
     4
 40
1.5
 49
0.45
 74
     0
 49
-0.5
 74
     0
 49
0.05
 74
     0
 49
-0.5
 74
     0
  0
ENDTAB
  0
TABLE
  2
LAYER
  5
2
330
0
100
AcDbSymbolTable
 70
     7
  0
LAYER
  5
10
330
2
100
AcDbSymbolTableRecord
100
AcDbLayerTableRecord
  2
0
 70
     0
 62
     7
  6
Continuous
370
    -3
390
F
347
46
348
0
  0
LAYER
  5
72
330
2
100
AcDbSymbolTableRecord
100
AcDbLayerTableRecord
  2
AM_6
 70
     0
 62
    -2
  6
Continuous
370
    35
390
F
347
46
348
0
  0
LAYER
  5
9E
330
2
100
AcDbSymbolTableRecord
100
AcDbLayerTableRecord
  2
AM_5
 70
     0
 62
     3
  6
Continuous
370
    25
390
F
347
46
348
0
  0
LAYER
  5
B2
330
2
100
AcDbSymbolTableRecord
100
AcDbLayerTableRecord
  2
AM_9
 70
     0
 62
     6
  6
Dashed
370
    25
390
F
347
46
348
0
  0
LAYER
  5
BF
330
2
100
AcDbSymbolTableRecord
100
AcDbLayerTableRecord
  2
AM_4
 70
     0
 62
     7
  6
Continuous
370
    50
390
F
347
46
348
0
  0
LAYER
  5
1EC
330
2
100
AcDbSymbolTableRecord
100
AcDbLayerTableRecord
  2
AM_7
 70
     0
 62
     7
  6
Center
370
    25
390
F
347
46
348
0
  0
LAYER
  5
22A
330
2
100
AcDbSymbolTableRecord
100
AcDbLayerTableRecord
  2
ConnectionPoints
 70
     0
 62
     7
  6
Continuous
370
    50
390
F
347
46
348
0
  0
ENDTAB
  0
TABLE
  2
STYLE
  5
3
330
0
100
AcDbSymbolTable
 70
     1
  0
STYLE
  5
11
330
3
100
AcDbSymbolTableRecord
100
AcDbTextStyleTableRecord
  2
Standard
 70
     0
 40
0.0
 41
1.0
 50
0.0
 71
     0
 42
0.2
  3
txt
  4

  0
ENDTAB
  0
TABLE
  2
VIEW
  5
6
330
0
100
AcDbSymbolTable
 70
     0
  0
ENDTAB
  0
TABLE
  2
UCS
  5
7
330
0
100
AcDbSymbolTable
 70
     0
  0
ENDTAB
  0
TABLE
  2
APPID
  5
9
330
0
100
AcDbSymbolTable
 70
     1
  0
APPID
  5
12
330
9
100
AcDbSymbolTableRecord
100
AcDbRegAppTableRecord
  2
ACAD
 70
     0
  0
ENDTAB
  0
TABLE
  2
DIMSTYLE
  5
A
330
0
100
AcDbSymbolTable
 70
     1
100
AcDbDimStyleTable
  0
DIMSTYLE
105
27
330
A
100
AcDbSymbolTableRecord
100
AcDbDimStyleTableRecord
  2
Standard
 70
     0
178
     0
340
11
  0
ENDTAB
  0
TABLE
  2
BLOCK_RECORD
  5
1
330
0
100
AcDbSymbolTable
 70
     8
  0
BLOCK_RECORD
  5
1F
330
1
100
AcDbSymbolTableRecord
100
AcDbBlockTableRecord
  2
*Model_Space
340
22
 70
     0
280
     1
281
     0
  0
BLOCK_RECORD
  5
1B
330
1
100
AcDbSymbolTableRecord
100
AcDbBlockTableRecord
  2
*Paper_Space
340
1E
 70
     0
280
     1
281
     0
  0
BLOCK_RECORD
  5
23
330
1
100
AcDbSymbolTableRecord
100
AcDbBlockTableRecord
  2
*Paper_Space0
340
26
 70
     0
280
     1
281
     0
  0
BLOCK_RECORD
  5
6E
330
1
100
AcDbSymbolTableRecord
100
AcDbBlockTableRecord
  2
1_069466_4
340
0
102
{BLKREFS
331
6F
102
}
 70
     0
280
     1
281
     0
  0
BLOCK_RECORD
  5
8E
330
1
100
AcDbSymbolTableRecord
100
AcDbBlockTableRecord
  2
2_ASME_B18_3_10_1_0_in_069466_4
340
0
102
{BLKREFS
331
8F
102
}
 70
     0
280
     1
281
     0
  0
BLOCK_RECORD
  5
A1
330
1
100
AcDbSymbolTableRecord
100
AcDbBlockTableRecord
  2
3_ASME_B18_3_10_2_0_in_069466_4
340
0
102
{BLKREFS
331
A2
102
}
 70
     0
280
     1
281
     0
  0
BLOCK_RECORD
  5
C6
330
1
100
AcDbSymbolTableRecord
100
AcDbBlockTableRecord
  2
4_070890LW_0_in_069466_4
340
0
102
{BLKREFS
331
C7
102
}
 70
     0
280
     1
281
     0
  0
BLOCK_RECORD
  5
FD
330
1
100
AcDbSymbolTableRecord
100
AcDbBlockTableRecord
  2
5_070922I_0_in_069466_4
340
0
102
{BLKREFS
331
FE
102
}
 70
     0
280
     1
281
     0
  0
BLOCK_RECORD
  5
17B
330
1
100
AcDbSymbolTableRecord
100
AcDbBlockTableRecord
  2
6_405015E_Inch_0_in_069466_4
340
0
102
{BLKREFS
331
17C
102
}
 70
     0
280
     1
281
     0
  0
BLOCK_RECORD
  5
1C6
330
1
100
AcDbSymbolTableRecord
100
AcDbBlockTableRecord
  2
7_069466H_0_in_069466_4
340
0
102
{BLKREFS
331
1C7
102
}
 70
     0
280
     1
281
     0
  0
ENDTAB
  0
ENDSEC
  0
SECTION
  2
BLOCKS
  0
BLOCK
  5
20
330
1F
100
AcDbEntity
  8
0
100
AcDbBlockBegin
  2
*Model_Space
 70
     0
 10
0.0
 20
0.0
 30
0.0
  3
*Model_Space
  1

  0
ENDBLK
  5
21
330
1F
100
AcDbEntity
  8
0
100
AcDbBlockEnd
  0
BLOCK
  5
1C
330
1B
100
AcDbEntity
 67
     1
  8
0
100
AcDbBlockBegin
  2
*Paper_Space
 70
     0
 10
0.0
 20
0.0
 30
0.0
  3
*Paper_Space
  1

  0
ENDBLK
  5
1D
330
1B
100
AcDbEntity
 67
     1
  8
0
100
AcDbBlockEnd
  0
BLOCK
  5
24
330
23
100
AcDbEntity
  8
0
100
AcDbBlockBegin
  2
*Paper_Space0
 70
     0
 10
0.0
 20
0.0
 30
0.0
  3
*Paper_Space0
  1

  0
ENDBLK
  5
25
330
23
100
AcDbEntity
  8
0
100
AcDbBlockEnd
  0
BLOCK
  5
70
330
6E
100
AcDbEntity
  8
0
100
AcDbBlockBegin
  2
1_069466_4
 70
     2
 10
0.0
 20
0.0
 30
0.0
  3
1_069466_4
  1

  0
ATTDEF
  5
73
330
6E
100
AcDbEntity
  8
AM_6
100
AcDbText
 10
9.1875
 20
1.375
 30
0.0
 40
0.5
  1
Imperial -IP Pillow Block 1-1/8 thru 2-1/4  2-Bolt Inch Bore (Labyrinth Seal)
100
AcDbAttributeDefinition
  3

  2
NN
 70
     8
280
     0
  0
ATTDEF
  5
74
330
6E
100
AcDbEntity
  8
AM_6
100
AcDbText
 10
9.1875
 20
0.875
 30
0.0
 40
0.5
  1
Imperial 2 Bolt Piliow Block Bearings
100
AcDbAttributeDefinition
  3

  2
NT
 70
     8
280
     0
  0
ATTDEF
  5
75
330
6E
100
AcDbEntity
  8
AM_6
100
AcDbText
 10
9.1875
 20
0.375
 30
0.0
 40
0.5
  1
069466
100
AcDbAttributeDefinition
  3

  2
NB
 70
     8
280
     0
  0
ATTDEF
  5
76
330
6E
100
AcDbEntity
  8
AM_6
100
AcDbText
 10
9.1875
 20
-0.125
 30
0.0
 40
0.5
  1
$PN.
100
AcDbAttributeDefinition
  3

  2
NBSYN
 70
     8
280
     0
  0
ATTDEF
  5
77
330
6E
100
AcDbEntity
  8
AM_6
100
AcDbText
 10
9.1875
 20
-0.625
 30
0.0
 40
0.5
  1
069466
100
AcDbAttributeDefinition
  3

  2
LINA
 70
     8
280
     0
  0
ATTDEF
  5
78
330
6E
100
AcDbEntity
  8
AM_6
100
AcDbText
 10
9.1875
 20
-1.125
 30
0.0
 40
0.5
  1
1-15/16
100
AcDbAttributeDefinition
  3

  2
SS
 70
     8
280
     0
  0
ATTDEF
  5
79
330
6E
100
AcDbEntity
  8
AM_6
100
AcDbText
 10
9.1875
 20
-1.625
 30
0.0
 40
0.5
  1
069466
100
AcDbAttributeDefinition
  3

  2
PN
 70
     8
280
     0
  0
ATTDEF
  5
7A
330
6E
100
AcDbEntity
  8
AM_6
100
AcDbText
 10
9.1875
 20
-2.125
 30
0.0
 40
0.5
  1
P2B-IP-115L
100
AcDbAttributeDefinition
  3

  2
DESCRIPTION
 70
     8
280
     0
  0
ATTDEF
  5
7B
330
6E
100
AcDbEntity
  8
AM_6
100
AcDbText
 10
9.1875
 20
-2.625
 30
0.0
 40
0.5
  1
Non-Expansion Type
100
AcDbAttributeDefinition
  3

  2
EF
 70
     8
280
     0
  0
ATTDEF
  5
7C
330
6E
100
AcDbEntity
  8
AM_6
100
AcDbText
 10
9.1875
 20
-3.125
 30
0.0
 40
0.5
  1
Labyrinth Seal
100
AcDbAttributeDefinition
  3

  2
ST
 70
     8
280
     0
  0
ATTDEF
  5
7D
330
6E
100
AcDbEntity
  8
AM_6
100
AcDbText
 10
9.1875
 20
-3.625
 30
0.0
 40
0.5
  1
2-55/64
100
AcDbAttributeDefinition
  3

  2
A
 70
     8
280
     0
  0
ATTDEF
  5
7E
330
6E
100
AcDbEntity
  8
AM_6
100
AcDbText
 10
9.1875
 20
-4.125
 30
0.0
 40
0.5
  1
8-3/8
100
AcDbAttributeDefinition
  3

  2
B
 70
     8
280
     0
  0
ATTDEF
  5
7F
330
6E
100
AcDbEntity
  8
AM_6
100
AcDbText
 10
9.1875
 20
-4.625
 30
0.0
 40
0.5
  1
2-1/2
100
AcDbAttributeDefinition
  3

  2
C
 70
     8
280
     0
  0
ATTDEF
  5
80
330
6E
100
AcDbEntity
  8
AM_6
100
AcDbText
 10
9.1875
 20
-5.125
 30
0.0
 40
0.5
  1
6-1/16
100
AcDbAttributeDefinition
  3

  2
DMIN
 70
     8
280
     0
  0
ATTDEF
  5
81
330
6E
100
AcDbEntity
  8
AM_6
100
AcDbText
 10
9.1875
 20
-5.625
 30
0.0
 40
0.5
  1
6-7/16
100
AcDbAttributeDefinition
  3

  2
DMAX
 70
     8
280
     0
  0
ATTDEF
  5
82
330
6E
100
AcDbEntity
  8
AM_6
100
AcDbText
 10
9.1875
 20
-6.125
 30
0.0
 40
0.5
  1
5/8
100
AcDbAttributeDefinition
  3

  2
F
 70
     8
280
     0
  0
ATTDEF
  5
83
330
6E
100
AcDbEntity
  8
AM_6
100
AcDbText
 10
9.1875
 20
-6.625
 30
0.0
 40
0.5
  1
61/64
100
AcDbAttributeDefinition
  3

  2
G
 70
     8
280
     0
  0
ATTDEF
  5
84
330
6E
100
AcDbEntity
  8
AM_6
100
AcDbText
 10
9.1875
 20
-7.125
 30
0.0
 40
0.5
  1
1-5/16
100
AcDbAttributeDefinition
  3

  2
H
 70
     8
280
     0
  0
ATTDEF
  5
85
330
6E
100
AcDbEntity
  8
AM_6
100
AcDbText
 10
9.1875
 20
-7.625
 30
0.0
 40
0.5
  1
4-9/16
100
AcDbAttributeDefinition
  3

  2
J
 70
     8
280
     0
  0
ATTDEF
  5
86
330
6E
100
AcDbEntity
  8
AM_6
100
AcDbText
 10
9.1875
 20
-8.125
 30
0.0
 40
0.5
  1
3-9/32
100
AcDbAttributeDefinition
  3

  2
L
 70
     8
280
     0
  0
ATTDEF
  5
87
330
6E
100
AcDbEntity
  8
AM_6
100
AcDbText
 10
9.1875
 20
-8.625
 30
0.0
 40
0.5
  1
2-1/4
100
AcDbAttributeDefinition
  3

  2
M
 70
     8
280
     0
  0
ATTDEF
  5
88
330
6E
100
AcDbEntity
  8
AM_6
100
AcDbText
 10
9.1875
 20
-9.125
 30
0.0
 40
0.5
  1
55/64
100
AcDbAttributeDefinition
  3

  2
R
 70
     8
280
     0
  0
ATTDEF
  5
89
330
6E
100
AcDbEntity
  8
AM_6
100
AcDbText
 10
9.1875
 20
-9.625
 30
0.0
 40
0.5
  1
2
100
AcDbAttributeDefinition
  3

  2
S
 70
     8
280
     0
  0
ATTDEF
  5
8A
330
6E
100
AcDbEntity
  8
AM_6
100
AcDbText
 10
9.1875
 20
-10.125
 30
0.0
 40
0.5
  1
1/4
100
AcDbAttributeDefinition
  3

  2
X
 70
     8
280
     0
  0
ATTDEF
  5
8B
330
6E
100
AcDbEntity
  8
AM_6
100
AcDbText
 10
9.1875
 20
-10.625
 30
0.0
 40
0.5
  1
0.020
100
AcDbAttributeDefinition
  3

  2
Y
 70
     8
280
     0
  0
ATTDEF
  5
8C
330
6E
100
AcDbEntity
  8
AM_6
100
AcDbText
 10
9.1875
 20
-11.125
 30
0.0
 40
0.5
  1
2-19/64
100
AcDbAttributeDefinition
  3

  2
Z
 70
     8
280
     0
  0
ATTDEF
  5
8D
330
6E
100
AcDbEntity
  8
AM_6
100
AcDbText
 10
9.1875
 20
-11.625
 30
0.0
 40
0.5
  1
baldor
100
AcDbAttributeDefinition
  3

  2
COMPANY
 70
     8
280
     0
  0
INSERT
  5
8F
330
6E
100
AcDbEntity
  8
0
100
AcDbBlockReference
  2
2_ASME_B18_3_10_1_0_in_069466_4
 10
0.0
 20
0.0
 30
0.0
  0
INSERT
  5
A2
330
6E
100
AcDbEntity
  8
0
100
AcDbBlockReference
  2
3_ASME_B18_3_10_2_0_in_069466_4
 10
0.0
 20
0.0
 30
0.0
  0
INSERT
  5
C7
330
6E
100
AcDbEntity
  8
0
100
AcDbBlockReference
  2
4_070890LW_0_in_069466_4
 10
0.0
 20
0.0
 30
0.0
  0
INSERT
  5
FE
330
6E
100
AcDbEntity
  8
0
100
AcDbBlockReference
  2
5_070922I_0_in_069466_4
 10
0.0
 20
0.0
 30
0.0
  0
INSERT
  5
17C
330
6E
100
AcDbEntity
  8
0
100
AcDbBlockReference
  2
6_405015E_Inch_0_in_069466_4
 10
0.0
 20
0.0
 30
0.0
  0
INSERT
  5
1C7
330
6E
100
AcDbEntity
  8
0
100
AcDbBlockReference
  2
7_069466H_0_in_069466_4
 10
0.0
 20
0.0
 30
0.0
  0
ENDBLK
  5
71
330
6E
100
AcDbEntity
  8
0
100
AcDbBlockEnd
  0
BLOCK
  5
90
330
8E
100
AcDbEntity
  8
0
100
AcDbBlockBegin
  2
2_ASME_B18_3_10_1_0_in_069466_4
 70
     2
 10
0.0
 20
0.0
 30
0.0
  3
2_ASME_B18_3_10_1_0_in_069466_4
  1

  0
ATTDEF
  5
92
330
8E
100
AcDbEntity
  8
AM_6
100
AcDbText
 10
5.095
 20
-1.757166666666667
 30
0.0
 40
0.5
  1
ANSI/ASME B18.3-1998
100
AcDbAttributeDefinition
  3

  2
NN
 70
     8
280
     0
  0
ATTDEF
  5
93
330
8E
100
AcDbEntity
  8
AM_6
100
AcDbText
 10
5.095
 20
-2.257166666666667
 30
0.0
 40
0.5
  1
Socket Button Head Cap Screws
100
AcDbAttributeDefinition
  3

  2
NT
 70
     8
280
     0
  0
ATTDEF
  5
94
330
8E
100
AcDbEntity
  8
AM_6
100
AcDbText
 10
5.095
 20
-2.757166666666667
 30
0.0
 40
0.5
  1
ASME B18.3-10
100
AcDbAttributeDefinition
  3

  2
NB
 70
     8
280
     0
  0
ATTDEF
  5
95
330
8E
100
AcDbEntity
  8
AM_6
100
AcDbText
 10
5.095
 20
-3.257166666666667
 30
0.0
 40
0.5
  1
ASME B18.3-$NS.
100
AcDbAttributeDefinition
  3

  2
NBSYN
 70
     8
280
     0
  0
ATTDEF
  5
96
330
8E
100
AcDbEntity
  8
AM_6
100
AcDbText
 10
5.095
 20
-3.757166666666667
 30
0.0
 40
0.5
  1
ASME B18.3-10
100
AcDbAttributeDefinition
  3

  2
LINA
 70
     8
280
     0
  0
ATTDEF
  5
97
330
8E
100
AcDbEntity
  8
AM_6
100
AcDbText
 10
5.095
 20
-4.257166666666667
 30
0.0
 40
0.5
  1
10
100
AcDbAttributeDefinition
  3

  2
NS
 70
     8
280
     0
  0
ATTDEF
  5
98
330
8E
100
AcDbEntity
  8
AM_6
100
AcDbText
 10
5.095
 20
-4.757166666666667
 30
0.0
 40
0.5
  1
0.361
100
AcDbAttributeDefinition
  3

  2
A
 70
     8
280
     0
  0
ATTDEF
  5
99
330
8E
100
AcDbEntity
  8
AM_6
100
AcDbText
 10
5.095
 20
-5.257166666666667
 30
0.0
 40
0.5
  1
0.101
100
AcDbAttributeDefinition
  3

  2
H
 70
     8
280
     0
  0
ATTDEF
  5
9A
330
8E
100
AcDbEntity
  8
AM_6
100
AcDbText
 10
5.095
 20
-5.757166666666667
 30
0.0
 40
0.5
  1
0.800
100
AcDbAttributeDefinition
  3

  2
L
 70
     8
280
     0
  0
ATTDEF
  5
9B
330
8E
100
AcDbEntity
  8
AM_6
100
AcDbText
 10
5.095
 20
-6.257166666666667
 30
0.0
 40
0.5
  1
0.020
100
AcDbAttributeDefinition
  3

  2
S
 70
     8
280
     0
  0
ATTDEF
  5
9C
330
8E
100
AcDbEntity
  8
AM_6
100
AcDbText
 10
5.095
 20
-6.757166666666667
 30
0.0
 40
0.5
  1
0.125000
100
AcDbAttributeDefinition
  3

  2
J
 70
     8
280
     0
  0
ATTDEF
  5
9D
330
8E
100
AcDbEntity
  8
AM_6
100
AcDbText
 10
5.095
 20
-7.257166666666667
 30
0.0
 40
0.5
  1
baldor
100
AcDbAttributeDefinition
  3

  2
COMPANY
 70
     8
280
     0
  0
LINE
  5
9F
330
8E
100
AcDbEntity
  8
AM_5
100
AcDbLine
 10
0.095
 20
-1.757166666666667
 30
0.0
 11
-0.095
 21
-1.757166666666667
 31
0.0
  0
LINE
  5
A0
330
8E
100
AcDbEntity
  8
AM_5
100
AcDbLine
 10
0.0764
 20
-1.757166666666667
 30
0.0
 11
0.095
 21
-1.789382811687448
 31
0.0
  0
ENDBLK
  5
91
330
8E
100
AcDbEntity
  8
0
100
AcDbBlockEnd
  0
BLOCK
  5
A3
330
A1
100
AcDbEntity
  8
0
100
AcDbBlockBegin
  2
3_ASME_B18_3_10_2_0_in_069466_4
 70
     2
 10
0.0
 20
0.0
 30
0.0
  3
3_ASME_B18_3_10_2_0_in_069466_4
  1

  0
ATTDEF
  5
A5
330
A1
100
AcDbEntity
  8
AM_6
100
AcDbText
 10
5.1805
 20
-1.037166666666666
 30
0.0
 40
0.5
  1
ANSI/ASME B18.3-1998
100
AcDbAttributeDefinition
  3

  2
NN
 70
     8
280
     0
  0
ATTDEF
  5
A6
330
A1
100
AcDbEntity
  8
AM_6
100
AcDbText
 10
5.1805
 20
-1.537166666666666
 30
0.0
 40
0.5
  1
Socket Button Head Cap Screws
100
AcDbAttributeDefinition
  3

  2
NT
 70
     8
280
     0
  0
ATTDEF
  5
A7
330
A1
100
AcDbEntity
  8
AM_6
100
AcDbText
 10
5.1805
 20
-2.037166666666666
 30
0.0
 40
0.5
  1
ASME B18.3-10
100
AcDbAttributeDefinition
  3

  2
NB
 70
     8
280
     0
  0
ATTDEF
  5
A8
330
A1
100
AcDbEntity
  8
AM_6
100
AcDbText
 10
5.1805
 20
-2.537166666666666
 30
0.0
 40
0.5
  1
ASME B18.3-$NS.
100
AcDbAttributeDefinition
  3

  2
NBSYN
 70
     8
280
     0
  0
ATTDEF
  5
A9
330
A1
100
AcDbEntity
  8
AM_6
100
AcDbText
 10
5.1805
 20
-3.037166666666666
 30
0.0
 40
0.5
  1
ASME B18.3-10
100
AcDbAttributeDefinition
  3

  2
LINA
 70
     8
280
     0
  0
ATTDEF
  5
AA
330
A1
100
AcDbEntity
  8
AM_6
100
AcDbText
 10
5.1805
 20
-3.537166666666666
 30
0.0
 40
0.5
  1
10
100
AcDbAttributeDefinition
  3

  2
NS
 70
     8
280
     0
  0
ATTDEF
  5
AB
330
A1
100
AcDbEntity
  8
AM_6
100
AcDbText
 10
5.1805
 20
-4.037166666666666
 30
0.0
 40
0.5
  1
0.361
100
AcDbAttributeDefinition
  3

  2
A
 70
     8
280
     0
  0
ATTDEF
  5
AC
330
A1
100
AcDbEntity
  8
AM_6
100
AcDbText
 10
5.1805
 20
-4.537166666666666
 30
0.0
 40
0.5
  1
0.101
100
AcDbAttributeDefinition
  3

  2
H
 70
     8
280
     0
  0
ATTDEF
  5
AD
330
A1
100
AcDbEntity
  8
AM_6
100
AcDbText
 10
5.1805
 20
-5.037166666666666
 30
0.0
 40
0.5
  1
0.800
100
AcDbAttributeDefinition
  3

  2
L
 70
     8
280
     0
  0
ATTDEF
  5
AE
330
A1
100
AcDbEntity
  8
AM_6
100
AcDbText
 10
5.1805
 20
-5.537166666666666
 30
0.0
 40
0.5
  1
0.020
100
AcDbAttributeDefinition
  3

  2
S
 70
     8
280
     0
  0
ATTDEF
  5
AF
330
A1
100
AcDbEntity
  8
AM_6
100
AcDbText
 10
5.1805
 20
-6.037166666666666
 30
0.0
 40
0.5
  1
0.125000
100
AcDbAttributeDefinition
  3

  2
J
 70
     8
280
     0
  0
ATTDEF
  5
B0
330
A1
100
AcDbEntity
  8
AM_6
100
AcDbText
 10
5.1805
 20
-6.537166666666666
 30
0.0
 40
0.5
  1
baldor
100
AcDbAttributeDefinition
  3

  2
COMPANY
 70
     8
280
     0
  0
LINE
  5
B3
330
A1
100
AcDbEntity
  8
AM_9
100
AcDbLine
 10
-0.0625
 20
-1.877166666666667
 30
0.0
 11
-0.0625
 21
-1.938166666666667
 31
0.0
  0
LINE
  5
B4
330
A1
100
AcDbEntity
  8
AM_9
100
AcDbLine
 10
0.0625
 20
-1.877166666666667
 30
0.0
 11
0.0625
 21
-1.938166666666667
 31
0.0
  0
LINE
  5
B5
330
A1
100
AcDbEntity
  8
AM_9
100
AcDbLine
 10
0.0
 20
-1.877166666666667
 30
0.0
 11
0.0
 21
-1.938166666666667
 31
0.0
  0
LINE
  5
B6
330
A1
100
AcDbEntity
  8
AM_9
100
AcDbLine
 10
-0.0625
 20
-1.877166666666667
 30
0.0
 11
0.0625
 21
-1.877166666666667
 31
0.0
  0
LINE
  5
B7
330
A1
100
AcDbEntity
  8
AM_9
100
AcDbLine
 10
-0.0764
 20
-1.037166666666666
 30
0.0
 11
-0.095
 21
-1.055766666666667
 31
0.0
  0
LINE
  5
B8
330
A1
100
AcDbEntity
  8
AM_9
100
AcDbLine
 10
0.095
 20
-1.055766666666667
 30
0.0
 11
0.0764
 21
-1.037166666666666
 31
0.0
  0
LINE
  5
B9
330
A1
100
AcDbEntity
  8
AM_9
100
AcDbLine
 10
-0.0764
 20
-1.037166666666666
 30
0.0
 11
0.0764
 21
-1.037166666666666
 31
0.0
  0
LINE
  5
BA
330
A1
100
AcDbEntity
  8
AM_9
100
AcDbLine
 10
0.095
 20
-1.837166666666666
 30
0.0
 11
0.095
 21
-1.055766666666667
 31
0.0
  0
LINE
  5
BB
330
A1
100
AcDbEntity
  8
AM_9
100
AcDbLine
 10
-0.095
 20
-1.055766666666667
 30
0.0
 11
-0.095
 21
-1.837166666666666
 31
0.0
  0
LINE
  5
BC
330
A1
100
AcDbEntity
  8
AM_9
100
AcDbLine
 10
-0.095
 20
-1.055766666666667
 30
0.0
 11
0.095
 21
-1.055766666666667
 31
0.0
  0
LINE
  5
BD
330
A1
100
AcDbEntity
  8
AM_5
100
AcDbLine
 10
-0.0950000003813078
 20
-1.757166666666667
 30
0.0
 11
0.095000000381308
 21
-1.757166666666667
 31
0.0
  0
LINE
  5
BE
330
A1
100
AcDbEntity
  8
AM_5
100
AcDbLine
 10
-0.0764
 20
-1.757166666666667
 30
0.0
 11
-0.0950000178137901
 21
-1.789382842541837
 31
0.0
  0
LINE
  5
C0
330
A1
100
AcDbEntity
  8
AM_4
100
AcDbLine
 10
-0.0994999970680703
 20
-1.938166666666666
 30
0.0
 11
0.0995
 21
-1.938166666666666
 31
0.0
  0
ARC
  5
C1
330
A1
100
AcDbEntity
  8
AM_4
100
AcDbCircle
 10
0.0995000000000003
 20
-1.857166666666667
 30
0.0
 40
0.0809999999999995
100
AcDbArc
 50
270.0
 51
0.0
  0
ARC
  5
C2
330
A1
100
AcDbEntity
  8
AM_4
100
AcDbCircle
 10
-0.0995000000000005
 20
-1.857166666666667
 30
0.0
 40
0.0809999999999995
100
AcDbArc
 50
180.0
 51
270.0
  0
LINE
  5
C3
330
A1
100
AcDbEntity
  8
AM_4
100
AcDbLine
 10
0.1805
 20
-1.857166666666666
 30
0.0
 11
0.1805
 21
-1.837166666666666
 31
0.0
  0
LINE
  5
C4
330
A1
100
AcDbEntity
  8
AM_4
100
AcDbLine
 10
-0.1805
 20
-1.837166666666666
 30
0.0
 11
-0.1805
 21
-1.857166666666666
 31
0.0
  0
LINE
  5
C5
330
A1
100
AcDbEntity
  8
AM_4
100
AcDbLine
 10
-0.1805
 20
-1.857166666666666
 30
0.0
 11
0.1805
 21
-1.857166666666666
 31
0.0
  0
ENDBLK
  5
A4
330
A1
100
AcDbEntity
  8
0
100
AcDbBlockEnd
  0
BLOCK
  5
C8
330
C6
100
AcDbEntity
  8
0
100
AcDbBlockBegin
  2
4_070890LW_0_in_069466_4
 70
     2
 10
0.0
 20
0.0
 30
0.0
  3
4_070890LW_0_in_069466_4
  1

  0
ATTDEF
  5
CA
330
C6
100
AcDbEntity
  8
AM_6
100
AcDbText
 10
6.640625
 20
-1.397166666666666
 30
0.0
 40
0.5
  1
Imperial Insert Lockwasher -Inch
100
AcDbAttributeDefinition
  3

  2
NN
 70
     8
280
     0
  0
ATTDEF
  5
CB
330
C6
100
AcDbEntity
  8
AM_6
100
AcDbText
 10
6.640625
 20
-1.897166666666666
 30
0.0
 40
0.5
  1
Imperial Bearings
100
AcDbAttributeDefinition
  3

  2
NT
 70
     8
280
     0
  0
ATTDEF
  5
CC
330
C6
100
AcDbEntity
  8
AM_6
100
AcDbText
 10
6.640625
 20
-2.397166666666666
 30
0.0
 40
0.5
  1
070890LW
100
AcDbAttributeDefinition
  3

  2
NB
 70
     8
280
     0
  0
ATTDEF
  5
CD
330
C6
100
AcDbEntity
  8
AM_6
100
AcDbText
 10
6.640625
 20
-2.897166666666666
 30
0.0
 40
0.5
  1
$PN.LW
100
AcDbAttributeDefinition
  3

  2
NBSYN
 70
     8
280
     0
  0
ATTDEF
  5
CE
330
C6
100
AcDbEntity
  8
AM_6
100
AcDbText
 10
6.640625
 20
-3.397166666666666
 30
0.0
 40
0.5
  1
070890
100
AcDbAttributeDefinition
  3

  2
LINA
 70
     8
280
     0
  0
ATTDEF
  5
CF
330
C6
100
AcDbEntity
  8
AM_6
100
AcDbText
 10
6.640625
 20
-3.897166666666666
 30
0.0
 40
0.5
  1
1-15/16
100
AcDbAttributeDefinition
  3

  2
SS
 70
     8
280
     0
  0
ATTDEF
  5
D0
330
C6
100
AcDbEntity
  8
AM_6
100
AcDbText
 10
6.640625
 20
-4.397166666666666
 30
0.0
 40
0.5
  1
1.937500
100
AcDbAttributeDefinition
  3

  2
SS1
 70
     8
280
     0
  0
ATTDEF
  5
D1
330
C6
100
AcDbEntity
  8
AM_6
100
AcDbText
 10
6.640625
 20
-4.897166666666666
 30
0.0
 40
0.5
  1
070890
100
AcDbAttributeDefinition
  3

  2
PN
 70
     8
280
     0
  0
ATTDEF
  5
D2
330
C6
100
AcDbEntity
  8
AM_6
100
AcDbText
 10
6.640625
 20
-5.397166666666666
 30
0.0
 40
0.5
  1
INS-IP-115R
100
AcDbAttributeDefinition
  3

  2
DESCRIPTION
 70
     8
280
     0
  0
ATTDEF
  5
D3
330
C6
100
AcDbEntity
  8
AM_6
100
AcDbText
 10
6.640625
 20
-5.897166666666666
 30
0.0
 40
0.5
  1
3.5433
100
AcDbAttributeDefinition
  3

  2
A
 70
     8
280
     0
  0
ATTDEF
  5
D4
330
C6
100
AcDbEntity
  8
AM_6
100
AcDbText
 10
6.640625
 20
-6.397166666666666
 30
0.0
 40
0.5
  1
61/64
100
AcDbAttributeDefinition
  3

  2
B
 70
     8
280
     0
  0
ATTDEF
  5
D5
330
C6
100
AcDbEntity
  8
AM_6
100
AcDbText
 10
6.640625
 20
-6.897166666666666
 30
0.0
 40
0.5
  1
2-55/64
100
AcDbAttributeDefinition
  3

  2
C
 70
     8
280
     0
  0
ATTDEF
  5
D6
330
C6
100
AcDbEntity
  8
AM_6
100
AcDbText
 10
6.640625
 20
-7.397166666666666
 30
0.0
 40
0.5
  1
0.977
100
AcDbAttributeDefinition
  3

  2
D
 70
     8
280
     0
  0
ATTDEF
  5
D7
330
C6
100
AcDbEntity
  8
AM_6
100
AcDbText
 10
6.640625
 20
-7.897166666666666
 30
0.0
 40
0.5
  1
3-9/32
100
AcDbAttributeDefinition
  3

  2
E
 70
     8
280
     0
  0
ATTDEF
  5
D8
330
C6
100
AcDbEntity
  8
AM_6
100
AcDbText
 10
6.640625
 20
-8.397166666666667
 30
0.0
 40
0.5
  1
0.1900
100
AcDbAttributeDefinition
  3

  2
NDM
 70
     8
280
     0
  0
ATTDEF
  5
D9
330
C6
100
AcDbEntity
  8
AM_6
100
AcDbText
 10
6.640625
 20
-8.897166666666667
 30
0.0
 40
0.5
  1
0.1450
100
AcDbAttributeDefinition
  3

  2
KDM
 70
     8
280
     0
  0
ATTDEF
  5
DA
330
C6
100
AcDbEntity
  8
AM_6
100
AcDbText
 10
6.640625
 20
-9.397166666666667
 30
0.0
 40
0.5
  1
2.67
100
AcDbAttributeDefinition
  3

  2
AL
 70
     8
280
     0
  0
ATTDEF
  5
DB
330
C6
100
AcDbEntity
  8
AM_6
100
AcDbText
 10
6.640625
 20
-9.897166666666667
 30
0.0
 40
0.5
  1
0.38
100
AcDbAttributeDefinition
  3

  2
BL
 70
     8
280
     0
  0
ATTDEF
  5
DC
330
C6
100
AcDbEntity
  8
AM_6
100
AcDbText
 10
6.640625
 20
-10.39716666666667
 30
0.0
 40
0.5
  1
0.07
100
AcDbAttributeDefinition
  3

  2
CL
 70
     8
280
     0
  0
ATTDEF
  5
DD
330
C6
100
AcDbEntity
  8
AM_6
100
AcDbText
 10
6.640625
 20
-10.89716666666667
 30
0.0
 40
0.5
  1
0.44
100
AcDbAttributeDefinition
  3

  2
DL
 70
     8
280
     0
  0
ATTDEF
  5
DE
330
C6
100
AcDbEntity
  8
AM_6
100
AcDbText
 10
6.640625
 20
-11.39716666666667
 30
0.0
 40
0.5
  1
baldor
100
AcDbAttributeDefinition
  3

  2
COMPANY
 70
     8
280
     0
  0
LINE
  5
DF
330
C6
100
AcDbEntity
  8
AM_9
100
AcDbLine
 10
-0.0950581953040407
 20
-1.767166666666667
 30
0.0
 11
-0.0950581953040407
 21
-1.837166666666666
 31
0.0
  0
LINE
  5
E0
330
C6
100
AcDbEntity
  8
AM_9
100
AcDbLine
 10
1.058019315778979
 20
-1.837166666666666
 30
0.0
 11
1.058019315778979
 21
-1.767166666666666
 31
0.0
  0
LINE
  5
E1
330
C6
100
AcDbEntity
  8
AM_9
100
AcDbLine
 10
-1.358506944444444
 20
-1.767166666666666
 30
0.0
 11
-1.358506944444444
 21
-1.837166666666666
 31
0.0
  0
LINE
  5
E2
330
C6
100
AcDbEntity
  8
AM_9
100
AcDbLine
 10
-1.456890871917692
 20
-1.767166666666666
 30
0.0
 11
-1.456890871917692
 21
-1.837166666666666
 31
0.0
  0
LINE
  5
E3
330
C6
100
AcDbEntity
  8
AM_9
100
AcDbLine
 10
1.358506944444444
 20
-1.767166666666666
 30
0.0
 11
1.358506944444444
 21
-1.837166666666666
 31
0.0
  0
LINE
  5
E4
330
C6
100
AcDbEntity
  8
AM_9
100
AcDbLine
 10
1.45689087191769
 20
-1.837166666666666
 30
0.0
 11
1.45689087191769
 21
-1.767166666666666
 31
0.0
  0
LINE
  5
E5
330
C6
100
AcDbEntity
  8
AM_9
100
AcDbLine
 10
-1.042979687686306
 20
-1.767166666666666
 30
0.0
 11
-1.042979687686306
 21
-1.837166666666666
 31
0.0
  0
LINE
  5
E6
330
C6
100
AcDbEntity
  8
AM_9
100
AcDbLine
 10
1.042979687686306
 20
-1.767166666666666
 30
0.0
 11
1.042979687686306
 21
-1.837166666666666
 31
0.0
  0
LINE
  5
E7
330
C6
100
AcDbEntity
  8
AM_9
100
AcDbLine
 10
-0.8046731540155364
 20
-1.767166666666666
 30
0.0
 11
-0.8046731540155364
 21
-1.837166666666666
 31
0.0
  0
LINE
  5
E8
330
C6
100
AcDbEntity
  8
AM_9
100
AcDbLine
 10
0.8046731540155359
 20
-1.767166666666666
 30
0.0
 11
0.8046731540155359
 21
-1.837166666666666
 31
0.0
  0
LINE
  5
E9
330
C6
100
AcDbEntity
  8
AM_9
100
AcDbLine
 10
-0.4567062602704183
 20
-1.397166666666666
 30
0.0
 11
-0.4567062602704183
 21
-1.837166666666666
 31
0.0
  0
LINE
  5
EA
330
C6
100
AcDbEntity
  8
AM_9
100
AcDbLine
 10
-0.4868996023594369
 20
-1.767166666666666
 30
0.0
 11
-0.4868996023594369
 21
-1.837166666666666
 31
0.0
  0
LINE
  5
EB
330
C6
100
AcDbEntity
  8
AM_9
100
AcDbLine
 10
-0.6703228655900919
 20
-1.767166666666666
 30
0.0
 11
-0.6703228655900921
 21
-1.837166666666666
 31
0.0
  0
LINE
  5
EC
330
C6
100
AcDbEntity
  8
AM_9
100
AcDbLine
 10
-0.3113624911822925
 20
-1.767166666666666
 30
0.0
 11
-0.3113624911822925
 21
-1.837166666666666
 31
0.0
  0
LINE
  5
ED
330
C6
100
AcDbEntity
  8
AM_9
100
AcDbLine
 10
-0.2811691490932737
 20
-1.397166666666666
 30
0.0
 11
-0.4763078241477383
 21
-1.397166666666666
 31
0.0
  0
LINE
  5
EE
330
C6
100
AcDbEntity
  8
AM_9
100
AcDbLine
 10
-0.2811691490932737
 20
-1.397166666666666
 30
0.0
 11
-0.2811691490932737
 21
-1.837166666666666
 31
0.0
  0
LINE
  5
EF
330
C6
100
AcDbEntity
  8
AM_9
100
AcDbLine
 10
-0.3007707129705938
 20
-1.767166666666666
 30
0.0
 11
-0.3007707129705937
 21
-1.397166666666666
 31
0.0
  0
LINE
  5
F0
330
C6
100
AcDbEntity
  8
AM_9
100
AcDbLine
 10
-0.4763078241477383
 20
-1.397166666666666
 30
0.0
 11
-0.4763078241477383
 21
-1.767166666666666
 31
0.0
  0
LINE
  5
F1
330
C6
100
AcDbEntity
  8
AM_9
100
AcDbLine
 10
0.6703228655900922
 20
-1.767166666666666
 30
0.0
 11
0.6703228655900917
 21
-1.837166666666666
 31
0.0
  0
LINE
  5
F2
330
C6
100
AcDbEntity
  8
AM_9
100
AcDbLine
 10
-1.027784616918405
 20
-1.767166666666666
 30
0.0
 11
-1.027784616918405
 21
-1.837166666666666
 31
0.0
  0
LINE
  5
F3
330
C6
100
AcDbEntity
  8
AM_9
100
AcDbLine
 10
-0.8934343284929518
 20
-1.767166666666666
 30
0.0
 11
-0.8934343284929518
 21
-1.837166666666666
 31
0.0
  0
LINE
  5
F4
330
C6
100
AcDbEntity
  8
AM_9
100
AcDbLine
 10
-1.055650628217342
 20
-1.767166666666666
 30
0.0
 11
-1.055650628217342
 21
-1.837166666666666
 31
0.0
  0
LINE
  5
F5
330
C6
100
AcDbEntity
  8
AM_9
100
AcDbLine
 10
0.8934343284929609
 20
-1.767166666666666
 30
0.0
 11
0.8934343284929609
 21
-1.837166666666666
 31
0.0
  0
LINE
  5
F6
330
C6
100
AcDbEntity
  8
AM_9
100
AcDbLine
 10
1.027784616918405
 20
-1.767166666666666
 30
0.0
 11
1.027784616918405
 21
-1.837166666666666
 31
0.0
  0
LINE
  5
F7
330
C6
100
AcDbEntity
  8
AM_9
100
AcDbLine
 10
1.055650628217342
 20
-1.837166666666666
 30
0.0
 11
1.055650628217342
 21
-1.767166666666666
 31
0.0
  0
LINE
  5
F8
330
C6
100
AcDbEntity
  8
AM_9
100
AcDbLine
 10
0.0949999999999998
 20
-1.767166666666666
 30
0.0
 11
0.0949999999999997
 21
-1.837166666666666
 31
0.0
  0
LINE
  5
F9
330
C6
100
AcDbEntity
  8
AM_4
100
AcDbLine
 10
-1.640625
 20
-1.767166666666666
 30
0.0
 11
-1.640625
 21
-1.837166666666666
 31
0.0
  0
LINE
  5
FA
330
C6
100
AcDbEntity
  8
AM_4
100
AcDbLine
 10
1.640625
 20
-1.837166666666666
 30
0.0
 11
1.640625
 21
-1.767166666666666
 31
0.0
  0
LINE
  5
FB
330
C6
100
AcDbEntity
  8
AM_4
100
AcDbLine
 10
-1.640625
 20
-1.837166666666666
 30
0.0
 11
1.640625
 21
-1.837166666666666
 31
0.0
  0
LINE
  5
FC
330
C6
100
AcDbEntity
  8
AM_4
100
AcDbLine
 10
-1.640625
 20
-1.767166666666666
 30
0.0
 11
1.640625
 21
-1.767166666666666
 31
0.0
  0
ENDBLK
  5
C9
330
C6
100
AcDbEntity
  8
0
100
AcDbBlockEnd
  0
BLOCK
  5
FF
330
FD
100
AcDbEntity
  8
0
100
AcDbBlockBegin
  2
5_070922I_0_in_069466_4
 70
     2
 10
0.0
 20
0.0
 30
0.0
  3
5_070922I_0_in_069466_4
  1

  0
ATTDEF
  5
101
330
FD
100
AcDbEntity
  8
AM_6
100
AcDbText
 10
6.77165
 20
0.8793750000000001
 30
0.0
 40
0.5
  1
Imperial Insert -Inch
100
AcDbAttributeDefinition
  3

  2
NN
 70
     8
280
     0
  0
ATTDEF
  5
102
330
FD
100
AcDbEntity
  8
AM_6
100
AcDbText
 10
6.77165
 20
0.3793750000000001
 30
0.0
 40
0.5
  1
Imperial Bearings
100
AcDbAttributeDefinition
  3

  2
NT
 70
     8
280
     0
  0
ATTDEF
  5
103
330
FD
100
AcDbEntity
  8
AM_6
100
AcDbText
 10
6.77165
 20
-0.1206249999999999
 30
0.0
 40
0.5
  1
070922I
100
AcDbAttributeDefinition
  3

  2
NB
 70
     8
280
     0
  0
ATTDEF
  5
104
330
FD
100
AcDbEntity
  8
AM_6
100
AcDbText
 10
6.77165
 20
-0.6206249999999999
 30
0.0
 40
0.5
  1
$PN.I
100
AcDbAttributeDefinition
  3

  2
NBSYN
 70
     8
280
     0
  0
ATTDEF
  5
105
330
FD
100
AcDbEntity
  8
AM_6
100
AcDbText
 10
6.77165
 20
-1.120625
 30
0.0
 40
0.5
  1
070922
100
AcDbAttributeDefinition
  3

  2
LINA
 70
     8
280
     0
  0
ATTDEF
  5
106
330
FD
100
AcDbEntity
  8
AM_6
100
AcDbText
 10
6.77165
 20
-1.620625
 30
0.0
 40
0.5
  1
1-15/16
100
AcDbAttributeDefinition
  3

  2
SS
 70
     8
280
     0
  0
ATTDEF
  5
107
330
FD
100
AcDbEntity
  8
AM_6
100
AcDbText
 10
6.77165
 20
-2.120625
 30
0.0
 40
0.5
  1
1.937500
100
AcDbAttributeDefinition
  3

  2
SS1
 70
     8
280
     0
  0
ATTDEF
  5
108
330
FD
100
AcDbEntity
  8
AM_6
100
AcDbText
 10
6.77165
 20
-2.620625
 30
0.0
 40
0.5
  1
070922
100
AcDbAttributeDefinition
  3

  2
PN
 70
     8
280
     0
  0
ATTDEF
  5
109
330
FD
100
AcDbEntity
  8
AM_6
100
AcDbText
 10
6.77165
 20
-3.120625
 30
0.0
 40
0.5
  1
INS-IP-115L
100
AcDbAttributeDefinition
  3

  2
DESCRIPTION
 70
     8
280
     0
  0
ATTDEF
  5
10A
330
FD
100
AcDbEntity
  8
AM_6
100
AcDbText
 10
6.77165
 20
-3.620625
 30
0.0
 40
0.5
  1
Labyrinth Seal
100
AcDbAttributeDefinition
  3

  2
ST
 70
     8
280
     0
  0
ATTDEF
  5
10B
330
FD
100
AcDbEntity
  8
AM_6
100
AcDbText
 10
6.77165
 20
-4.120625
 30
0.0
 40
0.5
  1
3.5433
100
AcDbAttributeDefinition
  3

  2
A
 70
     8
280
     0
  0
ATTDEF
  5
10C
330
FD
100
AcDbEntity
  8
AM_6
100
AcDbText
 10
6.77165
 20
-4.620625
 30
0.0
 40
0.5
  1
61/64
100
AcDbAttributeDefinition
  3

  2
B
 70
     8
280
     0
  0
ATTDEF
  5
10D
330
FD
100
AcDbEntity
  8
AM_6
100
AcDbText
 10
6.77165
 20
-5.120625
 30
0.0
 40
0.5
  1
2-55/64
100
AcDbAttributeDefinition
  3

  2
C
 70
     8
280
     0
  0
ATTDEF
  5
10E
330
FD
100
AcDbEntity
  8
AM_6
100
AcDbText
 10
6.77165
 20
-5.620625
 30
0.0
 40
0.5
  1
0.977
100
AcDbAttributeDefinition
  3

  2
D
 70
     8
280
     0
  0
ATTDEF
  5
10F
330
FD
100
AcDbEntity
  8
AM_6
100
AcDbText
 10
6.77165
 20
-6.120625
 30
0.0
 40
0.5
  1
3-9/32
100
AcDbAttributeDefinition
  3

  2
E
 70
     8
280
     0
  0
ATTDEF
  5
110
330
FD
100
AcDbEntity
  8
AM_6
100
AcDbText
 10
6.77165
 20
-6.620625
 30
0.0
 40
0.5
  1
0.1900
100
AcDbAttributeDefinition
  3

  2
NDM
 70
     8
280
     0
  0
ATTDEF
  5
111
330
FD
100
AcDbEntity
  8
AM_6
100
AcDbText
 10
6.77165
 20
-7.120625
 30
0.0
 40
0.5
  1
0.101
100
AcDbAttributeDefinition
  3

  2
H
 70
     8
280
     0
  0
ATTDEF
  5
112
330
FD
100
AcDbEntity
  8
AM_6
100
AcDbText
 10
6.77165
 20
-7.620625
 30
0.0
 40
0.5
  1
0.1450
100
AcDbAttributeDefinition
  3

  2
KDM
 70
     8
280
     0
  0
ATTDEF
  5
113
330
FD
100
AcDbEntity
  8
AM_6
100
AcDbText
 10
6.77165
 20
-8.120625
 30
0.0
 40
0.5
  1
2.67
100
AcDbAttributeDefinition
  3

  2
AL
 70
     8
280
     0
  0
ATTDEF
  5
114
330
FD
100
AcDbEntity
  8
AM_6
100
AcDbText
 10
6.77165
 20
-8.620625
 30
0.0
 40
0.5
  1
0.38
100
AcDbAttributeDefinition
  3

  2
BL
 70
     8
280
     0
  0
ATTDEF
  5
115
330
FD
100
AcDbEntity
  8
AM_6
100
AcDbText
 10
6.77165
 20
-9.120625
 30
0.0
 40
0.5
  1
0.07
100
AcDbAttributeDefinition
  3

  2
CL
 70
     8
280
     0
  0
ATTDEF
  5
116
330
FD
100
AcDbEntity
  8
AM_6
100
AcDbText
 10
6.77165
 20
-9.620625
 30
0.0
 40
0.5
  1
0.44
100
AcDbAttributeDefinition
  3

  2
DL
 70
     8
280
     0
  0
ATTDEF
  5
117
330
FD
100
AcDbEntity
  8
AM_6
100
AcDbText
 10
6.77165
 20
-10.120625
 30
0.0
 40
0.5
  1
0.8000
100
AcDbAttributeDefinition
  3

  2
LL
 70
     8
280
     0
  0
ATTDEF
  5
118
330
FD
100
AcDbEntity
  8
AM_6
100
AcDbText
 10
6.77165
 20
-10.620625
 30
0.0
 40
0.5
  1
0.020
100
AcDbAttributeDefinition
  3

  2
Y
 70
     8
280
     0
  0
ATTDEF
  5
119
330
FD
100
AcDbEntity
  8
AM_6
100
AcDbText
 10
6.77165
 20
-11.120625
 30
0.0
 40
0.5
  1
0.020000
100
AcDbAttributeDefinition
  3

  2
Y1
 70
     8
280
     0
  0
ATTDEF
  5
11A
330
FD
100
AcDbEntity
  8
AM_6
100
AcDbText
 10
6.77165
 20
-11.620625
 30
0.0
 40
0.5
  1
2-19/64
100
AcDbAttributeDefinition
  3

  2
Z
 70
     8
280
     0
  0
ATTDEF
  5
11B
330
FD
100
AcDbEntity
  8
AM_6
100
AcDbText
 10
6.77165
 20
-12.120625
 30
0.0
 40
0.5
  1
2.296875
100
AcDbAttributeDefinition
  3

  2
Z1
 70
     8
280
     0
  0
ATTDEF
  5
11C
330
FD
100
AcDbEntity
  8
AM_6
100
AcDbText
 10
6.77165
 20
-12.620625
 30
0.0
 40
0.5
  1
baldor
100
AcDbAttributeDefinition
  3

  2
COMPANY
 70
     8
280
     0
  0
LINE
  5
11D
330
FD
100
AcDbEntity
  8
AM_9
100
AcDbLine
 10
-0.4773419571798344
 20
0.3589375
 30
0.0
 11
-0.4773419571798344
 21
-1.767166666666666
 31
0.0
  0
LINE
  5
11E
330
FD
100
AcDbEntity
  8
AM_9
100
AcDbLine
 10
-0.2811691490932738
 20
0.3589375
 30
0.0
 11
-0.2811691490932737
 21
-2.0
 31
0.0
  0
LINE
  5
11F
330
FD
100
AcDbEntity
  8
AM_9
100
AcDbLine
 10
-0.4567062602704181
 20
-1.837166666666666
 30
0.0
 11
-0.4567062602704183
 21
0.3589375
 31
0.0
  0
LINE
  5
120
330
FD
100
AcDbEntity
  8
AM_9
100
AcDbLine
 10
-0.9687500000000001
 20
0.3589375000000002
 30
0.0
 11
-0.9687500000000001
 21
-2.0
 31
0.0
  0
LINE
  5
121
330
FD
100
AcDbEntity
  8
AM_9
100
AcDbLine
 10
0.9687500000000001
 20
-2.0
 30
0.0
 11
0.9687500000000001
 21
0.3589375000000002
 31
0.0
  0
LINE
  5
122
330
FD
100
AcDbEntity
  8
AM_9
100
AcDbLine
 10
-0.30180484600269
 20
0.3589375
 30
0.0
 11
-0.30180484600269
 21
-1.767166666666666
 31
0.0
  0
LINE
  5
123
330
FD
100
AcDbEntity
  8
AM_9
100
AcDbLine
 10
-1.019736842105263
 20
0.8593750000000002
 30
0.0
 11
-1.019736842105263
 21
0.3589375000000002
 31
0.0
  0
LINE
  5
124
330
FD
100
AcDbEntity
  8
AM_9
100
AcDbLine
 10
1.019736842105263
 20
0.3589375000000002
 30
0.0
 11
1.019736842105263
 21
0.8593750000000002
 31
0.0
  0
LINE
  5
125
330
FD
100
AcDbEntity
  8
AM_9
100
AcDbLine
 10
-0.3007707129705937
 20
-1.837166666666666
 30
0.0
 11
-0.3007707129705937
 21
-1.767166666666666
 31
0.0
  0
LINE
  5
126
330
FD
100
AcDbEntity
  8
AM_9
100
AcDbLine
 10
-0.476307824147738
 20
-1.767166666666666
 30
0.0
 11
-0.4763078241477381
 21
-1.837166666666666
 31
0.0
  0
LINE
  5
127
330
FD
100
AcDbEntity
  8
AM_9
100
AcDbLine
 10
-1.019736842105263
 20
-1.767166666666666
 30
0.0
 11
-1.019736842105263
 21
-1.837166666666666
 31
0.0
  0
LINE
  5
128
330
FD
100
AcDbEntity
  8
AM_9
100
AcDbLine
 10
1.019736842105263
 20
-1.837166666666666
 30
0.0
 11
1.019736842105263
 21
-1.767166666666666
 31
0.0
  0
LINE
  5
129
330
FD
100
AcDbEntity
  8
AM_9
100
AcDbLine
 10
0.8096372644585971
 20
-1.327166666666666
 30
0.0
 11
0.8096372644585971
 21
-1.767166666666666
 31
0.0
  0
LINE
  5
12A
330
FD
100
AcDbEntity
  8
AM_9
100
AcDbLine
 10
-0.8096372644585971
 20
-1.327166666666666
 30
0.0
 11
-0.8096372644585971
 21
-1.767166666666666
 31
0.0
  0
LINE
  5
12B
330
FD
100
AcDbEntity
  8
AM_9
100
AcDbLine
 10
1.1484375
 20
0.8593750000000002
 30
0.0
 11
-1.1484375
 21
0.8593750000000002
 31
0.0
  0
LINE
  5
12C
330
FD
100
AcDbEntity
  8
AM_9
100
AcDbLine
 10
-1.1484375
 20
0.8793749999999999
 30
0.0
 11
-1.1484375
 21
0.8593750000000002
 31
0.0
  0
LINE
  5
12D
330
FD
100
AcDbEntity
  8
AM_9
100
AcDbLine
 10
1.1484375
 20
0.8593750000000002
 30
0.0
 11
1.1484375
 21
0.8793749999999999
 31
0.0
  0
LINE
  5
12E
330
FD
100
AcDbEntity
  8
AM_9
100
AcDbLine
 10
1.246594551282051
 20
0.8793749999999999
 30
0.0
 11
-1.246594551275389
 21
0.8793749999999999
 31
0.0
  0
ARC
  5
12F
330
FD
100
AcDbEntity
  8
AM_9
100
AcDbCircle
 10
-1.246594551282052
 20
0.8499278846153845
 30
0.0
 40
0.0294471153846156
100
AcDbArc
 50
90.0
 51
180.0
  0
ARC
  5
130
330
FD
100
AcDbEntity
  8
AM_9
100
AcDbCircle
 10
1.246594551282052
 20
0.8499278846153845
 30
0.0
 40
0.0294471153846154
100
AcDbArc
 50
0.0
 51
90.0
  0
LINE
  5
131
330
FD
100
AcDbEntity
  8
AM_9
100
AcDbLine
 10
1.276041666666667
 20
0.849927884615384
 30
0.0
 11
-1.276041666666667
 21
0.849927884615384
 31
0.0
  0
LINE
  5
132
330
FD
100
AcDbEntity
  8
AM_9
100
AcDbLine
 10
-1.276041666666667
 20
0.849927884615384
 30
0.0
 11
-1.276041666666667
 21
0.5495625000000001
 31
0.0
  0
LINE
  5
133
330
FD
100
AcDbEntity
  8
AM_9
100
AcDbLine
 10
1.276041666666667
 20
0.5495625000000001
 30
0.0
 11
1.276041666666667
 21
0.849927884615384
 31
0.0
  0
LINE
  5
134
330
FD
100
AcDbEntity
  8
AM_9
100
AcDbLine
 10
0.8096372644585971
 20
-1.327166666666666
 30
0.0
 11
1.028878695709276
 21
-1.327166666666666
 31
0.0
  0
LINE
  5
135
330
FD
100
AcDbEntity
  8
AM_9
100
AcDbLine
 10
-1.028878695709275
 20
-1.327166666666666
 30
0.0
 11
-0.8096372644585971
 21
-1.327166666666666
 31
0.0
  0
LINE
  5
136
330
FD
100
AcDbEntity
  8
AM_9
100
AcDbLine
 10
0.0
 20
-0.9271666666666664
 30
0.0
 11
-0.0724499999999997
 21
-0.9609506564999959
 31
0.0
  0
LINE
  5
137
330
FD
100
AcDbEntity
  8
AM_9
100
AcDbLine
 10
0.0724499999999997
 20
-0.9609506564999959
 30
0.0
 11
0.0
 21
-0.9271666666666664
 31
0.0
  0
LINE
  5
138
330
FD
100
AcDbEntity
  8
AM_9
100
AcDbLine
 10
0.0724499999999997
 20
-0.9609506564999959
 30
0.0
 11
-0.0724499999999997
 21
-0.9609506564999959
 31
0.0
  0
LINE
  5
139
330
FD
100
AcDbEntity
  8
AM_9
100
AcDbLine
 10
-0.0724499999999997
 20
-0.9609506564999959
 30
0.0
 11
-0.0724499999999997
 21
-1.744616666666666
 31
0.0
  0
LINE
  5
13A
330
FD
100
AcDbEntity
  8
AM_9
100
AcDbLine
 10
0.0724499999999997
 20
-1.744616666666666
 30
0.0
 11
0.0724499999999997
 21
-0.9609506564999959
 31
0.0
  0
LINE
  5
13B
330
FD
100
AcDbEntity
  8
AM_9
100
AcDbLine
 10
0.0724499999999997
 20
-1.744616666666666
 30
0.0
 11
-0.0724499999999997
 21
-1.744616666666666
 31
0.0
  0
LINE
  5
13C
330
FD
100
AcDbEntity
  8
AM_9
100
AcDbLine
 10
-0.0724499999999997
 20
-1.744616666666666
 30
0.0
 11
-0.0949999999999999
 21
-1.767166666666666
 31
0.0
  0
LINE
  5
13D
330
FD
100
AcDbEntity
  8
AM_9
100
AcDbLine
 10
0.0949999999999999
 20
-1.767166666666666
 30
0.0
 11
0.0724499999999997
 21
-1.744616666666666
 31
0.0
  0
LINE
  5
13E
330
FD
100
AcDbEntity
  8
AM_9
100
AcDbLine
 10
1.403857578016765
 20
0.5495625000000001
 30
0.0
 11
-1.403857578016762
 21
0.5495625000000001
 31
0.0
  0
ARC
  5
13F
330
FD
100
AcDbEntity
  8
AM_9
100
AcDbCircle
 10
-1.403857578016766
 20
0.4495625000000023
 30
0.0
 40
0.0999999999999979
100
AcDbArc
 50
90.0
 51
150.0000000000006
  0
ARC
  5
140
330
FD
100
AcDbEntity
  8
AM_9
100
AcDbCircle
 10
1.403857578016766
 20
0.4495625000000023
 30
0.0
 40
0.0999999999999978
100
AcDbArc
 50
29.9999999999994
 51
90.0
  0
LINE
  5
141
330
FD
100
AcDbEntity
  8
AM_9
100
AcDbLine
 10
1.16744347577797
 20
0.4995625000000004
 30
0.0
 11
-1.490460118395209
 21
0.4995625000000003
 31
0.0
  0
LINE
  5
142
330
FD
100
AcDbEntity
  8
AM_9
100
AcDbLine
 10
1.490460118395209
 20
0.4995625000000003
 30
0.0
 11
1.170207770840359
 21
0.4995625000000004
 31
0.0
  0
LINE
  5
143
330
FD
100
AcDbEntity
  8
AM_9
100
AcDbLine
 10
-1.490460118395209
 20
0.4995625000000003
 30
0.0
 11
-1.57165
 21
0.3589375000000002
 31
0.0
  0
LINE
  5
144
330
FD
100
AcDbEntity
  8
AM_9
100
AcDbLine
 10
1.57165
 20
0.3589375000000002
 30
0.0
 11
1.490460118395209
 21
0.4995625000000003
 31
0.0
  0
LINE
  5
145
330
FD
100
AcDbEntity
  8
AM_9
100
AcDbLine
 10
1.663049954141952
 20
-1.125
 30
0.0
 11
1.68158633509779
 21
-0.5941875
 31
0.0
  0
LINE
  5
146
330
FD
100
AcDbEntity
  8
AM_9
100
AcDbLine
 10
-1.68158633509779
 20
-0.5941875
 30
0.0
 11
-1.663049954141952
 21
-1.125
 31
0.0
  0
LINE
  5
147
330
FD
100
AcDbEntity
  8
AM_9
100
AcDbLine
 10
-1.72399375
 20
-0.0901106512339319
 30
0.0
 11
-1.72399375
 21
-0.1451393487660678
 31
0.0
  0
LINE
  5
148
330
FD
100
AcDbEntity
  8
AM_9
100
AcDbLine
 10
1.72399375
 20
-0.1451393487660678
 30
0.0
 11
1.72399375
 21
-0.0901106512339319
 31
0.0
  0
LINE
  5
149
330
FD
100
AcDbEntity
  8
AM_9
100
AcDbLine
 10
1.721649999999999
 20
-0.5941875
 30
0.0
 11
-1.721649999997916
 21
-0.5941875
 31
0.0
  0
ARC
  5
14A
330
FD
100
AcDbEntity
  8
AM_9
100
AcDbCircle
 10
-1.72165
 20
-0.5441875
 30
0.0
 40
0.05
100
AcDbArc
 50
180.0
 51
270.0
  0
ARC
  5
14B
330
FD
100
AcDbEntity
  8
AM_9
100
AcDbCircle
 10
1.72165
 20
-0.5441875000000004
 30
0.0
 40
0.0499999999999996
100
AcDbArc
 50
270.0
 51
0.0
  0
LINE
  5
14C
330
FD
100
AcDbEntity
  8
AM_9
100
AcDbLine
 10
1.77165
 20
-0.5441874999999997
 30
0.0
 11
-1.77165
 21
-0.5441874999999997
 31
0.0
  0
LINE
  5
14D
330
FD
100
AcDbEntity
  8
AM_9
100
AcDbLine
 10
-1.77165
 20
-0.1726536975321361
 30
0.0
 11
-1.77165
 21
-0.5441874999999997
 31
0.0
  0
LINE
  5
14E
330
FD
100
AcDbEntity
  8
AM_9
100
AcDbLine
 10
1.77165
 20
-0.5441874999999997
 30
0.0
 11
1.77165
 21
-0.1726536975321361
 31
0.0
  0
LINE
  5
14F
330
FD
100
AcDbEntity
  8
AM_9
100
AcDbLine
 10
1.72399375
 20
-0.1451393487660678
 30
0.0
 11
-1.72399375
 21
-0.1451393487660678
 31
0.0
  0
LINE
  5
150
330
FD
100
AcDbEntity
  8
AM_9
100
AcDbLine
 10
1.77165
 20
-0.1726536975321361
 30
0.0
 11
-1.77165
 21
-0.1726536975321361
 31
0.0
  0
LINE
  5
151
330
FD
100
AcDbEntity
  8
AM_9
100
AcDbLine
 10
-1.72399375
 20
-0.1451393487660678
 30
0.0
 11
-1.77165
 21
-0.1726536975321361
 31
0.0
  0
LINE
  5
152
330
FD
100
AcDbEntity
  8
AM_9
100
AcDbLine
 10
1.77165
 20
-0.1726536975321361
 30
0.0
 11
1.72399375
 21
-0.1451393487660678
 31
0.0
  0
LINE
  5
153
330
FD
100
AcDbEntity
  8
AM_9
100
AcDbLine
 10
-1.77165
 20
0.3089374999999999
 30
0.0
 11
-1.77165
 21
-0.062596302467864
 31
0.0
  0
LINE
  5
154
330
FD
100
AcDbEntity
  8
AM_9
100
AcDbLine
 10
1.77165
 20
-0.062596302467864
 30
0.0
 11
1.77165
 21
0.3089374999999999
 31
0.0
  0
LINE
  5
155
330
FD
100
AcDbEntity
  8
AM_9
100
AcDbLine
 10
1.77165
 20
-0.062596302467864
 30
0.0
 11
-1.77165
 21
-0.062596302467864
 31
0.0
  0
LINE
  5
156
330
FD
100
AcDbEntity
  8
AM_9
100
AcDbLine
 10
1.441157604459423
 20
-0.0901106512339319
 30
0.0
 11
-1.72399375
 21
-0.0901106512339319
 31
0.0
  0
LINE
  5
157
330
FD
100
AcDbEntity
  8
AM_9
100
AcDbLine
 10
1.72399375
 20
-0.0901106512339319
 30
0.0
 11
1.444302184902453
 21
-0.0901106512339319
 31
0.0
  0
LINE
  5
158
330
FD
100
AcDbEntity
  8
AM_9
100
AcDbLine
 10
1.72399375
 20
-0.0901106512339319
 30
0.0
 11
1.77165
 21
-0.062596302467864
 31
0.0
  0
LINE
  5
159
330
FD
100
AcDbEntity
  8
AM_9
100
AcDbLine
 10
-1.77165
 20
-0.062596302467864
 30
0.0
 11
-1.72399375
 21
-0.0901106512339319
 31
0.0
  0
LINE
  5
15A
330
FD
100
AcDbEntity
  8
AM_9
100
AcDbLine
 10
1.72165
 20
0.3589375
 30
0.0
 11
-1.721649999997916
 21
0.3589375
 31
0.0
  0
LINE
  5
15B
330
FD
100
AcDbEntity
  8
AM_9
100
AcDbLine
 10
1.77165
 20
0.3089374999999999
 30
0.0
 11
-1.77165
 21
0.3089374999999999
 31
0.0
  0
ARC
  5
15C
330
FD
100
AcDbEntity
  8
AM_9
100
AcDbCircle
 10
-1.72165
 20
0.3089375000000003
 30
0.0
 40
0.0499999999999997
100
AcDbArc
 50
90.0
 51
180.0
  0
ARC
  5
15D
330
FD
100
AcDbEntity
  8
AM_9
100
AcDbCircle
 10
1.72165
 20
0.3089375000000002
 30
0.0
 40
0.0499999999999998
100
AcDbArc
 50
0.0
 51
90.0
  0
LINE
  5
15E
330
FD
100
AcDbEntity
  8
AM_5
100
AcDbLine
 10
0.0724499999999997
 20
-1.007166666666666
 30
0.0
 11
0.0949999999999999
 21
-1.007166666666666
 31
0.0
  0
LINE
  5
15F
330
FD
100
AcDbEntity
  8
AM_5
100
AcDbLine
 10
0.0949999999999999
 20
-1.007166666666666
 30
0.0
 11
0.0724499999999997
 21
-0.9941474180964582
 31
0.0
  0
LINE
  5
160
330
FD
100
AcDbEntity
  8
AM_5
100
AcDbLine
 10
-0.0724499999999999
 20
-1.007166666666666
 30
0.0
 11
-0.0950000000000002
 21
-1.007166666666666
 31
0.0
  0
LINE
  5
161
330
FD
100
AcDbEntity
  8
AM_5
100
AcDbLine
 10
-0.0950000000000002
 20
-1.007166666666666
 30
0.0
 11
-0.0724499999999997
 21
-0.9941474180964581
 31
0.0
  0
LINE
  5
162
330
FD
100
AcDbEntity
  8
AM_4
100
AcDbLine
 10
-0.4567062602704181
 20
-2.0
 30
0.0
 11
-0.4567062602704181
 21
-1.837166666666666
 31
0.0
  0
LINE
  5
163
330
FD
100
AcDbEntity
  8
AM_4
100
AcDbLine
 10
-0.3007707129705938
 20
-2.0
 30
0.0
 11
-0.3007707129705937
 21
-1.837166666666666
 31
0.0
  0
LINE
  5
164
330
FD
100
AcDbEntity
  8
AM_4
100
AcDbLine
 10
-0.4763078241477381
 20
-1.837166666666666
 30
0.0
 11
-0.4763078241477383
 21
-2.0
 31
0.0
  0
LINE
  5
165
330
FD
100
AcDbEntity
  8
AM_4
100
AcDbLine
 10
-1.019736842105263
 20
-1.837166666666666
 30
0.0
 11
-1.019736842105263
 21
-2.0
 31
0.0
  0
LINE
  5
166
330
FD
100
AcDbEntity
  8
AM_4
100
AcDbLine
 10
1.019736842105263
 20
-2.0
 30
0.0
 11
1.019736842105263
 21
-1.837166666666666
 31
0.0
  0
LINE
  5
167
330
FD
100
AcDbEntity
  8
AM_4
100
AcDbLine
 10
1.019736842105263
 20
-2.0
 30
0.0
 11
-1.019736842105263
 21
-2.0
 31
0.0
  0
ARC
  5
168
330
FD
100
AcDbEntity
  8
AM_4
100
AcDbCircle
 10
1.592340561259647
 20
-1.717166666666667
 30
0.0
 40
0.0499999999999998
100
AcDbArc
 50
270.0
 51
357.9999999999999
  0
ARC
  5
169
330
FD
100
AcDbEntity
  8
AM_4
100
AcDbCircle
 10
-1.592340561259647
 20
-1.717166666666667
 30
0.0
 40
0.0499999999999999
100
AcDbArc
 50
182.0000000000001
 51
270.0
  0
LWPOLYLINE
  5
16A
330
FD
100
AcDbEntity
  8
AM_4
100
AcDbPolyline
 90
        6
 70
     0
 43
0.0
 10
1.287841179836565
 20
-1.718911641501792
 10
1.285448556434734
 20
-1.735267379049313
 10
1.279364388634316
 20
-1.749589434706216
 10
1.270254606252683
 20
-1.760312136834694
 10
1.259085397042463
 20
-1.766239794707624
 10
1.252260942957524
 20
-1.767166666666666
  0
LWPOLYLINE
  5
16B
330
FD
100
AcDbEntity
  8
AM_4
100
AcDbPolyline
 90
        6
 70
     0
 43
0.0
 10
-1.252260942957524
 20
-1.767166666666666
 10
-1.257431462601879
 20
-1.766636751154502
 10
-1.268885094433819
 20
-1.761382398319422
 10
-1.278431471242283
 20
-1.751067543597212
 10
-1.284965208334057
 20
-1.736926837990357
 10
-1.287841179836565
 20
-1.718911641501792
  0
LINE
  5
16C
330
FD
100
AcDbEntity
  8
AM_4
100
AcDbLine
 10
1.078337841309485
 20
-1.327166666666666
 30
0.0
 11
1.078337841309485
 21
-1.767166666666666
 31
0.0
  0
LINE
  5
16D
330
FD
100
AcDbEntity
  8
AM_4
100
AcDbLine
 10
-1.078337841309485
 20
-1.327166666666666
 30
0.0
 11
-1.078337841309485
 21
-1.767166666666666
 31
0.0
  0
LWPOLYLINE
  5
16E
330
FD
100
AcDbEntity
  8
AM_4
100
AcDbPolyline
 90
        6
 70
     0
 43
0.0
 10
0.9835603661066361
 20
-1.767166666666666
 10
0.9887308857509913
 20
-1.766636751154502
 10
1.000184517582931
 20
-1.761382398319422
 10
1.009730894391395
 20
-1.751067543597212
 10
1.016264631483169
 20
-1.736926837990357
 10
1.019140602985677
 20
-1.718911641501792
  0
LWPOLYLINE
  5
16F
330
FD
100
AcDbEntity
  8
AM_4
100
AcDbPolyline
 90
        6
 70
     0
 43
0.0
 10
-1.019140602985677
 20
-1.718911641501792
 10
-1.016747979583846
 20
-1.735267379049313
 10
-1.010663811783428
 20
-1.749589434706216
 10
-1.001554029401795
 20
-1.760312136834694
 10
-0.9903848201915748
 20
-1.766239794707624
 10
-0.9835603661066357
 20
-1.767166666666666
  0
LINE
  5
170
330
FD
100
AcDbEntity
  8
AM_4
100
AcDbLine
 10
-1.287841179836565
 20
-1.718911641501792
 30
0.0
 11
-1.642310102610602
 21
-1.718911641501792
 31
0.0
  0
LINE
  5
171
330
FD
100
AcDbEntity
  8
AM_4
100
AcDbLine
 10
-1.287841179836565
 20
-1.718911641501792
 30
0.0
 11
-1.297579272560164
 21
-1.327166666666666
 31
0.0
  0
LINE
  5
172
330
FD
100
AcDbEntity
  8
AM_4
100
AcDbLine
 10
-1.297579272560164
 20
-1.327166666666666
 30
0.0
 11
-1.028878695709275
 21
-1.327166666666666
 31
0.0
  0
LINE
  5
173
330
FD
100
AcDbEntity
  8
AM_4
100
AcDbLine
 10
-1.028878695709275
 20
-1.327166666666666
 30
0.0
 11
-1.019140602985677
 21
-1.718911641501792
 31
0.0
  0
LINE
  5
174
330
FD
100
AcDbEntity
  8
AM_4
100
AcDbLine
 10
1.019140602985677
 20
-1.718911641501792
 30
0.0
 11
-1.019140602985677
 21
-1.718911641501792
 31
0.0
  0
LINE
  5
175
330
FD
100
AcDbEntity
  8
AM_4
100
AcDbLine
 10
1.019140602985677
 20
-1.718911641501792
 30
0.0
 11
1.028878695709276
 21
-1.327166666666666
 31
0.0
  0
LINE
  5
176
330
FD
100
AcDbEntity
  8
AM_4
100
AcDbLine
 10
1.028878695709276
 20
-1.327166666666666
 30
0.0
 11
1.297579272560164
 21
-1.327166666666666
 31
0.0
  0
LINE
  5
177
330
FD
100
AcDbEntity
  8
AM_4
100
AcDbLine
 10
1.297579272560164
 20
-1.327166666666666
 30
0.0
 11
1.287841179836565
 21
-1.718911641501792
 31
0.0
  0
LINE
  5
178
330
FD
100
AcDbEntity
  8
AM_4
100
AcDbLine
 10
1.642310102610602
 20
-1.718911641501792
 30
0.0
 11
1.663049954141952
 21
-1.125
 31
0.0
  0
LINE
  5
179
330
FD
100
AcDbEntity
  8
AM_4
100
AcDbLine
 10
-1.663049954141952
 20
-1.125
 30
0.0
 11
-1.642310102610602
 21
-1.718911641501792
 31
0.0
  0
LINE
  5
17A
330
FD
100
AcDbEntity
  8
AM_4
100
AcDbLine
 10
1.642310102610602
 20
-1.718911641501792
 30
0.0
 11
1.287841179836565
 21
-1.718911641501792
 31
0.0
  0
ENDBLK
  5
100
330
FD
100
AcDbEntity
  8
0
100
AcDbBlockEnd
  0
BLOCK
  5
17D
330
17B
100
AcDbEntity
  8
0
100
AcDbBlockBegin
  2
6_405015E_Inch_0_in_069466_4
 70
     2
 10
0.0
 20
0.0
 30
0.0
  3
6_405015E_Inch_0_in_069466_4
  1

  0
ATTDEF
  5
17F
330
17B
100
AcDbEntity
  8
AM_6
100
AcDbText
 10
6.482671671481428
 20
0.2525907427704613
 30
0.0
 40
0.5
  1
405015E -Inch
100
AcDbAttributeDefinition
  3

  2
NN
 70
     8
280
     0
  0
ATTDEF
  5
180
330
17B
100
AcDbEntity
  8
AM_6
100
AcDbText
 10
6.482671671481428
 20
-0.2474092572295387
 30
0.0
 40
0.5
  1
Grease Fitting
100
AcDbAttributeDefinition
  3

  2
NT
 70
     8
280
     0
  0
ATTDEF
  5
181
330
17B
100
AcDbEntity
  8
AM_6
100
AcDbText
 10
6.482671671481428
 20
-0.7474092572295387
 30
0.0
 40
0.5
  1
405015E-Inch
100
AcDbAttributeDefinition
  3

  2
NB
 70
     8
280
     0
  0
ATTDEF
  5
182
330
17B
100
AcDbEntity
  8
AM_6
100
AcDbText
 10
6.482671671481428
 20
-1.247409257229539
 30
0.0
 40
0.5
  1
$MN.-Inch
100
AcDbAttributeDefinition
  3

  2
NBSYN
 70
     8
280
     0
  0
ATTDEF
  5
183
330
17B
100
AcDbEntity
  8
AM_6
100
AcDbText
 10
6.482671671481428
 20
-1.747409257229539
 30
0.0
 40
0.5
  1
405015E
100
AcDbAttributeDefinition
  3

  2
LINA
 70
     8
280
     0
  0
ATTDEF
  5
184
330
17B
100
AcDbEntity
  8
AM_6
100
AcDbText
 10
6.482671671481428
 20
-2.247409257229539
 30
0.0
 40
0.5
  1
405015E
100
AcDbAttributeDefinition
  3

  2
MN
 70
     8
280
     0
  0
ATTDEF
  5
185
330
17B
100
AcDbEntity
  8
AM_6
100
AcDbText
 10
6.482671671481428
 20
-2.747409257229539
 30
0.0
 40
0.5
  1
1/8 x 27PTF
100
AcDbAttributeDefinition
  3

  2
T
 70
     8
280
     0
  0
ATTDEF
  5
186
330
17B
100
AcDbEntity
  8
AM_6
100
AcDbText
 10
6.482671671481428
 20
-3.247409257229539
 30
0.0
 40
0.5
  1
baldor
100
AcDbAttributeDefinition
  3

  2
COMPANY
 70
     8
280
     0
  0
ELLIPSE
  5
187
330
17B
100
AcDbEntity
  8
AM_9
100
AcDbEllipse
 10
1.07375
 20
0.0000000000000001
 30
0.0
 11
9.913691727296317E-18
 21
0.161902872472269
 31
0.0
210
0.0
220
0.0
230
1.0
 40
0.8660254037844383
 41
0.0
 42
6.283185307179586
  0
LWPOLYLINE
  5
188
330
17B
100
AcDbEntity
  8
AM_9
100
AcDbPolyline
 90
        3
 70
     0
 43
0.0
 10
1.400226856926153
 20
-0.1262953713852305
 10
1.34975250203231
 20
-0.1577272497321275
 10
1.300971528538923
 20
-0.1894430570778458
  0
LWPOLYLINE
  5
189
330
17B
100
AcDbEntity
  8
AM_9
100
AcDbPolyline
 90
        4
 70
     0
 43
0.0
 10
1.39591732026901
 20
-0.0271135287221748
 10
1.396401837436414
 20
-0.0483998160558988
 10
1.398434263336768
 20
-0.0967996321117977
 10
1.400226856926153
 20
-0.1262953713852305
  0
LINE
  5
18A
330
17B
100
AcDbEntity
  8
AM_9
100
AcDbLine
 10
1.395693057077846
 20
0.0000000000000001
 30
0.0
 11
1.39591732026901
 21
-0.0271135287221748
 31
0.0
  0
LWPOLYLINE
  5
18B
330
17B
100
AcDbEntity
  8
AM_9
100
AcDbPolyline
 90
        3
 70
     0
 43
0.0
 10
1.300971528538923
 20
0.1894430570778461
 10
1.349528983200901
 20
0.1578692142315384
 10
1.400226856926153
 20
0.1262953713852308
  0
LINE
  5
18C
330
17B
100
AcDbEntity
  8
AM_9
100
AcDbLine
 10
1.395882265875883
 20
0.0248970732931557
 30
0.0
 11
1.395693057077846
 21
0.0000000000000001
 31
0.0
  0
LWPOLYLINE
  5
18D
330
17B
100
AcDbEntity
  8
AM_9
100
AcDbPolyline
 90
        3
 70
     0
 43
0.0
 10
1.400226856926153
 20
0.1262953713852308
 10
1.396900319552656
 20
0.0634316146914368
 10
1.395882265875883
 20
0.0248970732931557
  0
LINE
  5
18E
330
17B
100
AcDbEntity
  8
AM_9
100
AcDbLine
 10
1.441159257229539
 20
0.1262953713852308
 30
0.0
 11
1.400226856926153
 21
0.1262953713852308
 31
0.0
  0
LINE
  5
18F
330
17B
100
AcDbEntity
  8
AM_9
100
AcDbLine
 10
1.441159257229539
 20
-0.1262953713852305
 30
0.0
 11
1.400226856926153
 21
-0.1262953713852305
 31
0.0
  0
LWPOLYLINE
  5
190
330
17B
100
AcDbEntity
  8
AM_9
100
AcDbPolyline
 90
        3
 70
     0
 43
0.0
 10
1.443427294546634
 20
-0.0876639037391228
 10
1.44498014295631
 20
-0.0485424412477542
 10
1.445693057077846
 20
0.0000000000000001
  0
LWPOLYLINE
  5
191
330
17B
100
AcDbEntity
  8
AM_9
100
AcDbPolyline
 90
        3
 70
     0
 43
0.0
 10
1.445693057077846
 20
0.0000000000000001
 10
1.444496366685329
 20
0.0631476856926154
 10
1.443417864371098
 20
0.087852947648788
  0
LWPOLYLINE
  5
192
330
17B
100
AcDbEntity
  8
AM_9
100
AcDbPolyline
 90
        3
 70
     0
 43
0.0
 10
1.300971528538923
 20
-0.1894430570778458
 10
1.254807454661979
 20
-0.2210168999241534
 10
1.210783799848307
 20
-0.2525907427704611
  0
LWPOLYLINE
  5
193
330
17B
100
AcDbEntity
  8
AM_9
100
AcDbPolyline
 90
        3
 70
     0
 43
0.0
 10
1.210783799848307
 20
0.2525907427704613
 10
1.254605079995155
 20
0.2211588644235644
 10
1.300971528538923
 20
0.1894430570778461
  0
LINE
  5
194
330
17B
100
AcDbEntity
  8
AM_9
100
AcDbLine
 10
1.082796710626154
 20
-0.1983264404626878
 30
0.0
 11
1.19660489783229
 21
-0.2054502516015133
 31
0.0
  0
LINE
  5
195
330
17B
100
AcDbEntity
  8
AM_9
100
AcDbLine
 10
1.19660489783229
 20
0.2054502516015136
 30
0.0
 11
1.082796710626154
 21
0.1983264404626881
 31
0.0
  0
ELLIPSE
  5
196
330
17B
100
AcDbEntity
  8
AM_9
100
AcDbEllipse
 10
1.256249999999998
 20
0.0000000000000005
 30
0.0
 11
-4.018372309702270E-17
 21
-0.218750000000001
 31
0.0
210
0.0
220
0.0
230
1.0
 40
0.8660254037844412
 41
1.032970329614971
 42
2.108622323974819
  0
ELLIPSE
  5
197
330
17B
100
AcDbEntity
  8
AM_9
100
AcDbEllipse
 10
1.25625
 20
0.0000000000000001
 30
0.0
 11
-3.926523799766204E-17
 21
-0.2137500000000002
 31
0.0
210
0.0
220
0.0
230
1.0
 40
0.8660254037844352
 41
0.9862868522353372
 42
2.155305801354456
  0
ELLIPSE
  5
198
330
17B
100
AcDbEntity
  8
AM_9
100
AcDbEllipse
 10
1.265409099270441
 20
0.0000000000000002
 30
0.0
 11
-3.169399141454452E-17
 21
-0.1725340532830152
 31
0.0
210
0.0
220
0.0
230
1.0
 40
0.8660254037844375
 41
0.6732704101474756
 42
2.468322243442318
  0
LINE
  5
199
330
17B
100
AcDbEntity
  8
AM_9
100
AcDbLine
 10
1.37625
 20
0.0703562363973518
 30
0.0
 11
1.369010904853149
 21
0.0796165180238022
 31
0.0
  0
LINE
  5
19A
330
17B
100
AcDbEntity
  8
AM_9
100
AcDbLine
 10
1.369010904853149
 20
-0.0796165180238019
 30
0.0
 11
1.37625
 21
-0.0703562363973515
 31
0.0
  0
ELLIPSE
  5
19B
330
17B
100
AcDbEntity
  8
AM_9
100
AcDbEllipse
 10
1.292626560809289
 20
0.0000000000000006
 30
0.0
 11
-2.182689656893346E-17
 21
-0.118820090734897
 31
0.0
210
0.0
220
0.0
230
1.0
 40
0.8660254037844287
 41
0.0521714424104438
 42
3.08942121117935
  0
ELLIPSE
  5
19C
330
17B
100
AcDbEntity
  8
AM_9
100
AcDbEllipse
 10
1.308749999999998
 20
-0.0000000000000027
 30
0.0
 11
-1.928818708657030E-17
 21
-0.1049999999999972
 31
0.0
210
0.0
220
0.0
230
1.0
 40
0.8660254037844405
 41
5.85810598127126
 42
9.849857286677683
  0
LINE
  5
19D
330
17B
100
AcDbEntity
  8
AM_9
100
AcDbLine
 10
1.30875
 20
-0.1049999999999999
 30
0.0
 11
1.32375
 21
-0.1049999999999999
 31
0.0
  0
LINE
  5
19E
330
17B
100
AcDbEntity
  8
AM_9
100
AcDbLine
 10
1.32375
 20
0.1050000000000001
 30
0.0
 11
1.30875
 21
0.1050000000000001
 31
0.0
  0
ELLIPSE
  5
19F
330
17B
100
AcDbEntity
  8
AM_9
100
AcDbEllipse
 10
1.32375
 20
0.0000000000000002
 30
0.0
 11
-1.928818708657083E-17
 21
-0.1050000000000001
 31
0.0
210
0.0
220
0.0
230
1.0
 40
0.8660254037844378
 41
5.23598775598299
 42
10.47197551196598
  0
ELLIPSE
  5
1A0
330
17B
100
AcDbEntity
  8
AM_9
100
AcDbEllipse
 10
1.35375
 20
-0.0000000000000001
 30
0.0
 11
-2.479909768273390E-17
 21
-0.135
 31
0.0
210
0.0
220
0.0
230
1.0
 40
0.8660254037844428
 41
0.7751090107151226
 42
2.366483642874676
  0
ELLIPSE
  5
1A1
330
17B
100
AcDbEntity
  8
AM_9
100
AcDbEllipse
 10
1.206249999999999
 20
0.0000000000000006
 30
0.0
 11
-4.018372309702243E-17
 21
-0.2187499999999995
 31
0.0
210
0.0
220
0.0
230
1.0
 40
0.866025403784437
 41
0.0
 42
6.283185307179586
  0
ELLIPSE
  5
1A2
330
17B
100
AcDbEntity
  8
AM_9
100
AcDbEllipse
 10
1.206249999999983
 20
-0.0000000000000065
 30
0.0
 11
-3.779601035291033E-17
 21
-0.2057518972230762
 31
0.0
210
0.0
220
0.0
230
1.0
 40
0.8660254037844355
 41
0.0
 42
6.283185307179586
  0
ELLIPSE
  5
1A3
330
17B
100
AcDbEntity
  8
AM_9
100
AcDbEllipse
 10
1.092107377154418
 20
-0.0000000000000148
 30
0.0
 11
-3.648546613378160E-17
 21
-0.1986176267812303
 31
0.0
210
0.0
220
0.0
230
1.0
 40
0.8660254037844327
 41
0.0
 42
6.283185307179586
  0
LWPOLYLINE
  5
1A4
330
17B
100
AcDbEntity
  8
AM_4
100
AcDbPolyline
 90
        3
 70
     0
 43
0.0
 10
1.350971528538923
 20
-0.1894430570778458
 10
1.397135602415867
 20
-0.1578692142315382
 10
1.441159257229539
 20
-0.1262953713852305
  0
LINE
  5
1A5
330
17B
100
AcDbEntity
  8
AM_4
100
AcDbLine
 10
1.441159257229539
 20
-0.1262953713852305
 30
0.0
 11
1.443427294546634
 21
-0.0876639037391228
 31
0.0
  0
LWPOLYLINE
  5
1A6
330
17B
100
AcDbEntity
  8
AM_4
100
AcDbPolyline
 90
        3
 70
     0
 43
0.0
 10
1.441159257229539
 20
0.1262953713852308
 10
1.39733797708269
 20
0.1577272497321277
 10
1.350971528538923
 20
0.1894430570778461
  0
LINE
  5
1A7
330
17B
100
AcDbEntity
  8
AM_4
100
AcDbLine
 10
1.443417864371098
 20
0.087852947648788
 30
0.0
 11
1.441159257229539
 21
0.1262953713852308
 31
0.0
  0
LWPOLYLINE
  5
1A8
330
17B
100
AcDbEntity
  8
AM_4
100
AcDbPolyline
 90
        3
 70
     0
 43
0.0
 10
1.350971528538923
 20
0.1894430570778461
 10
1.302414073876944
 20
0.2210168999241537
 10
1.251716200151693
 20
0.2525907427704613
  0
LWPOLYLINE
  5
1A9
330
17B
100
AcDbEntity
  8
AM_4
100
AcDbPolyline
 90
        3
 70
     0
 43
0.0
 10
1.251716200151693
 20
-0.2525907427704611
 10
1.302190555045535
 20
-0.2211588644235642
 10
1.350971528538923
 20
-0.1894430570778458
  0
LWPOLYLINE
  5
1AA
330
17B
100
AcDbEntity
  8
AM_4
100
AcDbPolyline
 90
        3
 70
     0
 43
0.0
 10
1.016806942922154
 20
0.0000000000000001
 10
1.018003633314671
 20
0.0631476856926155
 10
1.021340742770461
 20
0.1262953713852308
  0
LWPOLYLINE
  5
1AB
330
17B
100
AcDbEntity
  8
AM_4
100
AcDbPolyline
 90
        4
 70
     0
 43
0.0
 10
1.021340742770461
 20
-0.1262953713852305
 10
1.019548149181076
 20
-0.0967996321117977
 10
1.01751985704369
 20
-0.0485424412477542
 10
1.016806942922154
 20
0.0000000000000001
  0
LINE
  5
1AC
330
17B
100
AcDbEntity
  8
AM_4
100
AcDbLine
 10
1.251716200151693
 20
-0.2525907427704611
 30
0.0
 11
1.210783799848307
 21
-0.2525907427704611
 31
0.0
  0
LWPOLYLINE
  5
1AD
330
17B
100
AcDbEntity
  8
AM_4
100
AcDbPolyline
 90
        3
 70
     0
 43
0.0
 10
1.161528471461077
 20
-0.1894430570778458
 10
1.207692545338021
 20
-0.2210168999241534
 10
1.251716200151693
 20
-0.2525907427704611
  0
LINE
  5
1AE
330
17B
100
AcDbEntity
  8
AM_4
100
AcDbLine
 10
1.062273143073847
 20
-0.1262953713852305
 30
0.0
 11
1.021340742770461
 21
-0.1262953713852305
 31
0.0
  0
LWPOLYLINE
  5
1AF
330
17B
100
AcDbEntity
  8
AM_4
100
AcDbPolyline
 90
        3
 70
     0
 43
0.0
 10
1.111528471461077
 20
-0.1894430570778458
 10
1.065364397584133
 20
-0.1578692142315382
 10
1.021340742770461
 20
-0.1262953713852305
  0
LWPOLYLINE
  5
1B0
330
17B
100
AcDbEntity
  8
AM_4
100
AcDbPolyline
 90
        3
 70
     0
 43
0.0
 10
1.210783799848307
 20
-0.2525907427704611
 10
1.160309444954464
 20
-0.2211588644235641
 10
1.111528471461077
 20
-0.1894430570778458
  0
LWPOLYLINE
  5
1B1
330
17B
100
AcDbEntity
  8
AM_4
100
AcDbPolyline
 90
        4
 70
     0
 43
0.0
 10
1.066806942922154
 20
0.0000000000000001
 10
1.066098162563585
 20
-0.0483998160558988
 10
1.064065736663232
 20
-0.0967996321117977
 10
1.062273143073847
 20
-0.1262953713852305
  0
LWPOLYLINE
  5
1B2
330
17B
100
AcDbEntity
  8
AM_4
100
AcDbPolyline
 90
        3
 70
     0
 43
0.0
 10
1.062273143073847
 20
-0.1262953713852305
 10
1.112747497967689
 20
-0.1577272497321275
 10
1.161528471461077
 20
-0.1894430570778458
  0
ELLIPSE
  5
1B3
330
17B
100
AcDbEntity
  8
AM_4
100
AcDbEllipse
 10
1.256249999999997
 20
-0.0000000000000007
 30
0.0
 11
-4.018372309702219E-17
 21
-0.2187499999999982
 31
0.0
210
0.0
220
0.0
230
1.0
 40
0.866025403784434
 41
2.108622323974817
 42
7.316155636794568
  0
LWPOLYLINE
  5
1B4
330
17B
100
AcDbEntity
  8
AM_4
100
AcDbPolyline
 90
        3
 70
     0
 43
0.0
 10
1.062273143073847
 20
0.1262953713852308
 10
1.065599680447344
 20
0.0634316146914369
 10
1.066806942922154
 20
0.0000000000000001
  0
LINE
  5
1B5
330
17B
100
AcDbEntity
  8
AM_4
100
AcDbLine
 10
1.062273143073847
 20
0.1262953713852308
 30
0.0
 11
1.021340742770461
 21
0.1262953713852308
 31
0.0
  0
LWPOLYLINE
  5
1B6
330
17B
100
AcDbEntity
  8
AM_4
100
AcDbPolyline
 90
        3
 70
     0
 43
0.0
 10
1.161528471461077
 20
0.1894430570778461
 10
1.112971016799098
 20
0.1578692142315385
 10
1.062273143073847
 20
0.1262953713852308
  0
LWPOLYLINE
  5
1B7
330
17B
100
AcDbEntity
  8
AM_4
100
AcDbPolyline
 90
        3
 70
     0
 43
0.0
 10
1.251716200151693
 20
0.2525907427704613
 10
1.207894920004845
 20
0.2211588644235644
 10
1.161528471461077
 20
0.1894430570778461
  0
LINE
  5
1B8
330
17B
100
AcDbEntity
  8
AM_4
100
AcDbLine
 10
1.251716200151693
 20
0.2525907427704613
 30
0.0
 11
1.210783799848307
 21
0.2525907427704613
 31
0.0
  0
LWPOLYLINE
  5
1B9
330
17B
100
AcDbEntity
  8
AM_4
100
AcDbPolyline
 90
        3
 70
     0
 43
0.0
 10
1.111528471461077
 20
0.1894430570778461
 10
1.160085926123056
 20
0.2210168999241537
 10
1.210783799848307
 20
0.2525907427704613
  0
LWPOLYLINE
  5
1BA
330
17B
100
AcDbEntity
  8
AM_4
100
AcDbPolyline
 90
        3
 70
     0
 43
0.0
 10
1.021340742770461
 20
0.1262953713852308
 10
1.065162022917309
 20
0.1577272497321277
 10
1.111528471461077
 20
0.1894430570778461
  0
ELLIPSE
  5
1BB
330
17B
100
AcDbEntity
  8
AM_4
100
AcDbEllipse
 10
1.256249999999999
 20
-0.0000000000000003
 30
0.0
 11
-3.926523799766209E-17
 21
-0.2137500000000004
 31
0.0
210
0.0
220
0.0
230
1.0
 40
0.8660254037844393
 41
2.155305801354458
 42
7.269472159414925
  0
ELLIPSE
  5
1BC
330
17B
100
AcDbEntity
  8
AM_4
100
AcDbEllipse
 10
1.26540909927044
 20
-0.0000000000000007
 30
0.0
 11
-3.169399141454471E-17
 21
-0.1725340532830163
 31
0.0
210
0.0
220
0.0
230
1.0
 40
0.8660254037844398
 41
2.468322243442314
 42
6.956455717327071
  0
ELLIPSE
  5
1BD
330
17B
100
AcDbEntity
  8
AM_4
100
AcDbEllipse
 10
1.292626560809286
 20
0.0000000000000001
 30
0.0
 11
-2.182689656893357E-17
 21
-0.1188200907348977
 31
0.0
210
0.0
220
0.0
230
1.0
 40
0.8660254037844428
 41
3.089421211179324
 42
6.335356749590051
  0
ELLIPSE
  5
1BE
330
17B
100
AcDbEntity
  8
AM_4
100
AcDbEllipse
 10
1.30875
 20
0.0000000000000001
 30
0.0
 11
-1.928818708657075E-17
 21
-0.1049999999999997
 31
0.0
210
0.0
220
0.0
230
1.0
 40
0.866025403784437
 41
3.566671979498125
 42
5.858105981271255
  0
LINE
  5
1BF
330
17B
100
AcDbEntity
  8
AM_4
100
AcDbLine
 10
1.245
 20
-0.0525
 30
0.0
 11
1.2525
 21
-0.0675
 31
0.0
  0
LINE
  5
1C0
330
17B
100
AcDbEntity
  8
AM_4
100
AcDbLine
 10
1.2525
 20
0.0675000000000003
 30
0.0
 11
1.245
 21
0.0525000000000003
 31
0.0
  0
ELLIPSE
  5
1C1
330
17B
100
AcDbEntity
  8
AM_4
100
AcDbEllipse
 10
1.32375
 20
0.0000000000000001
 30
0.0
 11
-1.928818708657091E-17
 21
-0.1050000000000006
 31
0.0
210
0.0
220
0.0
230
1.0
 40
0.866025403784434
 41
4.188790204786393
 42
5.235987755982988
  0
LINE
  5
1C2
330
17B
100
AcDbEntity
  8
AM_4
100
AcDbLine
 10
1.455976847792107
 20
0.0733474205218689
 30
0.0
 11
1.435565310731619
 21
0.0964365416902993
 31
0.0
  0
LINE
  5
1C3
330
17B
100
AcDbEntity
  8
AM_4
100
AcDbLine
 10
1.435565310731619
 20
-0.096436541690299
 30
0.0
 11
1.455976847792107
 21
-0.0733474205218686
 31
0.0
  0
ELLIPSE
  5
1C4
330
17B
100
AcDbEntity
  8
AM_4
100
AcDbEllipse
 10
1.35375
 20
0.000000000000003
 30
0.0
 11
-2.479909768273338E-17
 21
-0.1349999999999972
 31
0.0
210
0.0
220
0.0
230
1.0
 40
0.8660254037844397
 41
2.366483642874663
 42
7.058294317894689
  0
ELLIPSE
  5
1C5
330
17B
100
AcDbEntity
  8
AM_4
100
AcDbEllipse
 10
1.39375
 20
0.0000000000000001
 30
0.0
 11
-1.886162459184658E-17
 21
-0.1026779019331875
 31
0.0
210
0.0
220
0.0
230
1.0
 40
0.8660254037844398
 41
0.0
 42
6.283185307179586
  0
ENDBLK
  5
17E
330
17B
100
AcDbEntity
  8
0
100
AcDbBlockEnd
  0
BLOCK
  5
1C8
330
1C6
100
AcDbEntity
  8
0
100
AcDbBlockBegin
  2
7_069466H_0_in_069466_4
 70
     2
 10
0.0
 20
0.0
 30
0.0
  3
7_069466H_0_in_069466_4
  1

  0
ATTDEF
  5
1CA
330
1C6
100
AcDbEntity
  8
AM_6
100
AcDbText
 10
9.1875
 20
1.375
 30
0.0
 40
0.5
  1
P2B-IP -(Labyrinth Seal)-Housing -Inch
100
AcDbAttributeDefinition
  3

  2
NN
 70
     8
280
     0
  0
ATTDEF
  5
1CB
330
1C6
100
AcDbEntity
  8
AM_6
100
AcDbText
 10
9.1875
 20
0.875
 30
0.0
 40
0.5
  1
Imperial 2 Bolt Piliow Block Bearings
100
AcDbAttributeDefinition
  3

  2
NT
 70
     8
280
     0
  0
ATTDEF
  5
1CC
330
1C6
100
AcDbEntity
  8
AM_6
100
AcDbText
 10
9.1875
 20
0.375
 30
0.0
 40
0.5
  1
069466H
100
AcDbAttributeDefinition
  3

  2
NB
 70
     8
280
     0
  0
ATTDEF
  5
1CD
330
1C6
100
AcDbEntity
  8
AM_6
100
AcDbText
 10
9.1875
 20
-0.125
 30
0.0
 40
0.5
  1
$PN.H
100
AcDbAttributeDefinition
  3

  2
NBSYN
 70
     8
280
     0
  0
ATTDEF
  5
1CE
330
1C6
100
AcDbEntity
  8
AM_6
100
AcDbText
 10
9.1875
 20
-0.625
 30
0.0
 40
0.5
  1
069466
100
AcDbAttributeDefinition
  3

  2
LINA
 70
     8
280
     0
  0
ATTDEF
  5
1CF
330
1C6
100
AcDbEntity
  8
AM_6
100
AcDbText
 10
9.1875
 20
-1.125
 30
0.0
 40
0.5
  1
1-15/16
100
AcDbAttributeDefinition
  3

  2
SS
 70
     8
280
     0
  0
ATTDEF
  5
1D0
330
1C6
100
AcDbEntity
  8
AM_6
100
AcDbText
 10
9.1875
 20
-1.625
 30
0.0
 40
0.5
  1
069466
100
AcDbAttributeDefinition
  3

  2
PN
 70
     8
280
     0
  0
ATTDEF
  5
1D1
330
1C6
100
AcDbEntity
  8
AM_6
100
AcDbText
 10
9.1875
 20
-2.125
 30
0.0
 40
0.5
  1
P2B-IP-115L
100
AcDbAttributeDefinition
  3

  2
DESCRIPTION
 70
     8
280
     0
  0
ATTDEF
  5
1D2
330
1C6
100
AcDbEntity
  8
AM_6
100
AcDbText
 10
9.1875
 20
-2.625
 30
0.0
 40
0.5
  1
Non-Expansion Type
100
AcDbAttributeDefinition
  3

  2
EF
 70
     8
280
     0
  0
ATTDEF
  5
1D3
330
1C6
100
AcDbEntity
  8
AM_6
100
AcDbText
 10
9.1875
 20
-3.125
 30
0.0
 40
0.5
  1
Labyrinth Seal
100
AcDbAttributeDefinition
  3

  2
ST
 70
     8
280
     0
  0
ATTDEF
  5
1D4
330
1C6
100
AcDbEntity
  8
AM_6
100
AcDbText
 10
9.1875
 20
-3.625
 30
0.0
 40
0.5
  1
2-55/64
100
AcDbAttributeDefinition
  3

  2
A
 70
     8
280
     0
  0
ATTDEF
  5
1D5
330
1C6
100
AcDbEntity
  8
AM_6
100
AcDbText
 10
9.1875
 20
-4.125
 30
0.0
 40
0.5
  1
8-3/8
100
AcDbAttributeDefinition
  3

  2
B
 70
     8
280
     0
  0
ATTDEF
  5
1D6
330
1C6
100
AcDbEntity
  8
AM_6
100
AcDbText
 10
9.1875
 20
-4.625
 30
0.0
 40
0.5
  1
2-1/2
100
AcDbAttributeDefinition
  3

  2
C
 70
     8
280
     0
  0
ATTDEF
  5
1D7
330
1C6
100
AcDbEntity
  8
AM_6
100
AcDbText
 10
9.1875
 20
-5.125
 30
0.0
 40
0.5
  1
6-1/16
100
AcDbAttributeDefinition
  3

  2
DMIN
 70
     8
280
     0
  0
ATTDEF
  5
1D8
330
1C6
100
AcDbEntity
  8
AM_6
100
AcDbText
 10
9.1875
 20
-5.625
 30
0.0
 40
0.5
  1
6-7/16
100
AcDbAttributeDefinition
  3

  2
DMAX
 70
     8
280
     0
  0
ATTDEF
  5
1D9
330
1C6
100
AcDbEntity
  8
AM_6
100
AcDbText
 10
9.1875
 20
-6.125
 30
0.0
 40
0.5
  1
5/8
100
AcDbAttributeDefinition
  3

  2
F
 70
     8
280
     0
  0
ATTDEF
  5
1DA
330
1C6
100
AcDbEntity
  8
AM_6
100
AcDbText
 10
9.1875
 20
-6.625
 30
0.0
 40
0.5
  1
61/64
100
AcDbAttributeDefinition
  3

  2
G
 70
     8
280
     0
  0
ATTDEF
  5
1DB
330
1C6
100
AcDbEntity
  8
AM_6
100
AcDbText
 10
9.1875
 20
-7.125
 30
0.0
 40
0.5
  1
1-5/16
100
AcDbAttributeDefinition
  3

  2
H
 70
     8
280
     0
  0
ATTDEF
  5
1DC
330
1C6
100
AcDbEntity
  8
AM_6
100
AcDbText
 10
9.1875
 20
-7.625
 30
0.0
 40
0.5
  1
4-9/16
100
AcDbAttributeDefinition
  3

  2
J
 70
     8
280
     0
  0
ATTDEF
  5
1DD
330
1C6
100
AcDbEntity
  8
AM_6
100
AcDbText
 10
9.1875
 20
-8.125
 30
0.0
 40
0.5
  1
3-9/32
100
AcDbAttributeDefinition
  3

  2
L
 70
     8
280
     0
  0
ATTDEF
  5
1DE
330
1C6
100
AcDbEntity
  8
AM_6
100
AcDbText
 10
9.1875
 20
-8.625
 30
0.0
 40
0.5
  1
2-1/4
100
AcDbAttributeDefinition
  3

  2
M
 70
     8
280
     0
  0
ATTDEF
  5
1DF
330
1C6
100
AcDbEntity
  8
AM_6
100
AcDbText
 10
9.1875
 20
-9.125
 30
0.0
 40
0.5
  1
55/64
100
AcDbAttributeDefinition
  3

  2
R
 70
     8
280
     0
  0
ATTDEF
  5
1E0
330
1C6
100
AcDbEntity
  8
AM_6
100
AcDbText
 10
9.1875
 20
-9.625
 30
0.0
 40
0.5
  1
2
100
AcDbAttributeDefinition
  3

  2
S
 70
     8
280
     0
  0
ATTDEF
  5
1E1
330
1C6
100
AcDbEntity
  8
AM_6
100
AcDbText
 10
9.1875
 20
-10.125
 30
0.0
 40
0.5
  1
1/4
100
AcDbAttributeDefinition
  3

  2
X
 70
     8
280
     0
  0
ATTDEF
  5
1E2
330
1C6
100
AcDbEntity
  8
AM_6
100
AcDbText
 10
9.1875
 20
-10.625
 30
0.0
 40
0.5
  1
0.020
100
AcDbAttributeDefinition
  3

  2
Y
 70
     8
280
     0
  0
ATTDEF
  5
1E3
330
1C6
100
AcDbEntity
  8
AM_6
100
AcDbText
 10
9.1875
 20
-11.125
 30
0.0
 40
0.5
  1
2-19/64
100
AcDbAttributeDefinition
  3

  2
Z
 70
     8
280
     0
  0
ATTDEF
  5
1E4
330
1C6
100
AcDbEntity
  8
AM_6
100
AcDbText
 10
9.1875
 20
-11.625
 30
0.0
 40
0.5
  1
baldor
100
AcDbAttributeDefinition
  3

  2
COMPANY
 70
     8
280
     0
  0
LINE
  5
1E5
330
1C6
100
AcDbEntity
  8
AM_9
100
AcDbLine
 10
1.77165
 20
-1.125
 30
0.0
 11
1.77165
 21
1.125
 31
0.0
  0
LINE
  5
1E6
330
1C6
100
AcDbEntity
  8
AM_9
100
AcDbLine
 10
-1.77165
 20
1.125
 30
0.0
 11
-1.77165
 21
-1.125
 31
0.0
  0
LWPOLYLINE
  5
1E7
330
1C6
100
AcDbEntity
  8
AM_9
100
AcDbPolyline
 90
        3
 70
     0
 43
0.0
 10
1.170211098714118
 20
0.4997389975534595
 10
1.167384574105029
 20
0.4998341347349075
 10
1.156250000000002
 20
0.5000000000000001
  0
LWPOLYLINE
  5
1E8
330
1C6
100
AcDbEntity
  8
AM_9
100
AcDbPolyline
 90
       28
 70
     0
 43
0.0
 10
1.202031249760048
 20
-0.4971598616240473
 10
1.24728852142554
 20
-0.48847663146464
 10
1.291702225020995
 20
-0.4738040818830669
 10
1.33375910709958
 20
-0.4535240826801977
 10
1.373389307780634
 20
-0.4275609977606559
 10
1.41006902629128
 20
-0.3963619931845671
 10
1.443255529958344
 20
-0.360491764483174
 10
1.473286010594999
 20
-0.3193426459804197
 10
1.499341456520905
 20
-0.2740218467794373
 10
1.521047502543078
 20
-0.2253523177876255
 10
1.538281563756751
 20
-0.1735787804988648
 10
1.550940271829656
 20
-0.1193566830580235
 10
1.558829658893097
 20
-0.0637340042477069
 10
1.561832144346131
 20
-0.0083789844029088
 10
1.560193517752067
 20
0.0472619599311492
 10
1.553938874599888
 20
0.1021194097627884
 10
1.543200031841786
 20
0.1550430619014298
 10
1.528041501104899
 20
0.2062099344742657
 10
1.508677666014587
 20
0.2547056694245476
 10
1.484766601652671
 20
0.3007342685914582
 10
1.456735218197498
 20
0.3431862077029274
 10
1.424975680722918
 20
0.381313133904567
 10
1.38892631680579
 20
0.415284209406198
 10
1.34939353791683
 20
0.4441076120194638
 10
1.307009666577473
 20
0.4672256951895815
 10
1.262330876283429
 20
0.484223998862544
 10
1.215499437354977
 20
0.4951700490235163
 10
1.170211098714118
 20
0.4997389975534595
  0
LINE
  5
1E9
330
1C6
100
AcDbEntity
  8
AM_9
100
AcDbLine
 10
1.156250000000002
 20
-0.4999999999999998
 30
0.0
 11
1.160885894792693
 21
-0.4999713054546177
 31
0.0
  0
ELLIPSE
  5
1EA
330
1C6
100
AcDbEntity
  8
AM_9
100
AcDbEllipse
 10
1.156249999979601
 20
-0.0000000000002272
 30
0.0
 11
-9.184850993600972E-17
 21
-0.4999999999997727
 31
0.0
210
0.0
220
0.0
230
1.0
 40
0.8660254037845416
 41
0.0
 42
3.141592653589793
  0
LINE
  5
1ED
330
1C6
100
AcDbEntity
  8
AM_7
100
AcDbLine
 10
0.0
 20
1.375
 30
0.0
 11
0.0
 21
-2.14396875
 31
0.0
  0
LINE
  5
1EE
330
1C6
100
AcDbEntity
  8
AM_7
100
AcDbLine
 10
2.703125
 20
-0.0000000000000001
 30
0.0
 11
3.546875
 21
-0.0000000000000001
 31
0.0
  0
LINE
  5
1EF
330
1C6
100
AcDbEntity
  8
AM_7
100
AcDbLine
 10
3.03125
 20
-0.3281250000000001
 30
0.0
 11
3.03125
 21
0.3281249999999999
 31
0.0
  0
LINE
  5
1F0
330
1C6
100
AcDbEntity
  8
AM_7
100
AcDbLine
 10
-3.546875
 20
0.0000000000000004
 30
0.0
 11
-2.703125
 21
0.0000000000000003
 31
0.0
  0
LINE
  5
1F1
330
1C6
100
AcDbEntity
  8
AM_7
100
AcDbLine
 10
-3.03125
 20
-0.3281249999999997
 30
0.0
 11
-3.03125
 21
0.3281250000000003
 31
0.0
  0
LINE
  5
1F2
330
1C6
100
AcDbEntity
  8
AM_7
100
AcDbLine
 10
3.21875
 20
-0.3281250000000001
 30
0.0
 11
3.21875
 21
0.3281249999999999
 31
0.0
  0
LINE
  5
1F3
330
1C6
100
AcDbEntity
  8
AM_7
100
AcDbLine
 10
-3.21875
 20
-0.3281249999999996
 30
0.0
 11
-3.21875
 21
0.3281250000000004
 31
0.0
  0
LINE
  5
1F4
330
1C6
100
AcDbEntity
  8
AM_4
100
AcDbLine
 10
3.937499999999999
 20
-1.25
 30
0.0
 11
4.1875
 21
-1.0
 31
0.0
  0
LINE
  5
1F5
330
1C6
100
AcDbEntity
  8
AM_4
100
AcDbLine
 10
4.1875
 20
1.0
 30
0.0
 11
3.9375
 21
1.25
 31
0.0
  0
LINE
  5
1F6
330
1C6
100
AcDbEntity
  8
AM_4
100
AcDbLine
 10
4.1875
 20
-1.0
 30
0.0
 11
4.1875
 21
1.0
 31
0.0
  0
LINE
  5
1F7
330
1C6
100
AcDbEntity
  8
AM_4
100
AcDbLine
 10
-4.1875
 20
-1.0
 30
0.0
 11
-3.9375
 21
-1.25
 31
0.0
  0
LINE
  5
1F8
330
1C6
100
AcDbEntity
  8
AM_4
100
AcDbLine
 10
-3.9375
 20
1.25
 30
0.0
 11
-4.187500000000001
 21
0.9999999999999993
 31
0.0
  0
LINE
  5
1F9
330
1C6
100
AcDbEntity
  8
AM_4
100
AcDbLine
 10
-4.1875
 20
-1.0
 30
0.0
 11
-4.1875
 21
1.0
 31
0.0
  0
LINE
  5
1FA
330
1C6
100
AcDbEntity
  8
AM_4
100
AcDbLine
 10
-2.56875
 20
-1.25
 30
0.0
 11
-2.44375
 21
-1.125
 31
0.0
  0
LINE
  5
1FB
330
1C6
100
AcDbEntity
  8
AM_4
100
AcDbLine
 10
-2.44375
 20
1.125
 30
0.0
 11
-2.56875
 21
1.25
 31
0.0
  0
LINE
  5
1FC
330
1C6
100
AcDbEntity
  8
AM_4
100
AcDbLine
 10
-2.56875
 20
-1.25
 30
0.0
 11
-3.9375
 21
-1.25
 31
0.0
  0
LINE
  5
1FD
330
1C6
100
AcDbEntity
  8
AM_4
100
AcDbLine
 10
-3.03125
 20
0.3125000000000002
 30
0.0
 11
-3.21875
 21
0.3125000000000003
 31
0.0
  0
ARC
  5
1FE
330
1C6
100
AcDbEntity
  8
AM_4
100
AcDbCircle
 10
-3.03125
 20
0.0000000000000002
 30
0.0
 40
0.3124999999999999
100
AcDbArc
 50
270.0
 51
90.0
  0
LINE
  5
1FF
330
1C6
100
AcDbEntity
  8
AM_4
100
AcDbLine
 10
-3.21875
 20
-0.3124999999999997
 30
0.0
 11
-3.03125
 21
-0.3124999999999997
 31
0.0
  0
ARC
  5
200
330
1C6
100
AcDbEntity
  8
AM_4
100
AcDbCircle
 10
-3.21875
 20
0.0000000000000004
 30
0.0
 40
0.3124999999999999
100
AcDbArc
 50
90.0
 51
270.0
  0
LINE
  5
201
330
1C6
100
AcDbEntity
  8
AM_4
100
AcDbLine
 10
-2.56875
 20
1.25
 30
0.0
 11
-3.9375
 21
1.25
 31
0.0
  0
LINE
  5
202
330
1C6
100
AcDbEntity
  8
AM_4
100
AcDbLine
 10
-4.05625
 20
-1.13125
 30
0.0
 11
-4.05625
 21
1.131249999999999
 31
0.0
  0
LINE
  5
203
330
1C6
100
AcDbEntity
  8
AM_4
100
AcDbLine
 10
2.56875
 20
1.25
 30
0.0
 11
2.44375
 21
1.125
 31
0.0
  0
LINE
  5
204
330
1C6
100
AcDbEntity
  8
AM_4
100
AcDbLine
 10
2.44375
 20
-1.125
 30
0.0
 11
2.56875
 21
-1.25
 31
0.0
  0
LINE
  5
205
330
1C6
100
AcDbEntity
  8
AM_4
100
AcDbLine
 10
3.21875
 20
0.3124999999999999
 30
0.0
 11
3.03125
 21
0.3124999999999999
 31
0.0
  0
ARC
  5
206
330
1C6
100
AcDbEntity
  8
AM_4
100
AcDbCircle
 10
3.21875
 20
-0.0000000000000001
 30
0.0
 40
0.3124999999999999
100
AcDbArc
 50
270.0
 51
90.0
  0
LINE
  5
207
330
1C6
100
AcDbEntity
  8
AM_4
100
AcDbLine
 10
3.03125
 20
-0.3125000000000001
 30
0.0
 11
3.21875
 21
-0.3125000000000001
 31
0.0
  0
ARC
  5
208
330
1C6
100
AcDbEntity
  8
AM_4
100
AcDbCircle
 10
3.03125
 20
0.0
 30
0.0
 40
0.3125
100
AcDbArc
 50
90.0
 51
270.0
  0
LINE
  5
209
330
1C6
100
AcDbEntity
  8
AM_4
100
AcDbLine
 10
3.9375
 20
1.25
 30
0.0
 11
2.56875
 21
1.25
 31
0.0
  0
LINE
  5
20A
330
1C6
100
AcDbEntity
  8
AM_4
100
AcDbLine
 10
3.937499999999999
 20
-1.25
 30
0.0
 11
2.56875
 21
-1.25
 31
0.0
  0
LINE
  5
20B
330
1C6
100
AcDbEntity
  8
AM_4
100
AcDbLine
 10
4.056250000000001
 20
-1.131249999999999
 30
0.0
 11
4.056250000000001
 21
1.131249999999999
 31
0.0
  0
LINE
  5
20C
330
1C6
100
AcDbEntity
  8
AM_4
100
AcDbLine
 10
2.351875
 20
-0.8928571428571429
 30
0.0
 11
2.351875
 21
0.8928571428571429
 31
0.0
  0
LINE
  5
20D
330
1C6
100
AcDbEntity
  8
AM_4
100
AcDbLine
 10
-2.351875
 20
-0.8928571428571429
 30
0.0
 11
-2.351875
 21
0.8928571428571429
 31
0.0
  0
LINE
  5
20E
330
1C6
100
AcDbEntity
  8
AM_4
100
AcDbLine
 10
-2.559986344569527
 20
0.8928571428571429
 30
0.0
 11
-2.559986344569527
 21
1.241236344569527
 31
0.0
  0
LINE
  5
20F
330
1C6
100
AcDbEntity
  8
AM_4
100
AcDbLine
 10
2.559986344569529
 20
0.8928571428571429
 30
0.0
 11
2.559986344569527
 21
1.241236344569527
 31
0.0
  0
LINE
  5
210
330
1C6
100
AcDbEntity
  8
AM_4
100
AcDbLine
 10
-2.559986344569527
 20
-1.241236344569527
 30
0.0
 11
-2.559986344569527
 21
-0.8928571428571429
 31
0.0
  0
LINE
  5
211
330
1C6
100
AcDbEntity
  8
AM_4
100
AcDbLine
 10
2.559986344569527
 20
-1.241236344569527
 30
0.0
 11
2.559986344569529
 21
-0.8928571428571429
 31
0.0
  0
LINE
  5
212
330
1C6
100
AcDbEntity
  8
AM_4
100
AcDbLine
 10
-2.429698852599442
 20
0.8928571428571429
 30
0.0
 11
-2.429698852599442
 21
1.125
 31
0.0
  0
LINE
  5
213
330
1C6
100
AcDbEntity
  8
AM_4
100
AcDbLine
 10
-2.429698852599442
 20
-1.125
 30
0.0
 11
-2.429698852599442
 21
-0.8928571428571429
 31
0.0
  0
LINE
  5
214
330
1C6
100
AcDbEntity
  8
AM_4
100
AcDbLine
 10
2.429698852599443
 20
0.8928571428571429
 30
0.0
 11
2.429698852599443
 21
1.125
 31
0.0
  0
LINE
  5
215
330
1C6
100
AcDbEntity
  8
AM_4
100
AcDbLine
 10
2.429698852599443
 20
-1.125
 30
0.0
 11
2.429698852599443
 21
-0.8928571428571429
 31
0.0
  0
LINE
  5
216
330
1C6
100
AcDbEntity
  8
AM_4
100
AcDbLine
 10
2.295541525187222
 20
0.8928571428571429
 30
0.0
 11
2.295541525187222
 21
1.125
 31
0.0
  0
LINE
  5
217
330
1C6
100
AcDbEntity
  8
AM_4
100
AcDbLine
 10
2.295541525187222
 20
-1.125
 30
0.0
 11
2.295541525187222
 21
-0.8928571428571429
 31
0.0
  0
LINE
  5
218
330
1C6
100
AcDbEntity
  8
AM_4
100
AcDbLine
 10
2.559986344569529
 20
-0.8928571428571429
 30
0.0
 11
2.28625
 21
-0.8928571428571429
 31
0.0
  0
LINE
  5
219
330
1C6
100
AcDbEntity
  8
AM_4
100
AcDbLine
 10
2.28625
 20
0.8928571428571429
 30
0.0
 11
2.28625
 21
-0.8928571428571429
 31
0.0
  0
LINE
  5
21A
330
1C6
100
AcDbEntity
  8
AM_4
100
AcDbLine
 10
2.559986344569529
 20
0.8928571428571429
 30
0.0
 11
2.28625
 21
0.8928571428571429
 31
0.0
  0
LINE
  5
21B
330
1C6
100
AcDbEntity
  8
AM_4
100
AcDbLine
 10
-2.295541525187222
 20
0.8928571428571429
 30
0.0
 11
-2.295541525187222
 21
1.125
 31
0.0
  0
LINE
  5
21C
330
1C6
100
AcDbEntity
  8
AM_4
100
AcDbLine
 10
-2.28625
 20
0.8928571428571429
 30
0.0
 11
-2.559986344569527
 21
0.8928571428571429
 31
0.0
  0
LINE
  5
21D
330
1C6
100
AcDbEntity
  8
AM_4
100
AcDbLine
 10
-2.28625
 20
-0.8928571428571429
 30
0.0
 11
-2.28625
 21
0.8928571428571429
 31
0.0
  0
LINE
  5
21E
330
1C6
100
AcDbEntity
  8
AM_4
100
AcDbLine
 10
-2.28625
 20
-0.8928571428571429
 30
0.0
 11
-2.559986344569527
 21
-0.8928571428571429
 31
0.0
  0
LINE
  5
21F
330
1C6
100
AcDbEntity
  8
AM_4
100
AcDbLine
 10
-2.295541525187222
 20
-1.125
 30
0.0
 11
-2.295541525187222
 21
-0.8928571428571429
 31
0.0
  0
LWPOLYLINE
  5
220
330
1C6
100
AcDbEntity
  8
AM_4
100
AcDbPolyline
 90
       37
 70
     0
 43
0.0
 10
1.156250000000002
 20
0.5000000000000001
 10
1.123410442319067
 20
0.4985713220383391
 10
1.090461859522948
 20
0.4943037280318868
 10
1.056794788965865
 20
0.487005758444414
 10
1.023446833242783
 20
0.4768067765718994
 10
0.9889208109213317
 20
0.4629979959892818
 10
0.9552478956042411
 20
0.4461498474435783
 10
0.9217870647040061
 20
0.4257763953539748
 10
0.889755411687663
 20
0.4024629644080909
 10
0.8596823983384206
 20
0.376613904927535
 10
0.8315012070040058
 20
0.3482097070420833
 10
0.8047415776091466
 20
0.3165233611983979
 10
0.7804582505618034
 20
0.2825476003365343
 10
0.7592013300028063
 20
0.2470937913548765
 10
0.7407502547954538
 20
0.2098829152036509
 10
0.7248772839595452
 20
0.1699844524571313
 10
0.7123308858899221
 20
0.1287815581731701
 10
0.7000983739158059
 20
0.0655394815960982
 10
0.6958867898695581
 20
0.0000000000000001
 10
0.6975319279796055
 20
-0.0409680649265614
 10
0.7024370321086334
 20
-0.0816483370109189
 10
0.7108525649936838
 20
-0.1229256159020926
 10
0.7225798438904202
 20
-0.1632966740218378
 10
0.7370361602195845
 20
-0.2013588577522414
 10
0.7543655312278222
 20
-0.2380427962226971
 10
0.7750235537667748
 20
-0.2740698306710742
 10
0.7983604269074341
 20
-0.3081468430018499
 10
0.8238220870011815
 20
-0.3396362393245093
 10
0.8514757756300874
 20
-0.3688015740270619
 10
0.8819713846223317
 20
-0.3961640572756068
 10
0.9142882035973633
 20
-0.4206750603235495
 10
0.9475277314220064
 20
-0.44178161983079
 10
0.9819992986809991
 20
-0.4598186761264274
 10
1.018508140518912
 20
-0.4750345875319478
 10
1.055731844536689
 20
-0.4867290377398283
 10
1.105642311851844
 20
-0.4966226813736999
 10
1.156250000000002
 20
-0.4999999999999998
  0
ELLIPSE
  5
221
330
1C6
100
AcDbEntity
  8
AM_4
100
AcDbEllipse
 10
1.15625
 20
0.0000000000000001
 30
0.0
 11
-9.184850993605151E-17
 21
-0.5000000000000001
 31
0.0
210
0.0
220
0.0
230
1.0
 40
0.8660254037844387
 41
3.141592653589793
 42
6.283185307179586
  0
ELLIPSE
  5
222
330
1C6
100
AcDbEntity
  8
AM_4
100
AcDbEllipse
 10
1.20625
 20
0.0000000000000001
 30
0.0
 11
2.449293598294708E-17
 21
0.4000000000000002
 31
0.0
210
0.0
220
0.0
230
1.0
 40
0.8660254037844384
 41
0.0
 42
6.283185307179586
  0
LWPOLYLINE
  5
223
330
1C6
100
AcDbEntity
  8
AM_4
100
AcDbPolyline
 90
       47
 70
     0
 43
0.0
 10
1.156720624853008
 20
-0.4999997231402316
 10
1.181758704310369
 20
-0.4991859595092346
 10
1.212247162517788
 20
-0.4960646706629659
 10
1.242451108348233
 20
-0.4906224281986774
 10
1.272236211374705
 20
-0.4828867395319479
 10
1.301470152632278
 20
-0.472893344437068
 10
1.330022514987906
 20
-0.4606863252634004
 10
1.357764790890492
 20
-0.4463183955829731
 10
1.384570565839515
 20
-0.4298512985046393
 10
1.410315912831937
 20
-0.4113562277918659
 10
1.434880002646362
 20
-0.3909141786762614
 10
1.458145902787933
 20
-0.3686161429917847
 10
1.480001509837719
 20
-0.3445630845622221
 10
1.500340541299036
 20
-0.3188656620748815
 10
1.519063507439125
 20
-0.2916437017815868
 10
1.536078591605086
 20
-0.2630254541622449
 10
1.551302386271197
 20
-0.2331466912214267
 10
1.564660456587403
 20
-0.2021497112569543
 10
1.57608772781983
 20
-0.1701823160023249
 10
1.585528713276838
 20
-0.1373968139545702
 10
1.592937612642956
 20
-0.1039490876883407
 10
1.598278316795538
 20
-0.0699977460799424
 10
1.601524355413775
 20
-0.0357033675243902
 10
1.602658819976977
 20
-0.0012278288468209
 10
1.601674289018919
 20
0.0332662931704655
 10
1.598572834933259
 20
0.0676157818846586
 10
1.593366090294636
 20
0.101657681046607
 10
1.586075167252148
 20
0.1352303983327751
 10
1.576730755373003
 20
0.1681736725495266
 10
1.565373258450578
 20
0.2003291516767863
 10
1.552052953625281
 20
0.2315410453663223
 10
1.536830148088485
 20
0.2616568747751277
 10
1.51977529842897
 20
0.2905283373966933
 10
1.500969048177045
 20
0.3180122943666234
 10
1.48050213265004
 20
0.3439718721344471
 10
1.458475099740221
 20
0.3682776500259358
 10
1.434997803560622
 20
0.3908088825114366
 10
1.410188646313889
 20
0.4114546842807644
 10
1.384173571372231
 20
0.4301150930087569
 10
1.357084843349667
 20
0.44670192409369
 10
1.329059682446847
 20
0.4611393464296162
 10
1.30023884336853
 20
0.4733641373453857
 10
1.270765238107973
 20
0.4833256130830139
 10
1.240782694873459
 20
0.4909852708715582
 10
1.210434924500076
 20
0.4963162119404794
 10
1.179864735951987
 20
0.4993024361214028
 10
1.155446534733648
 20
0.499999193053796
  0
LINE
  5
224
330
1C6
100
AcDbEntity
  8
AM_4
100
AcDbLine
 10
0.59055
 20
-1.125
 30
0.0
 11
0.59055
 21
1.125
 31
0.0
  0
LINE
  5
225
330
1C6
100
AcDbEntity
  8
AM_4
100
AcDbLine
 10
2.44375
 20
1.125
 30
0.0
 11
-2.44375
 21
1.125
 31
0.0
  0
LINE
  5
226
330
1C6
100
AcDbEntity
  8
AM_4
100
AcDbLine
 10
-0.59055
 20
-1.125
 30
0.0
 11
-0.59055
 21
1.125
 31
0.0
  0
LINE
  5
227
330
1C6
100
AcDbEntity
  8
AM_4
100
AcDbLine
 10
-2.44375
 20
-1.125
 30
0.0
 11
2.44375
 21
-1.125
 31
0.0
  0
LINE
  5
228
330
1C6
100
AcDbEntity
  8
AM_4
100
AcDbLine
 10
0.5249250000000004
 20
-1.125
 30
0.0
 11
0.5249250000000004
 21
1.125
 31
0.0
  0
LINE
  5
229
330
1C6
100
AcDbEntity
  8
AM_4
100
AcDbLine
 10
-0.5249250000000004
 20
-1.125
 30
0.0
 11
-0.5249250000000004
 21
1.125
 31
0.0
  0
ENDBLK
  5
1C9
330
1C6
100
AcDbEntity
  8
0
100
AcDbBlockEnd
  0
ENDSEC
  0
SECTION
  2
ENTITIES
  0
INSERT
  5
6F
330
1F
100
AcDbEntity
  8
0
100
AcDbBlockReference
  2
1_069466_4
 10
0.0
 20
0.0
 30
0.0
  0
POINT
  5
22B
330
1F
100
AcDbEntity
  8
ConnectionPoints
100
AcDbPoint
 10
0.0
 20
-1.837166666666667
 30
1.358506944444445
  0
POINT
  5
22C
330
1F
100
AcDbEntity
  8
ConnectionPoints
100
AcDbPoint
 10
0.0
 20
-1.767166666666667
 30
0.0000000000000001
  0
POINT
  5
22D
330
1F
100
AcDbEntity
  8
ConnectionPoints
100
AcDbPoint
 10
0.0
 20
-2.0
 30
0.0000000000000001
  0
POINT
  5
22E
330
1F
100
AcDbEntity
  8
ConnectionPoints
100
AcDbPoint
 10
0.0
 20
-1.966166666666667
 30
0.0000000000000001
  0
POINT
  5
22F
330
1F
100
AcDbEntity
  8
ConnectionPoints
100
AcDbPoint
 10
0.0
 20
-1.767166666666667
 30
1.358506944444444
  0
POINT
  5
230
330
1F
100
AcDbEntity
  8
ConnectionPoints
100
AcDbPoint
 10
0.0
 20
-1.899
 30
1.358506944444444
  0
POINT
  5
231
330
1F
100
AcDbEntity
  8
ConnectionPoints
100
AcDbPoint
 10
0.0
 20
-1.767166666666667
 30
-1.358506944444444
  0
POINT
  5
232
330
1F
100
AcDbEntity
  8
ConnectionPoints
100
AcDbPoint
 10
0.0
 20
-1.899
 30
-1.358506944444444
  0
POINT
  5
233
330
1F
100
AcDbEntity
  8
ConnectionPoints
100
AcDbPoint
 10
0.0
 20
-1.767166666666667
 30
0.0000000000000001
  0
POINT
  5
234
330
1F
100
AcDbEntity
  8
ConnectionPoints
100
AcDbPoint
 10
1.20625
 20
0.0000000000000001
 30
2.089286286629958
  0
POINT
  5
235
330
1F
100
AcDbEntity
  8
ConnectionPoints
100
AcDbPoint
 10
1.20625
 20
0.0000000000000001
 30
2.089286286629958
  0
POINT
  5
236
330
1F
100
AcDbEntity
  8
ConnectionPoints
100
AcDbPoint
 10
0.0
 20
-1.75
 30
0.0000000000000001
  0
POINT
  5
237
330
1F
100
AcDbEntity
  8
ConnectionPoints
100
AcDbPoint
 10
0.0
 20
-2.0
 30
0.0000000000000001
  0
ENDSEC
  0
SECTION
  2
OBJECTS
  0
DICTIONARY
  5
C
330
0
100
AcDbDictionary
281
     1
  3
ACAD_DETAILVIEWSTYLE
350
23F
  3
ACAD_GROUP
350
D
  3
ACAD_LAYOUT
350
1A
  3
ACAD_MATERIAL
350
43
  3
ACAD_MLEADERSTYLE
350
6B
  3
ACAD_MLINESTYLE
350
17
  3
ACAD_PLOTSETTINGS
350
19
  3
ACAD_PLOTSTYLENAME
350
E
  3
ACAD_SCALELIST
350
47
  3
ACAD_SECTIONVIEWSTYLE
350
240
  3
ACAD_TABLESTYLE
350
69
  3
ACAD_VISUALSTYLE
350
2A
  3
ACDB_RECOMPOSE_DATA
350
23C
  3
AcDbVariableDictionary
350
238
  0
SUN
  5
6D
330
29
100
AcDbSun
 90
        1
290
     0
 63
     7
421
 16777215
 40
1.0
291
     1
 91
  2455826
 92
 54000000
292
     0
 70
     2
 71
   256
280
     1
  0
DICTIONARY
  5
23F
102
{ACAD_REACTORS
330
C
102
}
330
C
100
AcDbDictionary
281
     1
  0
DICTIONARY
  5
D
102
{ACAD_REACTORS
330
C
102
}
330
C
100
AcDbDictionary
281
     1
  0
DICTIONARY
  5
1A
102
{ACAD_REACTORS
330
C
102
}
330
C
100
AcDbDictionary
281
     1
  3
Layout1
350
1E
  3
Layout2
350
26
  3
Model
350
22
  0
DICTIONARY
  5
43
102
{ACAD_REACTORS
330
C
102
}
330
C
100
AcDbDictionary
281
     1
  3
ByBlock
350
45
  3
ByLayer
350
44
  3
Global
350
46
  0
DICTIONARY
  5
6B
102
{ACAD_REACTORS
330
C
102
}
330
C
100
AcDbDictionary
281
     1
  3
Standard
350
6C
  0
DICTIONARY
  5
17
102
{ACAD_REACTORS
330
C
102
}
330
C
100
AcDbDictionary
281
     1
  3
Standard
350
18
  0
DICTIONARY
  5
19
102
{ACAD_REACTORS
330
C
102
}
330
C
100
AcDbDictionary
281
     1
  0
ACDBDICTIONARYWDFLT
  5
E
102
{ACAD_REACTORS
330
C
102
}
330
C
100
AcDbDictionary
281
     1
  3
Normal
350
F
100
AcDbDictionaryWithDefault
340
F
  0
DICTIONARY
  5
47
102
{ACAD_REACTORS
330
C
102
}
330
C
100
AcDbDictionary
281
     1
  3
A0
350
48
  3
A1
350
49
  3
A2
350
4A
  3
A3
350
4B
  3
A4
350
4C
  3
A5
350
4D
  3
A6
350
4E
  3
A7
350
4F
  3
A8
350
50
  3
A9
350
51
  3
B0
350
52
  3
B1
350
53
  3
B2
350
54
  3
B3
350
55
  3
B4
350
56
  3
B5
350
57
  3
B6
350
58
  3
B7
350
59
  3
B8
350
5A
  3
B9
350
5B
  3
C0
350
5C
  3
C1
350
5D
  3
C2
350
5E
  3
C3
350
5F
  3
C4
350
60
  3
C5
350
61
  3
C6
350
62
  3
C7
350
63
  3
C8
350
64
  3
C9
350
65
  3
D0
350
66
  3
D1
350
67
  3
D2
350
68
  0
DICTIONARY
  5
240
102
{ACAD_REACTORS
330
C
102
}
330
C
100
AcDbDictionary
281
     1
  0
DICTIONARY
  5
69
102
{ACAD_REACTORS
330
C
102
}
330
C
100
AcDbDictionary
281
     1
  3
Standard
350
6A
  0
DICTIONARY
  5
2A
102
{ACAD_REACTORS
330
C
102
}
330
C
100
AcDbDictionary
281
     1
  3
2dWireframe
350
2F
  3
Basic
350
32
  3
Brighten
350
36
  3
ColorChange
350
3A
  3
Conceptual
350
34
  3
Dim
350
35
  3
EdgeColorOff
350
3D
  3
Facepattern
350
39
  3
Flat
350
2B
  3
FlatWithEdges
350
2C
  3
Gouraud
350
2D
  3
GouraudWithEdges
350
2E
  3
Hidden
350
31
  3
JitterOff
350
3B
  3
Linepattern
350
38
  3
OverhangOff
350
3C
  3
Realistic
350
33
  3
Shaded
350
42
  3
Shaded with edges
350
41
  3
Shades of Gray
350
3E
  3
Sketchy
350
3F
  3
Thicken
350
37
  3
Wireframe
350
30
  3
X-Ray
350
40
  0
XRECORD
  5
23C
102
{ACAD_REACTORS
330
C
102
}
330
C
100
AcDbXrecord
280
     1
 90
        1
330
6A
  0
DICTIONARY
  5
238
102
{ACAD_REACTORS
330
C
102
}
330
C
100
AcDbDictionary
281
     1
  3
CANNOSCALE
350
239
  3
CMLEADERSTYLE
350
23E
  3
CTABLESTYLE
350
23D
  0
LAYOUT
  5
1E
102
{ACAD_REACTORS
330
1A
102
}
330
1A
100
AcDbPlotSettings
  1

  2
none_device
  4

  6

 40
0.0
 41
0.0
 42
0.0
 43
0.0
 44
0.0
 45
0.0
 46
0.0
 47
0.0
 48
0.0
 49
0.0
140
0.0
141
0.0
142
1.0
143
1.0
 70
   688
 72
     0
 73
     0
 74
     5
  7

 75
    16
 76
     0
 77
     2
 78
   300
147
1.0
148
0.0
149
0.0
100
AcDbLayout
  1
Layout1
 70
     1
 71
     1
 10
0.0
 20
0.0
 11
12.0
 21
9.0
 12
0.0
 22
0.0
 32
0.0
 14
1.000000000000000E+20
 24
1.000000000000000E+20
 34
1.000000000000000E+20
 15
-1.000000000000000E+20
 25
-1.000000000000000E+20
 35
-1.000000000000000E+20
146
0.0
 13
0.0
 23
0.0
 33
0.0
 16
1.0
 26
0.0
 36
0.0
 17
0.0
 27
1.0
 37
0.0
 76
     0
330
1B
  0
LAYOUT
  5
26
102
{ACAD_REACTORS
330
1A
102
}
330
1A
100
AcDbPlotSettings
  1

  2
none_device
  4

  6

 40
0.0
 41
0.0
 42
0.0
 43
0.0
 44
0.0
 45
0.0
 46
0.0
 47
0.0
 48
0.0
 49
0.0
140
0.0
141
0.0
142
1.0
143
1.0
 70
   688
 72
     0
 73
     0
 74
     5
  7

 75
    16
 76
     0
 77
     2
 78
   300
147
1.0
148
0.0
149
0.0
100
AcDbLayout
  1
Layout2
 70
     1
 71
     2
 10
0.0
 20
0.0
 11
0.0
 21
0.0
 12
0.0
 22
0.0
 32
0.0
 14
0.0
 24
0.0
 34
0.0
 15
0.0
 25
0.0
 35
0.0
146
0.0
 13
0.0
 23
0.0
 33
0.0
 16
1.0
 26
0.0
 36
0.0
 17
0.0
 27
1.0
 37
0.0
 76
     0
330
23
  0
LAYOUT
  5
22
102
{ACAD_REACTORS
330
1A
102
}
330
1A
100
AcDbPlotSettings
  1

  2
none_device
  4
Letter_(8.50_x_11.00_Inches)
  6

 40
6.35
 41
6.35
 42
6.35000508
 43
6.35000508
 44
215.9
 45
279.4
 46
0.0
 47
0.0
 48
0.0
 49
0.0
140
0.0
141
0.0
142
1.0
143
1.0
 70
  1712
 72
     0
 73
     0
 74
     0
  7

 75
     0
 76
     0
 77
     2
 78
   300
147
1.0
148
0.0
149
0.0
100
AcDbLayout
  1
Model
 70
     1
 71
     0
 10
0.0
 20
0.0
 11
12.0
 21
9.0
 12
0.0
 22
0.0
 32
0.0
 14
1.000000000000000E+20
 24
1.000000000000000E+20
 34
1.000000000000000E+20
 15
-1.000000000000000E+20
 25
-1.000000000000000E+20
 35
-1.000000000000000E+20
146
0.0
 13
0.0
 23
0.0
 33
0.0
 16
1.0
 26
0.0
 36
0.0
 17
0.0
 27
1.0
 37
0.0
 76
     0
330
1F
331
29
  0
MATERIAL
  5
45
102
{ACAD_REACTORS
330
43
102
}
330
43
100
AcDbMaterial
  1
ByBlock
 72
     1
 94
      127
  0
MATERIAL
  5
44
102
{ACAD_REACTORS
330
43
102
}
330
43
100
AcDbMaterial
  1
ByLayer
 72
     1
 94
      127
  0
MATERIAL
  5
46
102
{ACAD_REACTORS
330
43
102
}
330
43
100
AcDbMaterial
  1
Global
 72
     1
 94
      127
  0
MLEADERSTYLE
  5
6C
102
{ACAD_REACTORS
330
6B
102
}
330
6B
100
AcDbMLeaderStyle
179
     2
170
     2
171
     1
172
     0
 90
        2
 40
0.0
 41
0.0
173
     1
 91
-1056964608
340
14
 92
       -2
290
     1
 42
0.09
291
     1
 43
0.36
  3
Standard
341
0
 44
0.18
300

342
11
174
     1
178
     6
175
     1
176
     0
 93
-1056964608
 45
0.18
292
     0
297
     0
 46
0.18
343
0
 94
-1056964608
 47
1.0
 49
1.0
140
1.0
293
     1
141
0.0
294
     1
177
     0
142
1.0
295
     0
296
     0
143
0.125
271
     0
272
     9
273
     9
298
     0
  0
MLINESTYLE
  5
18
102
{ACAD_REACTORS
330
17
102
}
330
17
100
AcDbMlineStyle
  2
Standard
 70
     0
  3

 62
   256
 51
90.0
 52
90.0
 71
     2
 49
0.5
 62
   256
  6
BYLAYER
 49
-0.5
 62
   256
  6
BYLAYER
  0
ACDBPLACEHOLDER
  5
F
102
{ACAD_REACTORS
330
E
102
}
330
E
  0
SCALE
  5
48
102
{ACAD_REACTORS
330
47
102
}
330
47
100
AcDbScale
 70
     0
300
1:1
140
1.0
141
1.0
290
     1
  0
SCALE
  5
49
102
{ACAD_REACTORS
330
47
102
}
330
47
100
AcDbScale
 70
     0
300
1:2
140
1.0
141
2.0
290
     0
  0
SCALE
  5
4A
102
{ACAD_REACTORS
330
47
102
}
330
47
100
AcDbScale
 70
     0
300
1:4
140
1.0
141
4.0
290
     0
  0
SCALE
  5
4B
102
{ACAD_REACTORS
330
47
102
}
330
47
100
AcDbScale
 70
     0
300
1:5
140
1.0
141
5.0
290
     0
  0
SCALE
  5
4C
102
{ACAD_REACTORS
330
47
102
}
330
47
100
AcDbScale
 70
     0
300
1:8
140
1.0
141
8.0
290
     0
  0
SCALE
  5
4D
102
{ACAD_REACTORS
330
47
102
}
330
47
100
AcDbScale
 70
     0
300
1:10
140
1.0
141
10.0
290
     0
  0
SCALE
  5
4E
102
{ACAD_REACTORS
330
47
102
}
330
47
100
AcDbScale
 70
     0
300
1:16
140
1.0
141
16.0
290
     0
  0
SCALE
  5
4F
102
{ACAD_REACTORS
330
47
102
}
330
47
100
AcDbScale
 70
     0
300
1:20
140
1.0
141
20.0
290
     0
  0
SCALE
  5
50
102
{ACAD_REACTORS
330
47
102
}
330
47
100
AcDbScale
 70
     0
300
1:30
140
1.0
141
30.0
290
     0
  0
SCALE
  5
51
102
{ACAD_REACTORS
330
47
102
}
330
47
100
AcDbScale
 70
     0
300
1:40
140
1.0
141
40.0
290
     0
  0
SCALE
  5
52
102
{ACAD_REACTORS
330
47
102
}
330
47
100
AcDbScale
 70
     0
300
1:50
140
1.0
141
50.0
290
     0
  0
SCALE
  5
53
102
{ACAD_REACTORS
330
47
102
}
330
47
100
AcDbScale
 70
     0
300
1:100
140
1.0
141
100.0
290
     0
  0
SCALE
  5
54
102
{ACAD_REACTORS
330
47
102
}
330
47
100
AcDbScale
 70
     0
300
2:1
140
2.0
141
1.0
290
     0
  0
SCALE
  5
55
102
{ACAD_REACTORS
330
47
102
}
330
47
100
AcDbScale
 70
     0
300
4:1
140
4.0
141
1.0
290
     0
  0
SCALE
  5
56
102
{ACAD_REACTORS
330
47
102
}
330
47
100
AcDbScale
 70
     0
300
8:1
140
8.0
141
1.0
290
     0
  0
SCALE
  5
57
102
{ACAD_REACTORS
330
47
102
}
330
47
100
AcDbScale
 70
     0
300
10:1
140
10.0
141
1.0
290
     0
  0
SCALE
  5
58
102
{ACAD_REACTORS
330
47
102
}
330
47
100
AcDbScale
 70
     0
300
100:1
140
100.0
141
1.0
290
     0
  0
SCALE
  5
59
102
{ACAD_REACTORS
330
47
102
}
330
47
100
AcDbScale
 70
     0
300
1/128" = 1'-0"
140
0.0078125
141
12.0
290
     0
  0
SCALE
  5
5A
102
{ACAD_REACTORS
330
47
102
}
330
47
100
AcDbScale
 70
     0
300
1/64" = 1'-0"
140
0.015625
141
12.0
290
     0
  0
SCALE
  5
5B
102
{ACAD_REACTORS
330
47
102
}
330
47
100
AcDbScale
 70
     0
300
1/32" = 1'-0"
140
0.03125
141
12.0
290
     0
  0
SCALE
  5
5C
102
{ACAD_REACTORS
330
47
102
}
330
47
100
AcDbScale
 70
     0
300
1/16" = 1'-0"
140
0.0625
141
12.0
290
     0
  0
SCALE
  5
5D
102
{ACAD_REACTORS
330
47
102
}
330
47
100
AcDbScale
 70
     0
300
3/32" = 1'-0"
140
0.09375
141
12.0
290
     0
  0
SCALE
  5
5E
102
{ACAD_REACTORS
330
47
102
}
330
47
100
AcDbScale
 70
     0
300
1/8" = 1'-0"
140
0.125
141
12.0
290
     0
  0
SCALE
  5
5F
102
{ACAD_REACTORS
330
47
102
}
330
47
100
AcDbScale
 70
     0
300
3/16" = 1'-0"
140
0.1875
141
12.0
290
     0
  0
SCALE
  5
60
102
{ACAD_REACTORS
330
47
102
}
330
47
100
AcDbScale
 70
     0
300
1/4" = 1'-0"
140
0.25
141
12.0
290
     0
  0
SCALE
  5
61
102
{ACAD_REACTORS
330
47
102
}
330
47
100
AcDbScale
 70
     0
300
3/8" = 1'-0"
140
0.375
141
12.0
290
     0
  0
SCALE
  5
62
102
{ACAD_REACTORS
330
47
102
}
330
47
100
AcDbScale
 70
     0
300
1/2" = 1'-0"
140
0.5
141
12.0
290
     0
  0
SCALE
  5
63
102
{ACAD_REACTORS
330
47
102
}
330
47
100
AcDbScale
 70
     0
300
3/4" = 1'-0"
140
0.75
141
12.0
290
     0
  0
SCALE
  5
64
102
{ACAD_REACTORS
330
47
102
}
330
47
100
AcDbScale
 70
     0
300
1" = 1'-0"
140
1.0
141
12.0
290
     0
  0
SCALE
  5
65
102
{ACAD_REACTORS
330
47
102
}
330
47
100
AcDbScale
 70
     0
300
1-1/2" = 1'-0"
140
1.5
141
12.0
290
     0
  0
SCALE
  5
66
102
{ACAD_REACTORS
330
47
102
}
330
47
100
AcDbScale
 70
     0
300
3" = 1'-0"
140
3.0
141
12.0
290
     0
  0
SCALE
  5
67
102
{ACAD_REACTORS
330
47
102
}
330
47
100
AcDbScale
 70
     0
300
6" = 1'-0"
140
6.0
141
12.0
290
     0
  0
SCALE
  5
68
102
{ACAD_REACTORS
330
47
102
}
330
47
100
AcDbScale
 70
     0
300
1'-0" = 1'-0"
140
12.0
141
12.0
290
     0
  0
TABLESTYLE
  5
6A
102
{ACAD_REACTORS
330
69
102
}
102
{ACAD_XDICTIONARY
360
23A
102
}
330
69
100
AcDbTableStyle
  3
Standard
 70
     0
 71
     0
 40
0.06
 41
0.06
280
     0
281
     0
  7
Standard
140
0.18
170
     2
 62
     0
 63
   257
283
     0
 90
        4
 91
        0
  1

274
    -2
284
     1
 64
     0
275
    -2
285
     1
 65
     0
276
    -2
286
     1
 66
     0
277
    -2
287
     1
 67
     0
278
    -2
288
     1
 68
     0
279
    -2
289
     1
 69
     0
  7
Standard
140
0.25
170
     5
 62
     0
 63
   257
283
     0
 90
        4
 91
        0
  1

274
    -2
284
     1
 64
     0
275
    -2
285
     1
 65
     0
276
    -2
286
     1
 66
     0
277
    -2
287
     1
 67
     0
278
    -2
288
     1
 68
     0
279
    -2
289
     1
 69
     0
  7
Standard
140
0.18
170
     5
 62
     0
 63
   257
283
     0
 90
        4
 91
        0
  1

274
    -2
284
     1
 64
     0
275
    -2
285
     1
 65
     0
276
    -2
286
     1
 66
     0
277
    -2
287
     1
 67
     0
278
    -2
288
     1
 68
     0
279
    -2
289
     1
 69
     0
  0
VISUALSTYLE
  5
2F
102
{ACAD_REACTORS
330
2A
102
}
330
2A
100
AcDbVisualStyle
  2
2dWireframe
 70
     4
177
     3
291
     0
 70
    58
 90
        0
176
     1
 90
        2
176
     1
 90
        0
176
     1
 90
        0
176
     1
 40
0.6
176
     1
 40
30.0
176
     1
 62
     7
420
 16777215
176
     1
 90
        1
176
     1
 90
        4
176
     1
 62
     7
176
     1
 62
   257
176
     1
 90
        1
176
     1
 90
        1
176
     1
 40
1.0
176
     1
 90
        0
176
     1
 62
   257
176
     1
 40
1.0
176
     1
 90
        1
176
     1
 90
        6
176
     1
 90
        2
176
     1
 62
     7
176
     1
 90
        5
176
     1
 90
        0
176
     1
 90
        0
176
     1
290
     0
176
     1
 90
        1
176
     1
 40
0.0
176
     1
 90
        0
176
     1
290
     1
176
     1
290
     1
176
     1
290
     0
176
     1
290
     0
176
     1
290
     0
176
     1
290
     0
176
     1
290
     0
176
     1
290
     0
176
     1
290
     0
176
     1
 90
       50
176
     1
 40
0.0
176
     1
 40
1.0
176
     1
 90
        0
176
     1
 62
    18
420
        0
176
     1
 90
       50
176
     1
 90
        3
176
     1
 62
     5
420
      255
176
     1
290
     0
176
     1
 90
       50
176
     1
 90
       50
176
     1
 90
       50
176
     1
290
     0
176
     1
 90
       50
176
     1
 62
   256
176
     0
 40
1.0
176
     0
 90
        2
176
     1
  1
strokes_ogs.tif
176
     1
290
     0
176
     1
 40
1.0
176
     1
 40
1.0
176
     1
  0
VISUALSTYLE
  5
32
102
{ACAD_REACTORS
330
2A
102
}
330
2A
100
AcDbVisualStyle
  2
Basic
 70
     7
177
     3
291
     1
 70
    58
 90
        1
176
     1
 90
        0
176
     1
 90
        1
176
     1
 90
        0
176
     1
 40
0.6
176
     1
 40
30.0
176
     1
 62
     7
420
 16777215
176
     1
 90
        0
176
     1
 90
        4
176
     1
 62
     7
176
     1
 62
   257
176
     1
 90
        1
176
     1
 90
        1
176
     1
 40
1.0
176
     1
 90
        8
176
     1
 62
     7
176
     1
 40
1.0
176
     1
 90
        1
176
     1
 90
        6
176
     1
 90
        2
176
     1
 62
     7
176
     1
 90
        5
176
     1
 90
        0
176
     1
 90
        0
176
     1
290
     0
176
     1
 90
        1
176
     1
 40
0.0
176
     1
 90
        0
176
     1
290
     0
176
     1
290
     1
176
     1
290
     1
176
     1
290
     0
176
     1
290
     0
176
     1
290
     0
176
     1
290
     0
176
     1
290
     0
176
     1
290
     0
176
     1
 90
       50
176
     1
 40
0.0
176
     1
 40
1.0
176
     1
 90
        0
176
     1
 62
    18
420
        0
176
     1
 90
       50
176
     1
 90
        3
176
     1
 62
     5
420
      255
176
     1
290
     0
176
     1
 90
       50
176
     1
 90
       50
176
     1
 90
       50
176
     1
290
     0
176
     1
 90
       50
176
     1
 62
   256
176
     0
 40
1.0
176
     0
 90
        2
176
     1
  1
strokes_ogs.tif
176
     1
290
     0
176
     1
 40
1.0
176
     1
 40
1.0
176
     1
  0
VISUALSTYLE
  5
36
102
{ACAD_REACTORS
330
2A
102
}
330
2A
100
AcDbVisualStyle
  2
Brighten
 70
    12
177
     3
291
     1
 70
    58
 90
        2
176
     1
 90
        2
176
     1
 90
        0
176
     1
 90
        0
176
     1
 40
0.6
176
     1
 40
30.0
176
     1
 62
     7
420
 16777215
176
     1
 90
        1
176
     1
 90
        4
176
     1
 62
     7
176
     1
 62
   257
176
     1
 90
        1
176
     1
 90
        1
176
     1
 40
1.0
176
     1
 90
        8
176
     1
 62
     7
176
     1
 40
1.0
176
     1
 90
        1
176
     1
 90
        6
176
     1
 90
        2
176
     1
 62
     7
176
     1
 90
        5
176
     1
 90
        0
176
     1
 90
        0
176
     1
290
     0
176
     1
 90
        1
176
     1
 40
50.0
176
     1
 90
        0
176
     1
290
     0
176
     1
290
     1
176
     1
290
     1
176
     1
290
     0
176
     1
290
     0
176
     1
290
     0
176
     1
290
     0
176
     1
290
     0
176
     1
290
     0
176
     1
 90
       50
176
     1
 40
0.0
176
     1
 40
1.0
176
     1
 90
        0
176
     1
 62
    18
420
        0
176
     1
 90
       50
176
     1
 90
        3
176
     1
 62
     5
420
      255
176
     1
290
     0
176
     1
 90
       50
176
     1
 90
       50
176
     1
 90
       50
176
     1
290
     0
176
     1
 90
       50
176
     1
 62
   256
176
     0
 40
1.0
176
     0
 90
        2
176
     1
  1
strokes_ogs.tif
176
     1
290
     0
176
     1
 40
1.0
176
     1
 40
1.0
176
     1
  0
VISUALSTYLE
  5
3A
102
{ACAD_REACTORS
330
2A
102
}
330
2A
100
AcDbVisualStyle
  2
ColorChange
 70
    16
177
     3
291
     1
 70
    58
 90
        2
176
     1
 90
        2
176
     1
 90
        3
176
     1
 90
        0
176
     1
 40
0.6
176
     1
 40
30.0
176
     1
 62
     8
420
  8421504
176
     1
 90
        1
176
     1
 90
        4
176
     1
 62
     7
176
     1
 62
   257
176
     1
 90
        1
176
     1
 90
        1
176
     1
 40
1.0
176
     1
 90
        8
176
     1
 62
     8
420
  8421504
176
     1
 40
1.0
176
     1
 90
        1
176
     1
 90
        6
176
     1
 90
        2
176
     1
 62
     7
176
     1
 90
        5
176
     1
 90
        0
176
     1
 90
        0
176
     1
290
     0
176
     1
 90
        1
176
     1
 40
0.0
176
     1
 90
        0
176
     1
290
     0
176
     1
290
     1
176
     1
290
     1
176
     1
290
     0
176
     1
290
     0
176
     1
290
     0
176
     1
290
     0
176
     1
290
     0
176
     1
290
     0
176
     1
 90
       50
176
     1
 40
0.0
176
     1
 40
1.0
176
     1
 90
        0
176
     1
 62
    18
420
        0
176
     1
 90
       50
176
     1
 90
        3
176
     1
 62
     5
420
      255
176
     1
290
     0
176
     1
 90
       50
176
     1
 90
       50
176
     1
 90
       50
176
     1
290
     0
176
     1
 90
       50
176
     1
 62
   256
176
     0
 40
1.0
176
     0
 90
        2
176
     1
  1
strokes_ogs.tif
176
     1
290
     0
176
     1
 40
1.0
176
     1
 40
1.0
176
     1
  0
VISUALSTYLE
  5
34
102
{ACAD_REACTORS
330
2A
102
}
330
2A
100
AcDbVisualStyle
  2
Conceptual
 70
     9
177
     3
291
     0
 70
    58
 90
        3
176
     1
 90
        2
176
     1
 90
        0
176
     1
 90
        0
176
     1
 40
0.6
176
     1
 40
30.0
176
     1
 62
     7
420
 16777215
176
     1
 90
        2
176
     1
 90
        2
176
     1
 62
     7
176
     1
 62
   257
176
     1
 90
        1
176
     1
 90
        1
176
     1
 40
179.0
176
     1
 90
        8
176
     1
 62
     7
176
     1
 40
1.0
176
     1
 90
        1
176
     1
 90
        6
176
     1
 90
        2
176
     1
 62
     7
176
     1
 90
        3
176
     1
 90
        0
176
     1
 90
        0
176
     1
290
     0
176
     1
 90
        1
176
     1
 40
0.0
176
     1
 90
        0
176
     1
290
     0
176
     1
290
     1
176
     1
290
     1
176
     1
290
     0
176
     1
290
     0
176
     1
290
     0
176
     1
290
     0
176
     1
290
     0
176
     1
290
     0
176
     1
 90
       50
176
     1
 40
0.0
176
     1
 40
1.0
176
     1
 90
        0
176
     1
 62
    18
420
        0
176
     1
 90
       50
176
     1
 90
        3
176
     1
 62
     5
420
      255
176
     1
290
     0
176
     1
 90
       50
176
     1
 90
       50
176
     1
 90
       50
176
     1
290
     0
176
     1
 90
       50
176
     1
 62
   256
176
     0
 40
1.0
176
     0
 90
        2
176
     1
  1
strokes_ogs.tif
176
     1
290
     0
176
     1
 40
1.0
176
     1
 40
1.0
176
     1
  0
VISUALSTYLE
  5
35
102
{ACAD_REACTORS
330
2A
102
}
330
2A
100
AcDbVisualStyle
  2
Dim
 70
    11
177
     3
291
     1
 70
    58
 90
        2
176
     1
 90
        2
176
     1
 90
        0
176
     1
 90
        0
176
     1
 40
0.6
176
     1
 40
30.0
176
     1
 62
     7
420
 16777215
176
     1
 90
        1
176
     1
 90
        4
176
     1
 62
     7
176
     1
 62
   257
176
     1
 90
        1
176
     1
 90
        1
176
     1
 40
1.0
176
     1
 90
        8
176
     1
 62
     7
176
     1
 40
1.0
176
     1
 90
        1
176
     1
 90
        6
176
     1
 90
        2
176
     1
 62
     7
176
     1
 90
        5
176
     1
 90
        0
176
     1
 90
        0
176
     1
290
     0
176
     1
 90
        1
176
     1
 40
-50.0
176
     1
 90
        0
176
     1
290
     0
176
     1
290
     1
176
     1
290
     1
176
     1
290
     0
176
     1
290
     0
176
     1
290
     0
176
     1
290
     0
176
     1
290
     0
176
     1
290
     0
176
     1
 90
       50
176
     1
 40
0.0
176
     1
 40
1.0
176
     1
 90
        0
176
     1
 62
    18
420
        0
176
     1
 90
       50
176
     1
 90
        3
176
     1
 62
     5
420
      255
176
     1
290
     0
176
     1
 90
       50
176
     1
 90
       50
176
     1
 90
       50
176
     1
290
     0
176
     1
 90
       50
176
     1
 62
   256
176
     0
 40
1.0
176
     0
 90
        2
176
     1
  1
strokes_ogs.tif
176
     1
290
     0
176
     1
 40
1.0
176
     1
 40
1.0
176
     1
  0
VISUALSTYLE
  5
3D
102
{ACAD_REACTORS
330
2A
102
}
330
2A
100
AcDbVisualStyle
  2
EdgeColorOff
 70
    22
177
     3
291
     1
 70
    58
 90
        2
176
     0
 90
        2
176
     0
 90
        0
176
     0
 90
        0
176
     0
 40
0.6
176
     0
 40
30.0
176
     0
 62
     7
420
 16777215
176
     0
 90
        1
176
     0
 90
        4
176
     0
 62
     7
176
     0
 62
   257
176
     0
 90
        1
176
     0
 90
        1
176
     0
 40
1.0
176
     0
 90
        8
176
     2
 62
     7
176
     0
 40
1.0
176
     0
 90
        1
176
     0
 90
        6
176
     0
 90
        2
176
     0
 62
     7
176
     0
 90
        5
176
     0
 90
        0
176
     0
 90
        0
176
     0
290
     0
176
     0
 90
        1
176
     0
 40
0.0
176
     0
 90
        0
176
     0
290
     0
176
     0
290
     1
176
     0
290
     1
176
     0
290
     0
176
     0
290
     0
176
     0
290
     0
176
     0
290
     0
176
     0
290
     0
176
     0
290
     0
176
     0
 90
       50
176
     0
 40
0.0
176
     0
 40
1.0
176
     0
 90
        0
176
     0
 62
    18
420
        0
176
     0
 90
       50
176
     0
 90
        3
176
     0
 62
     5
420
      255
176
     0
290
     0
176
     0
 90
       50
176
     0
 90
       50
176
     0
 90
       50
176
     0
290
     0
176
     0
 90
       50
176
     0
 62
   256
176
     0
 40
1.0
176
     0
 90
        2
176
     0
  1
strokes_ogs.tif
176
     0
290
     0
176
     0
 40
1.0
176
     0
 40
1.0
176
     0
  0
VISUALSTYLE
  5
39
102
{ACAD_REACTORS
330
2A
102
}
330
2A
100
AcDbVisualStyle
  2
Facepattern
 70
    15
177
     3
291
     1
 70
    58
 90
        2
176
     1
 90
        2
176
     1
 90
        0
176
     1
 90
        0
176
     1
 40
0.6
176
     1
 40
30.0
176
     1
 62
     7
420
 16777215
176
     1
 90
        1
176
     1
 90
        4
176
     1
 62
     7
176
     1
 62
   257
176
     1
 90
        1
176
     1
 90
        1
176
     1
 40
1.0
176
     1
 90
        8
176
     1
 62
     7
176
     1
 40
1.0
176
     1
 90
        1
176
     1
 90
        6
176
     1
 90
        2
176
     1
 62
     7
176
     1
 90
        5
176
     1
 90
        0
176
     1
 90
        0
176
     1
290
     0
176
     1
 90
        1
176
     1
 40
0.0
176
     1
 90
        0
176
     1
290
     0
176
     1
290
     1
176
     1
290
     1
176
     1
290
     0
176
     1
290
     0
176
     1
290
     0
176
     1
290
     0
176
     1
290
     0
176
     1
290
     0
176
     1
 90
       50
176
     1
 40
0.0
176
     1
 40
1.0
176
     1
 90
        0
176
     1
 62
    18
420
        0
176
     1
 90
       50
176
     1
 90
        3
176
     1
 62
     5
420
      255
176
     1
290
     0
176
     1
 90
       50
176
     1
 90
       50
176
     1
 90
       50
176
     1
290
     0
176
     1
 90
       50
176
     1
 62
   256
176
     0
 40
1.0
176
     0
 90
        2
176
     1
  1
strokes_ogs.tif
176
     1
290
     0
176
     1
 40
1.0
176
     1
 40
1.0
176
     1
  0
VISUALSTYLE
  5
2B
102
{ACAD_REACTORS
330
2A
102
}
330
2A
100
AcDbVisualStyle
  2
Flat
 70
     0
177
     3
291
     1
 70
    58
 90
        2
176
     1
 90
        1
176
     1
 90
        1
176
     1
 90
        2
176
     1
 40
0.6
176
     1
 40
30.0
176
     1
 62
     7
420
 16777215
176
     1
 90
        0
176
     1
 90
        0
176
     1
 62
     7
176
     1
 62
   257
176
     1
 90
        1
176
     1
 90
        1
176
     1
 40
1.0
176
     1
 90
        8
176
     1
 62
     7
176
     1
 40
1.0
176
     1
 90
        1
176
     1
 90
        6
176
     1
 90
        2
176
     1
 62
     7
176
     1
 90
        5
176
     1
 90
        0
176
     1
 90
        0
176
     1
290
     0
176
     1
 90
       13
176
     1
 40
0.0
176
     1
 90
        0
176
     1
290
     0
176
     1
290
     1
176
     1
290
     1
176
     1
290
     0
176
     1
290
     0
176
     1
290
     0
176
     1
290
     0
176
     1
290
     0
176
     1
290
     0
176
     1
 90
       50
176
     1
 40
0.0
176
     1
 40
1.0
176
     1
 90
        0
176
     1
 62
    18
420
        0
176
     1
 90
       50
176
     1
 90
        3
176
     1
 62
     5
420
      255
176
     1
290
     0
176
     1
 90
       50
176
     1
 90
       50
176
     1
 90
       50
176
     1
290
     0
176
     1
 90
       50
176
     1
 62
   256
176
     0
 40
1.0
176
     0
 90
        2
176
     1
  1
strokes_ogs.tif
176
     1
290
     0
176
     1
 40
1.0
176
     1
 40
1.0
176
     1
  0
VISUALSTYLE
  5
2C
102
{ACAD_REACTORS
330
2A
102
}
330
2A
100
AcDbVisualStyle
  2
FlatWithEdges
 70
     1
177
     3
291
     1
 70
    58
 90
        2
176
     1
 90
        1
176
     1
 90
        1
176
     1
 90
        2
176
     1
 40
0.6
176
     1
 40
30.0
176
     1
 62
     7
420
 16777215
176
     1
 90
        1
176
     1
 90
        0
176
     1
 62
     7
176
     1
 62
   257
176
     1
 90
        1
176
     1
 90
        1
176
     1
 40
1.0
176
     1
 90
        0
176
     1
 62
   257
176
     1
 40
1.0
176
     1
 90
        1
176
     1
 90
        6
176
     1
 90
        2
176
     1
 62
     7
176
     1
 90
        5
176
     1
 90
        0
176
     1
 90
        0
176
     1
290
     0
176
     1
 90
       13
176
     1
 40
0.0
176
     1
 90
        0
176
     1
290
     0
176
     1
290
     1
176
     1
290
     1
176
     1
290
     0
176
     1
290
     0
176
     1
290
     0
176
     1
290
     0
176
     1
290
     0
176
     1
290
     0
176
     1
 90
       50
176
     1
 40
0.0
176
     1
 40
1.0
176
     1
 90
        0
176
     1
 62
    18
420
        0
176
     1
 90
       50
176
     1
 90
        3
176
     1
 62
     5
420
      255
176
     1
290
     0
176
     1
 90
       50
176
     1
 90
       50
176
     1
 90
       50
176
     1
290
     0
176
     1
 90
       50
176
     1
 62
   256
176
     0
 40
1.0
176
     0
 90
        2
176
     1
  1
strokes_ogs.tif
176
     1
290
     0
176
     1
 40
1.0
176
     1
 40
1.0
176
     1
  0
VISUALSTYLE
  5
2D
102
{ACAD_REACTORS
330
2A
102
}
330
2A
100
AcDbVisualStyle
  2
Gouraud
 70
     2
177
     3
291
     1
 70
    58
 90
        2
176
     1
 90
        2
176
     1
 90
        1
176
     1
 90
        2
176
     1
 40
0.6
176
     1
 40
30.0
176
     1
 62
     7
420
 16777215
176
     1
 90
        0
176
     1
 90
        0
176
     1
 62
     7
176
     1
 62
   257
176
     1
 90
        1
176
     1
 90
        1
176
     1
 40
1.0
176
     1
 90
        0
176
     1
 62
     7
176
     1
 40
1.0
176
     1
 90
        1
176
     1
 90
        6
176
     1
 90
        2
176
     1
 62
     7
176
     1
 90
        5
176
     1
 90
        0
176
     1
 90
        0
176
     1
290
     0
176
     1
 90
       13
176
     1
 40
0.0
176
     1
 90
        0
176
     1
290
     0
176
     1
290
     1
176
     1
290
     1
176
     1
290
     0
176
     1
290
     0
176
     1
290
     0
176
     1
290
     0
176
     1
290
     0
176
     1
290
     0
176
     1
 90
       50
176
     1
 40
0.0
176
     1
 40
1.0
176
     1
 90
        0
176
     1
 62
    18
420
        0
176
     1
 90
       50
176
     1
 90
        3
176
     1
 62
     5
420
      255
176
     1
290
     0
176
     1
 90
       50
176
     1
 90
       50
176
     1
 90
       50
176
     1
290
     0
176
     1
 90
       50
176
     1
 62
   256
176
     0
 40
1.0
176
     0
 90
        2
176
     1
  1
strokes_ogs.tif
176
     1
290
     0
176
     1
 40
1.0
176
     1
 40
1.0
176
     1
  0
VISUALSTYLE
  5
2E
102
{ACAD_REACTORS
330
2A
102
}
330
2A
100
AcDbVisualStyle
  2
GouraudWithEdges
 70
     3
177
     3
291
     1
 70
    58
 90
        2
176
     1
 90
        2
176
     1
 90
        1
176
     1
 90
        2
176
     1
 40
0.6
176
     1
 40
30.0
176
     1
 62
     7
420
 16777215
176
     1
 90
        1
176
     1
 90
        0
176
     1
 62
     7
176
     1
 62
   257
176
     1
 90
        1
176
     1
 90
        1
176
     1
 40
1.0
176
     1
 90
        0
176
     1
 62
   257
176
     1
 40
1.0
176
     1
 90
        1
176
     1
 90
        6
176
     1
 90
        2
176
     1
 62
     7
176
     1
 90
        5
176
     1
 90
        0
176
     1
 90
        0
176
     1
290
     0
176
     1
 90
       13
176
     1
 40
0.0
176
     1
 90
        0
176
     1
290
     0
176
     1
290
     1
176
     1
290
     1
176
     1
290
     0
176
     1
290
     0
176
     1
290
     0
176
     1
290
     0
176
     1
290
     0
176
     1
290
     0
176
     1
 90
       50
176
     1
 40
0.0
176
     1
 40
1.0
176
     1
 90
        0
176
     1
 62
    18
420
        0
176
     1
 90
       50
176
     1
 90
        3
176
     1
 62
     5
420
      255
176
     1
290
     0
176
     1
 90
       50
176
     1
 90
       50
176
     1
 90
       50
176
     1
290
     0
176
     1
 90
       50
176
     1
 62
   256
176
     0
 40
1.0
176
     0
 90
        2
176
     1
  1
strokes_ogs.tif
176
     1
290
     0
176
     1
 40
1.0
176
     1
 40
1.0
176
     1
  0
VISUALSTYLE
  5
31
102
{ACAD_REACTORS
330
2A
102
}
330
2A
100
AcDbVisualStyle
  2
Hidden
 70
     6
177
     3
291
     0
 70
    58
 90
        1
176
     1
 90
        2
176
     1
 90
        2
176
     1
 90
        0
176
     1
 40
0.6
176
     1
 40
30.0
176
     1
 62
     7
420
 16777215
176
     1
 90
        2
176
     1
 90
        2
176
     1
 62
     7
176
     1
 62
   257
176
     1
 90
        2
176
     1
 90
        1
176
     1
 40
40.0
176
     1
 90
        0
176
     1
 62
   257
176
     1
 40
1.0
176
     1
 90
        1
176
     1
 90
        6
176
     1
 90
        2
176
     1
 62
     7
176
     1
 90
        3
176
     1
 90
        0
176
     1
 90
        0
176
     1
290
     0
176
     1
 90
        1
176
     1
 40
0.0
176
     1
 90
        0
176
     1
290
     0
176
     1
290
     1
176
     1
290
     1
176
     1
290
     0
176
     1
290
     0
176
     1
290
     0
176
     1
290
     0
176
     1
290
     0
176
     1
290
     0
176
     1
 90
       50
176
     1
 40
0.0
176
     1
 40
1.0
176
     1
 90
        0
176
     1
 62
    18
420
        0
176
     1
 90
       50
176
     1
 90
        3
176
     1
 62
     5
420
      255
176
     1
290
     0
176
     1
 90
       50
176
     1
 90
       50
176
     1
 90
       50
176
     1
290
     0
176
     1
 90
       50
176
     1
 62
   256
176
     0
 40
1.0
176
     0
 90
        2
176
     1
  1
strokes_ogs.tif
176
     1
290
     0
176
     1
 40
1.0
176
     1
 40
1.0
176
     1
  0
VISUALSTYLE
  5
3B
102
{ACAD_REACTORS
330
2A
102
}
330
2A
100
AcDbVisualStyle
  2
JitterOff
 70
    20
177
     3
291
     1
 70
    58
 90
        2
176
     0
 90
        2
176
     0
 90
        0
176
     0
 90
        0
176
     0
 40
0.6
176
     0
 40
30.0
176
     0
 62
     7
420
 16777215
176
     0
 90
        1
176
     0
 90
        4
176
     0
 62
     7
176
     0
 62
   257
176
     0
 90
        1
176
     0
 90
        1
176
     0
 40
1.0
176
     0
 90
       10
176
     2
 62
     7
176
     0
 40
1.0
176
     0
 90
        1
176
     0
 90
        6
176
     0
 90
        2
176
     0
 62
     7
176
     0
 90
        5
176
     0
 90
        0
176
     0
 90
        0
176
     0
290
     0
176
     0
 90
        1
176
     0
 40
0.0
176
     0
 90
        0
176
     0
290
     0
176
     0
290
     1
176
     0
290
     1
176
     0
290
     0
176
     0
290
     0
176
     0
290
     0
176
     0
290
     0
176
     0
290
     0
176
     0
290
     0
176
     0
 90
       50
176
     0
 40
0.0
176
     0
 40
1.0
176
     0
 90
        0
176
     0
 62
    18
420
        0
176
     0
 90
       50
176
     0
 90
        3
176
     0
 62
     5
420
      255
176
     0
290
     0
176
     0
 90
       50
176
     0
 90
       50
176
     0
 90
       50
176
     0
290
     0
176
     0
 90
       50
176
     0
 62
   256
176
     0
 40
1.0
176
     0
 90
        2
176
     0
  1
strokes_ogs.tif
176
     0
290
     0
176
     0
 40
1.0
176
     0
 40
1.0
176
     0
  0
VISUALSTYLE
  5
38
102
{ACAD_REACTORS
330
2A
102
}
330
2A
100
AcDbVisualStyle
  2
Linepattern
 70
    14
177
     3
291
     1
 70
    58
 90
        2
176
     1
 90
        2
176
     1
 90
        0
176
     1
 90
        0
176
     1
 40
0.6
176
     1
 40
30.0
176
     1
 62
     7
420
 16777215
176
     1
 90
        1
176
     1
 90
        4
176
     1
 62
     7
176
     1
 62
   257
176
     1
 90
        7
176
     1
 90
        7
176
     1
 40
1.0
176
     1
 90
        8
176
     1
 62
     7
176
     1
 40
1.0
176
     1
 90
        1
176
     1
 90
        6
176
     1
 90
        2
176
     1
 62
     7
176
     1
 90
        5
176
     1
 90
        0
176
     1
 90
        0
176
     1
290
     0
176
     1
 90
        1
176
     1
 40
0.0
176
     1
 90
        0
176
     1
290
     0
176
     1
290
     1
176
     1
290
     1
176
     1
290
     0
176
     1
290
     0
176
     1
290
     0
176
     1
290
     0
176
     1
290
     0
176
     1
290
     0
176
     1
 90
       50
176
     1
 40
0.0
176
     1
 40
1.0
176
     1
 90
        0
176
     1
 62
    18
420
        0
176
     1
 90
       50
176
     1
 90
        3
176
     1
 62
     5
420
      255
176
     1
290
     0
176
     1
 90
       50
176
     1
 90
       50
176
     1
 90
       50
176
     1
290
     0
176
     1
 90
       50
176
     1
 62
   256
176
     0
 40
1.0
176
     0
 90
        2
176
     1
  1
strokes_ogs.tif
176
     1
290
     0
176
     1
 40
1.0
176
     1
 40
1.0
176
     1
  0
VISUALSTYLE
  5
3C
102
{ACAD_REACTORS
330
2A
102
}
330
2A
100
AcDbVisualStyle
  2
OverhangOff
 70
    21
177
     3
291
     1
 70
    58
 90
        2
176
     0
 90
        2
176
     0
 90
        0
176
     0
 90
        0
176
     0
 40
0.6
176
     0
 40
30.0
176
     0
 62
     7
420
 16777215
176
     0
 90
        1
176
     0
 90
        4
176
     0
 62
     7
176
     0
 62
   257
176
     0
 90
        1
176
     0
 90
        1
176
     0
 40
1.0
176
     0
 90
        9
176
     2
 62
     7
176
     0
 40
1.0
176
     0
 90
        1
176
     0
 90
        6
176
     0
 90
        2
176
     0
 62
     7
176
     0
 90
        5
176
     0
 90
        0
176
     0
 90
        0
176
     0
290
     0
176
     0
 90
        1
176
     0
 40
0.0
176
     0
 90
        0
176
     0
290
     0
176
     0
290
     1
176
     0
290
     1
176
     0
290
     0
176
     0
290
     0
176
     0
290
     0
176
     0
290
     0
176
     0
290
     0
176
     0
290
     0
176
     0
 90
       50
176
     0
 40
0.0
176
     0
 40
1.0
176
     0
 90
        0
176
     0
 62
    18
420
        0
176
     0
 90
       50
176
     0
 90
        3
176
     0
 62
     5
420
      255
176
     0
290
     0
176
     0
 90
       50
176
     0
 90
       50
176
     0
 90
       50
176
     0
290
     0
176
     0
 90
       50
176
     0
 62
   256
176
     0
 40
1.0
176
     0
 90
        2
176
     0
  1
strokes_ogs.tif
176
     0
290
     0
176
     0
 40
1.0
176
     0
 40
1.0
176
     0
  0
VISUALSTYLE
  5
33
102
{ACAD_REACTORS
330
2A
102
}
330
2A
100
AcDbVisualStyle
  2
Realistic
 70
     8
177
     3
291
     0
 70
    58
 90
        2
176
     1
 90
        3
176
     1
 90
        0
176
     1
 90
        2
176
     1
 40
0.6
176
     1
 40
30.0
176
     1
 62
     7
420
 16777215
176
     1
 90
        0
176
     1
 90
        0
176
     1
 62
     7
176
     1
 62
   257
176
     1
 90
        1
176
     1
 90
        1
176
     1
 40
1.0
176
     1
 90
        8
176
     1
 62
   257
176
     1
 40
1.0
176
     1
 90
        1
176
     1
 90
        6
176
     1
 90
        2
176
     1
 62
     7
176
     1
 90
        3
176
     1
 90
        0
176
     1
 90
        0
176
     1
290
     0
176
     1
 90
       13
176
     1
 40
0.0
176
     1
 90
        0
176
     1
290
     0
176
     1
290
     1
176
     1
290
     1
176
     1
290
     0
176
     1
290
     0
176
     1
290
     0
176
     1
290
     0
176
     1
290
     0
176
     1
290
     0
176
     1
 90
       50
176
     1
 40
0.0
176
     1
 40
1.0
176
     1
 90
        0
176
     1
 62
    18
420
        0
176
     1
 90
       50
176
     1
 90
        3
176
     1
 62
     5
420
      255
176
     1
290
     0
176
     1
 90
       50
176
     1
 90
       50
176
     1
 90
       50
176
     1
290
     0
176
     1
 90
       50
176
     1
 62
   256
176
     0
 40
1.0
176
     0
 90
        2
176
     1
  1
strokes_ogs.tif
176
     1
290
     0
176
     1
 40
1.0
176
     1
 40
1.0
176
     1
  0
VISUALSTYLE
  5
42
102
{ACAD_REACTORS
330
2A
102
}
330
2A
100
AcDbVisualStyle
  2
Shaded
 70
    27
177
     3
291
     0
 70
    58
 90
        2
176
     1
 90
        2
176
     1
 90
        1
176
     1
 90
        2
176
     1
 40
0.6
176
     1
 40
30.0
176
     1
 62
     7
420
 16777215
176
     1
 90
        0
176
     1
 90
        4
176
     1
 62
     7
176
     1
 62
   257
176
     1
 90
        1
176
     1
 90
        1
176
     1
 40
1.0
176
     1
 90
        8
176
     1
 62
   257
176
     1
 40
1.0
176
     1
 90
        1
176
     1
 90
        6
176
     1
 90
        2
176
     1
 62
     8
420
  7895160
176
     1
 90
        3
176
     1
 90
        0
176
     1
 90
        0
176
     1
290
     0
176
     1
 90
        5
176
     1
 40
0.0
176
     1
 90
        0
176
     1
290
     0
176
     1
290
     1
176
     1
290
     1
176
     1
290
     0
176
     1
290
     0
176
     1
290
     0
176
     1
290
     0
176
     1
290
     0
176
     1
290
     0
176
     1
 90
       50
176
     1
 40
0.0
176
     1
 40
1.0
176
     1
 90
        0
176
     1
 62
    18
420
        0
176
     1
 90
       50
176
     1
 90
        3
176
     1
 62
     5
420
      255
176
     1
290
     0
176
     1
 90
       50
176
     1
 90
       50
176
     1
 90
       50
176
     1
290
     0
176
     1
 90
       50
176
     1
 62
   256
176
     0
 40
1.0
176
     0
 90
        2
176
     1
  1
strokes_ogs.tif
176
     1
290
     0
176
     1
 40
1.0
176
     1
 40
1.0
176
     1
  0
VISUALSTYLE
  5
41
102
{ACAD_REACTORS
330
2A
102
}
330
2A
100
AcDbVisualStyle
  2
Shaded with edges
 70
    26
177
     3
291
     0
 70
    58
 90
        2
176
     1
 90
        2
176
     1
 90
        1
176
     1
 90
        2
176
     1
 40
0.6
176
     1
 40
30.0
176
     1
 62
     7
420
 16777215
176
     1
 90
        1
176
     1
 90
       10
176
     1
 62
     7
176
     1
 62
   257
176
     1
 90
        2
176
     1
 90
        1
176
     1
 40
1.0
176
     1
 90
        8
176
     1
 62
   257
176
     1
 40
1.0
176
     1
 90
        1
176
     1
 90
        6
176
     1
 90
        2
176
     1
 62
     7
176
     1
 90
        3
176
     1
 90
        0
176
     1
 90
        0
176
     1
290
     0
176
     1
 90
        5
176
     1
 40
0.0
176
     1
 90
        0
176
     1
290
     0
176
     1
290
     1
176
     1
290
     1
176
     1
290
     0
176
     1
290
     0
176
     1
290
     0
176
     1
290
     0
176
     1
290
     0
176
     1
290
     0
176
     1
 90
       50
176
     1
 40
0.0
176
     1
 40
1.0
176
     1
 90
        0
176
     1
 62
    18
420
        0
176
     1
 90
       50
176
     1
 90
        3
176
     1
 62
     5
420
      255
176
     1
290
     0
176
     1
 90
       50
176
     1
 90
       50
176
     1
 90
       50
176
     1
290
     0
176
     1
 90
       50
176
     1
 62
   256
176
     0
 40
1.0
176
     0
 90
        2
176
     1
  1
strokes_ogs.tif
176
     1
290
     0
176
     1
 40
1.0
176
     1
 40
1.0
176
     1
  0
VISUALSTYLE
  5
3E
102
{ACAD_REACTORS
330
2A
102
}
330
2A
100
AcDbVisualStyle
  2
Shades of Gray
 70
    23
177
     3
291
     0
 70
    58
 90
        2
176
     1
 90
        2
176
     1
 90
        3
176
     1
 90
        0
176
     1
 40
0.6
176
     1
 40
30.0
176
     1
 62
     7
420
 16777215
176
     1
 90
        2
176
     1
 90
        2
176
     1
 62
     7
176
     1
 62
     7
176
     1
 90
        1
176
     1
 90
        1
176
     1
 40
40.0
176
     1
 90
        8
176
     1
 62
     7
176
     1
 40
1.0
176
     1
 90
        1
176
     1
 90
        6
176
     1
 90
        2
176
     1
 62
     7
176
     1
 90
        3
176
     1
 90
        0
176
     1
 90
        0
176
     1
290
     0
176
     1
 90
        1
176
     1
 40
0.0
176
     1
 90
        0
176
     1
290
     0
176
     1
290
     1
176
     1
290
     1
176
     1
290
     0
176
     1
290
     0
176
     1
290
     0
176
     1
290
     0
176
     1
290
     0
176
     1
290
     0
176
     1
 90
       50
176
     1
 40
0.0
176
     1
 40
1.0
176
     1
 90
        0
176
     1
 62
    18
420
        0
176
     1
 90
       50
176
     1
 90
        3
176
     1
 62
     5
420
      255
176
     1
290
     0
176
     1
 90
       50
176
     1
 90
       50
176
     1
 90
       50
176
     1
290
     0
176
     1
 90
       50
176
     1
 62
   256
176
     0
 40
1.0
176
     0
 90
        2
176
     1
  1
strokes_ogs.tif
176
     1
290
     0
176
     1
 40
1.0
176
     1
 40
1.0
176
     1
  0
VISUALSTYLE
  5
3F
102
{ACAD_REACTORS
330
2A
102
}
330
2A
100
AcDbVisualStyle
  2
Sketchy
 70
    24
177
     3
291
     0
 70
    58
 90
        1
176
     1
 90
        2
176
     1
 90
        2
176
     1
 90
        0
176
     1
 40
0.6
176
     1
 40
30.0
176
     1
 62
     7
420
 16777215
176
     1
 90
        2
176
     1
 90
        2
176
     1
 62
     7
176
     1
 62
     7
176
     1
 90
        1
176
     1
 90
        1
176
     1
 40
40.0
176
     1
 90
       11
176
     1
 62
     7
176
     1
 40
1.0
176
     1
 90
        1
176
     1
 90
        6
176
     1
 90
        2
176
     1
 62
     7
176
     1
 90
        6
176
     1
 90
        0
176
     1
 90
        0
176
     1
290
     0
176
     1
 90
        1
176
     1
 40
0.0
176
     1
 90
        0
176
     1
290
     0
176
     1
290
     1
176
     1
290
     1
176
     1
290
     0
176
     1
290
     0
176
     1
290
     0
176
     1
290
     0
176
     1
290
     0
176
     1
290
     0
176
     1
 90
       50
176
     1
 40
0.0
176
     1
 40
1.0
176
     1
 90
        0
176
     1
 62
    18
420
        0
176
     1
 90
       50
176
     1
 90
        3
176
     1
 62
     5
420
      255
176
     1
290
     0
176
     1
 90
       50
176
     1
 90
       50
176
     1
 90
       50
176
     1
290
     0
176
     1
 90
       50
176
     1
 62
   256
176
     0
 40
1.0
176
     0
 90
        2
176
     1
  1
strokes_ogs.tif
176
     1
290
     0
176
     1
 40
1.0
176
     1
 40
1.0
176
     1
  0
VISUALSTYLE
  5
37
102
{ACAD_REACTORS
330
2A
102
}
330
2A
100
AcDbVisualStyle
  2
Thicken
 70
    13
177
     3
291
     1
 70
    58
 90
        2
176
     1
 90
        2
176
     1
 90
        0
176
     1
 90
        0
176
     1
 40
0.6
176
     1
 40
30.0
176
     1
 62
     7
420
 16777215
176
     1
 90
        1
176
     1
 90
        4
176
     1
 62
     7
176
     1
 62
   257
176
     1
 90
        1
176
     1
 90
        1
176
     1
 40
1.0
176
     1
 90
       12
176
     1
 62
     7
176
     1
 40
1.0
176
     1
 90
        1
176
     1
 90
        6
176
     1
 90
        2
176
     1
 62
     7
176
     1
 90
        5
176
     1
 90
        0
176
     1
 90
        0
176
     1
290
     0
176
     1
 90
        1
176
     1
 40
0.0
176
     1
 90
        0
176
     1
290
     0
176
     1
290
     1
176
     1
290
     1
176
     1
290
     0
176
     1
290
     0
176
     1
290
     0
176
     1
290
     0
176
     1
290
     0
176
     1
290
     0
176
     1
 90
       50
176
     1
 40
0.0
176
     1
 40
1.0
176
     1
 90
        0
176
     1
 62
    18
420
        0
176
     1
 90
       50
176
     1
 90
        3
176
     1
 62
     5
420
      255
176
     1
290
     0
176
     1
 90
       50
176
     1
 90
       50
176
     1
 90
       50
176
     1
290
     0
176
     1
 90
       50
176
     1
 62
   256
176
     0
 40
1.0
176
     0
 90
        2
176
     1
  1
strokes_ogs.tif
176
     1
290
     0
176
     1
 40
1.0
176
     1
 40
1.0
176
     1
  0
VISUALSTYLE
  5
30
102
{ACAD_REACTORS
330
2A
102
}
330
2A
100
AcDbVisualStyle
  2
Wireframe
 70
     5
177
     3
291
     0
 70
    58
 90
        0
176
     1
 90
        2
176
     1
 90
        0
176
     1
 90
        0
176
     1
 40
0.6
176
     1
 40
30.0
176
     1
 62
     7
420
 16777215
176
     1
 90
        1
176
     1
 90
        4
176
     1
 62
     7
176
     1
 62
   257
176
     1
 90
        1
176
     1
 90
        1
176
     1
 40
1.0
176
     1
 90
        0
176
     1
 62
   257
176
     1
 40
1.0
176
     1
 90
        1
176
     1
 90
        6
176
     1
 90
        2
176
     1
 62
     7
176
     1
 90
        3
176
     1
 90
        0
176
     1
 90
        0
176
     1
290
     0
176
     1
 90
        1
176
     1
 40
0.0
176
     1
 90
        0
176
     1
290
     0
176
     1
290
     1
176
     1
290
     1
176
     1
290
     0
176
     1
290
     0
176
     1
290
     0
176
     1
290
     0
176
     1
290
     0
176
     1
290
     0
176
     1
 90
       50
176
     1
 40
0.0
176
     1
 40
1.0
176
     1
 90
        0
176
     1
 62
    18
420
        0
176
     1
 90
       50
176
     1
 90
        3
176
     1
 62
     5
420
      255
176
     1
290
     0
176
     1
 90
       50
176
     1
 90
       50
176
     1
 90
       50
176
     1
290
     0
176
     1
 90
       50
176
     1
 62
   256
176
     0
 40
1.0
176
     0
 90
        2
176
     1
  1
strokes_ogs.tif
176
     1
290
     0
176
     1
 40
1.0
176
     1
 40
1.0
176
     1
  0
VISUALSTYLE
  5
40
102
{ACAD_REACTORS
330
2A
102
}
330
2A
100
AcDbVisualStyle
  2
X-Ray
 70
    25
177
     3
291
     0
 70
    58
 90
        2
176
     1
 90
        2
176
     1
 90
        1
176
     1
 90
        1
176
     1
 40
0.5
176
     1
 40
30.0
176
     1
 62
     7
420
 16777215
176
     1
 90
        1
176
     1
 90
        0
176
     1
 62
     7
176
     1
 62
   257
176
     1
 90
        1
176
     1
 90
        1
176
     1
 40
1.0
176
     1
 90
        8
176
     1
 62
     7
176
     1
 40
1.0
176
     1
 90
        1
176
     1
 90
        6
176
     1
 90
        2
176
     1
 62
     7
176
     1
 90
        3
176
     1
 90
        0
176
     1
 90
        0
176
     1
290
     0
176
     1
 90
       13
176
     1
 40
0.0
176
     1
 90
        0
176
     1
290
     0
176
     1
290
     1
176
     1
290
     1
176
     1
290
     0
176
     1
290
     0
176
     1
290
     0
176
     1
290
     0
176
     1
290
     0
176
     1
290
     0
176
     1
 90
       50
176
     1
 40
0.0
176
     1
 40
1.0
176
     1
 90
        0
176
     1
 62
    18
420
        0
176
     1
 90
       50
176
     1
 90
        3
176
     1
 62
     5
420
      255
176
     1
290
     0
176
     1
 90
       50
176
     1
 90
       50
176
     1
 90
       50
176
     1
290
     0
176
     1
 90
       50
176
     1
 62
   256
176
     0
 40
1.0
176
     0
 90
        2
176
     1
  1
strokes_ogs.tif
176
     1
290
     0
176
     1
 40
1.0
176
     1
 40
1.0
176
     1
  0
DICTIONARYVAR
  5
239
102
{ACAD_REACTORS
330
238
102
}
330
238
100
DictionaryVariables
280
     0
  1
1:1
  0
DICTIONARYVAR
  5
23E
102
{ACAD_REACTORS
330
238
102
}
330
238
100
DictionaryVariables
280
     0
  1
Standard
  0
DICTIONARYVAR
  5
23D
102
{ACAD_REACTORS
330
238
102
}
330
238
100
DictionaryVariables
280
     0
  1
Standard
  0
DICTIONARY
  5
23A
330
6A
100
AcDbDictionary
280
     1
281
     1
  3
ACAD_ROUNDTRIP_2008_TABLESTYLE_CELLSTYLEMAP
360
23B
  0
CELLSTYLEMAP
  5
23B
102
{ACAD_REACTORS
330
23A
102
}
330
23A
100
AcDbCellStyleMap
 90
        3
300
CELLSTYLE
  1
TABLEFORMAT_BEGIN
 90
        5
170
     1
 91
        0
 92
    32768
 62
   257
 93
        1
300
CONTENTFORMAT
  1
CONTENTFORMAT_BEGIN
 90
        0
 91
        0
 92
        4
 93
        0
300

 40
0.0
140
1.0
 94
        5
 62
     0
340
11
144
0.25
309
CONTENTFORMAT_END
171
     1
301
MARGIN
  1
CELLMARGIN_BEGIN
 40
0.06
 40
0.06
 40
0.06
 40
0.06
 40
0.06
 40
0.06
309
CELLMARGIN_END
 94
        6
 95
        1
302
GRIDFORMAT
  1
GRIDFORMAT_BEGIN
 90
        0
 91
        1
 62
     0
 92
       -2
340
14
 93
        0
 40
0.045
309
GRIDFORMAT_END
 95
        2
302
GRIDFORMAT
  1
GRIDFORMAT_BEGIN
 90
        0
 91
        1
 62
     0
 92
       -2
340
14
 93
        0
 40
0.045
309
GRIDFORMAT_END
 95
        4
302
GRIDFORMAT
  1
GRIDFORMAT_BEGIN
 90
        0
 91
        1
 62
     0
 92
       -2
340
14
 93
        0
 40
0.045
309
GRIDFORMAT_END
 95
        8
302
GRIDFORMAT
  1
GRIDFORMAT_BEGIN
 90
        0
 91
        1
 62
     0
 92
       -2
340
14
 93
        0
 40
0.045
309
GRIDFORMAT_END
 95
       16
302
GRIDFORMAT
  1
GRIDFORMAT_BEGIN
 90
        0
 91
        1
 62
     0
 92
       -2
340
14
 93
        0
 40
0.045
309
GRIDFORMAT_END
 95
       32
302
GRIDFORMAT
  1
GRIDFORMAT_BEGIN
 90
        0
 91
        1
 62
     0
 92
       -2
340
14
 93
        0
 40
0.045
309
GRIDFORMAT_END
309
TABLEFORMAT_END
  1
CELLSTYLE_BEGIN
 90
        1
 91
        1
300
_TITLE
309
CELLSTYLE_END
300
CELLSTYLE
  1
TABLEFORMAT_BEGIN
 90
        5
170
     1
 91
        0
 92
        0
 62
   257
 93
        1
300
CONTENTFORMAT
  1
CONTENTFORMAT_BEGIN
 90
        0
 91
        0
 92
        4
 93
        0
300

 40
0.0
140
1.0
 94
        5
 62
     0
340
11
144
0.18
309
CONTENTFORMAT_END
171
     1
301
MARGIN
  1
CELLMARGIN_BEGIN
 40
0.06
 40
0.06
 40
0.06
 40
0.06
 40
0.06
 40
0.06
309
CELLMARGIN_END
 94
        6
 95
        1
302
GRIDFORMAT
  1
GRIDFORMAT_BEGIN
 90
        0
 91
        1
 62
     0
 92
       -2
340
14
 93
        0
 40
0.045
309
GRIDFORMAT_END
 95
        2
302
GRIDFORMAT
  1
GRIDFORMAT_BEGIN
 90
        0
 91
        1
 62
     0
 92
       -2
340
14
 93
        0
 40
0.045
309
GRIDFORMAT_END
 95
        4
302
GRIDFORMAT
  1
GRIDFORMAT_BEGIN
 90
        0
 91
        1
 62
     0
 92
       -2
340
14
 93
        0
 40
0.045
309
GRIDFORMAT_END
 95
        8
302
GRIDFORMAT
  1
GRIDFORMAT_BEGIN
 90
        0
 91
        1
 62
     0
 92
       -2
340
14
 93
        0
 40
0.045
309
GRIDFORMAT_END
 95
       16
302
GRIDFORMAT
  1
GRIDFORMAT_BEGIN
 90
        0
 91
        1
 62
     0
 92
       -2
340
14
 93
        0
 40
0.045
309
GRIDFORMAT_END
 95
       32
302
GRIDFORMAT
  1
GRIDFORMAT_BEGIN
 90
        0
 91
        1
 62
     0
 92
       -2
340
14
 93
        0
 40
0.045
309
GRIDFORMAT_END
309
TABLEFORMAT_END
  1
CELLSTYLE_BEGIN
 90
        2
 91
        1
300
_HEADER
309
CELLSTYLE_END
300
CELLSTYLE
  1
TABLEFORMAT_BEGIN
 90
        5
170
     1
 91
        0
 92
        0
 62
   257
 93
        1
300
CONTENTFORMAT
  1
CONTENTFORMAT_BEGIN
 90
        0
 91
        0
 92
        4
 93
        0
300

 40
0.0
140
1.0
 94
        2
 62
     0
340
11
144
0.18
309
CONTENTFORMAT_END
171
     1
301
MARGIN
  1
CELLMARGIN_BEGIN
 40
0.06
 40
0.06
 40
0.06
 40
0.06
 40
0.06
 40
0.06
309
CELLMARGIN_END
 94
        6
 95
        1
302
GRIDFORMAT
  1
GRIDFORMAT_BEGIN
 90
        0
 91
        1
 62
     0
 92
       -2
340
14
 93
        0
 40
0.045
309
GRIDFORMAT_END
 95
        2
302
GRIDFORMAT
  1
GRIDFORMAT_BEGIN
 90
        0
 91
        1
 62
     0
 92
       -2
340
14
 93
        0
 40
0.045
309
GRIDFORMAT_END
 95
        4
302
GRIDFORMAT
  1
GRIDFORMAT_BEGIN
 90
        0
 91
        1
 62
     0
 92
       -2
340
14
 93
        0
 40
0.045
309
GRIDFORMAT_END
 95
        8
302
GRIDFORMAT
  1
GRIDFORMAT_BEGIN
 90
        0
 91
        1
 62
     0
 92
       -2
340
14
 93
        0
 40
0.045
309
GRIDFORMAT_END
 95
       16
302
GRIDFORMAT
  1
GRIDFORMAT_BEGIN
 90
        0
 91
        1
 62
     0
 92
       -2
340
14
 93
        0
 40
0.045
309
GRIDFORMAT_END
 95
       32
302
GRIDFORMAT
  1
GRIDFORMAT_BEGIN
 90
        0
 91
        1
 62
     0
 92
       -2
340
14
 93
        0
 40
0.045
309
GRIDFORMAT_END
309
TABLEFORMAT_END
  1
CELLSTYLE_BEGIN
 90
        3
 91
        2
300
_DATA
309
CELLSTYLE_END
  0
ENDSEC
  0
EOF