0
SECTION
  2
HEADER
  9
$ACADVER
  1
AC1027
  9
$ACADMAINTVER
 70
     8
  9
$DWGCODEPAGE
  3
ANSI_1252
  9
$REQUIREDVERSIONS
160
                 0
  9
$COMMENTS
  1
File was created by Cadenas
  9
$CUSTOMPROPERTYTAG
  1
NN
  9
$CUSTOMPROPERTY
  1
Imperial -IP Pillow Block 1-1/8 thru 2-1/4  2-Bolt Inch Bore (Contact Seal)
  9
$CUSTOMPROPERTYTAG
  1
NT
  9
$CUSTOMPROPERTY
  1
Imperial 2 Bolt Piliow Block Bearings
  9
$CUSTOMPROPERTYTAG
  1
NB
  9
$CUSTOMPROPERTY
  1
069454
  9
$CUSTOMPROPERTYTAG
  1
NBSYN
  9
$CUSTOMPROPERTY
  1
$PN.
  9
$CUSTOMPROPERTYTAG
  1
LINA
  9
$CUSTOMPROPERTY
  1
069454
  9
$CUSTOMPROPERTYTAG
  1
SS
  9
$CUSTOMPROPERTY
  1
3-15/16
  9
$CUSTOMPROPERTYTAG
  1
PN
  9
$CUSTOMPROPERTY
  1
069454
  9
$CUSTOMPROPERTYTAG
  1
DESCRIPTION
  9
$CUSTOMPROPERTY
  1
P2B-IP-315RE
  9
$CUSTOMPROPERTYTAG
  1
EF
  9
$CUSTOMPROPERTY
  1
Expansion Type
  9
$CUSTOMPROPERTYTAG
  1
ST
  9
$CUSTOMPROPERTY
  1
Contact  Seal
  9
$CUSTOMPROPERTYTAG
  1
A
  9
$CUSTOMPROPERTY
  1
4-45/64
  9
$CUSTOMPROPERTYTAG
  1
B
  9
$CUSTOMPROPERTY
  1
15-1/4
  9
$CUSTOMPROPERTYTAG
  1
C
  9
$CUSTOMPROPERTY
  1
3-29/32
  9
$CUSTOMPROPERTYTAG
  1
DMIN
  9
$CUSTOMPROPERTY
  1
10-5/8
  9
$CUSTOMPROPERTYTAG
  1
DMAX
  9
$CUSTOMPROPERTY
  1
12-7/8
  9
$CUSTOMPROPERTYTAG
  1
F
  9
$CUSTOMPROPERTY
  1
1
  9
$CUSTOMPROPERTYTAG
  1
G
  9
$CUSTOMPROPERTY
  1
2-1/4
  9
$CUSTOMPROPERTYTAG
  1
H
  9
$CUSTOMPROPERTY
  1
2-7/16
  9
$CUSTOMPROPERTYTAG
  1
J
  9
$CUSTOMPROPERTY
  1
8-3/8
  9
$CUSTOMPROPERTYTAG
  1
L
  9
$CUSTOMPROPERTY
  1
5-9/16
  9
$CUSTOMPROPERTYTAG
  1
M
  9
$CUSTOMPROPERTY
  1
4-1/4
  9
$CUSTOMPROPERTYTAG
  1
R
  9
$CUSTOMPROPERTY
  1
1-41/64
  9
$CUSTOMPROPERTYTAG
  1
S
  9
$CUSTOMPROPERTY
  1
3-1/16
  9
$CUSTOMPROPERTYTAG
  1
X
  9
$CUSTOMPROPERTY
  1
5/16
  9
$CUSTOMPROPERTYTAG
  1
Y
  9
$CUSTOMPROPERTY
  1
0.025
  9
$CUSTOMPROPERTYTAG
  1
Z
  9
$CUSTOMPROPERTY
  1
4-1/2
  9
$CUSTOMPROPERTYTAG
  1
COMPANY
  9
$CUSTOMPROPERTY
  1
baldor
  9
$INSBASE
 10
0.0
 20
0.0
 30
0.0
  9
$EXTMIN
 10
1.000000000000000E+20
 20
1.000000000000000E+20
 30
1.000000000000000E+20
  9
$EXTMAX
 10
-1.000000000000000E+20
 20
-1.000000000000000E+20
 30
-1.000000000000000E+20
  9
$LIMMIN
 10
0.0
 20
0.0
  9
$LIMMAX
 10
12.0
 20
9.0
  9
$ORTHOMODE
 70
     0
  9
$REGENMODE
 70
     1
  9
$FILLMODE
 70
     1
  9
$QTEXTMODE
 70
     0
  9
$MIRRTEXT
 70
     1
  9
$LTSCALE
 40
1.0
  9
$ATTMODE
 70
     1
  9
$TEXTSIZE
 40
0.2
  9
$TRACEWID
 40
0.05
  9
$TEXTSTYLE
  7
Standard
  9
$CLAYER
  8
0
  9
$CELTYPE
  6
ByLayer
  9
$CECOLOR
 62
   256
  9
$CELTSCALE
 40
1.0
  9
$DISPSILH
 70
     0
  9
$DIMSCALE
 40
1.0
  9
$DIMASZ
 40
0.18
  9
$DIMEXO
 40
0.0625
  9
$DIMDLI
 40
0.38
  9
$DIMRND
 40
0.0
  9
$DIMDLE
 40
0.0
  9
$DIMEXE
 40
0.18
  9
$DIMTP
 40
0.0
  9
$DIMTM
 40
0.0
  9
$DIMTXT
 40
0.18
  9
$DIMCEN
 40
0.09
  9
$DIMTSZ
 40
0.0
  9
$DIMTOL
 70
     0
  9
$DIMLIM
 70
     0
  9
$DIMTIH
 70
     1
  9
$DIMTOH
 70
     1
  9
$DIMSE1
 70
     0
  9
$DIMSE2
 70
     0
  9
$DIMTAD
 70
     0
  9
$DIMZIN
 70
     0
  9
$DIMBLK
  1

  9
$DIMASO
 70
     1
  9
$DIMSHO
 70
     1
  9
$DIMPOST
  1

  9
$DIMAPOST
  1

  9
$DIMALT
 70
     0
  9
$DIMALTD
 70
     2
  9
$DIMALTF
 40
25.4
  9
$DIMLFAC
 40
1.0
  9
$DIMTOFL
 70
     0
  9
$DIMTVP
 40
0.0
  9
$DIMTIX
 70
     0
  9
$DIMSOXD
 70
     0
  9
$DIMSAH
 70
     0
  9
$DIMBLK1
  1

  9
$DIMBLK2
  1

  9
$DIMSTYLE
  2
Standard
  9
$DIMCLRD
 70
     0
  9
$DIMCLRE
 70
     0
  9
$DIMCLRT
 70
     0
  9
$DIMTFAC
 40
1.0
  9
$DIMGAP
 40
0.09
  9
$DIMJUST
 70
     0
  9
$DIMSD1
 70
     0
  9
$DIMSD2
 70
     0
  9
$DIMTOLJ
 70
     1
  9
$DIMTZIN
 70
     0
  9
$DIMALTZ
 70
     0
  9
$DIMALTTZ
 70
     0
  9
$DIMUPT
 70
     0
  9
$DIMDEC
 70
     4
  9
$DIMTDEC
 70
     4
  9
$DIMALTU
 70
     2
  9
$DIMALTTD
 70
     2
  9
$DIMTXSTY
  7
Standard
  9
$DIMAUNIT
 70
     0
  9
$DIMADEC
 70
     0
  9
$DIMALTRND
 40
0.0
  9
$DIMAZIN
 70
     0
  9
$DIMDSEP
 70
    46
  9
$DIMATFIT
 70
     3
  9
$DIMFRAC
 70
     0
  9
$DIMLDRBLK
  1

  9
$DIMLUNIT
 70
     2
  9
$DIMLWD
 70
    -2
  9
$DIMLWE
 70
    -2
  9
$DIMTMOVE
 70
     0
  9
$DIMFXL
 40
1.0
  9
$DIMFXLON
 70
     0
  9
$DIMJOGANG
 40
0.7853981633974483
  9
$DIMTFILL
 70
     0
  9
$DIMTFILLCLR
 70
     0
  9
$DIMARCSYM
 70
     0
  9
$DIMLTYPE
  6

  9
$DIMLTEX1
  6

  9
$DIMLTEX2
  6

  9
$DIMTXTDIRECTION
 70
     0
  9
$LUNITS
 70
     2
  9
$LUPREC
 70
     4
  9
$SKETCHINC
 40
0.1
  9
$FILLETRAD
 40
0.5
  9
$AUNITS
 70
     0
  9
$AUPREC
 70
     0
  9
$MENU
  1
.
  9
$ELEVATION
 40
0.0
  9
$PELEVATION
 40
0.0
  9
$THICKNESS
 40
0.0
  9
$LIMCHECK
 70
     0
  9
$CHAMFERA
 40
0.0
  9
$CHAMFERB
 40
0.0
  9
$CHAMFERC
 40
0.0
  9
$CHAMFERD
 40
0.0
  9
$SKPOLY
 70
     0
  9
$TDCREATE
 40
2458168.988646018
  9
$TDUCREATE
 40
2458168.946979352
  9
$TDUPDATE
 40
2458168.988646204
  9
$TDUUPDATE
 40
2458168.946979537
  9
$TDINDWG
 40
0.0000000116
  9
$TDUSRTIMER
 40
0.0000000116
  9
$USRTIMER
 70
     1
  9
$ANGBASE
 50
0.0
  9
$ANGDIR
 70
     0
  9
$PDMODE
 70
     0
  9
$PDSIZE
 40
0.0
  9
$PLINEWID
 40
0.0
  9
$SPLFRAME
 70
     0
  9
$SPLINETYPE
 70
     6
  9
$SPLINESEGS
 70
     8
  9
$HANDSEED
  5
26B
  9
$SURFTAB1
 70
     6
  9
$SURFTAB2
 70
     6
  9
$SURFTYPE
 70
     6
  9
$SURFU
 70
     6
  9
$SURFV
 70
     6
  9
$UCSBASE
  2

  9
$UCSNAME
  2

  9
$UCSORG
 10
0.0
 20
0.0
 30
0.0
  9
$UCSXDIR
 10
1.0
 20
0.0
 30
0.0
  9
$UCSYDIR
 10
0.0
 20
1.0
 30
0.0
  9
$UCSORTHOREF
  2

  9
$UCSORTHOVIEW
 70
     0
  9
$UCSORGTOP
 10
0.0
 20
0.0
 30
0.0
  9
$UCSORGBOTTOM
 10
0.0
 20
0.0
 30
0.0
  9
$UCSORGLEFT
 10
0.0
 20
0.0
 30
0.0
  9
$UCSORGRIGHT
 10
0.0
 20
0.0
 30
0.0
  9
$UCSORGFRONT
 10
0.0
 20
0.0
 30
0.0
  9
$UCSORGBACK
 10
0.0
 20
0.0
 30
0.0
  9
$PUCSBASE
  2

  9
$PUCSNAME
  2

  9
$PUCSORG
 10
0.0
 20
0.0
 30
0.0
  9
$PUCSXDIR
 10
1.0
 20
0.0
 30
0.0
  9
$PUCSYDIR
 10
0.0
 20
1.0
 30
0.0
  9
$PUCSORTHOREF
  2

  9
$PUCSORTHOVIEW
 70
     0
  9
$PUCSORGTOP
 10
0.0
 20
0.0
 30
0.0
  9
$PUCSORGBOTTOM
 10
0.0
 20
0.0
 30
0.0
  9
$PUCSORGLEFT
 10
0.0
 20
0.0
 30
0.0
  9
$PUCSORGRIGHT
 10
0.0
 20
0.0
 30
0.0
  9
$PUCSORGFRONT
 10
0.0
 20
0.0
 30
0.0
  9
$PUCSORGBACK
 10
0.0
 20
0.0
 30
0.0
  9
$USERI1
 70
     0
  9
$USERI2
 70
     0
  9
$USERI3
 70
     0
  9
$USERI4
 70
     0
  9
$USERI5
 70
     0
  9
$USERR1
 40
0.0
  9
$USERR2
 40
0.0
  9
$USERR3
 40
0.0
  9
$USERR4
 40
0.0
  9
$USERR5
 40
0.0
  9
$WORLDVIEW
 70
     1
  9
$SHADEDGE
 70
     3
  9
$SHADEDIF
 70
    70
  9
$TILEMODE
 70
     1
  9
$MAXACTVP
 70
    64
  9
$PINSBASE
 10
0.0
 20
0.0
 30
0.0
  9
$PLIMCHECK
 70
     0
  9
$PEXTMIN
 10
1.000000000000000E+20
 20
1.000000000000000E+20
 30
1.000000000000000E+20
  9
$PEXTMAX
 10
-1.000000000000000E+20
 20
-1.000000000000000E+20
 30
-1.000000000000000E+20
  9
$PLIMMIN
 10
0.0
 20
0.0
  9
$PLIMMAX
 10
12.0
 20
9.0
  9
$UNITMODE
 70
     0
  9
$VISRETAIN
 70
     1
  9
$PLINEGEN
 70
     0
  9
$PSLTSCALE
 70
     1
  9
$TREEDEPTH
 70
  3020
  9
$CMLSTYLE
  2
Standard
  9
$CMLJUST
 70
     0
  9
$CMLSCALE
 40
1.0
  9
$PROXYGRAPHICS
 70
     1
  9
$MEASUREMENT
 70
     0
  9
$CELWEIGHT
370
    -1
  9
$ENDCAPS
280
     0
  9
$JOINSTYLE
280
     0
  9
$LWDISPLAY
290
     0
  9
$INSUNITS
 70
     1
  9
$HYPERLINKBASE
  1

  9
$STYLESHEET
  1

  9
$XEDIT
290
     1
  9
$CEPSNTYPE
380
     0
  9
$PSTYLEMODE
290
     1
  9
$FINGERPRINTGUID
  2
{A5F7F17B-51C6-40CD-89D8-BAFCAD36AB94}
  9
$VERSIONGUID
  2
{FAEB1C32-E019-11D5-929B-00C0DF256EC4}
  9
$EXTNAMES
290
     1
  9
$PSVPSCALE
 40
0.0
  9
$OLESTARTUP
290
     0
  9
$SORTENTS
280
   127
  9
$INDEXCTL
280
     0
  9
$HIDETEXT
280
     1
  9
$XCLIPFRAME
280
     2
  9
$HALOGAP
280
     0
  9
$OBSCOLOR
 70
   257
  9
$OBSLTYPE
280
     0
  9
$INTERSECTIONDISPLAY
280
     0
  9
$INTERSECTIONCOLOR
 70
   257
  9
$DIMASSOC
280
     2
  9
$PROJECTNAME
  1

  9
$CAMERADISPLAY
290
     0
  9
$LENSLENGTH
 40
50.0
  9
$CAMERAHEIGHT
 40
0.0
  9
$STEPSPERSEC
 40
2.0
  9
$STEPSIZE
 40
6.0
  9
$3DDWFPREC
 40
2.0
  9
$PSOLWIDTH
 40
0.25
  9
$PSOLHEIGHT
 40
4.0
  9
$LOFTANG1
 40
1.570796326794897
  9
$LOFTANG2
 40
1.570796326794897
  9
$LOFTMAG1
 40
0.0
  9
$LOFTMAG2
 40
0.0
  9
$LOFTPARAM
 70
     7
  9
$LOFTNORMALS
280
     1
  9
$LATITUDE
 40
37.795
  9
$LONGITUDE
 40
-122.394
  9
$NORTHDIRECTION
 40
0.0
  9
$TIMEZONE
 70
 -8000
  9
$LIGHTGLYPHDISPLAY
280
     1
  9
$TILEMODELIGHTSYNCH
280
     1
  9
$CMATERIAL
347
44
  9
$SOLIDHIST
280
     0
  9
$SHOWHIST
280
     1
  9
$DWFFRAME
280
     2
  9
$DGNFRAME
280
     2
  9
$REALWORLDSCALE
290
     1
  9
$INTERFERECOLOR
 62
   256
  9
$CSHADOW
280
     0
  9
$SHADOWPLANELOCATION
 40
0.0
  0
ENDSEC
  0
SECTION
  2
CLASSES
  0
CLASS
  1
ACDBDICTIONARYWDFLT
  2
AcDbDictionaryWithDefault
  3
ObjectDBX Classes
 90
        0
 91
        4
280
     0
281
     0
  0
CLASS
  1
VISUALSTYLE
  2
AcDbVisualStyle
  3
ObjectDBX Classes
 90
     4095
 91
        4
280
     0
281
     0
  0
CLASS
  1
MATERIAL
  2
AcDbMaterial
  3
ObjectDBX Classes
 90
     1153
 91
        4
280
     0
281
     0
  0
CLASS
  1
SCALE
  2
AcDbScale
  3
ObjectDBX Classes
 90
     1153
 91
        4
280
     0
281
     0
  0
CLASS
  1
TABLESTYLE
  2
AcDbTableStyle
  3
ObjectDBX Classes
 90
     4095
 91
        4
280
     0
281
     0
  0
CLASS
  1
MLEADERSTYLE
  2
AcDbMLeaderStyle
  3
ACDB_MLEADERSTYLE_CLASS
 90
     4095
 91
        4
280
     0
281
     0
  0
CLASS
  1
SUN
  2
AcDbSun
  3
SCENEOE
 90
     1153
 91
        4
280
     0
281
     0
  0
CLASS
  1
DICTIONARYVAR
  2
AcDbDictionaryVar
  3
ObjectDBX Classes
 90
        0
 91
        4
280
     0
281
     0
  0
CLASS
  1
CELLSTYLEMAP
  2
AcDbCellStyleMap
  3
ObjectDBX Classes
 90
     1152
 91
        4
280
     0
281
     0
  0
ENDSEC
  0
SECTION
  2
TABLES
  0
TABLE
  2
VPORT
  5
8
330
0
100
AcDbSymbolTable
 70
     1
  0
VPORT
  5
29
330
8
100
AcDbSymbolTableRecord
100
AcDbViewportTableRecord
  2
*Active
 70
     0
 10
0.0
 20
0.0
 11
1.0
 21
1.0
 12
-0.4239843749999999
 22
-0.0625
 13
0.0
 23
0.0
 14
0.5
 24
0.5
 15
0.5
 25
0.5
 16
0.0
 26
0.0
 36
1.0
 17
0.0
 27
0.0
 37
0.0
 40
8.5425
 41
0.6300932835820895
 42
50.0
 43
0.0
 44
0.0
 50
0.0
 51
0.0
 71
     0
 72
   100
 73
     1
 74
     3
 75
     0
 76
     0
 77
     0
 78
     0
281
     0
 65
     1
110
0.0
120
0.0
130
0.0
111
1.0
121
0.0
131
0.0
112
0.0
122
1.0
132
0.0
 79
     0
146
0.0
348
2F
 60
     3
 61
     5
292
     1
282
     1
141
0.0
142
0.0
 63
   250
361
6D
  0
ENDTAB
  0
TABLE
  2
LTYPE
  5
5
330
0
100
AcDbSymbolTable
 70
     3
  0
LTYPE
  5
14
330
5
100
AcDbSymbolTableRecord
100
AcDbLinetypeTableRecord
  2
ByBlock
 70
     0
  3

 72
    65
 73
     0
 40
0.0
  0
LTYPE
  5
15
330
5
100
AcDbSymbolTableRecord
100
AcDbLinetypeTableRecord
  2
ByLayer
 70
     0
  3

 72
    65
 73
     0
 40
0.0
  0
LTYPE
  5
16
330
5
100
AcDbSymbolTableRecord
100
AcDbLinetypeTableRecord
  2
Continuous
 70
     0
  3
Solid line
 72
    65
 73
     0
 40
0.0
  0
LTYPE
  5
9E
330
5
100
AcDbSymbolTableRecord
100
AcDbLinetypeTableRecord
  2
Dashed
 70
     0
  3

 72
    65
 73
     2
 40
2.0
 49
1.0
 74
     0
 49
-1.0
 74
     0
  0
LTYPE
  5
180
330
5
100
AcDbSymbolTableRecord
100
AcDbLinetypeTableRecord
  2
Center
 70
     0
  3

 72
    65
 73
     4
 40
1.5
 49
0.45
 74
     0
 49
-0.5
 74
     0
 49
0.05
 74
     0
 49
-0.5
 74
     0
  0
ENDTAB
  0
TABLE
  2
LAYER
  5
2
330
0
100
AcDbSymbolTable
 70
     7
  0
LAYER
  5
10
330
2
100
AcDbSymbolTableRecord
100
AcDbLayerTableRecord
  2
0
 70
     0
 62
     7
  6
Continuous
370
    -3
390
F
347
46
348
0
  0
LAYER
  5
72
330
2
100
AcDbSymbolTableRecord
100
AcDbLayerTableRecord
  2
AM_6
 70
     0
 62
    -2
  6
Continuous
370
    35
390
F
347
46
348
0
  0
LAYER
  5
9F
330
2
100
AcDbSymbolTableRecord
100
AcDbLayerTableRecord
  2
AM_9
 70
     0
 62
     6
  6
Dashed
370
    25
390
F
347
46
348
0
  0
LAYER
  5
AB
330
2
100
AcDbSymbolTableRecord
100
AcDbLayerTableRecord
  2
AM_5
 70
     0
 62
     3
  6
Continuous
370
    25
390
F
347
46
348
0
  0
LAYER
  5
AF
330
2
100
AcDbSymbolTableRecord
100
AcDbLayerTableRecord
  2
AM_4
 70
     0
 62
     7
  6
Continuous
370
    50
390
F
347
46
348
0
  0
LAYER
  5
181
330
2
100
AcDbSymbolTableRecord
100
AcDbLayerTableRecord
  2
AM_7
 70
     0
 62
     7
  6
Center
370
    25
390
F
347
46
348
0
  0
LAYER
  5
254
330
2
100
AcDbSymbolTableRecord
100
AcDbLayerTableRecord
  2
ConnectionPoints
 70
     0
 62
     7
  6
Continuous
370
    50
390
F
347
46
348
0
  0
ENDTAB
  0
TABLE
  2
STYLE
  5
3
330
0
100
AcDbSymbolTable
 70
     1
  0
STYLE
  5
11
330
3
100
AcDbSymbolTableRecord
100
AcDbTextStyleTableRecord
  2
Standard
 70
     0
 40
0.0
 41
1.0
 50
0.0
 71
     0
 42
0.2
  3
txt
  4

  0
ENDTAB
  0
TABLE
  2
VIEW
  5
6
330
0
100
AcDbSymbolTable
 70
     0
  0
ENDTAB
  0
TABLE
  2
UCS
  5
7
330
0
100
AcDbSymbolTable
 70
     0
  0
ENDTAB
  0
TABLE
  2
APPID
  5
9
330
0
100
AcDbSymbolTable
 70
     1
  0
APPID
  5
12
330
9
100
AcDbSymbolTableRecord
100
AcDbRegAppTableRecord
  2
ACAD
 70
     0
  0
ENDTAB
  0
TABLE
  2
DIMSTYLE
  5
A
330
0
100
AcDbSymbolTable
 70
     1
100
AcDbDimStyleTable
  0
DIMSTYLE
105
27
330
A
100
AcDbSymbolTableRecord
100
AcDbDimStyleTableRecord
  2
Standard
 70
     0
178
     0
340
11
  0
ENDTAB
  0
TABLE
  2
BLOCK_RECORD
  5
1
330
0
100
AcDbSymbolTable
 70
     8
  0
BLOCK_RECORD
  5
1F
330
1
100
AcDbSymbolTableRecord
100
AcDbBlockTableRecord
  2
*Model_Space
340
22
 70
     0
280
     1
281
     0
  0
BLOCK_RECORD
  5
1B
330
1
100
AcDbSymbolTableRecord
100
AcDbBlockTableRecord
  2
*Paper_Space
340
1E
 70
     0
280
     1
281
     0
  0
BLOCK_RECORD
  5
23
330
1
100
AcDbSymbolTableRecord
100
AcDbBlockTableRecord
  2
*Paper_Space0
340
26
 70
     0
280
     1
281
     0
  0
BLOCK_RECORD
  5
6E
330
1
100
AcDbSymbolTableRecord
100
AcDbBlockTableRecord
  2
1_069454_2
340
0
102
{BLKREFS
331
6F
102
}
 70
     0
280
     1
281
     0
  0
BLOCK_RECORD
  5
8E
330
1
100
AcDbSymbolTableRecord
100
AcDbBlockTableRecord
  2
2_ASME_B18_3_1_4_1_0_in_069454_2
340
0
102
{BLKREFS
331
8F
102
}
 70
     0
280
     1
281
     0
  0
BLOCK_RECORD
  5
B6
330
1
100
AcDbSymbolTableRecord
100
AcDbBlockTableRecord
  2
3_ASME_B18_3_1_4_2_0_in_069454_2
340
0
102
{BLKREFS
331
B7
102
}
 70
     0
280
     1
281
     0
  0
BLOCK_RECORD
  5
DA
330
1
100
AcDbSymbolTableRecord
100
AcDbBlockTableRecord
  2
4_070906LW_0_in_069454_2
340
0
102
{BLKREFS
331
DB
102
}
 70
     0
280
     1
281
     0
  0
BLOCK_RECORD
  5
110
330
1
100
AcDbSymbolTableRecord
100
AcDbBlockTableRecord
  2
5_070906I_0_in_069454_2
340
0
102
{BLKREFS
331
111
102
}
 70
     0
280
     1
281
     0
  0
BLOCK_RECORD
  5
19F
330
1
100
AcDbSymbolTableRecord
100
AcDbBlockTableRecord
  2
6_405015E_Inch_0_in_069454_2
340
0
102
{BLKREFS
331
1A0
102
}
 70
     0
280
     1
281
     0
  0
BLOCK_RECORD
  5
203
330
1
100
AcDbSymbolTableRecord
100
AcDbBlockTableRecord
  2
7_069454H_0_in_069454_2
340
0
102
{BLKREFS
331
204
102
}
 70
     0
280
     1
281
     0
  0
ENDTAB
  0
ENDSEC
  0
SECTION
  2
BLOCKS
  0
BLOCK
  5
20
330
1F
100
AcDbEntity
  8
0
100
AcDbBlockBegin
  2
*Model_Space
 70
     0
 10
0.0
 20
0.0
 30
0.0
  3
*Model_Space
  1

  0
ENDBLK
  5
21
330
1F
100
AcDbEntity
  8
0
100
AcDbBlockEnd
  0
BLOCK
  5
1C
330
1B
100
AcDbEntity
 67
     1
  8
0
100
AcDbBlockBegin
  2
*Paper_Space
 70
     0
 10
0.0
 20
0.0
 30
0.0
  3
*Paper_Space
  1

  0
ENDBLK
  5
1D
330
1B
100
AcDbEntity
 67
     1
  8
0
100
AcDbBlockEnd
  0
BLOCK
  5
24
330
23
100
AcDbEntity
  8
0
100
AcDbBlockBegin
  2
*Paper_Space0
 70
     0
 10
0.0
 20
0.0
 30
0.0
  3
*Paper_Space0
  1

  0
ENDBLK
  5
25
330
23
100
AcDbEntity
  8
0
100
AcDbBlockEnd
  0
BLOCK
  5
70
330
6E
100
AcDbEntity
  8
0
100
AcDbBlockBegin
  2
1_069454_2
 70
     2
 10
0.0
 20
0.0
 30
0.0
  3
1_069454_2
  1

  0
ATTDEF
  5
73
330
6E
100
AcDbEntity
  8
AM_6
100
AcDbText
 10
7.21453125
 20
4.125
 30
0.0
 40
0.5
  1
Imperial -IP Pillow Block 1-1/8 thru 2-1/4  2-Bolt Inch Bore (Contact Seal)
100
AcDbAttributeDefinition
  3

  2
NN
 70
     8
280
     0
  0
ATTDEF
  5
74
330
6E
100
AcDbEntity
  8
AM_6
100
AcDbText
 10
7.21453125
 20
3.625
 30
0.0
 40
0.5
  1
Imperial 2 Bolt Piliow Block Bearings
100
AcDbAttributeDefinition
  3

  2
NT
 70
     8
280
     0
  0
ATTDEF
  5
75
330
6E
100
AcDbEntity
  8
AM_6
100
AcDbText
 10
7.21453125
 20
3.125
 30
0.0
 40
0.5
  1
069454
100
AcDbAttributeDefinition
  3

  2
NB
 70
     8
280
     0
  0
ATTDEF
  5
76
330
6E
100
AcDbEntity
  8
AM_6
100
AcDbText
 10
7.21453125
 20
2.625
 30
0.0
 40
0.5
  1
$PN.
100
AcDbAttributeDefinition
  3

  2
NBSYN
 70
     8
280
     0
  0
ATTDEF
  5
77
330
6E
100
AcDbEntity
  8
AM_6
100
AcDbText
 10
7.21453125
 20
2.125
 30
0.0
 40
0.5
  1
069454
100
AcDbAttributeDefinition
  3

  2
LINA
 70
     8
280
     0
  0
ATTDEF
  5
78
330
6E
100
AcDbEntity
  8
AM_6
100
AcDbText
 10
7.21453125
 20
1.625
 30
0.0
 40
0.5
  1
3-15/16
100
AcDbAttributeDefinition
  3

  2
SS
 70
     8
280
     0
  0
ATTDEF
  5
79
330
6E
100
AcDbEntity
  8
AM_6
100
AcDbText
 10
7.21453125
 20
1.125
 30
0.0
 40
0.5
  1
069454
100
AcDbAttributeDefinition
  3

  2
PN
 70
     8
280
     0
  0
ATTDEF
  5
7A
330
6E
100
AcDbEntity
  8
AM_6
100
AcDbText
 10
7.21453125
 20
0.625
 30
0.0
 40
0.5
  1
P2B-IP-315RE
100
AcDbAttributeDefinition
  3

  2
DESCRIPTION
 70
     8
280
     0
  0
ATTDEF
  5
7B
330
6E
100
AcDbEntity
  8
AM_6
100
AcDbText
 10
7.21453125
 20
0.125
 30
0.0
 40
0.5
  1
Expansion Type
100
AcDbAttributeDefinition
  3

  2
EF
 70
     8
280
     0
  0
ATTDEF
  5
7C
330
6E
100
AcDbEntity
  8
AM_6
100
AcDbText
 10
7.21453125
 20
-0.375
 30
0.0
 40
0.5
  1
Contact  Seal
100
AcDbAttributeDefinition
  3

  2
ST
 70
     8
280
     0
  0
ATTDEF
  5
7D
330
6E
100
AcDbEntity
  8
AM_6
100
AcDbText
 10
7.21453125
 20
-0.875
 30
0.0
 40
0.5
  1
4-45/64
100
AcDbAttributeDefinition
  3

  2
A
 70
     8
280
     0
  0
ATTDEF
  5
7E
330
6E
100
AcDbEntity
  8
AM_6
100
AcDbText
 10
7.21453125
 20
-1.375
 30
0.0
 40
0.5
  1
15-1/4
100
AcDbAttributeDefinition
  3

  2
B
 70
     8
280
     0
  0
ATTDEF
  5
7F
330
6E
100
AcDbEntity
  8
AM_6
100
AcDbText
 10
7.21453125
 20
-1.875
 30
0.0
 40
0.5
  1
3-29/32
100
AcDbAttributeDefinition
  3

  2
C
 70
     8
280
     0
  0
ATTDEF
  5
80
330
6E
100
AcDbEntity
  8
AM_6
100
AcDbText
 10
7.21453125
 20
-2.375
 30
0.0
 40
0.5
  1
10-5/8
100
AcDbAttributeDefinition
  3

  2
DMIN
 70
     8
280
     0
  0
ATTDEF
  5
81
330
6E
100
AcDbEntity
  8
AM_6
100
AcDbText
 10
7.21453125
 20
-2.875
 30
0.0
 40
0.5
  1
12-7/8
100
AcDbAttributeDefinition
  3

  2
DMAX
 70
     8
280
     0
  0
ATTDEF
  5
82
330
6E
100
AcDbEntity
  8
AM_6
100
AcDbText
 10
7.21453125
 20
-3.375
 30
0.0
 40
0.5
  1
1
100
AcDbAttributeDefinition
  3

  2
F
 70
     8
280
     0
  0
ATTDEF
  5
83
330
6E
100
AcDbEntity
  8
AM_6
100
AcDbText
 10
7.21453125
 20
-3.875
 30
0.0
 40
0.5
  1
2-1/4
100
AcDbAttributeDefinition
  3

  2
G
 70
     8
280
     0
  0
ATTDEF
  5
84
330
6E
100
AcDbEntity
  8
AM_6
100
AcDbText
 10
7.21453125
 20
-4.375
 30
0.0
 40
0.5
  1
2-7/16
100
AcDbAttributeDefinition
  3

  2
H
 70
     8
280
     0
  0
ATTDEF
  5
85
330
6E
100
AcDbEntity
  8
AM_6
100
AcDbText
 10
7.21453125
 20
-4.875
 30
0.0
 40
0.5
  1
8-3/8
100
AcDbAttributeDefinition
  3

  2
J
 70
     8
280
     0
  0
ATTDEF
  5
86
330
6E
100
AcDbEntity
  8
AM_6
100
AcDbText
 10
7.21453125
 20
-5.375
 30
0.0
 40
0.5
  1
5-9/16
100
AcDbAttributeDefinition
  3

  2
L
 70
     8
280
     0
  0
ATTDEF
  5
87
330
6E
100
AcDbEntity
  8
AM_6
100
AcDbText
 10
7.21453125
 20
-5.875
 30
0.0
 40
0.5
  1
4-1/4
100
AcDbAttributeDefinition
  3

  2
M
 70
     8
280
     0
  0
ATTDEF
  5
88
330
6E
100
AcDbEntity
  8
AM_6
100
AcDbText
 10
7.21453125
 20
-6.375
 30
0.0
 40
0.5
  1
1-41/64
100
AcDbAttributeDefinition
  3

  2
R
 70
     8
280
     0
  0
ATTDEF
  5
89
330
6E
100
AcDbEntity
  8
AM_6
100
AcDbText
 10
7.21453125
 20
-6.875
 30
0.0
 40
0.5
  1
3-1/16
100
AcDbAttributeDefinition
  3

  2
S
 70
     8
280
     0
  0
ATTDEF
  5
8A
330
6E
100
AcDbEntity
  8
AM_6
100
AcDbText
 10
7.21453125
 20
-7.375
 30
0.0
 40
0.5
  1
5/16
100
AcDbAttributeDefinition
  3

  2
X
 70
     8
280
     0
  0
ATTDEF
  5
8B
330
6E
100
AcDbEntity
  8
AM_6
100
AcDbText
 10
7.21453125
 20
-7.875
 30
0.0
 40
0.5
  1
0.025
100
AcDbAttributeDefinition
  3

  2
Y
 70
     8
280
     0
  0
ATTDEF
  5
8C
330
6E
100
AcDbEntity
  8
AM_6
100
AcDbText
 10
7.21453125
 20
-8.375
 30
0.0
 40
0.5
  1
4-1/2
100
AcDbAttributeDefinition
  3

  2
Z
 70
     8
280
     0
  0
ATTDEF
  5
8D
330
6E
100
AcDbEntity
  8
AM_6
100
AcDbText
 10
7.21453125
 20
-8.875
 30
0.0
 40
0.5
  1
baldor
100
AcDbAttributeDefinition
  3

  2
COMPANY
 70
     8
280
     0
  0
INSERT
  5
8F
330
6E
100
AcDbEntity
  8
0
100
AcDbBlockReference
  2
2_ASME_B18_3_1_4_1_0_in_069454_2
 10
0.0
 20
0.0
 30
0.0
  0
INSERT
  5
B7
330
6E
100
AcDbEntity
  8
0
100
AcDbBlockReference
  2
3_ASME_B18_3_1_4_2_0_in_069454_2
 10
0.0
 20
0.0
 30
0.0
  0
INSERT
  5
DB
330
6E
100
AcDbEntity
  8
0
100
AcDbBlockReference
  2
4_070906LW_0_in_069454_2
 10
0.0
 20
0.0
 30
0.0
  0
INSERT
  5
111
330
6E
100
AcDbEntity
  8
0
100
AcDbBlockReference
  2
5_070906I_0_in_069454_2
 10
0.0
 20
0.0
 30
0.0
  0
INSERT
  5
1A0
330
6E
100
AcDbEntity
  8
0
100
AcDbBlockReference
  2
6_405015E_Inch_0_in_069454_2
 10
0.0
 20
0.0
 30
0.0
  0
INSERT
  5
204
330
6E
100
AcDbEntity
  8
0
100
AcDbBlockReference
  2
7_069454H_0_in_069454_2
 10
0.0
 20
0.0
 30
0.0
  0
ENDBLK
  5
71
330
6E
100
AcDbEntity
  8
0
100
AcDbBlockEnd
  0
BLOCK
  5
90
330
8E
100
AcDbEntity
  8
0
100
AcDbBlockBegin
  2
2_ASME_B18_3_1_4_1_0_in_069454_2
 70
     2
 10
0.0
 20
0.0
 30
0.0
  3
2_ASME_B18_3_1_4_1_0_in_069454_2
  1

  0
ATTDEF
  5
92
330
8E
100
AcDbEntity
  8
AM_6
100
AcDbText
 10
3.324333333333334
 20
-2.265875
 30
0.0
 40
0.5
  1
ANSI/ASME B18.3-1998
100
AcDbAttributeDefinition
  3

  2
NN
 70
     8
280
     0
  0
ATTDEF
  5
93
330
8E
100
AcDbEntity
  8
AM_6
100
AcDbText
 10
3.324333333333334
 20
-2.765875
 30
0.0
 40
0.5
  1
Socket Button Head Cap Screws
100
AcDbAttributeDefinition
  3

  2
NT
 70
     8
280
     0
  0
ATTDEF
  5
94
330
8E
100
AcDbEntity
  8
AM_6
100
AcDbText
 10
3.324333333333334
 20
-3.265875
 30
0.0
 40
0.5
  1
ASME B18.3-1/4
100
AcDbAttributeDefinition
  3

  2
NB
 70
     8
280
     0
  0
ATTDEF
  5
95
330
8E
100
AcDbEntity
  8
AM_6
100
AcDbText
 10
3.324333333333334
 20
-3.765875
 30
0.0
 40
0.5
  1
ASME B18.3-$NS.
100
AcDbAttributeDefinition
  3

  2
NBSYN
 70
     8
280
     0
  0
ATTDEF
  5
96
330
8E
100
AcDbEntity
  8
AM_6
100
AcDbText
 10
3.324333333333334
 20
-4.265874999999999
 30
0.0
 40
0.5
  1
ASME B18.3-1/4
100
AcDbAttributeDefinition
  3

  2
LINA
 70
     8
280
     0
  0
ATTDEF
  5
97
330
8E
100
AcDbEntity
  8
AM_6
100
AcDbText
 10
3.324333333333334
 20
-4.765874999999999
 30
0.0
 40
0.5
  1
1/4
100
AcDbAttributeDefinition
  3

  2
NS
 70
     8
280
     0
  0
ATTDEF
  5
98
330
8E
100
AcDbEntity
  8
AM_6
100
AcDbText
 10
3.324333333333334
 20
-5.265874999999999
 30
0.0
 40
0.5
  1
0.437
100
AcDbAttributeDefinition
  3

  2
A
 70
     8
280
     0
  0
ATTDEF
  5
99
330
8E
100
AcDbEntity
  8
AM_6
100
AcDbText
 10
3.324333333333334
 20
-5.765874999999999
 30
0.0
 40
0.5
  1
0.132
100
AcDbAttributeDefinition
  3

  2
H
 70
     8
280
     0
  0
ATTDEF
  5
9A
330
8E
100
AcDbEntity
  8
AM_6
100
AcDbText
 10
3.324333333333334
 20
-6.265874999999999
 30
0.0
 40
0.5
  1
0.800
100
AcDbAttributeDefinition
  3

  2
L
 70
     8
280
     0
  0
ATTDEF
  5
9B
330
8E
100
AcDbEntity
  8
AM_6
100
AcDbText
 10
3.324333333333334
 20
-6.765874999999999
 30
0.0
 40
0.5
  1
0.031
100
AcDbAttributeDefinition
  3

  2
S
 70
     8
280
     0
  0
ATTDEF
  5
9C
330
8E
100
AcDbEntity
  8
AM_6
100
AcDbText
 10
3.324333333333334
 20
-7.265874999999999
 30
0.0
 40
0.5
  1
0.156250
100
AcDbAttributeDefinition
  3

  2
J
 70
     8
280
     0
  0
ATTDEF
  5
9D
330
8E
100
AcDbEntity
  8
AM_6
100
AcDbText
 10
3.324333333333334
 20
-7.765874999999999
 30
0.0
 40
0.5
  1
baldor
100
AcDbAttributeDefinition
  3

  2
COMPANY
 70
     8
280
     0
  0
LINE
  5
A0
330
8E
100
AcDbEntity
  8
AM_9
100
AcDbLine
 10
-2.537666666666667
 20
-2.574585979560879
 30
0.0
 11
-2.607666666666667
 21
-2.574585979560879
 31
0.0
  0
LINE
  5
A1
330
8E
100
AcDbEntity
  8
AM_9
100
AcDbLine
 10
-2.537666666666667
 20
-2.394164020439121
 30
0.0
 11
-2.607666666666667
 21
-2.394164020439121
 31
0.0
  0
LINE
  5
A2
330
8E
100
AcDbEntity
  8
AM_9
100
AcDbLine
 10
-2.537666666666667
 20
-2.394164020439121
 30
0.0
 11
-2.537666666666667
 21
-2.574585979560879
 31
0.0
  0
LINE
  5
A3
330
8E
100
AcDbEntity
  8
AM_9
100
AcDbLine
 10
-2.537666666666667
 20
-2.43926951021956
 30
0.0
 11
-2.607666666666667
 21
-2.43926951021956
 31
0.0
  0
LINE
  5
A4
330
8E
100
AcDbEntity
  8
AM_9
100
AcDbLine
 10
-2.537666666666667
 20
-2.52948048978044
 30
0.0
 11
-2.607666666666667
 21
-2.52948048978044
 31
0.0
  0
LINE
  5
A5
330
8E
100
AcDbEntity
  8
AM_9
100
AcDbLine
 10
-1.675666666666667
 20
-2.377975
 30
0.0
 11
-1.675666666666667
 21
-2.590775
 31
0.0
  0
LINE
  5
A6
330
8E
100
AcDbEntity
  8
AM_9
100
AcDbLine
 10
-1.675666666666667
 20
-2.377975
 30
0.0
 11
-1.694266666666667
 21
-2.359375
 31
0.0
  0
LINE
  5
A7
330
8E
100
AcDbEntity
  8
AM_9
100
AcDbLine
 10
-1.694266666666667
 20
-2.609375
 30
0.0
 11
-1.675666666666667
 21
-2.590775
 31
0.0
  0
LINE
  5
A8
330
8E
100
AcDbEntity
  8
AM_9
100
AcDbLine
 10
-1.694266666666667
 20
-2.359375
 30
0.0
 11
-1.694266666666667
 21
-2.609375
 31
0.0
  0
LINE
  5
A9
330
8E
100
AcDbEntity
  8
AM_9
100
AcDbLine
 10
-2.475666666666667
 20
-2.609375
 30
0.0
 11
-1.694266666666667
 21
-2.609375
 31
0.0
  0
LINE
  5
AA
330
8E
100
AcDbEntity
  8
AM_9
100
AcDbLine
 10
-1.694266666666667
 20
-2.359375
 30
0.0
 11
-2.475666666666667
 21
-2.359375
 31
0.0
  0
LINE
  5
AC
330
8E
100
AcDbEntity
  8
AM_5
100
AcDbLine
 10
-2.395666666666667
 20
-2.590775
 30
0.0
 11
-2.427882811687448
 21
-2.609375
 31
0.0
  0
LINE
  5
AD
330
8E
100
AcDbEntity
  8
AM_5
100
AcDbLine
 10
-2.395666666666667
 20
-2.359375026540083
 30
0.0
 11
-2.395666666666667
 21
-2.609375168390303
 31
0.0
  0
LINE
  5
AE
330
8E
100
AcDbEntity
  8
AM_5
100
AcDbLine
 10
-2.395666666666667
 20
-2.377975
 30
0.0
 11
-2.427882811687447
 21
-2.359375
 31
0.0
  0
LINE
  5
B0
330
8E
100
AcDbEntity
  8
AM_4
100
AcDbLine
 10
-2.607666666666667
 20
-2.366875
 30
0.0
 11
-2.607666666666667
 21
-2.601875
 31
0.0
  0
ARC
  5
B1
330
8E
100
AcDbEntity
  8
AM_4
100
AcDbCircle
 10
-2.506666666666666
 20
-2.601874999999999
 30
0.0
 40
0.1010000000000004
100
AcDbArc
 50
180.0
 51
270.0
  0
ARC
  5
B2
330
8E
100
AcDbEntity
  8
AM_4
100
AcDbCircle
 10
-2.506666666666666
 20
-2.366875
 30
0.0
 40
0.101
100
AcDbArc
 50
90.0
 51
180.0
  0
LINE
  5
B3
330
8E
100
AcDbEntity
  8
AM_4
100
AcDbLine
 10
-2.506666666666666
 20
-2.265875
 30
0.0
 11
-2.506666666666666
 21
-2.702875
 31
0.0
  0
LINE
  5
B4
330
8E
100
AcDbEntity
  8
AM_4
100
AcDbLine
 10
-2.506666666666666
 20
-2.702875
 30
0.0
 11
-2.475666666666667
 21
-2.702875
 31
0.0
  0
LINE
  5
B5
330
8E
100
AcDbEntity
  8
AM_4
100
AcDbLine
 10
-2.475666666666667
 20
-2.265875
 30
0.0
 11
-2.506666666666666
 21
-2.265875
 31
0.0
  0
ENDBLK
  5
91
330
8E
100
AcDbEntity
  8
0
100
AcDbBlockEnd
  0
BLOCK
  5
B8
330
B6
100
AcDbEntity
  8
0
100
AcDbBlockBegin
  2
3_ASME_B18_3_1_4_2_0_in_069454_2
 70
     2
 10
0.0
 20
0.0
 30
0.0
  3
3_ASME_B18_3_1_4_2_0_in_069454_2
  1

  0
ATTDEF
  5
BA
330
B6
100
AcDbEntity
  8
AM_6
100
AcDbText
 10
3.324333333333334
 20
2.702875
 30
0.0
 40
0.5
  1
ANSI/ASME B18.3-1998
100
AcDbAttributeDefinition
  3

  2
NN
 70
     8
280
     0
  0
ATTDEF
  5
BB
330
B6
100
AcDbEntity
  8
AM_6
100
AcDbText
 10
3.324333333333334
 20
2.202875
 30
0.0
 40
0.5
  1
Socket Button Head Cap Screws
100
AcDbAttributeDefinition
  3

  2
NT
 70
     8
280
     0
  0
ATTDEF
  5
BC
330
B6
100
AcDbEntity
  8
AM_6
100
AcDbText
 10
3.324333333333334
 20
1.702875
 30
0.0
 40
0.5
  1
ASME B18.3-1/4
100
AcDbAttributeDefinition
  3

  2
NB
 70
     8
280
     0
  0
ATTDEF
  5
BD
330
B6
100
AcDbEntity
  8
AM_6
100
AcDbText
 10
3.324333333333334
 20
1.202875
 30
0.0
 40
0.5
  1
ASME B18.3-$NS.
100
AcDbAttributeDefinition
  3

  2
NBSYN
 70
     8
280
     0
  0
ATTDEF
  5
BE
330
B6
100
AcDbEntity
  8
AM_6
100
AcDbText
 10
3.324333333333334
 20
0.7028749999999997
 30
0.0
 40
0.5
  1
ASME B18.3-1/4
100
AcDbAttributeDefinition
  3

  2
LINA
 70
     8
280
     0
  0
ATTDEF
  5
BF
330
B6
100
AcDbEntity
  8
AM_6
100
AcDbText
 10
3.324333333333334
 20
0.2028749999999997
 30
0.0
 40
0.5
  1
1/4
100
AcDbAttributeDefinition
  3

  2
NS
 70
     8
280
     0
  0
ATTDEF
  5
C0
330
B6
100
AcDbEntity
  8
AM_6
100
AcDbText
 10
3.324333333333334
 20
-0.2971250000000003
 30
0.0
 40
0.5
  1
0.437
100
AcDbAttributeDefinition
  3

  2
A
 70
     8
280
     0
  0
ATTDEF
  5
C1
330
B6
100
AcDbEntity
  8
AM_6
100
AcDbText
 10
3.324333333333334
 20
-0.7971250000000003
 30
0.0
 40
0.5
  1
0.132
100
AcDbAttributeDefinition
  3

  2
H
 70
     8
280
     0
  0
ATTDEF
  5
C2
330
B6
100
AcDbEntity
  8
AM_6
100
AcDbText
 10
3.324333333333334
 20
-1.297125
 30
0.0
 40
0.5
  1
0.800
100
AcDbAttributeDefinition
  3

  2
L
 70
     8
280
     0
  0
ATTDEF
  5
C3
330
B6
100
AcDbEntity
  8
AM_6
100
AcDbText
 10
3.324333333333334
 20
-1.797125
 30
0.0
 40
0.5
  1
0.031
100
AcDbAttributeDefinition
  3

  2
S
 70
     8
280
     0
  0
ATTDEF
  5
C4
330
B6
100
AcDbEntity
  8
AM_6
100
AcDbText
 10
3.324333333333334
 20
-2.297125
 30
0.0
 40
0.5
  1
0.156250
100
AcDbAttributeDefinition
  3

  2
J
 70
     8
280
     0
  0
ATTDEF
  5
C5
330
B6
100
AcDbEntity
  8
AM_6
100
AcDbText
 10
3.324333333333334
 20
-2.797125
 30
0.0
 40
0.5
  1
baldor
100
AcDbAttributeDefinition
  3

  2
COMPANY
 70
     8
280
     0
  0
LINE
  5
C6
330
B6
100
AcDbEntity
  8
AM_9
100
AcDbLine
 10
-2.537666666666667
 20
2.574585979560879
 30
0.0
 11
-2.607666666666667
 21
2.574585979560879
 31
0.0
  0
LINE
  5
C7
330
B6
100
AcDbEntity
  8
AM_9
100
AcDbLine
 10
-2.537666666666667
 20
2.394164020439121
 30
0.0
 11
-2.607666666666667
 21
2.394164020439121
 31
0.0
  0
LINE
  5
C8
330
B6
100
AcDbEntity
  8
AM_9
100
AcDbLine
 10
-2.537666666666667
 20
2.43926951021956
 30
0.0
 11
-2.607666666666667
 21
2.43926951021956
 31
0.0
  0
LINE
  5
C9
330
B6
100
AcDbEntity
  8
AM_9
100
AcDbLine
 10
-2.537666666666667
 20
2.52948048978044
 30
0.0
 11
-2.607666666666667
 21
2.52948048978044
 31
0.0
  0
LINE
  5
CA
330
B6
100
AcDbEntity
  8
AM_9
100
AcDbLine
 10
-2.537666666666667
 20
2.574585979560879
 30
0.0
 11
-2.537666666666667
 21
2.394164020439121
 31
0.0
  0
LINE
  5
CB
330
B6
100
AcDbEntity
  8
AM_9
100
AcDbLine
 10
-1.675666666666667
 20
2.590775
 30
0.0
 11
-1.675666666666667
 21
2.377975
 31
0.0
  0
LINE
  5
CC
330
B6
100
AcDbEntity
  8
AM_9
100
AcDbLine
 10
-1.675666666666667
 20
2.590775
 30
0.0
 11
-1.694266666666667
 21
2.609375
 31
0.0
  0
LINE
  5
CD
330
B6
100
AcDbEntity
  8
AM_9
100
AcDbLine
 10
-1.694266666666667
 20
2.359375
 30
0.0
 11
-1.675666666666667
 21
2.377975
 31
0.0
  0
LINE
  5
CE
330
B6
100
AcDbEntity
  8
AM_9
100
AcDbLine
 10
-1.694266666666667
 20
2.609375
 30
0.0
 11
-1.694266666666667
 21
2.359375
 31
0.0
  0
LINE
  5
CF
330
B6
100
AcDbEntity
  8
AM_9
100
AcDbLine
 10
-2.475666666666667
 20
2.359375
 30
0.0
 11
-1.694266666666667
 21
2.359375
 31
0.0
  0
LINE
  5
D0
330
B6
100
AcDbEntity
  8
AM_9
100
AcDbLine
 10
-1.694266666666667
 20
2.609375
 30
0.0
 11
-2.475666666666667
 21
2.609375
 31
0.0
  0
LINE
  5
D1
330
B6
100
AcDbEntity
  8
AM_5
100
AcDbLine
 10
-2.395666666666667
 20
2.377975
 30
0.0
 11
-2.427882811687447
 21
2.359375
 31
0.0
  0
LINE
  5
D2
330
B6
100
AcDbEntity
  8
AM_5
100
AcDbLine
 10
-2.395666666666667
 20
2.609375168390303
 30
0.0
 11
-2.395666666666667
 21
2.359375026540082
 31
0.0
  0
LINE
  5
D3
330
B6
100
AcDbEntity
  8
AM_5
100
AcDbLine
 10
-2.395666666666667
 20
2.590775
 30
0.0
 11
-2.427882811687448
 21
2.609375
 31
0.0
  0
LINE
  5
D4
330
B6
100
AcDbEntity
  8
AM_4
100
AcDbLine
 10
-2.506666666666666
 20
2.265875
 30
0.0
 11
-2.475666666666667
 21
2.265875
 31
0.0
  0
LINE
  5
D5
330
B6
100
AcDbEntity
  8
AM_4
100
AcDbLine
 10
-2.475666666666667
 20
2.702875
 30
0.0
 11
-2.506666666666666
 21
2.702875
 31
0.0
  0
LINE
  5
D6
330
B6
100
AcDbEntity
  8
AM_4
100
AcDbLine
 10
-2.607666666666667
 20
2.601875
 30
0.0
 11
-2.607666666666667
 21
2.366875
 31
0.0
  0
LINE
  5
D7
330
B6
100
AcDbEntity
  8
AM_4
100
AcDbLine
 10
-2.506666666666666
 20
2.702875
 30
0.0
 11
-2.506666666666666
 21
2.265875
 31
0.0
  0
ARC
  5
D8
330
B6
100
AcDbEntity
  8
AM_4
100
AcDbCircle
 10
-2.506666666666666
 20
2.366875
 30
0.0
 40
0.1010000000000004
100
AcDbArc
 50
180.0
 51
270.0
  0
ARC
  5
D9
330
B6
100
AcDbEntity
  8
AM_4
100
AcDbCircle
 10
-2.506666666666666
 20
2.601874999999999
 30
0.0
 40
0.1010000000000004
100
AcDbArc
 50
90.0
 51
180.0
  0
ENDBLK
  5
B9
330
B6
100
AcDbEntity
  8
0
100
AcDbBlockEnd
  0
BLOCK
  5
DC
330
DA
100
AcDbEntity
  8
0
100
AcDbBlockBegin
  2
4_070906LW_0_in_069454_2
 70
     2
 10
0.0
 20
0.0
 30
0.0
  3
4_070906LW_0_in_069454_2
  1

  0
ATTDEF
  5
DE
330
DA
100
AcDbEntity
  8
AM_6
100
AcDbText
 10
3.024333333333333
 20
2.781249999999999
 30
0.0
 40
0.5
  1
Imperial Insert Lockwasher -Inch
100
AcDbAttributeDefinition
  3

  2
NN
 70
     8
280
     0
  0
ATTDEF
  5
DF
330
DA
100
AcDbEntity
  8
AM_6
100
AcDbText
 10
3.024333333333333
 20
2.281249999999999
 30
0.0
 40
0.5
  1
Imperial Bearings
100
AcDbAttributeDefinition
  3

  2
NT
 70
     8
280
     0
  0
ATTDEF
  5
E0
330
DA
100
AcDbEntity
  8
AM_6
100
AcDbText
 10
3.024333333333333
 20
1.781249999999999
 30
0.0
 40
0.5
  1
070906LW
100
AcDbAttributeDefinition
  3

  2
NB
 70
     8
280
     0
  0
ATTDEF
  5
E1
330
DA
100
AcDbEntity
  8
AM_6
100
AcDbText
 10
3.024333333333333
 20
1.281249999999999
 30
0.0
 40
0.5
  1
$PN.LW
100
AcDbAttributeDefinition
  3

  2
NBSYN
 70
     8
280
     0
  0
ATTDEF
  5
E2
330
DA
100
AcDbEntity
  8
AM_6
100
AcDbText
 10
3.024333333333333
 20
0.7812499999999991
 30
0.0
 40
0.5
  1
070906
100
AcDbAttributeDefinition
  3

  2
LINA
 70
     8
280
     0
  0
ATTDEF
  5
E3
330
DA
100
AcDbEntity
  8
AM_6
100
AcDbText
 10
3.024333333333333
 20
0.2812499999999991
 30
0.0
 40
0.5
  1
3-15/16
100
AcDbAttributeDefinition
  3

  2
SS
 70
     8
280
     0
  0
ATTDEF
  5
E4
330
DA
100
AcDbEntity
  8
AM_6
100
AcDbText
 10
3.024333333333333
 20
-0.2187500000000009
 30
0.0
 40
0.5
  1
3.937500
100
AcDbAttributeDefinition
  3

  2
SS1
 70
     8
280
     0
  0
ATTDEF
  5
E5
330
DA
100
AcDbEntity
  8
AM_6
100
AcDbText
 10
3.024333333333333
 20
-0.7187500000000009
 30
0.0
 40
0.5
  1
070906
100
AcDbAttributeDefinition
  3

  2
PN
 70
     8
280
     0
  0
ATTDEF
  5
E6
330
DA
100
AcDbEntity
  8
AM_6
100
AcDbText
 10
3.024333333333333
 20
-1.218750000000001
 30
0.0
 40
0.5
  1
INS-IP-315R
100
AcDbAttributeDefinition
  3

  2
DESCRIPTION
 70
     8
280
     0
  0
ATTDEF
  5
E7
330
DA
100
AcDbEntity
  8
AM_6
100
AcDbText
 10
3.024333333333333
 20
-1.718750000000001
 30
0.0
 40
0.5
  1
7.0866
100
AcDbAttributeDefinition
  3

  2
A
 70
     8
280
     0
  0
ATTDEF
  5
E8
330
DA
100
AcDbEntity
  8
AM_6
100
AcDbText
 10
3.024333333333333
 20
-2.218750000000001
 30
0.0
 40
0.5
  1
1-7/8
100
AcDbAttributeDefinition
  3

  2
B
 70
     8
280
     0
  0
ATTDEF
  5
E9
330
DA
100
AcDbEntity
  8
AM_6
100
AcDbText
 10
3.024333333333333
 20
-2.718750000000001
 30
0.0
 40
0.5
  1
4-45/64
100
AcDbAttributeDefinition
  3

  2
C
 70
     8
280
     0
  0
ATTDEF
  5
EA
330
DA
100
AcDbEntity
  8
AM_6
100
AcDbText
 10
3.024333333333333
 20
-3.218750000000001
 30
0.0
 40
0.5
  1
1.646
100
AcDbAttributeDefinition
  3

  2
D
 70
     8
280
     0
  0
ATTDEF
  5
EB
330
DA
100
AcDbEntity
  8
AM_6
100
AcDbText
 10
3.024333333333333
 20
-3.718750000000001
 30
0.0
 40
0.5
  1
5-9/16
100
AcDbAttributeDefinition
  3

  2
E
 70
     8
280
     0
  0
ATTDEF
  5
EC
330
DA
100
AcDbEntity
  8
AM_6
100
AcDbText
 10
3.024333333333333
 20
-4.218750000000001
 30
0.0
 40
0.5
  1
0.2500
100
AcDbAttributeDefinition
  3

  2
NDM
 70
     8
280
     0
  0
ATTDEF
  5
ED
330
DA
100
AcDbEntity
  8
AM_6
100
AcDbText
 10
3.024333333333333
 20
-4.718750000000001
 30
0.0
 40
0.5
  1
0.1960
100
AcDbAttributeDefinition
  3

  2
KDM
 70
     8
280
     0
  0
ATTDEF
  5
EE
330
DA
100
AcDbEntity
  8
AM_6
100
AcDbText
 10
3.024333333333333
 20
-5.218750000000001
 30
0.0
 40
0.5
  1
4.83
100
AcDbAttributeDefinition
  3

  2
AL
 70
     8
280
     0
  0
ATTDEF
  5
EF
330
DA
100
AcDbEntity
  8
AM_6
100
AcDbText
 10
3.024333333333333
 20
-5.718750000000001
 30
0.0
 40
0.5
  1
0.50
100
AcDbAttributeDefinition
  3

  2
BL
 70
     8
280
     0
  0
ATTDEF
  5
F0
330
DA
100
AcDbEntity
  8
AM_6
100
AcDbText
 10
3.024333333333333
 20
-6.218750000000001
 30
0.0
 40
0.5
  1
0.07
100
AcDbAttributeDefinition
  3

  2
CL
 70
     8
280
     0
  0
ATTDEF
  5
F1
330
DA
100
AcDbEntity
  8
AM_6
100
AcDbText
 10
3.024333333333333
 20
-6.718750000000001
 30
0.0
 40
0.5
  1
0.50
100
AcDbAttributeDefinition
  3

  2
DL
 70
     8
280
     0
  0
ATTDEF
  5
F2
330
DA
100
AcDbEntity
  8
AM_6
100
AcDbText
 10
3.024333333333333
 20
-7.218750000000001
 30
0.0
 40
0.5
  1
baldor
100
AcDbAttributeDefinition
  3

  2
COMPANY
 70
     8
280
     0
  0
LINE
  5
F3
330
DA
100
AcDbEntity
  8
AM_9
100
AcDbLine
 10
-2.405666666666667
 20
1.915135638369449
 30
0.0
 11
-2.475666666666667
 21
1.915135638369449
 31
0.0
  0
LINE
  5
F4
330
DA
100
AcDbEntity
  8
AM_9
100
AcDbLine
 10
-1.975666666666667
 20
1.863297286172534
 30
0.0
 11
-2.475666666666667
 21
1.863053367766471
 31
0.0
  0
LINE
  5
F5
330
DA
100
AcDbEntity
  8
AM_9
100
AcDbLine
 10
-1.975666666666667
 20
1.767382509675199
 30
0.0
 11
-1.975666666666667
 21
1.958968144263806
 31
0.0
  0
LINE
  5
F6
330
DA
100
AcDbEntity
  8
AM_9
100
AcDbLine
 10
-1.975666666666667
 20
1.767382509675199
 30
0.0
 11
-2.475666666666667
 21
1.767382509675199
 31
0.0
  0
LINE
  5
F7
330
DA
100
AcDbEntity
  8
AM_9
100
AcDbLine
 10
-2.405666666666667
 20
1.958968144263806
 30
0.0
 11
-1.975666666666667
 21
1.958968144263806
 31
0.0
  0
LINE
  5
F8
330
DA
100
AcDbEntity
  8
AM_9
100
AcDbLine
 10
-1.975666666666667
 20
1.863053367766471
 30
0.0
 11
-2.405666666666667
 21
1.863053367766471
 31
0.0
  0
LINE
  5
F9
330
DA
100
AcDbEntity
  8
AM_9
100
AcDbLine
 10
-2.405666666666667
 20
2.010806496460722
 30
0.0
 11
-2.475666666666667
 21
2.010806496460722
 31
0.0
  0
LINE
  5
FA
330
DA
100
AcDbEntity
  8
AM_9
100
AcDbLine
 10
-2.405666666666667
 20
2.484375
 30
0.0
 11
-2.475666666666667
 21
2.484375
 31
0.0
  0
LINE
  5
FB
330
DA
100
AcDbEntity
  8
AM_9
100
AcDbLine
 10
-2.405666666666667
 20
2.609414599272426
 30
0.0
 11
-2.475666666666667
 21
2.609414599272426
 31
0.0
  0
LINE
  5
FC
330
DA
100
AcDbEntity
  8
AM_9
100
AcDbLine
 10
-2.405666666666667
 20
-2.484375
 30
0.0
 11
-2.475666666666667
 21
-2.484375
 31
0.0
  0
LINE
  5
FD
330
DA
100
AcDbEntity
  8
AM_9
100
AcDbLine
 10
-2.475666666666667
 20
-2.609414599272426
 30
0.0
 11
-2.405666666666667
 21
-2.609414599272426
 31
0.0
  0
LINE
  5
FE
330
DA
100
AcDbEntity
  8
AM_9
100
AcDbLine
 10
-2.405666666666667
 20
2.124704572769724
 30
0.0
 11
-2.475666666666667
 21
2.124704572769724
 31
0.0
  0
LINE
  5
FF
330
DA
100
AcDbEntity
  8
AM_9
100
AcDbLine
 10
-2.405666666666667
 20
-2.124704572769724
 30
0.0
 11
-2.475666666666667
 21
-2.124704572769724
 31
0.0
  0
LINE
  5
100
330
DA
100
AcDbEntity
  8
AM_9
100
AcDbLine
 10
-2.405666666666667
 20
1.590781359071857
 30
0.0
 11
-2.475666666666667
 21
1.590781359071856
 31
0.0
  0
LINE
  5
101
330
DA
100
AcDbEntity
  8
AM_9
100
AcDbLine
 10
-2.405666666666667
 20
-1.590781359071856
 30
0.0
 11
-2.475666666666667
 21
-1.590781359071856
 31
0.0
  0
LINE
  5
102
330
DA
100
AcDbEntity
  8
AM_9
100
AcDbLine
 10
-2.405666666666667
 20
1.41400466377522
 30
0.0
 11
-2.475666666666667
 21
1.41400466377522
 31
0.0
  0
LINE
  5
103
330
DA
100
AcDbEntity
  8
AM_9
100
AcDbLine
 10
-2.405666666666667
 20
-1.414004663775218
 30
0.0
 11
-2.475666666666667
 21
-1.414004663775218
 31
0.0
  0
LINE
  5
104
330
DA
100
AcDbEntity
  8
AM_9
100
AcDbLine
 10
-2.405666666666667
 20
1.845106757158648
 30
0.0
 11
-2.475666666666667
 21
1.845106757158648
 31
0.0
  0
LINE
  5
105
330
DA
100
AcDbEntity
  8
AM_9
100
AcDbLine
 10
-2.405666666666667
 20
1.668330061862011
 30
0.0
 11
-2.475666666666667
 21
1.668330061862011
 31
0.0
  0
LINE
  5
106
330
DA
100
AcDbEntity
  8
AM_9
100
AcDbLine
 10
-2.405666666666667
 20
1.881746412260957
 30
0.0
 11
-2.475666666666667
 21
1.881746412260957
 31
0.0
  0
LINE
  5
107
330
DA
100
AcDbEntity
  8
AM_9
100
AcDbLine
 10
-2.405666666666667
 20
-1.66833006186201
 30
0.0
 11
-2.475666666666667
 21
-1.66833006186201
 31
0.0
  0
LINE
  5
108
330
DA
100
AcDbEntity
  8
AM_9
100
AcDbLine
 10
-2.405666666666667
 20
-1.845106757158665
 30
0.0
 11
-2.475666666666667
 21
-1.845106757158665
 31
0.0
  0
LINE
  5
109
330
DA
100
AcDbEntity
  8
AM_9
100
AcDbLine
 10
-2.475666666666667
 20
-1.881746412260956
 30
0.0
 11
-2.405666666666667
 21
-1.881746412260956
 31
0.0
  0
LINE
  5
10A
330
DA
100
AcDbEntity
  8
AM_9
100
AcDbLine
 10
-2.405666666666667
 20
0.1250000000000009
 30
0.0
 11
-2.475666666666667
 21
0.1250000000000009
 31
0.0
  0
LINE
  5
10B
330
DA
100
AcDbEntity
  8
AM_9
100
AcDbLine
 10
-2.405666666666667
 20
-0.1249999999999989
 30
0.0
 11
-2.475666666666667
 21
-0.1249999999999989
 31
0.0
  0
LINE
  5
10C
330
DA
100
AcDbEntity
  8
AM_4
100
AcDbLine
 10
-2.405666666666667
 20
2.781249999999999
 30
0.0
 11
-2.475666666666667
 21
2.781249999999999
 31
0.0
  0
LINE
  5
10D
330
DA
100
AcDbEntity
  8
AM_4
100
AcDbLine
 10
-2.475666666666667
 20
-2.781249999999999
 30
0.0
 11
-2.405666666666667
 21
-2.781249999999999
 31
0.0
  0
LINE
  5
10E
330
DA
100
AcDbEntity
  8
AM_4
100
AcDbLine
 10
-2.475666666666667
 20
2.781249999999999
 30
0.0
 11
-2.475666666666667
 21
-2.781249999999999
 31
0.0
  0
LINE
  5
10F
330
DA
100
AcDbEntity
  8
AM_4
100
AcDbLine
 10
-2.405666666666667
 20
2.781249999999999
 30
0.0
 11
-2.405666666666667
 21
-2.781249999999999
 31
0.0
  0
ENDBLK
  5
DD
330
DA
100
AcDbEntity
  8
0
100
AcDbBlockEnd
  0
BLOCK
  5
112
330
110
100
AcDbEntity
  8
0
100
AcDbBlockBegin
  2
5_070906I_0_in_069454_2
 70
     2
 10
0.0
 20
0.0
 30
0.0
  3
5_070906I_0_in_069454_2
  1

  0
ATTDEF
  5
114
330
110
100
AcDbEntity
  8
AM_6
100
AcDbText
 10
7.21453125
 20
3.5433
 30
0.0
 40
0.5
  1
Imperial Insert -Inch
100
AcDbAttributeDefinition
  3

  2
NN
 70
     8
280
     0
  0
ATTDEF
  5
115
330
110
100
AcDbEntity
  8
AM_6
100
AcDbText
 10
7.21453125
 20
3.0433
 30
0.0
 40
0.5
  1
Imperial Bearings
100
AcDbAttributeDefinition
  3

  2
NT
 70
     8
280
     0
  0
ATTDEF
  5
116
330
110
100
AcDbEntity
  8
AM_6
100
AcDbText
 10
7.21453125
 20
2.5433
 30
0.0
 40
0.5
  1
070906I
100
AcDbAttributeDefinition
  3

  2
NB
 70
     8
280
     0
  0
ATTDEF
  5
117
330
110
100
AcDbEntity
  8
AM_6
100
AcDbText
 10
7.21453125
 20
2.0433
 30
0.0
 40
0.5
  1
$PN.I
100
AcDbAttributeDefinition
  3

  2
NBSYN
 70
     8
280
     0
  0
ATTDEF
  5
118
330
110
100
AcDbEntity
  8
AM_6
100
AcDbText
 10
7.21453125
 20
1.5433
 30
0.0
 40
0.5
  1
070906
100
AcDbAttributeDefinition
  3

  2
LINA
 70
     8
280
     0
  0
ATTDEF
  5
119
330
110
100
AcDbEntity
  8
AM_6
100
AcDbText
 10
7.21453125
 20
1.0433
 30
0.0
 40
0.5
  1
3-15/16
100
AcDbAttributeDefinition
  3

  2
SS
 70
     8
280
     0
  0
ATTDEF
  5
11A
330
110
100
AcDbEntity
  8
AM_6
100
AcDbText
 10
7.21453125
 20
0.5433000000000003
 30
0.0
 40
0.5
  1
3.937500
100
AcDbAttributeDefinition
  3

  2
SS1
 70
     8
280
     0
  0
ATTDEF
  5
11B
330
110
100
AcDbEntity
  8
AM_6
100
AcDbText
 10
7.21453125
 20
0.0433000000000003
 30
0.0
 40
0.5
  1
070906
100
AcDbAttributeDefinition
  3

  2
PN
 70
     8
280
     0
  0
ATTDEF
  5
11C
330
110
100
AcDbEntity
  8
AM_6
100
AcDbText
 10
7.21453125
 20
-0.4566999999999997
 30
0.0
 40
0.5
  1
INS-IP-315R
100
AcDbAttributeDefinition
  3

  2
DESCRIPTION
 70
     8
280
     0
  0
ATTDEF
  5
11D
330
110
100
AcDbEntity
  8
AM_6
100
AcDbText
 10
7.21453125
 20
-0.9566999999999997
 30
0.0
 40
0.5
  1
Contact Seal
100
AcDbAttributeDefinition
  3

  2
ST
 70
     8
280
     0
  0
ATTDEF
  5
11E
330
110
100
AcDbEntity
  8
AM_6
100
AcDbText
 10
7.21453125
 20
-1.4567
 30
0.0
 40
0.5
  1
7.0866
100
AcDbAttributeDefinition
  3

  2
A
 70
     8
280
     0
  0
ATTDEF
  5
11F
330
110
100
AcDbEntity
  8
AM_6
100
AcDbText
 10
7.21453125
 20
-1.9567
 30
0.0
 40
0.5
  1
1-7/8
100
AcDbAttributeDefinition
  3

  2
B
 70
     8
280
     0
  0
ATTDEF
  5
120
330
110
100
AcDbEntity
  8
AM_6
100
AcDbText
 10
7.21453125
 20
-2.4567
 30
0.0
 40
0.5
  1
4-45/64
100
AcDbAttributeDefinition
  3

  2
C
 70
     8
280
     0
  0
ATTDEF
  5
121
330
110
100
AcDbEntity
  8
AM_6
100
AcDbText
 10
7.21453125
 20
-2.9567
 30
0.0
 40
0.5
  1
1.646
100
AcDbAttributeDefinition
  3

  2
D
 70
     8
280
     0
  0
ATTDEF
  5
122
330
110
100
AcDbEntity
  8
AM_6
100
AcDbText
 10
7.21453125
 20
-3.4567
 30
0.0
 40
0.5
  1
5-9/16
100
AcDbAttributeDefinition
  3

  2
E
 70
     8
280
     0
  0
ATTDEF
  5
123
330
110
100
AcDbEntity
  8
AM_6
100
AcDbText
 10
7.21453125
 20
-3.9567
 30
0.0
 40
0.5
  1
0.2500
100
AcDbAttributeDefinition
  3

  2
NDM
 70
     8
280
     0
  0
ATTDEF
  5
124
330
110
100
AcDbEntity
  8
AM_6
100
AcDbText
 10
7.21453125
 20
-4.4567
 30
0.0
 40
0.5
  1
0.132
100
AcDbAttributeDefinition
  3

  2
H
 70
     8
280
     0
  0
ATTDEF
  5
125
330
110
100
AcDbEntity
  8
AM_6
100
AcDbText
 10
7.21453125
 20
-4.9567
 30
0.0
 40
0.5
  1
0.1960
100
AcDbAttributeDefinition
  3

  2
KDM
 70
     8
280
     0
  0
ATTDEF
  5
126
330
110
100
AcDbEntity
  8
AM_6
100
AcDbText
 10
7.21453125
 20
-5.4567
 30
0.0
 40
0.5
  1
4.83
100
AcDbAttributeDefinition
  3

  2
AL
 70
     8
280
     0
  0
ATTDEF
  5
127
330
110
100
AcDbEntity
  8
AM_6
100
AcDbText
 10
7.21453125
 20
-5.9567
 30
0.0
 40
0.5
  1
0.50
100
AcDbAttributeDefinition
  3

  2
BL
 70
     8
280
     0
  0
ATTDEF
  5
128
330
110
100
AcDbEntity
  8
AM_6
100
AcDbText
 10
7.21453125
 20
-6.4567
 30
0.0
 40
0.5
  1
0.07
100
AcDbAttributeDefinition
  3

  2
CL
 70
     8
280
     0
  0
ATTDEF
  5
129
330
110
100
AcDbEntity
  8
AM_6
100
AcDbText
 10
7.21453125
 20
-6.9567
 30
0.0
 40
0.5
  1
0.50
100
AcDbAttributeDefinition
  3

  2
DL
 70
     8
280
     0
  0
ATTDEF
  5
12A
330
110
100
AcDbEntity
  8
AM_6
100
AcDbText
 10
7.21453125
 20
-7.4567
 30
0.0
 40
0.5
  1
0.8000
100
AcDbAttributeDefinition
  3

  2
LL
 70
     8
280
     0
  0
ATTDEF
  5
12B
330
110
100
AcDbEntity
  8
AM_6
100
AcDbText
 10
7.21453125
 20
-7.9567
 30
0.0
 40
0.5
  1
0.025
100
AcDbAttributeDefinition
  3

  2
Y
 70
     8
280
     0
  0
ATTDEF
  5
12C
330
110
100
AcDbEntity
  8
AM_6
100
AcDbText
 10
7.21453125
 20
-8.4567
 30
0.0
 40
0.5
  1
0.025000
100
AcDbAttributeDefinition
  3

  2
Y1
 70
     8
280
     0
  0
ATTDEF
  5
12D
330
110
100
AcDbEntity
  8
AM_6
100
AcDbText
 10
7.21453125
 20
-8.9567
 30
0.0
 40
0.5
  1
4-1/2
100
AcDbAttributeDefinition
  3

  2
Z
 70
     8
280
     0
  0
ATTDEF
  5
12E
330
110
100
AcDbEntity
  8
AM_6
100
AcDbText
 10
7.21453125
 20
-9.4567
 30
0.0
 40
0.5
  1
4.500000
100
AcDbAttributeDefinition
  3

  2
Z1
 70
     8
280
     0
  0
ATTDEF
  5
12F
330
110
100
AcDbEntity
  8
AM_6
100
AcDbText
 10
7.21453125
 20
-9.9567
 30
0.0
 40
0.5
  1
baldor
100
AcDbAttributeDefinition
  3

  2
COMPANY
 70
     8
280
     0
  0
LINE
  5
130
330
110
100
AcDbEntity
  8
AM_9
100
AcDbLine
 10
1.244625
 20
1.964029099314059
 30
0.0
 11
-2.405666666666666
 21
1.964029099314059
 31
0.0
  0
LINE
  5
131
330
110
100
AcDbEntity
  8
AM_9
100
AcDbLine
 10
1.244625
 20
1.868358241222787
 30
0.0
 11
-2.405666666666666
 21
1.868358241222787
 31
0.0
  0
LINE
  5
132
330
110
100
AcDbEntity
  8
AM_9
100
AcDbLine
 10
-1.565666666666662
 20
-2.484375
 30
0.0
 11
-1.611341501782954
 21
-2.386425
 31
0.0
  0
LINE
  5
133
330
110
100
AcDbEntity
  8
AM_9
100
AcDbLine
 10
-1.611341501782954
 20
-2.582325
 30
0.0
 11
-1.565666666666662
 21
-2.484375
 31
0.0
  0
LINE
  5
134
330
110
100
AcDbEntity
  8
AM_9
100
AcDbLine
 10
-1.565666666666667
 20
2.484375
 30
0.0
 11
-1.611341501782949
 21
2.582325
 31
0.0
  0
LINE
  5
135
330
110
100
AcDbEntity
  8
AM_9
100
AcDbLine
 10
-1.611341501782949
 20
2.386425
 30
0.0
 11
-1.565666666666667
 21
2.484375
 31
0.0
  0
LINE
  5
136
330
110
100
AcDbEntity
  8
AM_9
100
AcDbLine
 10
-1.611341501782949
 20
2.386425
 30
0.0
 11
-1.611341501782949
 21
2.582325
 31
0.0
  0
LINE
  5
137
330
110
100
AcDbEntity
  8
AM_9
100
AcDbLine
 10
-1.611341501782949
 20
2.582325
 30
0.0
 11
-2.378616666666667
 21
2.582325
 31
0.0
  0
LINE
  5
138
330
110
100
AcDbEntity
  8
AM_9
100
AcDbLine
 10
-2.378616666666667
 20
2.386425
 30
0.0
 11
-1.611341501782949
 21
2.386425
 31
0.0
  0
LINE
  5
139
330
110
100
AcDbEntity
  8
AM_9
100
AcDbLine
 10
-2.378616666666664
 20
-2.582325
 30
0.0
 11
-1.611341501782954
 21
-2.582325
 31
0.0
  0
LINE
  5
13A
330
110
100
AcDbEntity
  8
AM_9
100
AcDbLine
 10
-1.611341501782954
 20
-2.386425
 30
0.0
 11
-2.378616666666664
 21
-2.386425
 31
0.0
  0
LINE
  5
13B
330
110
100
AcDbEntity
  8
AM_9
100
AcDbLine
 10
-1.611341501782954
 20
-2.386425
 30
0.0
 11
-1.611341501782954
 21
-2.582325
 31
0.0
  0
LINE
  5
13C
330
110
100
AcDbEntity
  8
AM_9
100
AcDbLine
 10
-2.378616666666667
 20
2.386425
 30
0.0
 11
-2.378616666666667
 21
2.582325
 31
0.0
  0
LINE
  5
13D
330
110
100
AcDbEntity
  8
AM_9
100
AcDbLine
 10
-2.378616666666667
 20
2.582325
 30
0.0
 11
-2.405666666666667
 21
2.609375
 31
0.0
  0
LINE
  5
13E
330
110
100
AcDbEntity
  8
AM_9
100
AcDbLine
 10
-2.405666666666667
 20
2.359375
 30
0.0
 11
-2.378616666666667
 21
2.386425
 31
0.0
  0
LINE
  5
13F
330
110
100
AcDbEntity
  8
AM_9
100
AcDbLine
 10
-2.378616666666664
 20
-2.386425
 30
0.0
 11
-2.405666666666683
 21
-2.359375
 31
0.0
  0
LINE
  5
140
330
110
100
AcDbEntity
  8
AM_9
100
AcDbLine
 10
-2.405666666666683
 20
-2.609375
 30
0.0
 11
-2.378616666666664
 21
-2.582325
 31
0.0
  0
LINE
  5
141
330
110
100
AcDbEntity
  8
AM_9
100
AcDbLine
 10
-2.378616666666664
 20
-2.386425
 30
0.0
 11
-2.378616666666664
 21
-2.582325
 31
0.0
  0
LINE
  5
142
330
110
100
AcDbEntity
  8
AM_9
100
AcDbLine
 10
-1.905666666666667
 20
-1.530886181268876
 30
0.0
 11
-2.405666666666667
 21
-1.530886181268876
 31
0.0
  0
LINE
  5
143
330
110
100
AcDbEntity
  8
AM_9
100
AcDbLine
 10
-1.905666666666667
 20
-1.884439571862149
 30
0.0
 11
-1.953124999999999
 21
-1.884439571862149
 31
0.0
  0
LINE
  5
144
330
110
100
AcDbEntity
  8
AM_9
100
AcDbLine
 10
-1.905666666666667
 20
1.530886181268875
 30
0.0
 11
-2.405666666666667
 21
1.530886181268875
 31
0.0
  0
LINE
  5
145
330
110
100
AcDbEntity
  8
AM_9
100
AcDbLine
 10
1.244625
 20
1.863053367766471
 30
0.0
 11
-2.75
 21
1.863053367766471
 31
0.0
  0
LINE
  5
146
330
110
100
AcDbEntity
  8
AM_9
100
AcDbLine
 10
-2.75
 20
1.767382509675199
 30
0.0
 11
1.244625
 21
1.767382509675198
 31
0.0
  0
LINE
  5
147
330
110
100
AcDbEntity
  8
AM_9
100
AcDbLine
 10
1.244625
 20
1.96875
 30
0.0
 11
-2.75
 21
1.96875
 31
0.0
  0
LINE
  5
148
330
110
100
AcDbEntity
  8
AM_9
100
AcDbLine
 10
-2.75
 20
-1.96875
 30
0.0
 11
1.244625
 21
-1.96875
 31
0.0
  0
LINE
  5
149
330
110
100
AcDbEntity
  8
AM_9
100
AcDbLine
 10
1.953125
 20
2.072368421052632
 30
0.0
 11
1.244625
 21
2.072368421052632
 31
0.0
  0
LINE
  5
14A
330
110
100
AcDbEntity
  8
AM_9
100
AcDbLine
 10
1.244625
 20
-2.072368421052632
 30
0.0
 11
1.953125
 21
-2.072368421052632
 31
0.0
  0
LINE
  5
14B
330
110
100
AcDbEntity
  8
AM_9
100
AcDbLine
 10
-2.75
 20
1.958968144263806
 30
0.0
 11
-2.405666666666667
 21
1.958968144263806
 31
0.0
  0
LINE
  5
14C
330
110
100
AcDbEntity
  8
AM_9
100
AcDbLine
 10
-2.405666666666667
 20
1.863297286172533
 30
0.0
 11
-2.75
 21
1.863297286172533
 31
0.0
  0
LINE
  5
14D
330
110
100
AcDbEntity
  8
AM_9
100
AcDbLine
 10
-2.405666666666667
 20
2.072368421052632
 30
0.0
 11
-2.475666666666667
 21
2.072368421052632
 31
0.0
  0
LINE
  5
14E
330
110
100
AcDbEntity
  8
AM_9
100
AcDbLine
 10
-2.475666666666667
 20
-2.072368421052632
 30
0.0
 11
-2.405666666666667
 21
-2.072368421052632
 31
0.0
  0
LINE
  5
14F
330
110
100
AcDbEntity
  8
AM_9
100
AcDbLine
 10
-1.905666666666667
 20
-1.530886181268876
 30
0.0
 11
-1.905666666666667
 21
-1.794299129942517
 31
0.0
  0
LINE
  5
150
330
110
100
AcDbEntity
  8
AM_9
100
AcDbLine
 10
-1.905666666666667
 20
1.794299129942516
 30
0.0
 11
-1.905666666666667
 21
1.530886181268875
 31
0.0
  0
LINE
  5
151
330
110
100
AcDbEntity
  8
AM_9
100
AcDbLine
 10
1.953125
 20
-1.811572083320595
 30
0.0
 11
1.953125
 21
2.25
 31
0.0
  0
LINE
  5
152
330
110
100
AcDbEntity
  8
AM_9
100
AcDbLine
 10
1.978124999999999
 20
2.25
 30
0.0
 11
1.953125
 21
2.25
 31
0.0
  0
LINE
  5
153
330
110
100
AcDbEntity
  8
AM_9
100
AcDbLine
 10
1.953125
 20
-2.25
 30
0.0
 11
1.978124999999999
 21
-2.25
 31
0.0
  0
ARC
  5
154
330
110
100
AcDbEntity
  8
AM_9
100
AcDbCircle
 10
1.920432692307691
 20
-2.442307692307689
 30
0.0
 40
0.057692307692311
100
AcDbArc
 50
270.0
 51
304.51810784106
  0
LINE
  5
155
330
110
100
AcDbEntity
  8
AM_9
100
AcDbLine
 10
1.7578125
 20
2.5
 30
0.0
 11
1.619625
 21
2.5
 31
0.0
  0
LINE
  5
156
330
110
100
AcDbEntity
  8
AM_9
100
AcDbLine
 10
1.619625
 20
-2.5
 30
0.0
 11
1.920432692307692
 21
-2.5
 31
0.0
  0
LINE
  5
157
330
110
100
AcDbEntity
  8
AM_9
100
AcDbLine
 10
1.920432692307692
 20
-2.5
 30
0.0
 11
1.920432692307692
 21
-1.8125
 31
0.0
  0
LINE
  5
158
330
110
100
AcDbEntity
  8
AM_9
100
AcDbLine
 10
-1.905666666666667
 20
-1.802616275567917
 30
0.0
 11
-1.905666666666667
 21
-2.147852520535789
 31
0.0
  0
LINE
  5
159
330
110
100
AcDbEntity
  8
AM_9
100
AcDbLine
 10
-1.905666666666667
 20
-2.147852520535789
 30
0.0
 11
-1.953125001189571
 21
-2.146675939171798
 31
0.0
  0
LINE
  5
15A
330
110
100
AcDbEntity
  8
AM_9
100
AcDbLine
 10
-1.953124999999999
 20
-2.797053103227081
 30
0.0
 11
-0.630375
 21
-2.843244551072289
 31
0.0
  0
LINE
  5
15B
330
110
100
AcDbEntity
  8
AM_9
100
AcDbLine
 10
-0.630375
 20
2.843244551072289
 30
0.0
 11
-1.7578125
 21
2.803873566018438
 31
0.0
  0
LINE
  5
15C
330
110
100
AcDbEntity
  8
AM_9
100
AcDbLine
 10
1.619625
 20
-3.069058622134929
 30
0.0
 11
1.619625
 21
3.069058622134929
 31
0.0
  0
ARC
  5
15D
330
110
100
AcDbEntity
  8
AM_9
100
AcDbCircle
 10
1.519625
 20
3.069058622134927
 30
0.0
 40
0.1000000000000003
100
AcDbArc
 50
0.0
 51
60.00000000000023
  0
ARC
  5
15E
330
110
100
AcDbEntity
  8
AM_9
100
AcDbCircle
 10
1.519625
 20
-3.069058622134927
 30
0.0
 40
0.1000000000000008
100
AcDbArc
 50
299.9999999999998
 51
0.0
  0
LINE
  5
15F
330
110
100
AcDbEntity
  8
AM_9
100
AcDbLine
 10
1.569625
 20
3.155661162513372
 30
0.0
 11
1.244625
 21
3.3433
 31
0.0
  0
LINE
  5
160
330
110
100
AcDbEntity
  8
AM_9
100
AcDbLine
 10
1.244625
 20
-3.3433
 30
0.0
 11
1.569625
 21
-3.155661162513372
 31
0.0
  0
LINE
  5
161
330
110
100
AcDbEntity
  8
AM_9
100
AcDbLine
 10
1.569625
 20
-3.155661162513372
 30
0.0
 11
1.569625
 21
3.155661162513372
 31
0.0
  0
LINE
  5
162
330
110
100
AcDbEntity
  8
AM_9
100
AcDbLine
 10
0.3612515877365273
 20
3.44955
 30
0.0
 11
0.2529984122634729
 21
3.44955
 31
0.0
  0
LINE
  5
163
330
110
100
AcDbEntity
  8
AM_9
100
AcDbLine
 10
0.2529984122634729
 20
-3.44955
 30
0.0
 11
0.3612515877365273
 21
-3.44955
 31
0.0
  0
LINE
  5
164
330
110
100
AcDbEntity
  8
AM_9
100
AcDbLine
 10
0.198871824526945
 20
3.5433
 30
0.0
 11
-0.5803749999999991
 21
3.5433
 31
0.0
  0
LINE
  5
165
330
110
100
AcDbEntity
  8
AM_9
100
AcDbLine
 10
-0.5803749999999991
 20
-3.5433
 30
0.0
 11
0.198871824526945
 21
-3.5433
 31
0.0
  0
LINE
  5
166
330
110
100
AcDbEntity
  8
AM_9
100
AcDbLine
 10
-0.630375
 20
-3.493300000000001
 30
0.0
 11
-0.630375
 21
3.493300000000001
 31
0.0
  0
ARC
  5
167
330
110
100
AcDbEntity
  8
AM_9
100
AcDbCircle
 10
-0.5803749999999981
 20
3.493299999999998
 30
0.0
 40
0.050000000000002
100
AcDbArc
 50
90.0
 51
180.0
  0
ARC
  5
168
330
110
100
AcDbEntity
  8
AM_9
100
AcDbCircle
 10
-0.5803749999999981
 20
-3.493299999999998
 30
0.0
 40
0.0500000000000019
100
AcDbArc
 50
180.0
 51
270.0
  0
LINE
  5
169
330
110
100
AcDbEntity
  8
AM_9
100
AcDbLine
 10
-0.5803749999999991
 20
-3.5433
 30
0.0
 11
-0.5803749999999991
 21
3.5433
 31
0.0
  0
LINE
  5
16A
330
110
100
AcDbEntity
  8
AM_9
100
AcDbLine
 10
1.194625
 20
3.5433
 30
0.0
 11
0.4153781754730551
 21
3.5433
 31
0.0
  0
LINE
  5
16B
330
110
100
AcDbEntity
  8
AM_9
100
AcDbLine
 10
0.4153781754730551
 20
-3.5433
 30
0.0
 11
1.194625
 21
-3.5433
 31
0.0
  0
LINE
  5
16C
330
110
100
AcDbEntity
  8
AM_9
100
AcDbLine
 10
0.2529984122634729
 20
3.44955
 30
0.0
 11
0.198871824526945
 21
3.5433
 31
0.0
  0
LINE
  5
16D
330
110
100
AcDbEntity
  8
AM_9
100
AcDbLine
 10
0.198871824526945
 20
-3.5433
 30
0.0
 11
0.2529984122634729
 21
-3.44955
 31
0.0
  0
LINE
  5
16E
330
110
100
AcDbEntity
  8
AM_9
100
AcDbLine
 10
0.2529984122634729
 20
-3.44955
 30
0.0
 11
0.2529984122634729
 21
3.44955
 31
0.0
  0
LINE
  5
16F
330
110
100
AcDbEntity
  8
AM_9
100
AcDbLine
 10
0.198871824526945
 20
-3.5433
 30
0.0
 11
0.198871824526945
 21
3.5433
 31
0.0
  0
LINE
  5
170
330
110
100
AcDbEntity
  8
AM_9
100
AcDbLine
 10
1.244625
 20
-3.493300000000001
 30
0.0
 11
1.244625
 21
3.493300000000001
 31
0.0
  0
ARC
  5
171
330
110
100
AcDbEntity
  8
AM_9
100
AcDbCircle
 10
1.194625000000001
 20
3.493300000000002
 30
0.0
 40
0.0499999999999983
100
AcDbArc
 50
0.0
 51
90.0
  0
ARC
  5
172
330
110
100
AcDbEntity
  8
AM_9
100
AcDbCircle
 10
1.194625000000001
 20
-3.493300000000002
 30
0.0
 40
0.049999999999998
100
AcDbArc
 50
270.0
 51
0.0
  0
LINE
  5
173
330
110
100
AcDbEntity
  8
AM_9
100
AcDbLine
 10
1.194625
 20
-3.5433
 30
0.0
 11
1.194625
 21
3.5433
 31
0.0
  0
LINE
  5
174
330
110
100
AcDbEntity
  8
AM_9
100
AcDbLine
 10
0.3612515877365273
 20
-3.44955
 30
0.0
 11
0.4153781754730551
 21
-3.5433
 31
0.0
  0
LINE
  5
175
330
110
100
AcDbEntity
  8
AM_9
100
AcDbLine
 10
0.4153781754730551
 20
3.5433
 30
0.0
 11
0.3612515877365273
 21
3.44955
 31
0.0
  0
LINE
  5
176
330
110
100
AcDbEntity
  8
AM_9
100
AcDbLine
 10
0.4153781754730551
 20
-3.5433
 30
0.0
 11
0.4153781754730551
 21
3.5433
 31
0.0
  0
LINE
  5
177
330
110
100
AcDbEntity
  8
AM_9
100
AcDbLine
 10
0.3612515877365273
 20
-3.44955
 30
0.0
 11
0.3612515877365273
 21
3.44955
 31
0.0
  0
LINE
  5
178
330
110
100
AcDbEntity
  8
AM_5
100
AcDbLine
 10
-1.645666666666667
 20
2.582325
 30
0.0
 11
-1.645666666666667
 21
2.609375
 31
0.0
  0
LINE
  5
179
330
110
100
AcDbEntity
  8
AM_5
100
AcDbLine
 10
-1.645666666666667
 20
2.609375
 30
0.0
 11
-1.630049341885087
 21
2.582325
 31
0.0
  0
LINE
  5
17A
330
110
100
AcDbEntity
  8
AM_5
100
AcDbLine
 10
-1.645666666666667
 20
2.386425
 30
0.0
 11
-1.645666666666667
 21
2.359375
 31
0.0
  0
LINE
  5
17B
330
110
100
AcDbEntity
  8
AM_5
100
AcDbLine
 10
-1.645666666666667
 20
2.359375
 30
0.0
 11
-1.630049341885087
 21
2.386425
 31
0.0
  0
LINE
  5
17C
330
110
100
AcDbEntity
  8
AM_5
100
AcDbLine
 10
-1.645666666666687
 20
-2.582325
 30
0.0
 11
-1.645666666666687
 21
-2.609375
 31
0.0
  0
LINE
  5
17D
330
110
100
AcDbEntity
  8
AM_5
100
AcDbLine
 10
-1.645666666666687
 20
-2.609375
 30
0.0
 11
-1.630049341885106
 21
-2.582325
 31
0.0
  0
LINE
  5
17E
330
110
100
AcDbEntity
  8
AM_5
100
AcDbLine
 10
-1.645666666666687
 20
-2.386425
 30
0.0
 11
-1.645666666666687
 21
-2.359375
 31
0.0
  0
LINE
  5
17F
330
110
100
AcDbEntity
  8
AM_5
100
AcDbLine
 10
-1.645666666666687
 20
-2.359375
 30
0.0
 11
-1.630049341885106
 21
-2.386425
 31
0.0
  0
LINE
  5
182
330
110
100
AcDbEntity
  8
AM_7
100
AcDbLine
 10
2.21453125
 20
0.0
 30
0.0
 11
-2.98640625
 21
0.0
 31
0.0
  0
LINE
  5
183
330
110
100
AcDbEntity
  8
AM_7
100
AcDbLine
 10
-1.523666666666667
 20
2.484375
 30
0.0
 11
-2.654266666666667
 21
2.484375
 31
0.0
  0
LINE
  5
184
330
110
100
AcDbEntity
  8
AM_7
100
AcDbLine
 10
-1.523666666666661
 20
-2.484375
 30
0.0
 11
-2.654266666666667
 21
-2.484375
 31
0.0
  0
ARC
  5
185
330
110
100
AcDbEntity
  8
AM_4
100
AcDbCircle
 10
-2.355666666666667
 20
-2.73296556125965
 30
0.0
 40
0.0500000000000003
100
AcDbArc
 50
180.0
 51
268.0000000000001
  0
ARC
  5
186
330
110
100
AcDbEntity
  8
AM_4
100
AcDbCircle
 10
-2.355666666666667
 20
2.73296556125965
 30
0.0
 40
0.0500000000000003
100
AcDbArc
 50
91.99999999999997
 51
180.0
  0
LWPOLYLINE
  5
187
330
110
100
AcDbEntity
  8
AM_4
100
AcDbPolyline
 90
        6
 70
     0
 43
0.0
 10
-2.357411641501792
 20
-2.136652684401853
 10
-2.373798890176766
 20
-2.134257803231375
 10
-2.38814924865749
 20
-2.128162669148618
 10
-2.398871508438446
 20
-2.119042286506945
 10
-2.404764060913803
 20
-2.107888383254296
 10
-2.405666666666667
 20
-2.101172803044632
  0
LWPOLYLINE
  5
188
330
110
100
AcDbEntity
  8
AM_4
100
AcDbPolyline
 90
        6
 70
     0
 43
0.0
 10
-2.405666666666667
 20
2.101172803044632
 10
-2.405121249552766
 20
2.106402560521313
 10
-2.399859169704142
 20
2.117780018141493
 10
-2.389570136382742
 20
2.127266852350878
 10
-2.375455918800179
 20
2.133775567744502
 10
-2.357411641501792
 20
2.136652684401852
  0
LINE
  5
189
330
110
100
AcDbEntity
  8
AM_4
100
AcDbLine
 10
-1.953124999999999
 20
-1.884439571862149
 30
0.0
 11
-2.405666666666667
 21
-1.884439571862149
 31
0.0
  0
LINE
  5
18A
330
110
100
AcDbEntity
  8
AM_4
100
AcDbLine
 10
-1.905666666666667
 20
1.884439571862148
 30
0.0
 11
-2.405666666666667
 21
1.884439571862148
 31
0.0
  0
LINE
  5
18B
330
110
100
AcDbEntity
  8
AM_4
100
AcDbLine
 10
-2.475666666666667
 20
2.072368421052632
 30
0.0
 11
-2.75
 21
2.072368421052632
 31
0.0
  0
LINE
  5
18C
330
110
100
AcDbEntity
  8
AM_4
100
AcDbLine
 10
-2.75
 20
-2.072368421052632
 30
0.0
 11
-2.475666666666667
 21
-2.072368421052632
 31
0.0
  0
LINE
  5
18D
330
110
100
AcDbEntity
  8
AM_4
100
AcDbLine
 10
-2.75
 20
-2.072368421052632
 30
0.0
 11
-2.75
 21
2.072368421052632
 31
0.0
  0
LINE
  5
18E
330
110
100
AcDbEntity
  8
AM_4
100
AcDbLine
 10
1.978125
 20
-2.442307692307693
 30
0.0
 11
1.978125
 21
2.442307692307693
 31
0.0
  0
ARC
  5
18F
330
110
100
AcDbEntity
  8
AM_4
100
AcDbCircle
 10
1.920432692307692
 20
2.442307692307692
 30
0.0
 40
0.0576923076923086
100
AcDbArc
 50
0.0
 51
90.0
  0
ARC
  5
190
330
110
100
AcDbEntity
  8
AM_4
100
AcDbCircle
 10
1.920432692307693
 20
-2.442307692307693
 30
0.0
 40
0.057692307692307
100
AcDbArc
 50
304.5181078410606
 51
0.0
  0
LINE
  5
191
330
110
100
AcDbEntity
  8
AM_4
100
AcDbLine
 10
1.920432692307692
 20
-1.806456652792798
 30
0.0
 11
1.920432692307692
 21
2.5
 31
0.0
  0
LINE
  5
192
330
110
100
AcDbEntity
  8
AM_4
100
AcDbLine
 10
1.920432692307692
 20
2.5
 30
0.0
 11
1.7578125
 21
2.5
 31
0.0
  0
LWPOLYLINE
  5
193
330
110
100
AcDbEntity
  8
AM_4
100
AcDbPolyline
 90
        6
 70
     0
 43
0.0
 10
-2.357411641501792
 20
1.783099293808579
 10
-2.373798890176766
 20
1.780704412638101
 10
-2.388149248657491
 20
1.774609278555344
 10
-2.398871508438446
 20
1.765488895913672
 10
-2.404764060913803
 20
1.754334992661022
 10
-2.405666666666667
 20
1.747619412451358
  0
LWPOLYLINE
  5
194
330
110
100
AcDbEntity
  8
AM_4
100
AcDbPolyline
 90
        6
 70
     0
 43
0.0
 10
-2.405666666666667
 20
-1.747619412451359
 10
-2.405121249552766
 20
-1.75284916992804
 10
-2.399859169704142
 20
-1.76422662754822
 10
-2.389570136382742
 20
-1.773713461757605
 10
-2.375455918800178
 20
-1.780222177151229
 10
-2.357411641501792
 20
-1.783099293808579
  0
LINE
  5
195
330
110
100
AcDbEntity
  8
AM_4
100
AcDbLine
 10
-2.357411641501792
 20
-1.783099293808579
 30
0.0
 11
-2.357411641501792
 21
1.783099293808579
 31
0.0
  0
LINE
  5
196
330
110
100
AcDbEntity
  8
AM_4
100
AcDbLine
 10
-2.357411641501792
 20
-1.783099293808579
 30
0.0
 11
-1.905666666666667
 21
-1.794299129942517
 31
0.0
  0
LINE
  5
197
330
110
100
AcDbEntity
  8
AM_4
100
AcDbLine
 10
-1.953125001189571
 20
-2.146675939171798
 30
0.0
 11
-2.357411641501792
 21
-2.136652684401853
 31
0.0
  0
LINE
  5
198
330
110
100
AcDbEntity
  8
AM_4
100
AcDbLine
 10
-2.357411641501792
 20
2.136652684401852
 30
0.0
 11
-2.357411641501792
 21
2.782935102610605
 31
0.0
  0
LINE
  5
199
330
110
100
AcDbEntity
  8
AM_4
100
AcDbLine
 10
-2.357411641501792
 20
2.136652684401852
 30
0.0
 11
-1.905666666666667
 21
2.147852520535789
 31
0.0
  0
LINE
  5
19A
330
110
100
AcDbEntity
  8
AM_4
100
AcDbLine
 10
-1.905666666666667
 20
2.147852520535789
 30
0.0
 11
-1.905666666666667
 21
1.794299129942516
 31
0.0
  0
LINE
  5
19B
330
110
100
AcDbEntity
  8
AM_4
100
AcDbLine
 10
-1.905666666666667
 20
1.794299129942516
 30
0.0
 11
-2.357411641501792
 21
1.783099293808579
 31
0.0
  0
LINE
  5
19C
330
110
100
AcDbEntity
  8
AM_4
100
AcDbLine
 10
-2.357411641501792
 20
-2.782935102610605
 30
0.0
 11
-1.953124999999999
 21
-2.797053103227081
 31
0.0
  0
LINE
  5
19D
330
110
100
AcDbEntity
  8
AM_4
100
AcDbLine
 10
-1.7578125
 20
2.803873566018438
 30
0.0
 11
-2.357411641501792
 21
2.782935102610605
 31
0.0
  0
LINE
  5
19E
330
110
100
AcDbEntity
  8
AM_4
100
AcDbLine
 10
-2.357411641501792
 20
-2.782935102610605
 30
0.0
 11
-2.357411641501792
 21
-2.136652684401853
 31
0.0
  0
ENDBLK
  5
113
330
110
100
AcDbEntity
  8
0
100
AcDbBlockEnd
  0
BLOCK
  5
1A1
330
19F
100
AcDbEntity
  8
0
100
AcDbBlockBegin
  2
6_405015E_Inch_0_in_069454_2
 70
     2
 10
0.0
 20
0.0
 30
0.0
  3
6_405015E_Inch_0_in_069454_2
  1

  0
ATTDEF
  5
1A3
330
19F
100
AcDbEntity
  8
AM_6
100
AcDbText
 10
5.252590742770462
 20
4.035055808374976
 30
0.0
 40
0.5
  1
405015E -Inch
100
AcDbAttributeDefinition
  3

  2
NN
 70
     8
280
     0
  0
ATTDEF
  5
1A4
330
19F
100
AcDbEntity
  8
AM_6
100
AcDbText
 10
5.252590742770462
 20
3.535055808374976
 30
0.0
 40
0.5
  1
Grease Fitting
100
AcDbAttributeDefinition
  3

  2
NT
 70
     8
280
     0
  0
ATTDEF
  5
1A5
330
19F
100
AcDbEntity
  8
AM_6
100
AcDbText
 10
5.252590742770462
 20
3.035055808374976
 30
0.0
 40
0.5
  1
405015E-Inch
100
AcDbAttributeDefinition
  3

  2
NB
 70
     8
280
     0
  0
ATTDEF
  5
1A6
330
19F
100
AcDbEntity
  8
AM_6
100
AcDbText
 10
5.252590742770462
 20
2.535055808374976
 30
0.0
 40
0.5
  1
$MN.-Inch
100
AcDbAttributeDefinition
  3

  2
NBSYN
 70
     8
280
     0
  0
ATTDEF
  5
1A7
330
19F
100
AcDbEntity
  8
AM_6
100
AcDbText
 10
5.252590742770462
 20
2.035055808374976
 30
0.0
 40
0.5
  1
405015E
100
AcDbAttributeDefinition
  3

  2
LINA
 70
     8
280
     0
  0
ATTDEF
  5
1A8
330
19F
100
AcDbEntity
  8
AM_6
100
AcDbText
 10
5.252590742770462
 20
1.535055808374976
 30
0.0
 40
0.5
  1
405015E
100
AcDbAttributeDefinition
  3

  2
MN
 70
     8
280
     0
  0
ATTDEF
  5
1A9
330
19F
100
AcDbEntity
  8
AM_6
100
AcDbText
 10
5.252590742770462
 20
1.035055808374976
 30
0.0
 40
0.5
  1
1/8 x 27PTF
100
AcDbAttributeDefinition
  3

  2
T
 70
     8
280
     0
  0
ATTDEF
  5
1AA
330
19F
100
AcDbEntity
  8
AM_6
100
AcDbText
 10
5.252590742770462
 20
0.5350558083749757
 30
0.0
 40
0.5
  1
baldor
100
AcDbAttributeDefinition
  3

  2
COMPANY
 70
     8
280
     0
  0
LINE
  5
1AB
330
19F
100
AcDbEntity
  8
AM_9
100
AcDbLine
 10
0.1262953713852308
 20
3.847082099679081
 30
0.0
 11
0.1262953713852308
 21
3.77618510267787
 31
0.0
  0
LINE
  5
1AC
330
19F
100
AcDbEntity
  8
AM_9
100
AcDbLine
 10
-0.1262953713852305
 20
3.847082099679081
 30
0.0
 11
-0.1262953713852305
 21
3.77618510267787
 31
0.0
  0
LWPOLYLINE
  5
1AD
330
19F
100
AcDbEntity
  8
AM_9
100
AcDbPolyline
 90
        4
 70
     0
 43
0.0
 10
-0.1262953713852305
 20
3.77618510267787
 10
-0.0967996321117977
 20
3.773080239503732
 10
-0.0485424412477542
 20
3.769567134469187
 10
0.0000000000000001
 20
3.768332330989254
  0
LWPOLYLINE
  5
1AE
330
19F
100
AcDbEntity
  8
AM_9
100
AcDbPolyline
 90
        5
 70
     0
 43
0.0
 10
0.0000000000000001
 20
3.768332330989254
 10
0.0315738428463078
 20
3.768858366947331
 10
0.0631476856926154
 20
3.770405059550023
 10
0.0947562840569832
 20
3.772890063769522
 10
0.1262953713852308
 20
3.77618510267787
  0
LWPOLYLINE
  5
1AF
330
19F
100
AcDbEntity
  8
AM_9
100
AcDbPolyline
 90
        4
 70
     0
 43
0.0
 10
0.1262953713852308
 20
3.77618510267787
 10
0.149854201438865
 20
3.751152623709783
 10
0.173563038553539
 20
3.727929556587187
 10
0.1894430570778461
 20
3.713644830989253
  0
ELLIPSE
  5
1B0
330
19F
100
AcDbEntity
  8
AM_9
100
AcDbEllipse
 10
0.0000000000000005
 20
3.658957330989254
 30
0.0
 11
0.2187500000000001
 21
0.0
 31
0.0
210
0.0
220
0.0
230
1.0
 40
0.4999999999999999
 41
1.570796326794897
 42
3.665191429188096
  0
LWPOLYLINE
  5
1B1
330
19F
100
AcDbEntity
  8
AM_9
100
AcDbPolyline
 90
        4
 70
     0
 43
0.0
 10
-0.1894430570778458
 20
3.713644830989253
 10
-0.173656135654692
 20
3.727842741947331
 10
-0.1578502110457925
 20
3.743080213535083
 10
-0.1262953713852305
 20
3.77618510267787
  0
LWPOLYLINE
  5
1B2
330
19F
100
AcDbEntity
  8
AM_9
100
AcDbPolyline
 90
        5
 70
     0
 43
0.0
 10
0.1019330305033032
 20
3.849694329365927
 10
0.094925154415046
 20
3.850361550955965
 10
0.0634316146914368
 20
3.852843831423255
 10
0.0317600370486144
 20
3.85440264522438
 10
0.0000000000000001
 20
3.854934871367697
  0
LINE
  5
1B3
330
19F
100
AcDbEntity
  8
AM_9
100
AcDbLine
 10
0.105010795642778
 20
3.849388949255298
 30
0.0
 11
0.1019330305033032
 21
3.849694329365927
 31
0.0
  0
LINE
  5
1B4
330
19F
100
AcDbEntity
  8
AM_9
100
AcDbLine
 10
-0.1019321540479157
 20
3.849694415268964
 30
0.0
 11
-0.1050087569988761
 21
3.849389153982426
 31
0.0
  0
LWPOLYLINE
  5
1B5
330
19F
100
AcDbEntity
  8
AM_9
100
AcDbPolyline
 90
        4
 70
     0
 43
0.0
 10
0.0000000000000001
 20
3.854934871367697
 10
-0.0483998160558988
 20
3.853707227775249
 10
-0.0967996321117977
 20
3.850186962853219
 10
-0.1019321540479157
 20
3.849694415268964
  0
LWPOLYLINE
  5
1B6
330
19F
100
AcDbEntity
  8
AM_9
100
AcDbPolyline
 90
        4
 70
     0
 43
0.0
 10
-0.2525907427704611
 20
3.66681010267787
 10
-0.2290319127168269
 20
3.682582714329558
 10
-0.2053230756021529
 20
3.700424557677953
 10
-0.1894430570778458
 20
3.713644830989253
  0
LWPOLYLINE
  5
1B7
330
19F
100
AcDbEntity
  8
AM_9
100
AcDbPolyline
 90
        4
 70
     0
 43
0.0
 10
0.1894430570778461
 20
3.713644830989253
 10
0.2052299785009999
 20
3.700498991947331
 10
0.2210359031098994
 20
3.688359799051866
 10
0.2525907427704613
 20
3.66681010267787
  0
LINE
  5
1B8
330
19F
100
AcDbEntity
  8
AM_9
100
AcDbLine
 10
0.1321931418159854
 20
3.382723265484158
 30
0.0
 11
0.1621706131788417
 21
3.403920538767659
 31
0.0
  0
LINE
  5
1B9
330
19F
100
AcDbEntity
  8
AM_9
100
AcDbLine
 10
-0.1621706131788414
 20
3.403920538767659
 30
0.0
 11
-0.1321931418159852
 21
3.382723265484158
 31
0.0
  0
ELLIPSE
  5
1BA
330
19F
100
AcDbEntity
  8
AM_9
100
AcDbEllipse
 10
0.0000000000000001
 20
3.461256508911629
 30
0.0
 11
0.1986176267812155
 21
2.959633272606366E-9
 31
0.0
210
0.0
220
0.0
230
1.0
 40
0.5000000000000032
 41
0.0000017195196831
 42
3.757072339908435
  0
LINE
  5
1BB
330
19F
100
AcDbEntity
  8
AM_9
100
AcDbLine
 10
0.1985852938306409
 20
3.459464670302809
 30
0.0
 11
0.2057184028850729
 21
3.657101130211624
 31
0.0
  0
LINE
  5
1BC
330
19F
100
AcDbEntity
  8
AM_9
100
AcDbLine
 10
-0.2057184028850726
 20
3.657101130211624
 30
0.0
 11
-0.1985852938306407
 21
3.459464670302809
 31
0.0
  0
ELLIPSE
  5
1BD
330
19F
100
AcDbEntity
  8
AM_9
100
AcDbEllipse
 10
-0.0000000000010316
 20
3.461256508910036
 30
0.0
 11
0.1986176267822471
 21
2.959633272621739E-9
 31
0.0
210
0.0
220
0.0
230
1.0
 40
0.4999999999999796
 41
3.757072339898365
 42
6.28318702669927
  0
ELLIPSE
  5
1BE
330
19F
100
AcDbEntity
  8
AM_9
100
AcDbEllipse
 10
0.000000000000001
 20
3.658957330989254
 30
0.0
 11
0.2187499999999982
 21
0.0
 31
0.0
210
0.0
220
0.0
230
1.0
 40
0.5000000000000062
 41
4.71238898038469
 42
7.853981633974483
  0
ELLIPSE
  5
1BF
330
19F
100
AcDbEntity
  8
AM_9
100
AcDbEllipse
 10
-0.0000000000000004
 20
3.658957330989255
 30
0.0
 11
0.2187499999999987
 21
0.0
 31
0.0
210
0.0
220
0.0
230
1.0
 40
0.5000000000000091
 41
3.665191429188091
 42
4.71238898038469
  0
LINE
  5
1C0
330
19F
100
AcDbEntity
  8
AM_9
100
AcDbLine
 10
-0.1017810272422098
 20
3.84939270515354
 30
0.0
 11
-0.1049999999999999
 21
3.843090310514013
 31
0.0
  0
LINE
  5
1C1
330
19F
100
AcDbEntity
  8
AM_9
100
AcDbLine
 10
0.1050000000000001
 20
3.843090310514013
 30
0.0
 11
0.1017810272422101
 21
3.84939270515354
 31
0.0
  0
ELLIPSE
  5
1C2
330
19F
100
AcDbEntity
  8
AM_9
100
AcDbEllipse
 10
0.0000000000000001
 20
3.836492538765064
 30
0.0
 11
0.1050000000000002
 21
0.0
 31
0.0
210
0.0
220
0.0
230
1.0
 40
0.4999999999999885
 41
0.0
 42
2.891559760490996
  0
ELLIPSE
  5
1C3
330
19F
100
AcDbEntity
  8
AM_9
100
AcDbEllipse
 10
0.0000000000000026
 20
3.836492538765098
 30
0.0
 11
0.1050000000000024
 21
0.0
 31
0.0
210
0.0
220
0.0
230
1.0
 40
0.4999999999999524
 41
2.891559760491615
 42
3.141592653589793
  0
ELLIPSE
  5
1C4
330
19F
100
AcDbEntity
  8
AM_9
100
AcDbEllipse
 10
-0.000000000000003
 20
3.808565922894015
 30
0.0
 11
0.118820090734901
 21
1.770557325108365E-9
 31
0.0
210
0.0
220
0.0
230
1.0
 40
0.4999999999999469
 41
0.2500328646647283
 42
2.535447490847057
  0
LINE
  5
1C5
330
19F
100
AcDbEntity
  8
AM_9
100
AcDbLine
 10
0.1050000000000001
 20
3.854730767577523
 30
0.0
 11
0.1050000000000001
 21
3.862473300878597
 31
0.0
  0
LINE
  5
1C6
330
19F
100
AcDbEntity
  8
AM_9
100
AcDbLine
 10
-0.1049999999999999
 20
3.862473300878597
 30
0.0
 11
-0.1049999999999999
 21
3.854730767577523
 31
0.0
  0
ELLIPSE
  5
1C7
330
19F
100
AcDbEntity
  8
AM_9
100
AcDbEllipse
 10
0.0000000000000071
 20
3.862473300878595
 30
0.0
 11
0.105000000000007
 21
0.0
 31
0.0
210
0.0
220
0.0
230
1.0
 40
0.5000000000000023
 41
3.141592653589793
 42
3.434435425318327
  0
LINE
  5
1C8
330
19F
100
AcDbEntity
  8
AM_9
100
AcDbLine
 10
-0.0976523208201056
 20
3.842412038626446
 30
0.0
 11
-0.1098343496897821
 21
3.833625185499596
 31
0.0
  0
LINE
  5
1C9
330
19F
100
AcDbEntity
  8
AM_9
100
AcDbLine
 10
0.1098343496897824
 20
3.833625185499596
 30
0.0
 11
0.0976523208201059
 21
3.842412038626446
 31
0.0
  0
ELLIPSE
  5
1CA
330
19F
100
AcDbEntity
  8
AM_9
100
AcDbEllipse
 10
0.0000000000000037
 20
3.808565922894015
 30
0.0
 11
0.1188200907349014
 21
0.0
 31
0.0
210
0.0
220
0.0
230
1.0
 40
0.4999999999999493
 41
2.535447513394882
 42
2.891559760491219
  0
ELLIPSE
  5
1CB
330
19F
100
AcDbEntity
  8
AM_9
100
AcDbEllipse
 10
0.0000000000000002
 20
3.761423896655668
 30
0.0
 11
0.172534053283015
 21
0.0
 31
0.0
210
0.0
220
0.0
230
1.0
 40
0.5000000000000028
 41
0.6061451401950819
 42
2.535447513394711
  0
ELLIPSE
  5
1CC
330
19F
100
AcDbEntity
  8
AM_9
100
AcDbEllipse
 10
-0.0000000000000007
 20
3.745559871367698
 30
0.0
 11
0.2187500000000045
 21
0.0
 31
0.0
210
0.0
220
0.0
230
1.0
 40
0.4999999999999877
 41
1.065244638251238
 42
1.570796326794897
  0
ELLIPSE
  5
1CD
330
19F
100
AcDbEntity
  8
AM_9
100
AcDbEllipse
 10
0.0000000000000009
 20
3.745559871367698
 30
0.0
 11
0.2187500000000042
 21
0.0
 31
0.0
210
0.0
220
0.0
230
1.0
 40
0.4999999999999863
 41
1.570796326794897
 42
2.076348015338555
  0
ELLIPSE
  5
1CE
330
19F
100
AcDbEntity
  8
AM_9
100
AcDbEllipse
 10
0.0000000000030024
 20
3.745559871377763
 30
0.0
 11
0.2137500000060185
 21
0.0
 31
0.0
210
0.0
220
0.0
230
1.0
 40
0.4999999999485727
 41
-4.198889882938959
 42
-4.184564777742441
  0
ELLIPSE
  5
1CF
330
19F
100
AcDbEntity
  8
AM_9
100
AcDbEllipse
 10
0.0000000000016822
 20
3.74555987136333
 30
0.0
 11
0.2137499999965493
 21
0.0
 31
0.0
210
0.0
220
0.0
230
1.0
 40
0.5000000000240905
 41
1.042972124173881
 42
2.084295424233531
  0
ELLIPSE
  5
1D0
330
19F
100
AcDbEntity
  8
AM_9
100
AcDbEllipse
 10
0.0000000000000001
 20
3.862473300878597
 30
0.0
 11
0.1050000000000001
 21
0.0
 31
0.0
210
0.0
220
0.0
230
1.0
 40
0.4999999999999973
 41
0.0
 42
3.141592653589793
  0
ELLIPSE
  5
1D1
330
19F
100
AcDbEntity
  8
AM_9
100
AcDbEllipse
 10
-0.000000000000008
 20
3.862473300878595
 30
0.0
 11
0.1050000000000082
 21
0.0
 31
0.0
210
0.0
220
0.0
230
1.0
 40
0.500000000000001
 41
5.990342535451054
 42
6.283185307179586
  0
ELLIPSE
  5
1D2
330
19F
100
AcDbEntity
  8
AM_9
100
AcDbEllipse
 10
0.0000000000000001
 20
3.914434825105663
 30
0.0
 11
0.1350000000000004
 21
0.0
 31
0.0
210
0.0
220
0.0
230
1.0
 40
0.4999999999999944
 41
0.2354336045415621
 42
2.906159049048231
  0
ELLIPSE
  5
1D3
330
19F
100
AcDbEntity
  8
AM_9
100
AcDbEllipse
 10
0.0000000000000002
 20
3.429460598986378
 30
0.0
 11
0.1619028724722692
 21
0.0
 31
0.0
210
0.0
220
0.0
230
1.0
 40
0.5000000000000052
 41
0.0
 42
6.283185307179586
  0
ELLIPSE
  5
1D4
330
19F
100
AcDbEntity
  8
AM_9
100
AcDbEllipse
 10
0.0000000000000001
 20
3.658957330989254
 30
0.0
 11
0.2057518972230695
 21
0.0
 31
0.0
210
0.0
220
0.0
230
1.0
 40
0.5000000000000214
 41
0.0
 42
6.283185307179586
  0
LWPOLYLINE
  5
1D5
330
19F
100
AcDbEntity
  8
AM_4
100
AcDbPolyline
 90
        4
 70
     0
 43
0.0
 10
0.1894430570778461
 20
3.800247371367698
 10
0.1736561356546923
 20
3.81339321040962
 10
0.1578502110457928
 20
3.825532403305085
 10
0.1262953713852308
 20
3.847082099679081
  0
LINE
  5
1D6
330
19F
100
AcDbEntity
  8
AM_4
100
AcDbLine
 10
0.1262953713852308
 20
3.847082099679081
 30
0.0
 11
0.105010795642778
 21
3.849388949255298
 31
0.0
  0
LWPOLYLINE
  5
1D7
330
19F
100
AcDbEntity
  8
AM_4
100
AcDbPolyline
 90
        4
 70
     0
 43
0.0
 10
-0.1262953713852305
 20
3.847082099679081
 10
-0.1498542014388647
 20
3.831309488027393
 10
-0.1735630385535387
 20
3.813467644678998
 10
-0.1894430570778458
 20
3.800247371367698
  0
LINE
  5
1D8
330
19F
100
AcDbEntity
  8
AM_4
100
AcDbLine
 10
-0.1050087569988761
 20
3.849389153982426
 30
0.0
 11
-0.1262953713852305
 21
3.847082099679081
 31
0.0
  0
LWPOLYLINE
  5
1D9
330
19F
100
AcDbEntity
  8
AM_4
100
AcDbPolyline
 90
        4
 70
     0
 43
0.0
 10
0.2525907427704613
 20
3.737707099679081
 10
0.2290319127168272
 20
3.762739578647168
 10
0.2053230756021532
 20
3.785962645769763
 10
0.1894430570778461
 20
3.800247371367698
  0
LWPOLYLINE
  5
1DA
330
19F
100
AcDbEntity
  8
AM_4
100
AcDbPolyline
 90
        4
 70
     0
 43
0.0
 10
-0.1894430570778458
 20
3.800247371367698
 10
-0.2052299785009996
 20
3.78604946040962
 10
-0.2368211991063373
 20
3.754658964006648
 10
-0.2525907427704611
 20
3.737707099679081
  0
LINE
  5
1DB
330
19F
100
AcDbEntity
  8
AM_4
100
AcDbLine
 10
-0.1049999999999999
 20
3.843090310514013
 30
0.0
 11
-0.1151252948555656
 21
3.823266096759199
 31
0.0
  0
LINE
  5
1DC
330
19F
100
AcDbEntity
  8
AM_4
100
AcDbLine
 10
0.1151252948555659
 20
3.823266096759199
 30
0.0
 11
0.1050000000000001
 21
3.843090310514013
 31
0.0
  0
ELLIPSE
  5
1DD
330
19F
100
AcDbEntity
  8
AM_4
100
AcDbEllipse
 10
0.0
 20
3.808565922894
 30
0.0
 11
0.1188200907348976
 21
1.770557325108314E-9
 31
0.0
210
0.0
220
0.0
230
1.0
 40
0.4999999999999837
 41
2.89155973205714
 42
6.28318702669927
  0
LINE
  5
1DE
330
19F
100
AcDbEntity
  8
AM_4
100
AcDbLine
 10
0.1050000000000001
 20
3.836492538765063
 30
0.0
 11
0.1050000000000001
 21
3.854730767577523
 31
0.0
  0
LINE
  5
1DF
330
19F
100
AcDbEntity
  8
AM_4
100
AcDbLine
 10
-0.1049999999999999
 20
3.854730767577523
 30
0.0
 11
-0.1049999999999999
 21
3.836492538765063
 31
0.0
  0
ELLIPSE
  5
1E0
330
19F
100
AcDbEntity
  8
AM_4
100
AcDbEllipse
 10
0.0000000000000002
 20
3.836492538765063
 30
0.0
 11
0.1049999999999999
 21
1.564621925354003E-9
 31
0.0
210
0.0
220
0.0
230
1.0
 40
0.5000000000000024
 41
3.141592627780224
 42
6.28318702669927
  0
ELLIPSE
  5
1E1
330
19F
100
AcDbEntity
  8
AM_4
100
AcDbEllipse
 10
0.0000000000000015
 20
3.808565922893978
 30
0.0
 11
0.1188200907348962
 21
1.770557325108293E-9
 31
0.0
210
0.0
220
0.0
230
1.0
 40
0.5000000000000083
 41
0.0000017195196831
 42
0.2500328646653089
  0
LINE
  5
1E2
330
19F
100
AcDbEntity
  8
AM_4
100
AcDbLine
 10
-0.1098343496897821
 20
3.833625185499596
 30
0.0
 11
-0.1417971541629016
 21
3.810570530857739
 31
0.0
  0
LINE
  5
1E3
330
19F
100
AcDbEntity
  8
AM_4
100
AcDbLine
 10
0.1417971541629019
 20
3.810570530857739
 30
0.0
 11
0.1098343496897824
 21
3.833625185499596
 31
0.0
  0
ELLIPSE
  5
1E4
330
19F
100
AcDbEntity
  8
AM_4
100
AcDbEllipse
 10
0.0000000000000002
 20
3.761423896655668
 30
0.0
 11
0.1725340532830153
 21
0.0
 31
0.0
210
0.0
220
0.0
230
1.0
 40
0.5000000000000019
 41
2.535447513394705
 42
6.889330447374674
  0
ELLIPSE
  5
1E5
330
19F
100
AcDbEntity
  8
AM_4
100
AcDbEllipse
 10
-0.0000000000000005
 20
3.745559871367697
 30
0.0
 11
0.2187500000000007
 21
0.0
 31
0.0
210
0.0
220
0.0
230
1.0
 40
0.5000000000000026
 41
5.759586531581296
 42
6.806784082777888
  0
ELLIPSE
  5
1E6
330
19F
100
AcDbEntity
  8
AM_4
100
AcDbEllipse
 10
-0.0000000000000023
 20
3.745559871367698
 30
0.0
 11
0.2187500000000032
 21
0.0
 31
0.0
210
0.0
220
0.0
230
1.0
 40
0.4999999999999946
 41
0.5235987755982974
 42
1.065244638251225
  0
ELLIPSE
  5
1E7
330
19F
100
AcDbEntity
  8
AM_4
100
AcDbEllipse
 10
0.0000000000000025
 20
3.745559871367697
 30
0.0
 11
0.2187500000000034
 21
0.0
 31
0.0
210
0.0
220
0.0
230
1.0
 40
0.4999999999999943
 41
2.076348015338563
 42
2.617993877991491
  0
ELLIPSE
  5
1E8
330
19F
100
AcDbEntity
  8
AM_4
100
AcDbEllipse
 10
0.0000000000000002
 20
3.745559871367695
 30
0.0
 11
0.21875
 21
0.0
 31
0.0
210
0.0
220
0.0
230
1.0
 40
0.500000000000002
 41
2.617993877991478
 42
4.71238898038469
  0
LWPOLYLINE
  5
1E9
330
19F
100
AcDbEntity
  8
AM_4
100
AcDbPolyline
 90
        4
 70
     0
 43
0.0
 10
0.0000000000000001
 20
3.549582330989253
 10
-0.0483998160558987
 20
3.550809974581701
 10
-0.0967996321117976
 20
3.554330239503732
 10
-0.1262953713852305
 20
3.55743510267787
  0
LWPOLYLINE
  5
1EA
330
19F
100
AcDbEntity
  8
AM_4
100
AcDbPolyline
 90
        5
 70
     0
 43
0.0
 10
0.1262953713852308
 20
3.55743510267787
 10
0.094925154415046
 20
3.554155651400985
 10
0.0634316146914368
 20
3.551673370933696
 10
0.0317600370486144
 20
3.55011455713257
 10
0.0000000000000001
 20
3.549582330989253
  0
LINE
  5
1EB
330
19F
100
AcDbEntity
  8
AM_4
100
AcDbLine
 10
-0.1262953713852305
 20
3.628332099679081
 30
0.0
 11
-0.1262953713852305
 21
3.55743510267787
 31
0.0
  0
LWPOLYLINE
  5
1EC
330
19F
100
AcDbEntity
  8
AM_4
100
AcDbPolyline
 90
        4
 70
     0
 43
0.0
 10
-0.2525907427704611
 20
3.737707099679081
 10
-0.2290319127168269
 20
3.721934488027393
 10
-0.205323075602153
 20
3.704092644678998
 10
-0.1894430570778458
 20
3.690872371367697
  0
LINE
  5
1ED
330
19F
100
AcDbEntity
  8
AM_4
100
AcDbLine
 10
-0.2525907427704611
 20
3.737707099679081
 30
0.0
 11
-0.2525907427704611
 21
3.66681010267787
 31
0.0
  0
LWPOLYLINE
  5
1EE
330
19F
100
AcDbEntity
  8
AM_4
100
AcDbPolyline
 90
        4
 70
     0
 43
0.0
 10
-0.1894430570778458
 20
3.604269830989254
 10
-0.2052299785009996
 20
3.618467741947331
 10
-0.2368211991063373
 20
3.649858238350302
 10
-0.2525907427704611
 20
3.66681010267787
  0
LWPOLYLINE
  5
1EF
330
19F
100
AcDbEntity
  8
AM_4
100
AcDbPolyline
 90
        4
 70
     0
 43
0.0
 10
-0.1262953713852305
 20
3.55743510267787
 10
-0.1498542014388647
 20
3.573207714329558
 10
-0.1735630385535387
 20
3.591049557677953
 10
-0.1894430570778458
 20
3.604269830989254
  0
ELLIPSE
  5
1F0
330
19F
100
AcDbEntity
  8
AM_4
100
AcDbEllipse
 10
0.0000000000000004
 20
3.745559871367695
 30
0.0
 11
0.2187499999999995
 21
0.0
 31
0.0
210
0.0
220
0.0
230
1.0
 40
0.499999999999991
 41
4.71238898038469
 42
5.759586531581297
  0
LWPOLYLINE
  5
1F1
330
19F
100
AcDbEntity
  8
AM_4
100
AcDbPolyline
 90
        5
 70
     0
 43
0.0
 10
0.0000000000000001
 20
3.636184871367697
 10
0.0315738428463078
 20
3.63565883540962
 10
0.0631476856926155
 20
3.634112142806928
 10
0.0947562840569832
 20
3.631627138587429
 10
0.1262953713852308
 20
3.628332099679081
  0
LINE
  5
1F2
330
19F
100
AcDbEntity
  8
AM_4
100
AcDbLine
 10
0.2525907427704613
 20
3.737707099679081
 30
0.0
 11
0.2525907427704613
 21
3.66681010267787
 31
0.0
  0
LWPOLYLINE
  5
1F3
330
19F
100
AcDbEntity
  8
AM_4
100
AcDbPolyline
 90
        4
 70
     0
 43
0.0
 10
0.1894430570778461
 20
3.690872371367697
 10
0.2052299785009999
 20
3.70401821040962
 10
0.2210359031098994
 20
3.716157403305085
 10
0.2525907427704613
 20
3.737707099679081
  0
LWPOLYLINE
  5
1F4
330
19F
100
AcDbEntity
  8
AM_4
100
AcDbPolyline
 90
        4
 70
     0
 43
0.0
 10
0.1262953713852308
 20
3.628332099679081
 10
0.149854201438865
 20
3.653364578647168
 10
0.1735630385535389
 20
3.676587645769763
 10
0.1894430570778461
 20
3.690872371367697
  0
LINE
  5
1F5
330
19F
100
AcDbEntity
  8
AM_4
100
AcDbLine
 10
0.1262953713852308
 20
3.628332099679081
 30
0.0
 11
0.1262953713852308
 21
3.55743510267787
 31
0.0
  0
LWPOLYLINE
  5
1F6
330
19F
100
AcDbEntity
  8
AM_4
100
AcDbPolyline
 90
        4
 70
     0
 43
0.0
 10
0.1894430570778461
 20
3.604269830989254
 10
0.1736561356546922
 20
3.591123991947331
 10
0.1578692142315384
 20
3.578998809550023
 10
0.1262953713852308
 20
3.55743510267787
  0
LWPOLYLINE
  5
1F7
330
19F
100
AcDbEntity
  8
AM_4
100
AcDbPolyline
 90
        4
 70
     0
 43
0.0
 10
0.2525907427704613
 20
3.66681010267787
 10
0.2290319127168272
 20
3.641777623709783
 10
0.2053230756021532
 20
3.618554556587188
 10
0.1894430570778461
 20
3.604269830989254
  0
LWPOLYLINE
  5
1F8
330
19F
100
AcDbEntity
  8
AM_4
100
AcDbPolyline
 90
        4
 70
     0
 43
0.0
 10
-0.1894430570778458
 20
3.690872371367697
 10
-0.173656135654692
 20
3.67667446040962
 10
-0.1578502110457925
 20
3.661436988821868
 10
-0.1262953713852305
 20
3.628332099679081
  0
LWPOLYLINE
  5
1F9
330
19F
100
AcDbEntity
  8
AM_4
100
AcDbPolyline
 90
        4
 70
     0
 43
0.0
 10
-0.1262953713852305
 20
3.628332099679081
 10
-0.0967996321117977
 20
3.631436962853219
 10
-0.0485424412477542
 20
3.634950067887763
 10
0.0000000000000001
 20
3.636184871367697
  0
ELLIPSE
  5
1FA
330
19F
100
AcDbEntity
  8
AM_4
100
AcDbEllipse
 10
0.0000000000000002
 20
3.745559871367697
 30
0.0
 11
0.2137499999999998
 21
0.0
 31
0.0
210
0.0
220
0.0
230
1.0
 40
0.4999999999999986
 41
2.098620529422326
 42
6.283185307179586
  0
ELLIPSE
  5
1FB
330
19F
100
AcDbEntity
  8
AM_4
100
AcDbEllipse
 10
0.0
 20
3.745559871367696
 30
0.0
 11
0.2137500000000001
 21
0.0
 31
0.0
210
0.0
220
0.0
230
1.0
 40
0.5000000000000022
 41
0.0
 42
1.042972124167469
  0
LINE
  5
1FC
330
19F
100
AcDbEntity
  8
AM_4
100
AcDbLine
 10
0.1005298463144157
 20
3.847317856312369
 30
0.0
 11
0.1292526595471058
 21
3.894949253520513
 31
0.0
  0
LINE
  5
1FD
330
19F
100
AcDbEntity
  8
AM_4
100
AcDbLine
 10
-0.1292526595471055
 20
3.894949253520513
 30
0.0
 11
-0.1005298463144153
 21
3.847317856312369
 31
0.0
  0
ELLIPSE
  5
1FE
330
19F
100
AcDbEntity
  8
AM_4
100
AcDbEllipse
 10
0.0000000000000002
 20
3.862473300878597
 30
0.0
 11
0.1050000000000003
 21
1.564621925354008E-9
 31
0.0
210
0.0
220
0.0
230
1.0
 40
0.5000000000000007
 41
3.434435397378692
 42
5.990342507511331
  0
ELLIPSE
  5
1FF
330
19F
100
AcDbEntity
  8
AM_4
100
AcDbEllipse
 10
-0.0000000000000005
 20
3.914434825105687
 30
0.0
 11
0.1350000000000006
 21
0.0
 31
0.0
210
0.0
220
0.0
230
1.0
 40
0.4999999999999772
 41
2.906159049048576
 42
6.518618911720803
  0
LINE
  5
200
330
19F
100
AcDbEntity
  8
AM_4
100
AcDbLine
 10
-0.0998453562378796
 20
3.995692419849616
 30
0.0
 11
-0.1312757938985218
 21
3.930180188997241
 31
0.0
  0
LINE
  5
201
330
19F
100
AcDbEntity
  8
AM_4
100
AcDbLine
 10
0.131275793898522
 20
3.930180188997241
 30
0.0
 11
0.0998453562378799
 21
3.995692419849616
 31
0.0
  0
ELLIPSE
  5
202
330
19F
100
AcDbEntity
  8
AM_4
100
AcDbEllipse
 10
0.0000000000000032
 20
3.983716857408379
 30
0.0
 11
0.1026779019331844
 21
1.530019967752463E-9
 31
0.0
210
0.0
220
0.0
230
1.0
 40
0.5000000000000416
 41
0.0
 42
6.283185307179586
  0
ENDBLK
  5
1A2
330
19F
100
AcDbEntity
  8
0
100
AcDbBlockEnd
  0
BLOCK
  5
205
330
203
100
AcDbEntity
  8
0
100
AcDbBlockBegin
  2
7_069454H_0_in_069454_2
 70
     2
 10
0.0
 20
0.0
 30
0.0
  3
7_069454H_0_in_069454_2
  1

  0
ATTDEF
  5
207
330
203
100
AcDbEntity
  8
AM_6
100
AcDbText
 10
6.953125
 20
4.125
 30
0.0
 40
0.5
  1
P2B-IP -(Contact Seal)-Housing -Inch
100
AcDbAttributeDefinition
  3

  2
NN
 70
     8
280
     0
  0
ATTDEF
  5
208
330
203
100
AcDbEntity
  8
AM_6
100
AcDbText
 10
6.953125
 20
3.625
 30
0.0
 40
0.5
  1
Imperial 2 Bolt Piliow Block Bearings
100
AcDbAttributeDefinition
  3

  2
NT
 70
     8
280
     0
  0
ATTDEF
  5
209
330
203
100
AcDbEntity
  8
AM_6
100
AcDbText
 10
6.953125
 20
3.125
 30
0.0
 40
0.5
  1
069454H
100
AcDbAttributeDefinition
  3

  2
NB
 70
     8
280
     0
  0
ATTDEF
  5
20A
330
203
100
AcDbEntity
  8
AM_6
100
AcDbText
 10
6.953125
 20
2.625
 30
0.0
 40
0.5
  1
$PN.H
100
AcDbAttributeDefinition
  3

  2
NBSYN
 70
     8
280
     0
  0
ATTDEF
  5
20B
330
203
100
AcDbEntity
  8
AM_6
100
AcDbText
 10
6.953125
 20
2.125
 30
0.0
 40
0.5
  1
069454
100
AcDbAttributeDefinition
  3

  2
LINA
 70
     8
280
     0
  0
ATTDEF
  5
20C
330
203
100
AcDbEntity
  8
AM_6
100
AcDbText
 10
6.953125
 20
1.625
 30
0.0
 40
0.5
  1
3-15/16
100
AcDbAttributeDefinition
  3

  2
SS
 70
     8
280
     0
  0
ATTDEF
  5
20D
330
203
100
AcDbEntity
  8
AM_6
100
AcDbText
 10
6.953125
 20
1.125
 30
0.0
 40
0.5
  1
069454
100
AcDbAttributeDefinition
  3

  2
PN
 70
     8
280
     0
  0
ATTDEF
  5
20E
330
203
100
AcDbEntity
  8
AM_6
100
AcDbText
 10
6.953125
 20
0.625
 30
0.0
 40
0.5
  1
P2B-IP-315RE
100
AcDbAttributeDefinition
  3

  2
DESCRIPTION
 70
     8
280
     0
  0
ATTDEF
  5
20F
330
203
100
AcDbEntity
  8
AM_6
100
AcDbText
 10
6.953125
 20
0.125
 30
0.0
 40
0.5
  1
Expansion Type
100
AcDbAttributeDefinition
  3

  2
EF
 70
     8
280
     0
  0
ATTDEF
  5
210
330
203
100
AcDbEntity
  8
AM_6
100
AcDbText
 10
6.953125
 20
-0.375
 30
0.0
 40
0.5
  1
Contact  Seal
100
AcDbAttributeDefinition
  3

  2
ST
 70
     8
280
     0
  0
ATTDEF
  5
211
330
203
100
AcDbEntity
  8
AM_6
100
AcDbText
 10
6.953125
 20
-0.875
 30
0.0
 40
0.5
  1
4-45/64
100
AcDbAttributeDefinition
  3

  2
A
 70
     8
280
     0
  0
ATTDEF
  5
212
330
203
100
AcDbEntity
  8
AM_6
100
AcDbText
 10
6.953125
 20
-1.375
 30
0.0
 40
0.5
  1
15-1/4
100
AcDbAttributeDefinition
  3

  2
B
 70
     8
280
     0
  0
ATTDEF
  5
213
330
203
100
AcDbEntity
  8
AM_6
100
AcDbText
 10
6.953125
 20
-1.875
 30
0.0
 40
0.5
  1
3-29/32
100
AcDbAttributeDefinition
  3

  2
C
 70
     8
280
     0
  0
ATTDEF
  5
214
330
203
100
AcDbEntity
  8
AM_6
100
AcDbText
 10
6.953125
 20
-2.375
 30
0.0
 40
0.5
  1
10-5/8
100
AcDbAttributeDefinition
  3

  2
DMIN
 70
     8
280
     0
  0
ATTDEF
  5
215
330
203
100
AcDbEntity
  8
AM_6
100
AcDbText
 10
6.953125
 20
-2.875
 30
0.0
 40
0.5
  1
12-7/8
100
AcDbAttributeDefinition
  3

  2
DMAX
 70
     8
280
     0
  0
ATTDEF
  5
216
330
203
100
AcDbEntity
  8
AM_6
100
AcDbText
 10
6.953125
 20
-3.375
 30
0.0
 40
0.5
  1
1
100
AcDbAttributeDefinition
  3

  2
F
 70
     8
280
     0
  0
ATTDEF
  5
217
330
203
100
AcDbEntity
  8
AM_6
100
AcDbText
 10
6.953125
 20
-3.875
 30
0.0
 40
0.5
  1
2-1/4
100
AcDbAttributeDefinition
  3

  2
G
 70
     8
280
     0
  0
ATTDEF
  5
218
330
203
100
AcDbEntity
  8
AM_6
100
AcDbText
 10
6.953125
 20
-4.375
 30
0.0
 40
0.5
  1
2-7/16
100
AcDbAttributeDefinition
  3

  2
H
 70
     8
280
     0
  0
ATTDEF
  5
219
330
203
100
AcDbEntity
  8
AM_6
100
AcDbText
 10
6.953125
 20
-4.875
 30
0.0
 40
0.5
  1
8-3/8
100
AcDbAttributeDefinition
  3

  2
J
 70
     8
280
     0
  0
ATTDEF
  5
21A
330
203
100
AcDbEntity
  8
AM_6
100
AcDbText
 10
6.953125
 20
-5.375
 30
0.0
 40
0.5
  1
5-9/16
100
AcDbAttributeDefinition
  3

  2
L
 70
     8
280
     0
  0
ATTDEF
  5
21B
330
203
100
AcDbEntity
  8
AM_6
100
AcDbText
 10
6.953125
 20
-5.875
 30
0.0
 40
0.5
  1
4-1/4
100
AcDbAttributeDefinition
  3

  2
M
 70
     8
280
     0
  0
ATTDEF
  5
21C
330
203
100
AcDbEntity
  8
AM_6
100
AcDbText
 10
6.953125
 20
-6.375
 30
0.0
 40
0.5
  1
1-41/64
100
AcDbAttributeDefinition
  3

  2
R
 70
     8
280
     0
  0
ATTDEF
  5
21D
330
203
100
AcDbEntity
  8
AM_6
100
AcDbText
 10
6.953125
 20
-6.875
 30
0.0
 40
0.5
  1
3-1/16
100
AcDbAttributeDefinition
  3

  2
S
 70
     8
280
     0
  0
ATTDEF
  5
21E
330
203
100
AcDbEntity
  8
AM_6
100
AcDbText
 10
6.953125
 20
-7.375
 30
0.0
 40
0.5
  1
5/16
100
AcDbAttributeDefinition
  3

  2
X
 70
     8
280
     0
  0
ATTDEF
  5
21F
330
203
100
AcDbEntity
  8
AM_6
100
AcDbText
 10
6.953125
 20
-7.875
 30
0.0
 40
0.5
  1
0.025
100
AcDbAttributeDefinition
  3

  2
Y
 70
     8
280
     0
  0
ATTDEF
  5
220
330
203
100
AcDbEntity
  8
AM_6
100
AcDbText
 10
6.953125
 20
-8.375
 30
0.0
 40
0.5
  1
4-1/2
100
AcDbAttributeDefinition
  3

  2
Z
 70
     8
280
     0
  0
ATTDEF
  5
221
330
203
100
AcDbEntity
  8
AM_6
100
AcDbText
 10
6.953125
 20
-8.875
 30
0.0
 40
0.5
  1
baldor
100
AcDbAttributeDefinition
  3

  2
COMPANY
 70
     8
280
     0
  0
LINE
  5
222
330
203
100
AcDbEntity
  8
AM_9
100
AcDbLine
 10
-0.0950581272168808
 20
4.003125
 30
0.0
 11
0.09505812721688
 21
4.003125
 31
0.0
  0
ELLIPSE
  5
223
330
203
100
AcDbEntity
  8
AM_9
100
AcDbEllipse
 10
0.0000000000001689
 20
3.572354790603325
 30
0.0
 11
0.5000000000001688
 21
0.0
 31
0.0
210
0.0
220
0.0
230
1.0
 40
0.4999999999999636
 41
3.13045110634142
 42
3.141592653589793
  0
ELLIPSE
  5
224
330
203
100
AcDbEntity
  8
AM_9
100
AcDbEllipse
 10
0.0000000000000001
 20
3.57235479061081
 30
0.0
 11
0.5000000000000001
 21
0.0
 31
0.0
210
0.0
220
0.0
230
1.0
 40
0.499999999999983
 41
0.0058836277778171
 42
3.130451106371364
  0
ELLIPSE
  5
225
330
203
100
AcDbEntity
  8
AM_9
100
AcDbEllipse
 10
0.0000000000021332
 20
3.572354790580076
 30
0.0
 11
0.499999999997867
 21
0.0
 31
0.0
210
0.0
220
0.0
230
1.0
 40
0.4999999999999631
 41
0.0
 42
0.0058836279007913
  0
ELLIPSE
  5
226
330
203
100
AcDbEntity
  8
AM_9
100
AcDbEllipse
 10
0.0000000000000041
 20
3.658957330989253
 30
0.0
 11
0.3999999999999712
 21
0.0
 31
0.0
210
0.0
220
0.0
230
1.0
 40
0.5000000000000386
 41
1.305184177224685
 42
1.570796326794897
  0
ELLIPSE
  5
227
330
203
100
AcDbEntity
  8
AM_9
100
AcDbEllipse
 10
-0.0000000000000039
 20
3.658957330989253
 30
0.0
 11
0.3999999999999706
 21
0.0
 31
0.0
210
0.0
220
0.0
230
1.0
 40
0.5000000000000383
 41
1.570796326794897
 42
1.836408476365108
  0
LWPOLYLINE
  5
228
330
203
100
AcDbEntity
  8
AM_9
100
AcDbPolyline
 90
        5
 70
     0
 43
0.0
 10
0.0000000000000001
 20
3.87235479061081
 10
-0.0218474142270939
 20
3.872089475280379
 10
-0.0626132384675024
 20
3.870167036786361
 10
-0.1030039058756628
 20
3.866388050248402
 10
-0.1113799737766903
 20
3.865363469960286
  0
LWPOLYLINE
  5
229
330
203
100
AcDbEntity
  8
AM_9
100
AcDbPolyline
 90
        4
 70
     0
 43
0.0
 10
0.111397467727235
 20
3.865361241517096
 10
0.073238281909246
 20
3.869356579614283
 10
0.0325069534967293
 20
3.871767030322249
 10
0.0000000000000001
 20
3.87235479061081
  0
LINE
  5
22A
330
203
100
AcDbEntity
  8
AM_9
100
AcDbLine
 10
-1.7578125
 20
-3.5433
 30
0.0
 11
1.7578125
 21
-3.5433
 31
0.0
  0
LINE
  5
22B
330
203
100
AcDbEntity
  8
AM_9
100
AcDbLine
 10
1.7578125
 20
3.5433
 30
0.0
 11
-1.7578125
 21
3.5433
 31
0.0
  0
LINE
  5
22C
330
203
100
AcDbEntity
  8
AM_9
100
AcDbLine
 10
-0.1206663785100314
 20
3.952293990836209
 30
0.0
 11
0.120666378510032
 21
3.952293990836209
 31
0.0
  0
LINE
  5
22D
330
203
100
AcDbEntity
  8
AM_9
100
AcDbLine
 10
-0.4999914756858291
 20
3.573813710983214
 30
0.0
 11
-0.4999999999999999
 21
3.572354790610811
 31
0.0
  0
LWPOLYLINE
  5
22E
330
203
100
AcDbEntity
  8
AM_9
100
AcDbPolyline
 90
       21
 70
     0
 43
0.0
 10
0.4999908968620777
 20
3.57386239851462
 10
0.492968608003669
 20
3.613246924777949
 10
0.4722755225120645
 20
3.651615195539963
 10
0.4382518351442674
 20
3.686564736604661
 10
0.3920720742124271
 20
3.717378409453228
 10
0.334480436120318
 20
3.743620808375662
 10
0.267480406226819
 20
3.76479179726446
 10
0.1925690856378165
 20
3.780629264315306
 10
0.1121588387622571
 20
3.790973582368041
 10
0.0564439250383305
 20
3.794750201566661
 10
0.0000000000000001
 20
3.796014488126072
 10
-0.0835886104701111
 20
3.793219461288886
 10
-0.1648127068098037
 20
3.784913855082696
 10
-0.241305585130945
 20
3.771104315490137
 10
-0.3110347205712205
 20
3.751971064917169
 10
-0.3722223675728855
 20
3.727522224260825
 10
-0.4229532585746233
 20
3.698215103307569
 10
-0.4617443653291432
 20
3.664327439637987
 10
-0.4874731462965802
 20
3.626666145657865
 10
-0.4968478133056525
 20
3.600006625821021
 10
-0.4999914756858291
 20
3.573813710983214
  0
LINE
  5
22F
330
203
100
AcDbEntity
  8
AM_9
100
AcDbLine
 10
0.5000000000000002
 20
3.572354790610811
 30
0.0
 11
0.4999908968620777
 21
3.57386239851462
 31
0.0
  0
LINE
  5
230
330
203
100
AcDbEntity
  8
AM_9
100
AcDbLine
 10
-1.7578125
 20
-1.680622247943136
 30
0.0
 11
-1.7578125
 21
-4.25
 31
0.0
  0
LINE
  5
231
330
203
100
AcDbEntity
  8
AM_9
100
AcDbLine
 10
1.7578125
 20
-1.680622247943136
 30
0.0
 11
1.7578125
 21
-4.25
 31
0.0
  0
LINE
  5
232
330
203
100
AcDbEntity
  8
AM_9
100
AcDbLine
 10
-0.4999999999999996
 20
-1.8125
 30
0.0
 11
-0.4999999999999996
 21
-4.25
 31
0.0
  0
LINE
  5
233
330
203
100
AcDbEntity
  8
AM_9
100
AcDbLine
 10
0.5000000000000007
 20
-1.8125
 30
0.0
 11
0.5000000000000007
 21
-4.25
 31
0.0
  0
LINE
  5
234
330
203
100
AcDbEntity
  8
AM_4
100
AcDbLine
 10
-1.7578125
 20
4.125
 30
0.0
 11
1.7578125
 21
4.125
 31
0.0
  0
LINE
  5
235
330
203
100
AcDbEntity
  8
AM_4
100
AcDbLine
 10
0.09505812721688
 20
4.003125
 30
0.0
 11
1.7578125
 21
4.003125
 31
0.0
  0
LINE
  5
236
330
203
100
AcDbEntity
  8
AM_4
100
AcDbLine
 10
-1.7578125
 20
4.003125
 30
0.0
 11
-0.0950581272168808
 21
4.003125
 31
0.0
  0
ELLIPSE
  5
237
330
203
100
AcDbEntity
  8
AM_4
100
AcDbEllipse
 10
0.0
 20
3.57235479061081
 30
0.0
 11
0.5000000000000001
 21
0.0
 31
0.0
210
0.0
220
0.0
230
1.0
 40
0.5000000000000008
 41
3.141592653589793
 42
6.283185307179586
  0
ELLIPSE
  5
238
330
203
100
AcDbEntity
  8
AM_4
100
AcDbEllipse
 10
-0.0000000000000013
 20
3.658957330989254
 30
0.0
 11
0.4000000000000002
 21
0.0
 31
0.0
210
0.0
220
0.0
230
1.0
 40
0.4999999999999991
 41
1.855269544834684
 42
7.588369484404277
  0
ELLIPSE
  5
239
330
203
100
AcDbEntity
  8
AM_4
100
AcDbEllipse
 10
0.0000000000015976
 20
3.658957330992435
 30
0.0
 11
0.4000000000059453
 21
0.0
 31
0.0
210
0.0
220
0.0
230
1.0
 40
0.4999999999854468
 41
-4.44677683081383
 42
-4.427915762344443
  0
LWPOLYLINE
  5
23A
330
203
100
AcDbEntity
  8
AM_4
100
AcDbPolyline
 90
       18
 70
     0
 43
0.0
 10
-0.1113799737766903
 20
3.865363469960286
 10
-0.1427833770998381
 20
3.860755433290466
 10
-0.1817311963744055
 20
3.853268826509828
 10
-0.2196341720799385
 20
3.843921881888766
 10
-0.2562856009757299
 20
3.832698478715195
 10
-0.2914812467111841
 20
3.819568756855031
 10
-0.3250097803628096
 20
3.804486864604188
 10
-0.3566347908943167
 20
3.787394890256262
 10
-0.3860670271384443
 20
3.768241567891604
 10
-0.4128821225547592
 20
3.747072392458095
 10
-0.4365965182940837
 20
3.724067622671514
 10
-0.4548319283074722
 20
3.702178331717235
 10
-0.4699431612815426
 20
3.679484051330127
 10
-0.4819597206642968
 20
3.656120946897597
 10
-0.4916828933776684
 20
3.629661077487608
 10
-0.4976406255565341
 20
3.603018773391838
 10
-0.4999568702774297
 20
3.576508189998832
 10
-0.4999999781136685
 20
3.572261224953046
  0
LWPOLYLINE
  5
23B
330
203
100
AcDbEntity
  8
AM_4
100
AcDbPolyline
 90
       19
 70
     0
 43
0.0
 10
0.4999999035879673
 20
3.572551169854597
 10
0.4999088018842728
 20
3.578394165465798
 10
0.4974270631641939
 20
3.604371179908358
 10
0.4916696334090395
 20
3.629706150294826
 10
0.4827660601178622
 20
3.654278484939707
 10
0.4707868895732624
 20
3.678037977196698
 10
0.4557363681471698
 20
3.700960145782934
 10
0.4375632369480217
 20
3.723015851679006
 10
0.4162025687450441
 20
3.744133446074095
 10
0.3916493781105763
 20
3.764169252400837
 10
0.3640339017578228
 20
3.782911222957138
 10
0.3336417800069726
 20
3.800127093952968
 10
0.3008576336427243
 20
3.815626572287294
 10
0.2661277050568127
 20
3.829276108914014
 10
0.2297708352885819
 20
3.841045655846704
 10
0.1920615450366798
 20
3.850932488809309
 10
0.1532470797311198
 20
3.858942685445147
 10
0.1135622402584489
 20
3.865082620574979
 10
0.111397467727235
 20
3.865361241517096
  0
LINE
  5
23C
330
203
100
AcDbEntity
  8
AM_4
100
AcDbLine
 10
0.120666378510032
 20
3.952293990836209
 30
0.0
 11
1.7578125
 21
3.952293990836209
 31
0.0
  0
LINE
  5
23D
330
203
100
AcDbEntity
  8
AM_4
100
AcDbLine
 10
-1.7578125
 20
3.952293990836209
 30
0.0
 11
-0.1206663785100314
 21
3.952293990836209
 31
0.0
  0
LINE
  5
23E
330
203
100
AcDbEntity
  8
AM_4
100
AcDbLine
 10
1.395089285714286
 20
0.6323060473378401
 30
0.0
 11
-1.395089285714285
 21
0.6323060473378401
 31
0.0
  0
LWPOLYLINE
  5
23F
330
203
100
AcDbEntity
  8
AM_4
100
AcDbPolyline
 90
       21
 70
     0
 43
0.0
 10
-0.4999999999999999
 20
3.572354790610811
 10
-0.4968391777210208
 20
3.543957889900443
 10
-0.4804817223191643
 20
3.501262336816022
 10
-0.4507897373839923
 20
3.459286501056022
 10
-0.4083130590747281
 20
3.41935203237634
 10
-0.3544753820337726
 20
3.382963290265216
 10
-0.2901868024733083
 20
3.351356559356192
 10
-0.217684714815631
 20
3.325959236938446
 10
-0.1388706441823855
 20
3.307925653822871
 10
-0.0560858230803931
 20
3.297924918355836
 10
0.0277939149034499
 20
3.296518829941975
 10
0.110886069417023
 20
3.303539924009174
 10
0.1905501457719796
 20
3.318753244900289
 10
0.2648840657150489
 20
3.341391087108408
 10
0.3320528925812556
 20
3.370781755220045
 10
0.389922532656505
 20
3.405563624839525
 10
0.4369627072613767
 20
3.444684635891936
 10
0.471656002306374
 20
3.486485777664644
 10
0.4927763864241528
 20
3.529407671808447
 10
0.4999998439546787
 20
3.572157261384431
 10
0.5000000000000002
 20
3.572354790610811
  0
LINE
  5
240
330
203
100
AcDbEntity
  8
AM_4
100
AcDbLine
 10
-1.395089285714285
 20
-1.690625000000002
 30
0.0
 11
1.395089285714286
 21
-1.690625000000002
 31
0.0
  0
LINE
  5
241
330
203
100
AcDbEntity
  8
AM_4
100
AcDbLine
 10
1.395089285714285
 20
0.4856053153921683
 30
0.0
 11
1.7578125
 21
0.4856053153921683
 31
0.0
  0
LINE
  5
242
330
203
100
AcDbEntity
  8
AM_4
100
AcDbLine
 10
-1.7578125
 20
0.4856053153921683
 30
0.0
 11
-1.395089285714285
 21
0.4856053153921683
 31
0.0
  0
LINE
  5
243
330
203
100
AcDbEntity
  8
AM_4
100
AcDbLine
 10
1.7578125
 20
4.125
 30
0.0
 11
1.7578125
 21
-1.680622247943136
 31
0.0
  0
LINE
  5
244
330
203
100
AcDbEntity
  8
AM_4
100
AcDbLine
 10
1.395089285714286
 20
-1.597444859545901
 30
0.0
 11
1.7578125
 21
-1.597444859545901
 31
0.0
  0
LINE
  5
245
330
203
100
AcDbEntity
  8
AM_4
100
AcDbLine
 10
1.395089285714286
 20
0.6323060473378401
 30
0.0
 11
1.395089285714286
 21
-1.8125
 31
0.0
  0
LWPOLYLINE
  5
246
330
203
100
AcDbEntity
  8
AM_4
100
AcDbPolyline
 90
       13
 70
     0
 43
0.0
 10
1.7578125
 20
-1.680622247943137
 10
1.768386888813035
 20
-1.699071074248558
 10
1.780528960043612
 20
-1.71652807848893
 10
1.794146305198083
 20
-1.732860402321159
 10
1.809135288057447
 20
-1.747943746899153
 10
1.825381833411546
 20
-1.761663318863102
 10
1.842762295240305
 20
-1.773914703986256
 10
1.861144397734597
 20
-1.78460466183024
 10
1.880388241995023
 20
-1.793651835361087
 10
1.900347370747011
 20
-1.800987370125395
 10
1.920869882969106
 20
-1.806555438274291
 10
1.941799589951467
 20
-1.81031366344707
 10
1.953125
 20
-1.811572083320595
  0
LWPOLYLINE
  5
247
330
203
100
AcDbEntity
  8
AM_4
100
AcDbPolyline
 90
       13
 70
     0
 43
0.0
 10
-1.953125
 20
-1.811572083320596
 10
-1.932042517894404
 20
-1.808796144004972
 10
-1.911282200051071
 20
-1.804193308589646
 10
-1.891002045024211
 20
-1.797798607431397
 10
-1.871356397039071
 20
-1.789660708067264
 10
-1.852494771339184
 20
-1.779841544825207
 10
-1.834560716285088
 20
-1.76841584746647
 10
-1.817690720864623
 20
-1.755470572446978
 10
-1.80201317592932
 20
-1.741104241126201
 10
-1.787647397062497
 20
-1.725426189960117
 10
-1.774702716515626
 20
-1.708555738384766
 10
-1.763277651123879
 20
-1.690621280723295
 10
-1.7578125
 20
-1.680622247943137
  0
LINE
  5
248
330
203
100
AcDbEntity
  8
AM_4
100
AcDbLine
 10
-1.395089285714285
 20
0.6323060473378401
 30
0.0
 11
-1.395089285714285
 21
-1.8125
 31
0.0
  0
LINE
  5
249
330
203
100
AcDbEntity
  8
AM_4
100
AcDbLine
 10
-1.7578125
 20
-1.597444859545901
 30
0.0
 11
-1.395089285714285
 21
-1.597444859545901
 31
0.0
  0
LINE
  5
24A
330
203
100
AcDbEntity
  8
AM_4
100
AcDbLine
 10
-1.7578125
 20
-1.680622247943136
 30
0.0
 11
-1.7578125
 21
4.125
 31
0.0
  0
LINE
  5
24B
330
203
100
AcDbEntity
  8
AM_4
100
AcDbLine
 10
1.953125
 20
-1.8125
 30
0.0
 11
1.953125
 21
-4.25
 31
0.0
  0
LWPOLYLINE
  5
24C
330
203
100
AcDbEntity
  8
AM_4
100
AcDbPolyline
 90
       19
 70
     0
 43
0.0
 10
1.562500000000001
 20
-2.05625
 10
1.563427542340138
 20
-2.035005787705258
 10
1.566203110203275
 20
-2.013923256693686
 10
1.570805579842041
 20
-1.993162857756261
 10
1.577199923683436
 20
-1.972882590064369
 10
1.585337476909818
 20
-1.953236798700705
 10
1.595156307827544
 20
-1.934375000000001
 10
1.606581689204559
 20
-1.916440743639433
 10
1.61952666698975
 20
-1.899570520138907
 10
1.63389272208578
 20
-1.88389272208578
 10
1.649570520138907
 20
-1.86952666698975
 10
1.666440743639433
 20
-1.856581689204559
 10
1.684375000000001
 20
-1.845156307827544
 10
1.703236798700705
 20
-1.835337476909817
 10
1.722882590064369
 20
-1.827199923683436
 10
1.743162857756261
 20
-1.82080557984204
 10
1.763923256693686
 20
-1.816203110203275
 10
1.785005787705258
 20
-1.813427542340138
 10
1.80625
 20
-1.812500000000001
  0
LINE
  5
24D
330
203
100
AcDbEntity
  8
AM_4
100
AcDbLine
 10
1.5625
 20
-2.056249999999999
 30
0.0
 11
1.5625
 21
-4.25
 31
0.0
  0
LINE
  5
24E
330
203
100
AcDbEntity
  8
AM_4
100
AcDbLine
 10
-1.5625
 20
-2.05625
 30
0.0
 11
1.5625
 21
-2.056249999999999
 31
0.0
  0
LINE
  5
24F
330
203
100
AcDbEntity
  8
AM_4
100
AcDbLine
 10
-1.953124999999999
 20
-1.8125
 30
0.0
 11
1.953125
 21
-1.8125
 31
0.0
  0
LINE
  5
250
330
203
100
AcDbEntity
  8
AM_4
100
AcDbLine
 10
-1.953124999999999
 20
-1.8125
 30
0.0
 11
-1.953124999999999
 21
-4.25
 31
0.0
  0
LINE
  5
251
330
203
100
AcDbEntity
  8
AM_4
100
AcDbLine
 10
-1.953124999999999
 20
-4.25
 30
0.0
 11
1.953125
 21
-4.25
 31
0.0
  0
LINE
  5
252
330
203
100
AcDbEntity
  8
AM_4
100
AcDbLine
 10
-1.5625
 20
-2.05625
 30
0.0
 11
-1.5625
 21
-4.25
 31
0.0
  0
LWPOLYLINE
  5
253
330
203
100
AcDbEntity
  8
AM_4
100
AcDbPolyline
 90
       19
 70
     0
 43
0.0
 10
-1.806249999999999
 20
-1.812500000000001
 10
-1.785005787705257
 20
-1.813427542340138
 10
-1.763923256693685
 20
-1.816203110203275
 10
-1.74316285775626
 20
-1.82080557984204
 10
-1.722882590064368
 20
-1.827199923683436
 10
-1.703236798700704
 20
-1.835337476909817
 10
-1.684374999999999
 20
-1.845156307827543
 10
-1.666440743639432
 20
-1.856581689204559
 10
-1.649570520138905
 20
-1.869526666989749
 10
-1.633892722085778
 20
-1.883892722085779
 10
-1.619526666989749
 20
-1.899570520138906
 10
-1.606581689204558
 20
-1.916440743639433
 10
-1.595156307827543
 20
-1.934375
 10
-1.585337476909816
 20
-1.953236798700704
 10
-1.577199923683434
 20
-1.972882590064368
 10
-1.570805579842039
 20
-1.99316285775626
 10
-1.566203110203274
 20
-2.013923256693686
 10
-1.563427542340136
 20
-2.035005787705258
 10
-1.5625
 20
-2.056249999999999
  0
ENDBLK
  5
206
330
203
100
AcDbEntity
  8
0
100
AcDbBlockEnd
  0
ENDSEC
  0
SECTION
  2
ENTITIES
  0
INSERT
  5
6F
330
1F
100
AcDbEntity
  8
0
100
AcDbBlockReference
  2
1_069454_2
 10
0.0
 20
0.0
 30
0.0
  0
POINT
  5
255
330
1F
100
AcDbEntity
  8
ConnectionPoints
100
AcDbPoint
 10
-2.475666666666667
 20
2.484375
 30
0.0000000000000002
  0
POINT
  5
256
330
1F
100
AcDbEntity
  8
ConnectionPoints
100
AcDbPoint
 10
-2.405666666666667
 20
0.0
 30
0.0000000000000001
  0
POINT
  5
257
330
1F
100
AcDbEntity
  8
ConnectionPoints
100
AcDbPoint
 10
-2.75
 20
0.0
 30
0.0000000000000002
  0
POINT
  5
258
330
1F
100
AcDbEntity
  8
ConnectionPoints
100
AcDbPoint
 10
-2.604666666666667
 20
0.0
 30
0.0000000000000002
  0
POINT
  5
259
330
1F
100
AcDbEntity
  8
ConnectionPoints
100
AcDbPoint
 10
-2.405666666666667
 20
2.484375
 30
0.0000000000000001
  0
POINT
  5
25A
330
1F
100
AcDbEntity
  8
ConnectionPoints
100
AcDbPoint
 10
-2.618
 20
2.484375
 30
0.0000000000000002
  0
POINT
  5
25B
330
1F
100
AcDbEntity
  8
ConnectionPoints
100
AcDbPoint
 10
-2.405666666666667
 20
-2.484375
 30
0.0000000000000001
  0
POINT
  5
25C
330
1F
100
AcDbEntity
  8
ConnectionPoints
100
AcDbPoint
 10
-2.618
 20
-2.484375
 30
0.0000000000000002
  0
POINT
  5
25D
330
1F
100
AcDbEntity
  8
ConnectionPoints
100
AcDbPoint
 10
-2.405666666666667
 20
0.0
 30
0.0000000000000001
  0
POINT
  5
25E
330
1F
100
AcDbEntity
  8
ConnectionPoints
100
AcDbPoint
 10
0.0000000000000001
 20
3.658957330989253
 30
2.112499999999999
  0
POINT
  5
25F
330
1F
100
AcDbEntity
  8
ConnectionPoints
100
AcDbPoint
 10
0.0000000000000001
 20
3.658957330989253
 30
2.112499999999999
  0
POINT
  5
260
330
1F
100
AcDbEntity
  8
ConnectionPoints
100
AcDbPoint
 10
-2.75
 20
0.0
 30
0.0000000000000002
  0
POINT
  5
261
330
1F
100
AcDbEntity
  8
ConnectionPoints
100
AcDbPoint
 10
-3.0625
 20
0.0
 30
0.0000000000000002
  0
ENDSEC
  0
SECTION
  2
OBJECTS
  0
DICTIONARY
  5
C
330
0
100
AcDbDictionary
281
     1
  3
ACAD_DETAILVIEWSTYLE
350
269
  3
ACAD_GROUP
350
D
  3
ACAD_LAYOUT
350
1A
  3
ACAD_MATERIAL
350
43
  3
ACAD_MLEADERSTYLE
350
6B
  3
ACAD_MLINESTYLE
350
17
  3
ACAD_PLOTSETTINGS
350
19
  3
ACAD_PLOTSTYLENAME
350
E
  3
ACAD_SCALELIST
350
47
  3
ACAD_SECTIONVIEWSTYLE
350
26A
  3
ACAD_TABLESTYLE
350
69
  3
ACAD_VISUALSTYLE
350
2A
  3
ACDB_RECOMPOSE_DATA
350
266
  3
AcDbVariableDictionary
350
262
  0
SUN
  5
6D
330
29
100
AcDbSun
 90
        1
290
     0
 63
     7
421
 16777215
 40
1.0
291
     1
 91
  2455826
 92
 54000000
292
     0
 70
     2
 71
   256
280
     1
  0
DICTIONARY
  5
269
102
{ACAD_REACTORS
330
C
102
}
330
C
100
AcDbDictionary
281
     1
  0
DICTIONARY
  5
D
102
{ACAD_REACTORS
330
C
102
}
330
C
100
AcDbDictionary
281
     1
  0
DICTIONARY
  5
1A
102
{ACAD_REACTORS
330
C
102
}
330
C
100
AcDbDictionary
281
     1
  3
Layout1
350
1E
  3
Layout2
350
26
  3
Model
350
22
  0
DICTIONARY
  5
43
102
{ACAD_REACTORS
330
C
102
}
330
C
100
AcDbDictionary
281
     1
  3
ByBlock
350
45
  3
ByLayer
350
44
  3
Global
350
46
  0
DICTIONARY
  5
6B
102
{ACAD_REACTORS
330
C
102
}
330
C
100
AcDbDictionary
281
     1
  3
Standard
350
6C
  0
DICTIONARY
  5
17
102
{ACAD_REACTORS
330
C
102
}
330
C
100
AcDbDictionary
281
     1
  3
Standard
350
18
  0
DICTIONARY
  5
19
102
{ACAD_REACTORS
330
C
102
}
330
C
100
AcDbDictionary
281
     1
  0
ACDBDICTIONARYWDFLT
  5
E
102
{ACAD_REACTORS
330
C
102
}
330
C
100
AcDbDictionary
281
     1
  3
Normal
350
F
100
AcDbDictionaryWithDefault
340
F
  0
DICTIONARY
  5
47
102
{ACAD_REACTORS
330
C
102
}
330
C
100
AcDbDictionary
281
     1
  3
A0
350
48
  3
A1
350
49
  3
A2
350
4A
  3
A3
350
4B
  3
A4
350
4C
  3
A5
350
4D
  3
A6
350
4E
  3
A7
350
4F
  3
A8
350
50
  3
A9
350
51
  3
B0
350
52
  3
B1
350
53
  3
B2
350
54
  3
B3
350
55
  3
B4
350
56
  3
B5
350
57
  3
B6
350
58
  3
B7
350
59
  3
B8
350
5A
  3
B9
350
5B
  3
C0
350
5C
  3
C1
350
5D
  3
C2
350
5E
  3
C3
350
5F
  3
C4
350
60
  3
C5
350
61
  3
C6
350
62
  3
C7
350
63
  3
C8
350
64
  3
C9
350
65
  3
D0
350
66
  3
D1
350
67
  3
D2
350
68
  0
DICTIONARY
  5
26A
102
{ACAD_REACTORS
330
C
102
}
330
C
100
AcDbDictionary
281
     1
  0
DICTIONARY
  5
69
102
{ACAD_REACTORS
330
C
102
}
330
C
100
AcDbDictionary
281
     1
  3
Standard
350
6A
  0
DICTIONARY
  5
2A
102
{ACAD_REACTORS
330
C
102
}
330
C
100
AcDbDictionary
281
     1
  3
2dWireframe
350
2F
  3
Basic
350
32
  3
Brighten
350
36
  3
ColorChange
350
3A
  3
Conceptual
350
34
  3
Dim
350
35
  3
EdgeColorOff
350
3D
  3
Facepattern
350
39
  3
Flat
350
2B
  3
FlatWithEdges
350
2C
  3
Gouraud
350
2D
  3
GouraudWithEdges
350
2E
  3
Hidden
350
31
  3
JitterOff
350
3B
  3
Linepattern
350
38
  3
OverhangOff
350
3C
  3
Realistic
350
33
  3
Shaded
350
42
  3
Shaded with edges
350
41
  3
Shades of Gray
350
3E
  3
Sketchy
350
3F
  3
Thicken
350
37
  3
Wireframe
350
30
  3
X-Ray
350
40
  0
XRECORD
  5
266
102
{ACAD_REACTORS
330
C
102
}
330
C
100
AcDbXrecord
280
     1
 90
        1
330
6A
  0
DICTIONARY
  5
262
102
{ACAD_REACTORS
330
C
102
}
330
C
100
AcDbDictionary
281
     1
  3
CANNOSCALE
350
263
  3
CMLEADERSTYLE
350
268
  3
CTABLESTYLE
350
267
  0
LAYOUT
  5
1E
102
{ACAD_REACTORS
330
1A
102
}
330
1A
100
AcDbPlotSettings
  1

  2
none_device
  4

  6

 40
0.0
 41
0.0
 42
0.0
 43
0.0
 44
0.0
 45
0.0
 46
0.0
 47
0.0
 48
0.0
 49
0.0
140
0.0
141
0.0
142
1.0
143
1.0
 70
   688
 72
     0
 73
     0
 74
     5
  7

 75
    16
 76
     0
 77
     2
 78
   300
147
1.0
148
0.0
149
0.0
100
AcDbLayout
  1
Layout1
 70
     1
 71
     1
 10
0.0
 20
0.0
 11
12.0
 21
9.0
 12
0.0
 22
0.0
 32
0.0
 14
1.000000000000000E+20
 24
1.000000000000000E+20
 34
1.000000000000000E+20
 15
-1.000000000000000E+20
 25
-1.000000000000000E+20
 35
-1.000000000000000E+20
146
0.0
 13
0.0
 23
0.0
 33
0.0
 16
1.0
 26
0.0
 36
0.0
 17
0.0
 27
1.0
 37
0.0
 76
     0
330
1B
  0
LAYOUT
  5
26
102
{ACAD_REACTORS
330
1A
102
}
330
1A
100
AcDbPlotSettings
  1

  2
none_device
  4

  6

 40
0.0
 41
0.0
 42
0.0
 43
0.0
 44
0.0
 45
0.0
 46
0.0
 47
0.0
 48
0.0
 49
0.0
140
0.0
141
0.0
142
1.0
143
1.0
 70
   688
 72
     0
 73
     0
 74
     5
  7

 75
    16
 76
     0
 77
     2
 78
   300
147
1.0
148
0.0
149
0.0
100
AcDbLayout
  1
Layout2
 70
     1
 71
     2
 10
0.0
 20
0.0
 11
0.0
 21
0.0
 12
0.0
 22
0.0
 32
0.0
 14
0.0
 24
0.0
 34
0.0
 15
0.0
 25
0.0
 35
0.0
146
0.0
 13
0.0
 23
0.0
 33
0.0
 16
1.0
 26
0.0
 36
0.0
 17
0.0
 27
1.0
 37
0.0
 76
     0
330
23
  0
LAYOUT
  5
22
102
{ACAD_REACTORS
330
1A
102
}
330
1A
100
AcDbPlotSettings
  1

  2
none_device
  4
Letter_(8.50_x_11.00_Inches)
  6

 40
6.35
 41
6.35
 42
6.35000508
 43
6.35000508
 44
215.9
 45
279.4
 46
0.0
 47
0.0
 48
0.0
 49
0.0
140
0.0
141
0.0
142
1.0
143
1.0
 70
  1712
 72
     0
 73
     0
 74
     0
  7

 75
     0
 76
     0
 77
     2
 78
   300
147
1.0
148
0.0
149
0.0
100
AcDbLayout
  1
Model
 70
     1
 71
     0
 10
0.0
 20
0.0
 11
12.0
 21
9.0
 12
0.0
 22
0.0
 32
0.0
 14
1.000000000000000E+20
 24
1.000000000000000E+20
 34
1.000000000000000E+20
 15
-1.000000000000000E+20
 25
-1.000000000000000E+20
 35
-1.000000000000000E+20
146
0.0
 13
0.0
 23
0.0
 33
0.0
 16
1.0
 26
0.0
 36
0.0
 17
0.0
 27
1.0
 37
0.0
 76
     0
330
1F
331
29
  0
MATERIAL
  5
45
102
{ACAD_REACTORS
330
43
102
}
330
43
100
AcDbMaterial
  1
ByBlock
 72
     1
 94
      127
  0
MATERIAL
  5
44
102
{ACAD_REACTORS
330
43
102
}
330
43
100
AcDbMaterial
  1
ByLayer
 72
     1
 94
      127
  0
MATERIAL
  5
46
102
{ACAD_REACTORS
330
43
102
}
330
43
100
AcDbMaterial
  1
Global
 72
     1
 94
      127
  0
MLEADERSTYLE
  5
6C
102
{ACAD_REACTORS
330
6B
102
}
330
6B
100
AcDbMLeaderStyle
179
     2
170
     2
171
     1
172
     0
 90
        2
 40
0.0
 41
0.0
173
     1
 91
-1056964608
340
14
 92
       -2
290
     1
 42
0.09
291
     1
 43
0.36
  3
Standard
341
0
 44
0.18
300

342
11
174
     1
178
     6
175
     1
176
     0
 93
-1056964608
 45
0.18
292
     0
297
     0
 46
0.18
343
0
 94
-1056964608
 47
1.0
 49
1.0
140
1.0
293
     1
141
0.0
294
     1
177
     0
142
1.0
295
     0
296
     0
143
0.125
271
     0
272
     9
273
     9
298
     0
  0
MLINESTYLE
  5
18
102
{ACAD_REACTORS
330
17
102
}
330
17
100
AcDbMlineStyle
  2
Standard
 70
     0
  3

 62
   256
 51
90.0
 52
90.0
 71
     2
 49
0.5
 62
   256
  6
BYLAYER
 49
-0.5
 62
   256
  6
BYLAYER
  0
ACDBPLACEHOLDER
  5
F
102
{ACAD_REACTORS
330
E
102
}
330
E
  0
SCALE
  5
48
102
{ACAD_REACTORS
330
47
102
}
330
47
100
AcDbScale
 70
     0
300
1:1
140
1.0
141
1.0
290
     1
  0
SCALE
  5
49
102
{ACAD_REACTORS
330
47
102
}
330
47
100
AcDbScale
 70
     0
300
1:2
140
1.0
141
2.0
290
     0
  0
SCALE
  5
4A
102
{ACAD_REACTORS
330
47
102
}
330
47
100
AcDbScale
 70
     0
300
1:4
140
1.0
141
4.0
290
     0
  0
SCALE
  5
4B
102
{ACAD_REACTORS
330
47
102
}
330
47
100
AcDbScale
 70
     0
300
1:5
140
1.0
141
5.0
290
     0
  0
SCALE
  5
4C
102
{ACAD_REACTORS
330
47
102
}
330
47
100
AcDbScale
 70
     0
300
1:8
140
1.0
141
8.0
290
     0
  0
SCALE
  5
4D
102
{ACAD_REACTORS
330
47
102
}
330
47
100
AcDbScale
 70
     0
300
1:10
140
1.0
141
10.0
290
     0
  0
SCALE
  5
4E
102
{ACAD_REACTORS
330
47
102
}
330
47
100
AcDbScale
 70
     0
300
1:16
140
1.0
141
16.0
290
     0
  0
SCALE
  5
4F
102
{ACAD_REACTORS
330
47
102
}
330
47
100
AcDbScale
 70
     0
300
1:20
140
1.0
141
20.0
290
     0
  0
SCALE
  5
50
102
{ACAD_REACTORS
330
47
102
}
330
47
100
AcDbScale
 70
     0
300
1:30
140
1.0
141
30.0
290
     0
  0
SCALE
  5
51
102
{ACAD_REACTORS
330
47
102
}
330
47
100
AcDbScale
 70
     0
300
1:40
140
1.0
141
40.0
290
     0
  0
SCALE
  5
52
102
{ACAD_REACTORS
330
47
102
}
330
47
100
AcDbScale
 70
     0
300
1:50
140
1.0
141
50.0
290
     0
  0
SCALE
  5
53
102
{ACAD_REACTORS
330
47
102
}
330
47
100
AcDbScale
 70
     0
300
1:100
140
1.0
141
100.0
290
     0
  0
SCALE
  5
54
102
{ACAD_REACTORS
330
47
102
}
330
47
100
AcDbScale
 70
     0
300
2:1
140
2.0
141
1.0
290
     0
  0
SCALE
  5
55
102
{ACAD_REACTORS
330
47
102
}
330
47
100
AcDbScale
 70
     0
300
4:1
140
4.0
141
1.0
290
     0
  0
SCALE
  5
56
102
{ACAD_REACTORS
330
47
102
}
330
47
100
AcDbScale
 70
     0
300
8:1
140
8.0
141
1.0
290
     0
  0
SCALE
  5
57
102
{ACAD_REACTORS
330
47
102
}
330
47
100
AcDbScale
 70
     0
300
10:1
140
10.0
141
1.0
290
     0
  0
SCALE
  5
58
102
{ACAD_REACTORS
330
47
102
}
330
47
100
AcDbScale
 70
     0
300
100:1
140
100.0
141
1.0
290
     0
  0
SCALE
  5
59
102
{ACAD_REACTORS
330
47
102
}
330
47
100
AcDbScale
 70
     0
300
1/128" = 1'-0"
140
0.0078125
141
12.0
290
     0
  0
SCALE
  5
5A
102
{ACAD_REACTORS
330
47
102
}
330
47
100
AcDbScale
 70
     0
300
1/64" = 1'-0"
140
0.015625
141
12.0
290
     0
  0
SCALE
  5
5B
102
{ACAD_REACTORS
330
47
102
}
330
47
100
AcDbScale
 70
     0
300
1/32" = 1'-0"
140
0.03125
141
12.0
290
     0
  0
SCALE
  5
5C
102
{ACAD_REACTORS
330
47
102
}
330
47
100
AcDbScale
 70
     0
300
1/16" = 1'-0"
140
0.0625
141
12.0
290
     0
  0
SCALE
  5
5D
102
{ACAD_REACTORS
330
47
102
}
330
47
100
AcDbScale
 70
     0
300
3/32" = 1'-0"
140
0.09375
141
12.0
290
     0
  0
SCALE
  5
5E
102
{ACAD_REACTORS
330
47
102
}
330
47
100
AcDbScale
 70
     0
300
1/8" = 1'-0"
140
0.125
141
12.0
290
     0
  0
SCALE
  5
5F
102
{ACAD_REACTORS
330
47
102
}
330
47
100
AcDbScale
 70
     0
300
3/16" = 1'-0"
140
0.1875
141
12.0
290
     0
  0
SCALE
  5
60
102
{ACAD_REACTORS
330
47
102
}
330
47
100
AcDbScale
 70
     0
300
1/4" = 1'-0"
140
0.25
141
12.0
290
     0
  0
SCALE
  5
61
102
{ACAD_REACTORS
330
47
102
}
330
47
100
AcDbScale
 70
     0
300
3/8" = 1'-0"
140
0.375
141
12.0
290
     0
  0
SCALE
  5
62
102
{ACAD_REACTORS
330
47
102
}
330
47
100
AcDbScale
 70
     0
300
1/2" = 1'-0"
140
0.5
141
12.0
290
     0
  0
SCALE
  5
63
102
{ACAD_REACTORS
330
47
102
}
330
47
100
AcDbScale
 70
     0
300
3/4" = 1'-0"
140
0.75
141
12.0
290
     0
  0
SCALE
  5
64
102
{ACAD_REACTORS
330
47
102
}
330
47
100
AcDbScale
 70
     0
300
1" = 1'-0"
140
1.0
141
12.0
290
     0
  0
SCALE
  5
65
102
{ACAD_REACTORS
330
47
102
}
330
47
100
AcDbScale
 70
     0
300
1-1/2" = 1'-0"
140
1.5
141
12.0
290
     0
  0
SCALE
  5
66
102
{ACAD_REACTORS
330
47
102
}
330
47
100
AcDbScale
 70
     0
300
3" = 1'-0"
140
3.0
141
12.0
290
     0
  0
SCALE
  5
67
102
{ACAD_REACTORS
330
47
102
}
330
47
100
AcDbScale
 70
     0
300
6" = 1'-0"
140
6.0
141
12.0
290
     0
  0
SCALE
  5
68
102
{ACAD_REACTORS
330
47
102
}
330
47
100
AcDbScale
 70
     0
300
1'-0" = 1'-0"
140
12.0
141
12.0
290
     0
  0
TABLESTYLE
  5
6A
102
{ACAD_REACTORS
330
69
102
}
102
{ACAD_XDICTIONARY
360
264
102
}
330
69
100
AcDbTableStyle
  3
Standard
 70
     0
 71
     0
 40
0.06
 41
0.06
280
     0
281
     0
  7
Standard
140
0.18
170
     2
 62
     0
 63
   257
283
     0
 90
        4
 91
        0
  1

274
    -2
284
     1
 64
     0
275
    -2
285
     1
 65
     0
276
    -2
286
     1
 66
     0
277
    -2
287
     1
 67
     0
278
    -2
288
     1
 68
     0
279
    -2
289
     1
 69
     0
  7
Standard
140
0.25
170
     5
 62
     0
 63
   257
283
     0
 90
        4
 91
        0
  1

274
    -2
284
     1
 64
     0
275
    -2
285
     1
 65
     0
276
    -2
286
     1
 66
     0
277
    -2
287
     1
 67
     0
278
    -2
288
     1
 68
     0
279
    -2
289
     1
 69
     0
  7
Standard
140
0.18
170
     5
 62
     0
 63
   257
283
     0
 90
        4
 91
        0
  1

274
    -2
284
     1
 64
     0
275
    -2
285
     1
 65
     0
276
    -2
286
     1
 66
     0
277
    -2
287
     1
 67
     0
278
    -2
288
     1
 68
     0
279
    -2
289
     1
 69
     0
  0
VISUALSTYLE
  5
2F
102
{ACAD_REACTORS
330
2A
102
}
330
2A
100
AcDbVisualStyle
  2
2dWireframe
 70
     4
177
     3
291
     0
 70
    58
 90
        0
176
     1
 90
        2
176
     1
 90
        0
176
     1
 90
        0
176
     1
 40
0.6
176
     1
 40
30.0
176
     1
 62
     7
420
 16777215
176
     1
 90
        1
176
     1
 90
        4
176
     1
 62
     7
176
     1
 62
   257
176
     1
 90
        1
176
     1
 90
        1
176
     1
 40
1.0
176
     1
 90
        0
176
     1
 62
   257
176
     1
 40
1.0
176
     1
 90
        1
176
     1
 90
        6
176
     1
 90
        2
176
     1
 62
     7
176
     1
 90
        5
176
     1
 90
        0
176
     1
 90
        0
176
     1
290
     0
176
     1
 90
        1
176
     1
 40
0.0
176
     1
 90
        0
176
     1
290
     1
176
     1
290
     1
176
     1
290
     0
176
     1
290
     0
176
     1
290
     0
176
     1
290
     0
176
     1
290
     0
176
     1
290
     0
176
     1
290
     0
176
     1
 90
       50
176
     1
 40
0.0
176
     1
 40
1.0
176
     1
 90
        0
176
     1
 62
    18
420
        0
176
     1
 90
       50
176
     1
 90
        3
176
     1
 62
     5
420
      255
176
     1
290
     0
176
     1
 90
       50
176
     1
 90
       50
176
     1
 90
       50
176
     1
290
     0
176
     1
 90
       50
176
     1
 62
   256
176
     0
 40
1.0
176
     0
 90
        2
176
     1
  1
strokes_ogs.tif
176
     1
290
     0
176
     1
 40
1.0
176
     1
 40
1.0
176
     1
  0
VISUALSTYLE
  5
32
102
{ACAD_REACTORS
330
2A
102
}
330
2A
100
AcDbVisualStyle
  2
Basic
 70
     7
177
     3
291
     1
 70
    58
 90
        1
176
     1
 90
        0
176
     1
 90
        1
176
     1
 90
        0
176
     1
 40
0.6
176
     1
 40
30.0
176
     1
 62
     7
420
 16777215
176
     1
 90
        0
176
     1
 90
        4
176
     1
 62
     7
176
     1
 62
   257
176
     1
 90
        1
176
     1
 90
        1
176
     1
 40
1.0
176
     1
 90
        8
176
     1
 62
     7
176
     1
 40
1.0
176
     1
 90
        1
176
     1
 90
        6
176
     1
 90
        2
176
     1
 62
     7
176
     1
 90
        5
176
     1
 90
        0
176
     1
 90
        0
176
     1
290
     0
176
     1
 90
        1
176
     1
 40
0.0
176
     1
 90
        0
176
     1
290
     0
176
     1
290
     1
176
     1
290
     1
176
     1
290
     0
176
     1
290
     0
176
     1
290
     0
176
     1
290
     0
176
     1
290
     0
176
     1
290
     0
176
     1
 90
       50
176
     1
 40
0.0
176
     1
 40
1.0
176
     1
 90
        0
176
     1
 62
    18
420
        0
176
     1
 90
       50
176
     1
 90
        3
176
     1
 62
     5
420
      255
176
     1
290
     0
176
     1
 90
       50
176
     1
 90
       50
176
     1
 90
       50
176
     1
290
     0
176
     1
 90
       50
176
     1
 62
   256
176
     0
 40
1.0
176
     0
 90
        2
176
     1
  1
strokes_ogs.tif
176
     1
290
     0
176
     1
 40
1.0
176
     1
 40
1.0
176
     1
  0
VISUALSTYLE
  5
36
102
{ACAD_REACTORS
330
2A
102
}
330
2A
100
AcDbVisualStyle
  2
Brighten
 70
    12
177
     3
291
     1
 70
    58
 90
        2
176
     1
 90
        2
176
     1
 90
        0
176
     1
 90
        0
176
     1
 40
0.6
176
     1
 40
30.0
176
     1
 62
     7
420
 16777215
176
     1
 90
        1
176
     1
 90
        4
176
     1
 62
     7
176
     1
 62
   257
176
     1
 90
        1
176
     1
 90
        1
176
     1
 40
1.0
176
     1
 90
        8
176
     1
 62
     7
176
     1
 40
1.0
176
     1
 90
        1
176
     1
 90
        6
176
     1
 90
        2
176
     1
 62
     7
176
     1
 90
        5
176
     1
 90
        0
176
     1
 90
        0
176
     1
290
     0
176
     1
 90
        1
176
     1
 40
50.0
176
     1
 90
        0
176
     1
290
     0
176
     1
290
     1
176
     1
290
     1
176
     1
290
     0
176
     1
290
     0
176
     1
290
     0
176
     1
290
     0
176
     1
290
     0
176
     1
290
     0
176
     1
 90
       50
176
     1
 40
0.0
176
     1
 40
1.0
176
     1
 90
        0
176
     1
 62
    18
420
        0
176
     1
 90
       50
176
     1
 90
        3
176
     1
 62
     5
420
      255
176
     1
290
     0
176
     1
 90
       50
176
     1
 90
       50
176
     1
 90
       50
176
     1
290
     0
176
     1
 90
       50
176
     1
 62
   256
176
     0
 40
1.0
176
     0
 90
        2
176
     1
  1
strokes_ogs.tif
176
     1
290
     0
176
     1
 40
1.0
176
     1
 40
1.0
176
     1
  0
VISUALSTYLE
  5
3A
102
{ACAD_REACTORS
330
2A
102
}
330
2A
100
AcDbVisualStyle
  2
ColorChange
 70
    16
177
     3
291
     1
 70
    58
 90
        2
176
     1
 90
        2
176
     1
 90
        3
176
     1
 90
        0
176
     1
 40
0.6
176
     1
 40
30.0
176
     1
 62
     8
420
  8421504
176
     1
 90
        1
176
     1
 90
        4
176
     1
 62
     7
176
     1
 62
   257
176
     1
 90
        1
176
     1
 90
        1
176
     1
 40
1.0
176
     1
 90
        8
176
     1
 62
     8
420
  8421504
176
     1
 40
1.0
176
     1
 90
        1
176
     1
 90
        6
176
     1
 90
        2
176
     1
 62
     7
176
     1
 90
        5
176
     1
 90
        0
176
     1
 90
        0
176
     1
290
     0
176
     1
 90
        1
176
     1
 40
0.0
176
     1
 90
        0
176
     1
290
     0
176
     1
290
     1
176
     1
290
     1
176
     1
290
     0
176
     1
290
     0
176
     1
290
     0
176
     1
290
     0
176
     1
290
     0
176
     1
290
     0
176
     1
 90
       50
176
     1
 40
0.0
176
     1
 40
1.0
176
     1
 90
        0
176
     1
 62
    18
420
        0
176
     1
 90
       50
176
     1
 90
        3
176
     1
 62
     5
420
      255
176
     1
290
     0
176
     1
 90
       50
176
     1
 90
       50
176
     1
 90
       50
176
     1
290
     0
176
     1
 90
       50
176
     1
 62
   256
176
     0
 40
1.0
176
     0
 90
        2
176
     1
  1
strokes_ogs.tif
176
     1
290
     0
176
     1
 40
1.0
176
     1
 40
1.0
176
     1
  0
VISUALSTYLE
  5
34
102
{ACAD_REACTORS
330
2A
102
}
330
2A
100
AcDbVisualStyle
  2
Conceptual
 70
     9
177
     3
291
     0
 70
    58
 90
        3
176
     1
 90
        2
176
     1
 90
        0
176
     1
 90
        0
176
     1
 40
0.6
176
     1
 40
30.0
176
     1
 62
     7
420
 16777215
176
     1
 90
        2
176
     1
 90
        2
176
     1
 62
     7
176
     1
 62
   257
176
     1
 90
        1
176
     1
 90
        1
176
     1
 40
179.0
176
     1
 90
        8
176
     1
 62
     7
176
     1
 40
1.0
176
     1
 90
        1
176
     1
 90
        6
176
     1
 90
        2
176
     1
 62
     7
176
     1
 90
        3
176
     1
 90
        0
176
     1
 90
        0
176
     1
290
     0
176
     1
 90
        1
176
     1
 40
0.0
176
     1
 90
        0
176
     1
290
     0
176
     1
290
     1
176
     1
290
     1
176
     1
290
     0
176
     1
290
     0
176
     1
290
     0
176
     1
290
     0
176
     1
290
     0
176
     1
290
     0
176
     1
 90
       50
176
     1
 40
0.0
176
     1
 40
1.0
176
     1
 90
        0
176
     1
 62
    18
420
        0
176
     1
 90
       50
176
     1
 90
        3
176
     1
 62
     5
420
      255
176
     1
290
     0
176
     1
 90
       50
176
     1
 90
       50
176
     1
 90
       50
176
     1
290
     0
176
     1
 90
       50
176
     1
 62
   256
176
     0
 40
1.0
176
     0
 90
        2
176
     1
  1
strokes_ogs.tif
176
     1
290
     0
176
     1
 40
1.0
176
     1
 40
1.0
176
     1
  0
VISUALSTYLE
  5
35
102
{ACAD_REACTORS
330
2A
102
}
330
2A
100
AcDbVisualStyle
  2
Dim
 70
    11
177
     3
291
     1
 70
    58
 90
        2
176
     1
 90
        2
176
     1
 90
        0
176
     1
 90
        0
176
     1
 40
0.6
176
     1
 40
30.0
176
     1
 62
     7
420
 16777215
176
     1
 90
        1
176
     1
 90
        4
176
     1
 62
     7
176
     1
 62
   257
176
     1
 90
        1
176
     1
 90
        1
176
     1
 40
1.0
176
     1
 90
        8
176
     1
 62
     7
176
     1
 40
1.0
176
     1
 90
        1
176
     1
 90
        6
176
     1
 90
        2
176
     1
 62
     7
176
     1
 90
        5
176
     1
 90
        0
176
     1
 90
        0
176
     1
290
     0
176
     1
 90
        1
176
     1
 40
-50.0
176
     1
 90
        0
176
     1
290
     0
176
     1
290
     1
176
     1
290
     1
176
     1
290
     0
176
     1
290
     0
176
     1
290
     0
176
     1
290
     0
176
     1
290
     0
176
     1
290
     0
176
     1
 90
       50
176
     1
 40
0.0
176
     1
 40
1.0
176
     1
 90
        0
176
     1
 62
    18
420
        0
176
     1
 90
       50
176
     1
 90
        3
176
     1
 62
     5
420
      255
176
     1
290
     0
176
     1
 90
       50
176
     1
 90
       50
176
     1
 90
       50
176
     1
290
     0
176
     1
 90
       50
176
     1
 62
   256
176
     0
 40
1.0
176
     0
 90
        2
176
     1
  1
strokes_ogs.tif
176
     1
290
     0
176
     1
 40
1.0
176
     1
 40
1.0
176
     1
  0
VISUALSTYLE
  5
3D
102
{ACAD_REACTORS
330
2A
102
}
330
2A
100
AcDbVisualStyle
  2
EdgeColorOff
 70
    22
177
     3
291
     1
 70
    58
 90
        2
176
     0
 90
        2
176
     0
 90
        0
176
     0
 90
        0
176
     0
 40
0.6
176
     0
 40
30.0
176
     0
 62
     7
420
 16777215
176
     0
 90
        1
176
     0
 90
        4
176
     0
 62
     7
176
     0
 62
   257
176
     0
 90
        1
176
     0
 90
        1
176
     0
 40
1.0
176
     0
 90
        8
176
     2
 62
     7
176
     0
 40
1.0
176
     0
 90
        1
176
     0
 90
        6
176
     0
 90
        2
176
     0
 62
     7
176
     0
 90
        5
176
     0
 90
        0
176
     0
 90
        0
176
     0
290
     0
176
     0
 90
        1
176
     0
 40
0.0
176
     0
 90
        0
176
     0
290
     0
176
     0
290
     1
176
     0
290
     1
176
     0
290
     0
176
     0
290
     0
176
     0
290
     0
176
     0
290
     0
176
     0
290
     0
176
     0
290
     0
176
     0
 90
       50
176
     0
 40
0.0
176
     0
 40
1.0
176
     0
 90
        0
176
     0
 62
    18
420
        0
176
     0
 90
       50
176
     0
 90
        3
176
     0
 62
     5
420
      255
176
     0
290
     0
176
     0
 90
       50
176
     0
 90
       50
176
     0
 90
       50
176
     0
290
     0
176
     0
 90
       50
176
     0
 62
   256
176
     0
 40
1.0
176
     0
 90
        2
176
     0
  1
strokes_ogs.tif
176
     0
290
     0
176
     0
 40
1.0
176
     0
 40
1.0
176
     0
  0
VISUALSTYLE
  5
39
102
{ACAD_REACTORS
330
2A
102
}
330
2A
100
AcDbVisualStyle
  2
Facepattern
 70
    15
177
     3
291
     1
 70
    58
 90
        2
176
     1
 90
        2
176
     1
 90
        0
176
     1
 90
        0
176
     1
 40
0.6
176
     1
 40
30.0
176
     1
 62
     7
420
 16777215
176
     1
 90
        1
176
     1
 90
        4
176
     1
 62
     7
176
     1
 62
   257
176
     1
 90
        1
176
     1
 90
        1
176
     1
 40
1.0
176
     1
 90
        8
176
     1
 62
     7
176
     1
 40
1.0
176
     1
 90
        1
176
     1
 90
        6
176
     1
 90
        2
176
     1
 62
     7
176
     1
 90
        5
176
     1
 90
        0
176
     1
 90
        0
176
     1
290
     0
176
     1
 90
        1
176
     1
 40
0.0
176
     1
 90
        0
176
     1
290
     0
176
     1
290
     1
176
     1
290
     1
176
     1
290
     0
176
     1
290
     0
176
     1
290
     0
176
     1
290
     0
176
     1
290
     0
176
     1
290
     0
176
     1
 90
       50
176
     1
 40
0.0
176
     1
 40
1.0
176
     1
 90
        0
176
     1
 62
    18
420
        0
176
     1
 90
       50
176
     1
 90
        3
176
     1
 62
     5
420
      255
176
     1
290
     0
176
     1
 90
       50
176
     1
 90
       50
176
     1
 90
       50
176
     1
290
     0
176
     1
 90
       50
176
     1
 62
   256
176
     0
 40
1.0
176
     0
 90
        2
176
     1
  1
strokes_ogs.tif
176
     1
290
     0
176
     1
 40
1.0
176
     1
 40
1.0
176
     1
  0
VISUALSTYLE
  5
2B
102
{ACAD_REACTORS
330
2A
102
}
330
2A
100
AcDbVisualStyle
  2
Flat
 70
     0
177
     3
291
     1
 70
    58
 90
        2
176
     1
 90
        1
176
     1
 90
        1
176
     1
 90
        2
176
     1
 40
0.6
176
     1
 40
30.0
176
     1
 62
     7
420
 16777215
176
     1
 90
        0
176
     1
 90
        0
176
     1
 62
     7
176
     1
 62
   257
176
     1
 90
        1
176
     1
 90
        1
176
     1
 40
1.0
176
     1
 90
        8
176
     1
 62
     7
176
     1
 40
1.0
176
     1
 90
        1
176
     1
 90
        6
176
     1
 90
        2
176
     1
 62
     7
176
     1
 90
        5
176
     1
 90
        0
176
     1
 90
        0
176
     1
290
     0
176
     1
 90
       13
176
     1
 40
0.0
176
     1
 90
        0
176
     1
290
     0
176
     1
290
     1
176
     1
290
     1
176
     1
290
     0
176
     1
290
     0
176
     1
290
     0
176
     1
290
     0
176
     1
290
     0
176
     1
290
     0
176
     1
 90
       50
176
     1
 40
0.0
176
     1
 40
1.0
176
     1
 90
        0
176
     1
 62
    18
420
        0
176
     1
 90
       50
176
     1
 90
        3
176
     1
 62
     5
420
      255
176
     1
290
     0
176
     1
 90
       50
176
     1
 90
       50
176
     1
 90
       50
176
     1
290
     0
176
     1
 90
       50
176
     1
 62
   256
176
     0
 40
1.0
176
     0
 90
        2
176
     1
  1
strokes_ogs.tif
176
     1
290
     0
176
     1
 40
1.0
176
     1
 40
1.0
176
     1
  0
VISUALSTYLE
  5
2C
102
{ACAD_REACTORS
330
2A
102
}
330
2A
100
AcDbVisualStyle
  2
FlatWithEdges
 70
     1
177
     3
291
     1
 70
    58
 90
        2
176
     1
 90
        1
176
     1
 90
        1
176
     1
 90
        2
176
     1
 40
0.6
176
     1
 40
30.0
176
     1
 62
     7
420
 16777215
176
     1
 90
        1
176
     1
 90
        0
176
     1
 62
     7
176
     1
 62
   257
176
     1
 90
        1
176
     1
 90
        1
176
     1
 40
1.0
176
     1
 90
        0
176
     1
 62
   257
176
     1
 40
1.0
176
     1
 90
        1
176
     1
 90
        6
176
     1
 90
        2
176
     1
 62
     7
176
     1
 90
        5
176
     1
 90
        0
176
     1
 90
        0
176
     1
290
     0
176
     1
 90
       13
176
     1
 40
0.0
176
     1
 90
        0
176
     1
290
     0
176
     1
290
     1
176
     1
290
     1
176
     1
290
     0
176
     1
290
     0
176
     1
290
     0
176
     1
290
     0
176
     1
290
     0
176
     1
290
     0
176
     1
 90
       50
176
     1
 40
0.0
176
     1
 40
1.0
176
     1
 90
        0
176
     1
 62
    18
420
        0
176
     1
 90
       50
176
     1
 90
        3
176
     1
 62
     5
420
      255
176
     1
290
     0
176
     1
 90
       50
176
     1
 90
       50
176
     1
 90
       50
176
     1
290
     0
176
     1
 90
       50
176
     1
 62
   256
176
     0
 40
1.0
176
     0
 90
        2
176
     1
  1
strokes_ogs.tif
176
     1
290
     0
176
     1
 40
1.0
176
     1
 40
1.0
176
     1
  0
VISUALSTYLE
  5
2D
102
{ACAD_REACTORS
330
2A
102
}
330
2A
100
AcDbVisualStyle
  2
Gouraud
 70
     2
177
     3
291
     1
 70
    58
 90
        2
176
     1
 90
        2
176
     1
 90
        1
176
     1
 90
        2
176
     1
 40
0.6
176
     1
 40
30.0
176
     1
 62
     7
420
 16777215
176
     1
 90
        0
176
     1
 90
        0
176
     1
 62
     7
176
     1
 62
   257
176
     1
 90
        1
176
     1
 90
        1
176
     1
 40
1.0
176
     1
 90
        0
176
     1
 62
     7
176
     1
 40
1.0
176
     1
 90
        1
176
     1
 90
        6
176
     1
 90
        2
176
     1
 62
     7
176
     1
 90
        5
176
     1
 90
        0
176
     1
 90
        0
176
     1
290
     0
176
     1
 90
       13
176
     1
 40
0.0
176
     1
 90
        0
176
     1
290
     0
176
     1
290
     1
176
     1
290
     1
176
     1
290
     0
176
     1
290
     0
176
     1
290
     0
176
     1
290
     0
176
     1
290
     0
176
     1
290
     0
176
     1
 90
       50
176
     1
 40
0.0
176
     1
 40
1.0
176
     1
 90
        0
176
     1
 62
    18
420
        0
176
     1
 90
       50
176
     1
 90
        3
176
     1
 62
     5
420
      255
176
     1
290
     0
176
     1
 90
       50
176
     1
 90
       50
176
     1
 90
       50
176
     1
290
     0
176
     1
 90
       50
176
     1
 62
   256
176
     0
 40
1.0
176
     0
 90
        2
176
     1
  1
strokes_ogs.tif
176
     1
290
     0
176
     1
 40
1.0
176
     1
 40
1.0
176
     1
  0
VISUALSTYLE
  5
2E
102
{ACAD_REACTORS
330
2A
102
}
330
2A
100
AcDbVisualStyle
  2
GouraudWithEdges
 70
     3
177
     3
291
     1
 70
    58
 90
        2
176
     1
 90
        2
176
     1
 90
        1
176
     1
 90
        2
176
     1
 40
0.6
176
     1
 40
30.0
176
     1
 62
     7
420
 16777215
176
     1
 90
        1
176
     1
 90
        0
176
     1
 62
     7
176
     1
 62
   257
176
     1
 90
        1
176
     1
 90
        1
176
     1
 40
1.0
176
     1
 90
        0
176
     1
 62
   257
176
     1
 40
1.0
176
     1
 90
        1
176
     1
 90
        6
176
     1
 90
        2
176
     1
 62
     7
176
     1
 90
        5
176
     1
 90
        0
176
     1
 90
        0
176
     1
290
     0
176
     1
 90
       13
176
     1
 40
0.0
176
     1
 90
        0
176
     1
290
     0
176
     1
290
     1
176
     1
290
     1
176
     1
290
     0
176
     1
290
     0
176
     1
290
     0
176
     1
290
     0
176
     1
290
     0
176
     1
290
     0
176
     1
 90
       50
176
     1
 40
0.0
176
     1
 40
1.0
176
     1
 90
        0
176
     1
 62
    18
420
        0
176
     1
 90
       50
176
     1
 90
        3
176
     1
 62
     5
420
      255
176
     1
290
     0
176
     1
 90
       50
176
     1
 90
       50
176
     1
 90
       50
176
     1
290
     0
176
     1
 90
       50
176
     1
 62
   256
176
     0
 40
1.0
176
     0
 90
        2
176
     1
  1
strokes_ogs.tif
176
     1
290
     0
176
     1
 40
1.0
176
     1
 40
1.0
176
     1
  0
VISUALSTYLE
  5
31
102
{ACAD_REACTORS
330
2A
102
}
330
2A
100
AcDbVisualStyle
  2
Hidden
 70
     6
177
     3
291
     0
 70
    58
 90
        1
176
     1
 90
        2
176
     1
 90
        2
176
     1
 90
        0
176
     1
 40
0.6
176
     1
 40
30.0
176
     1
 62
     7
420
 16777215
176
     1
 90
        2
176
     1
 90
        2
176
     1
 62
     7
176
     1
 62
   257
176
     1
 90
        2
176
     1
 90
        1
176
     1
 40
40.0
176
     1
 90
        0
176
     1
 62
   257
176
     1
 40
1.0
176
     1
 90
        1
176
     1
 90
        6
176
     1
 90
        2
176
     1
 62
     7
176
     1
 90
        3
176
     1
 90
        0
176
     1
 90
        0
176
     1
290
     0
176
     1
 90
        1
176
     1
 40
0.0
176
     1
 90
        0
176
     1
290
     0
176
     1
290
     1
176
     1
290
     1
176
     1
290
     0
176
     1
290
     0
176
     1
290
     0
176
     1
290
     0
176
     1
290
     0
176
     1
290
     0
176
     1
 90
       50
176
     1
 40
0.0
176
     1
 40
1.0
176
     1
 90
        0
176
     1
 62
    18
420
        0
176
     1
 90
       50
176
     1
 90
        3
176
     1
 62
     5
420
      255
176
     1
290
     0
176
     1
 90
       50
176
     1
 90
       50
176
     1
 90
       50
176
     1
290
     0
176
     1
 90
       50
176
     1
 62
   256
176
     0
 40
1.0
176
     0
 90
        2
176
     1
  1
strokes_ogs.tif
176
     1
290
     0
176
     1
 40
1.0
176
     1
 40
1.0
176
     1
  0
VISUALSTYLE
  5
3B
102
{ACAD_REACTORS
330
2A
102
}
330
2A
100
AcDbVisualStyle
  2
JitterOff
 70
    20
177
     3
291
     1
 70
    58
 90
        2
176
     0
 90
        2
176
     0
 90
        0
176
     0
 90
        0
176
     0
 40
0.6
176
     0
 40
30.0
176
     0
 62
     7
420
 16777215
176
     0
 90
        1
176
     0
 90
        4
176
     0
 62
     7
176
     0
 62
   257
176
     0
 90
        1
176
     0
 90
        1
176
     0
 40
1.0
176
     0
 90
       10
176
     2
 62
     7
176
     0
 40
1.0
176
     0
 90
        1
176
     0
 90
        6
176
     0
 90
        2
176
     0
 62
     7
176
     0
 90
        5
176
     0
 90
        0
176
     0
 90
        0
176
     0
290
     0
176
     0
 90
        1
176
     0
 40
0.0
176
     0
 90
        0
176
     0
290
     0
176
     0
290
     1
176
     0
290
     1
176
     0
290
     0
176
     0
290
     0
176
     0
290
     0
176
     0
290
     0
176
     0
290
     0
176
     0
290
     0
176
     0
 90
       50
176
     0
 40
0.0
176
     0
 40
1.0
176
     0
 90
        0
176
     0
 62
    18
420
        0
176
     0
 90
       50
176
     0
 90
        3
176
     0
 62
     5
420
      255
176
     0
290
     0
176
     0
 90
       50
176
     0
 90
       50
176
     0
 90
       50
176
     0
290
     0
176
     0
 90
       50
176
     0
 62
   256
176
     0
 40
1.0
176
     0
 90
        2
176
     0
  1
strokes_ogs.tif
176
     0
290
     0
176
     0
 40
1.0
176
     0
 40
1.0
176
     0
  0
VISUALSTYLE
  5
38
102
{ACAD_REACTORS
330
2A
102
}
330
2A
100
AcDbVisualStyle
  2
Linepattern
 70
    14
177
     3
291
     1
 70
    58
 90
        2
176
     1
 90
        2
176
     1
 90
        0
176
     1
 90
        0
176
     1
 40
0.6
176
     1
 40
30.0
176
     1
 62
     7
420
 16777215
176
     1
 90
        1
176
     1
 90
        4
176
     1
 62
     7
176
     1
 62
   257
176
     1
 90
        7
176
     1
 90
        7
176
     1
 40
1.0
176
     1
 90
        8
176
     1
 62
     7
176
     1
 40
1.0
176
     1
 90
        1
176
     1
 90
        6
176
     1
 90
        2
176
     1
 62
     7
176
     1
 90
        5
176
     1
 90
        0
176
     1
 90
        0
176
     1
290
     0
176
     1
 90
        1
176
     1
 40
0.0
176
     1
 90
        0
176
     1
290
     0
176
     1
290
     1
176
     1
290
     1
176
     1
290
     0
176
     1
290
     0
176
     1
290
     0
176
     1
290
     0
176
     1
290
     0
176
     1
290
     0
176
     1
 90
       50
176
     1
 40
0.0
176
     1
 40
1.0
176
     1
 90
        0
176
     1
 62
    18
420
        0
176
     1
 90
       50
176
     1
 90
        3
176
     1
 62
     5
420
      255
176
     1
290
     0
176
     1
 90
       50
176
     1
 90
       50
176
     1
 90
       50
176
     1
290
     0
176
     1
 90
       50
176
     1
 62
   256
176
     0
 40
1.0
176
     0
 90
        2
176
     1
  1
strokes_ogs.tif
176
     1
290
     0
176
     1
 40
1.0
176
     1
 40
1.0
176
     1
  0
VISUALSTYLE
  5
3C
102
{ACAD_REACTORS
330
2A
102
}
330
2A
100
AcDbVisualStyle
  2
OverhangOff
 70
    21
177
     3
291
     1
 70
    58
 90
        2
176
     0
 90
        2
176
     0
 90
        0
176
     0
 90
        0
176
     0
 40
0.6
176
     0
 40
30.0
176
     0
 62
     7
420
 16777215
176
     0
 90
        1
176
     0
 90
        4
176
     0
 62
     7
176
     0
 62
   257
176
     0
 90
        1
176
     0
 90
        1
176
     0
 40
1.0
176
     0
 90
        9
176
     2
 62
     7
176
     0
 40
1.0
176
     0
 90
        1
176
     0
 90
        6
176
     0
 90
        2
176
     0
 62
     7
176
     0
 90
        5
176
     0
 90
        0
176
     0
 90
        0
176
     0
290
     0
176
     0
 90
        1
176
     0
 40
0.0
176
     0
 90
        0
176
     0
290
     0
176
     0
290
     1
176
     0
290
     1
176
     0
290
     0
176
     0
290
     0
176
     0
290
     0
176
     0
290
     0
176
     0
290
     0
176
     0
290
     0
176
     0
 90
       50
176
     0
 40
0.0
176
     0
 40
1.0
176
     0
 90
        0
176
     0
 62
    18
420
        0
176
     0
 90
       50
176
     0
 90
        3
176
     0
 62
     5
420
      255
176
     0
290
     0
176
     0
 90
       50
176
     0
 90
       50
176
     0
 90
       50
176
     0
290
     0
176
     0
 90
       50
176
     0
 62
   256
176
     0
 40
1.0
176
     0
 90
        2
176
     0
  1
strokes_ogs.tif
176
     0
290
     0
176
     0
 40
1.0
176
     0
 40
1.0
176
     0
  0
VISUALSTYLE
  5
33
102
{ACAD_REACTORS
330
2A
102
}
330
2A
100
AcDbVisualStyle
  2
Realistic
 70
     8
177
     3
291
     0
 70
    58
 90
        2
176
     1
 90
        3
176
     1
 90
        0
176
     1
 90
        2
176
     1
 40
0.6
176
     1
 40
30.0
176
     1
 62
     7
420
 16777215
176
     1
 90
        0
176
     1
 90
        0
176
     1
 62
     7
176
     1
 62
   257
176
     1
 90
        1
176
     1
 90
        1
176
     1
 40
1.0
176
     1
 90
        8
176
     1
 62
   257
176
     1
 40
1.0
176
     1
 90
        1
176
     1
 90
        6
176
     1
 90
        2
176
     1
 62
     7
176
     1
 90
        3
176
     1
 90
        0
176
     1
 90
        0
176
     1
290
     0
176
     1
 90
       13
176
     1
 40
0.0
176
     1
 90
        0
176
     1
290
     0
176
     1
290
     1
176
     1
290
     1
176
     1
290
     0
176
     1
290
     0
176
     1
290
     0
176
     1
290
     0
176
     1
290
     0
176
     1
290
     0
176
     1
 90
       50
176
     1
 40
0.0
176
     1
 40
1.0
176
     1
 90
        0
176
     1
 62
    18
420
        0
176
     1
 90
       50
176
     1
 90
        3
176
     1
 62
     5
420
      255
176
     1
290
     0
176
     1
 90
       50
176
     1
 90
       50
176
     1
 90
       50
176
     1
290
     0
176
     1
 90
       50
176
     1
 62
   256
176
     0
 40
1.0
176
     0
 90
        2
176
     1
  1
strokes_ogs.tif
176
     1
290
     0
176
     1
 40
1.0
176
     1
 40
1.0
176
     1
  0
VISUALSTYLE
  5
42
102
{ACAD_REACTORS
330
2A
102
}
330
2A
100
AcDbVisualStyle
  2
Shaded
 70
    27
177
     3
291
     0
 70
    58
 90
        2
176
     1
 90
        2
176
     1
 90
        1
176
     1
 90
        2
176
     1
 40
0.6
176
     1
 40
30.0
176
     1
 62
     7
420
 16777215
176
     1
 90
        0
176
     1
 90
        4
176
     1
 62
     7
176
     1
 62
   257
176
     1
 90
        1
176
     1
 90
        1
176
     1
 40
1.0
176
     1
 90
        8
176
     1
 62
   257
176
     1
 40
1.0
176
     1
 90
        1
176
     1
 90
        6
176
     1
 90
        2
176
     1
 62
     8
420
  7895160
176
     1
 90
        3
176
     1
 90
        0
176
     1
 90
        0
176
     1
290
     0
176
     1
 90
        5
176
     1
 40
0.0
176
     1
 90
        0
176
     1
290
     0
176
     1
290
     1
176
     1
290
     1
176
     1
290
     0
176
     1
290
     0
176
     1
290
     0
176
     1
290
     0
176
     1
290
     0
176
     1
290
     0
176
     1
 90
       50
176
     1
 40
0.0
176
     1
 40
1.0
176
     1
 90
        0
176
     1
 62
    18
420
        0
176
     1
 90
       50
176
     1
 90
        3
176
     1
 62
     5
420
      255
176
     1
290
     0
176
     1
 90
       50
176
     1
 90
       50
176
     1
 90
       50
176
     1
290
     0
176
     1
 90
       50
176
     1
 62
   256
176
     0
 40
1.0
176
     0
 90
        2
176
     1
  1
strokes_ogs.tif
176
     1
290
     0
176
     1
 40
1.0
176
     1
 40
1.0
176
     1
  0
VISUALSTYLE
  5
41
102
{ACAD_REACTORS
330
2A
102
}
330
2A
100
AcDbVisualStyle
  2
Shaded with edges
 70
    26
177
     3
291
     0
 70
    58
 90
        2
176
     1
 90
        2
176
     1
 90
        1
176
     1
 90
        2
176
     1
 40
0.6
176
     1
 40
30.0
176
     1
 62
     7
420
 16777215
176
     1
 90
        1
176
     1
 90
       10
176
     1
 62
     7
176
     1
 62
   257
176
     1
 90
        2
176
     1
 90
        1
176
     1
 40
1.0
176
     1
 90
        8
176
     1
 62
   257
176
     1
 40
1.0
176
     1
 90
        1
176
     1
 90
        6
176
     1
 90
        2
176
     1
 62
     7
176
     1
 90
        3
176
     1
 90
        0
176
     1
 90
        0
176
     1
290
     0
176
     1
 90
        5
176
     1
 40
0.0
176
     1
 90
        0
176
     1
290
     0
176
     1
290
     1
176
     1
290
     1
176
     1
290
     0
176
     1
290
     0
176
     1
290
     0
176
     1
290
     0
176
     1
290
     0
176
     1
290
     0
176
     1
 90
       50
176
     1
 40
0.0
176
     1
 40
1.0
176
     1
 90
        0
176
     1
 62
    18
420
        0
176
     1
 90
       50
176
     1
 90
        3
176
     1
 62
     5
420
      255
176
     1
290
     0
176
     1
 90
       50
176
     1
 90
       50
176
     1
 90
       50
176
     1
290
     0
176
     1
 90
       50
176
     1
 62
   256
176
     0
 40
1.0
176
     0
 90
        2
176
     1
  1
strokes_ogs.tif
176
     1
290
     0
176
     1
 40
1.0
176
     1
 40
1.0
176
     1
  0
VISUALSTYLE
  5
3E
102
{ACAD_REACTORS
330
2A
102
}
330
2A
100
AcDbVisualStyle
  2
Shades of Gray
 70
    23
177
     3
291
     0
 70
    58
 90
        2
176
     1
 90
        2
176
     1
 90
        3
176
     1
 90
        0
176
     1
 40
0.6
176
     1
 40
30.0
176
     1
 62
     7
420
 16777215
176
     1
 90
        2
176
     1
 90
        2
176
     1
 62
     7
176
     1
 62
     7
176
     1
 90
        1
176
     1
 90
        1
176
     1
 40
40.0
176
     1
 90
        8
176
     1
 62
     7
176
     1
 40
1.0
176
     1
 90
        1
176
     1
 90
        6
176
     1
 90
        2
176
     1
 62
     7
176
     1
 90
        3
176
     1
 90
        0
176
     1
 90
        0
176
     1
290
     0
176
     1
 90
        1
176
     1
 40
0.0
176
     1
 90
        0
176
     1
290
     0
176
     1
290
     1
176
     1
290
     1
176
     1
290
     0
176
     1
290
     0
176
     1
290
     0
176
     1
290
     0
176
     1
290
     0
176
     1
290
     0
176
     1
 90
       50
176
     1
 40
0.0
176
     1
 40
1.0
176
     1
 90
        0
176
     1
 62
    18
420
        0
176
     1
 90
       50
176
     1
 90
        3
176
     1
 62
     5
420
      255
176
     1
290
     0
176
     1
 90
       50
176
     1
 90
       50
176
     1
 90
       50
176
     1
290
     0
176
     1
 90
       50
176
     1
 62
   256
176
     0
 40
1.0
176
     0
 90
        2
176
     1
  1
strokes_ogs.tif
176
     1
290
     0
176
     1
 40
1.0
176
     1
 40
1.0
176
     1
  0
VISUALSTYLE
  5
3F
102
{ACAD_REACTORS
330
2A
102
}
330
2A
100
AcDbVisualStyle
  2
Sketchy
 70
    24
177
     3
291
     0
 70
    58
 90
        1
176
     1
 90
        2
176
     1
 90
        2
176
     1
 90
        0
176
     1
 40
0.6
176
     1
 40
30.0
176
     1
 62
     7
420
 16777215
176
     1
 90
        2
176
     1
 90
        2
176
     1
 62
     7
176
     1
 62
     7
176
     1
 90
        1
176
     1
 90
        1
176
     1
 40
40.0
176
     1
 90
       11
176
     1
 62
     7
176
     1
 40
1.0
176
     1
 90
        1
176
     1
 90
        6
176
     1
 90
        2
176
     1
 62
     7
176
     1
 90
        6
176
     1
 90
        0
176
     1
 90
        0
176
     1
290
     0
176
     1
 90
        1
176
     1
 40
0.0
176
     1
 90
        0
176
     1
290
     0
176
     1
290
     1
176
     1
290
     1
176
     1
290
     0
176
     1
290
     0
176
     1
290
     0
176
     1
290
     0
176
     1
290
     0
176
     1
290
     0
176
     1
 90
       50
176
     1
 40
0.0
176
     1
 40
1.0
176
     1
 90
        0
176
     1
 62
    18
420
        0
176
     1
 90
       50
176
     1
 90
        3
176
     1
 62
     5
420
      255
176
     1
290
     0
176
     1
 90
       50
176
     1
 90
       50
176
     1
 90
       50
176
     1
290
     0
176
     1
 90
       50
176
     1
 62
   256
176
     0
 40
1.0
176
     0
 90
        2
176
     1
  1
strokes_ogs.tif
176
     1
290
     0
176
     1
 40
1.0
176
     1
 40
1.0
176
     1
  0
VISUALSTYLE
  5
37
102
{ACAD_REACTORS
330
2A
102
}
330
2A
100
AcDbVisualStyle
  2
Thicken
 70
    13
177
     3
291
     1
 70
    58
 90
        2
176
     1
 90
        2
176
     1
 90
        0
176
     1
 90
        0
176
     1
 40
0.6
176
     1
 40
30.0
176
     1
 62
     7
420
 16777215
176
     1
 90
        1
176
     1
 90
        4
176
     1
 62
     7
176
     1
 62
   257
176
     1
 90
        1
176
     1
 90
        1
176
     1
 40
1.0
176
     1
 90
       12
176
     1
 62
     7
176
     1
 40
1.0
176
     1
 90
        1
176
     1
 90
        6
176
     1
 90
        2
176
     1
 62
     7
176
     1
 90
        5
176
     1
 90
        0
176
     1
 90
        0
176
     1
290
     0
176
     1
 90
        1
176
     1
 40
0.0
176
     1
 90
        0
176
     1
290
     0
176
     1
290
     1
176
     1
290
     1
176
     1
290
     0
176
     1
290
     0
176
     1
290
     0
176
     1
290
     0
176
     1
290
     0
176
     1
290
     0
176
     1
 90
       50
176
     1
 40
0.0
176
     1
 40
1.0
176
     1
 90
        0
176
     1
 62
    18
420
        0
176
     1
 90
       50
176
     1
 90
        3
176
     1
 62
     5
420
      255
176
     1
290
     0
176
     1
 90
       50
176
     1
 90
       50
176
     1
 90
       50
176
     1
290
     0
176
     1
 90
       50
176
     1
 62
   256
176
     0
 40
1.0
176
     0
 90
        2
176
     1
  1
strokes_ogs.tif
176
     1
290
     0
176
     1
 40
1.0
176
     1
 40
1.0
176
     1
  0
VISUALSTYLE
  5
30
102
{ACAD_REACTORS
330
2A
102
}
330
2A
100
AcDbVisualStyle
  2
Wireframe
 70
     5
177
     3
291
     0
 70
    58
 90
        0
176
     1
 90
        2
176
     1
 90
        0
176
     1
 90
        0
176
     1
 40
0.6
176
     1
 40
30.0
176
     1
 62
     7
420
 16777215
176
     1
 90
        1
176
     1
 90
        4
176
     1
 62
     7
176
     1
 62
   257
176
     1
 90
        1
176
     1
 90
        1
176
     1
 40
1.0
176
     1
 90
        0
176
     1
 62
   257
176
     1
 40
1.0
176
     1
 90
        1
176
     1
 90
        6
176
     1
 90
        2
176
     1
 62
     7
176
     1
 90
        3
176
     1
 90
        0
176
     1
 90
        0
176
     1
290
     0
176
     1
 90
        1
176
     1
 40
0.0
176
     1
 90
        0
176
     1
290
     0
176
     1
290
     1
176
     1
290
     1
176
     1
290
     0
176
     1
290
     0
176
     1
290
     0
176
     1
290
     0
176
     1
290
     0
176
     1
290
     0
176
     1
 90
       50
176
     1
 40
0.0
176
     1
 40
1.0
176
     1
 90
        0
176
     1
 62
    18
420
        0
176
     1
 90
       50
176
     1
 90
        3
176
     1
 62
     5
420
      255
176
     1
290
     0
176
     1
 90
       50
176
     1
 90
       50
176
     1
 90
       50
176
     1
290
     0
176
     1
 90
       50
176
     1
 62
   256
176
     0
 40
1.0
176
     0
 90
        2
176
     1
  1
strokes_ogs.tif
176
     1
290
     0
176
     1
 40
1.0
176
     1
 40
1.0
176
     1
  0
VISUALSTYLE
  5
40
102
{ACAD_REACTORS
330
2A
102
}
330
2A
100
AcDbVisualStyle
  2
X-Ray
 70
    25
177
     3
291
     0
 70
    58
 90
        2
176
     1
 90
        2
176
     1
 90
        1
176
     1
 90
        1
176
     1
 40
0.5
176
     1
 40
30.0
176
     1
 62
     7
420
 16777215
176
     1
 90
        1
176
     1
 90
        0
176
     1
 62
     7
176
     1
 62
   257
176
     1
 90
        1
176
     1
 90
        1
176
     1
 40
1.0
176
     1
 90
        8
176
     1
 62
     7
176
     1
 40
1.0
176
     1
 90
        1
176
     1
 90
        6
176
     1
 90
        2
176
     1
 62
     7
176
     1
 90
        3
176
     1
 90
        0
176
     1
 90
        0
176
     1
290
     0
176
     1
 90
       13
176
     1
 40
0.0
176
     1
 90
        0
176
     1
290
     0
176
     1
290
     1
176
     1
290
     1
176
     1
290
     0
176
     1
290
     0
176
     1
290
     0
176
     1
290
     0
176
     1
290
     0
176
     1
290
     0
176
     1
 90
       50
176
     1
 40
0.0
176
     1
 40
1.0
176
     1
 90
        0
176
     1
 62
    18
420
        0
176
     1
 90
       50
176
     1
 90
        3
176
     1
 62
     5
420
      255
176
     1
290
     0
176
     1
 90
       50
176
     1
 90
       50
176
     1
 90
       50
176
     1
290
     0
176
     1
 90
       50
176
     1
 62
   256
176
     0
 40
1.0
176
     0
 90
        2
176
     1
  1
strokes_ogs.tif
176
     1
290
     0
176
     1
 40
1.0
176
     1
 40
1.0
176
     1
  0
DICTIONARYVAR
  5
263
102
{ACAD_REACTORS
330
262
102
}
330
262
100
DictionaryVariables
280
     0
  1
1:1
  0
DICTIONARYVAR
  5
268
102
{ACAD_REACTORS
330
262
102
}
330
262
100
DictionaryVariables
280
     0
  1
Standard
  0
DICTIONARYVAR
  5
267
102
{ACAD_REACTORS
330
262
102
}
330
262
100
DictionaryVariables
280
     0
  1
Standard
  0
DICTIONARY
  5
264
330
6A
100
AcDbDictionary
280
     1
281
     1
  3
ACAD_ROUNDTRIP_2008_TABLESTYLE_CELLSTYLEMAP
360
265
  0
CELLSTYLEMAP
  5
265
102
{ACAD_REACTORS
330
264
102
}
330
264
100
AcDbCellStyleMap
 90
        3
300
CELLSTYLE
  1
TABLEFORMAT_BEGIN
 90
        5
170
     1
 91
        0
 92
    32768
 62
   257
 93
        1
300
CONTENTFORMAT
  1
CONTENTFORMAT_BEGIN
 90
        0
 91
        0
 92
        4
 93
        0
300

 40
0.0
140
1.0
 94
        5
 62
     0
340
11
144
0.25
309
CONTENTFORMAT_END
171
     1
301
MARGIN
  1
CELLMARGIN_BEGIN
 40
0.06
 40
0.06
 40
0.06
 40
0.06
 40
0.06
 40
0.06
309
CELLMARGIN_END
 94
        6
 95
        1
302
GRIDFORMAT
  1
GRIDFORMAT_BEGIN
 90
        0
 91
        1
 62
     0
 92
       -2
340
14
 93
        0
 40
0.045
309
GRIDFORMAT_END
 95
        2
302
GRIDFORMAT
  1
GRIDFORMAT_BEGIN
 90
        0
 91
        1
 62
     0
 92
       -2
340
14
 93
        0
 40
0.045
309
GRIDFORMAT_END
 95
        4
302
GRIDFORMAT
  1
GRIDFORMAT_BEGIN
 90
        0
 91
        1
 62
     0
 92
       -2
340
14
 93
        0
 40
0.045
309
GRIDFORMAT_END
 95
        8
302
GRIDFORMAT
  1
GRIDFORMAT_BEGIN
 90
        0
 91
        1
 62
     0
 92
       -2
340
14
 93
        0
 40
0.045
309
GRIDFORMAT_END
 95
       16
302
GRIDFORMAT
  1
GRIDFORMAT_BEGIN
 90
        0
 91
        1
 62
     0
 92
       -2
340
14
 93
        0
 40
0.045
309
GRIDFORMAT_END
 95
       32
302
GRIDFORMAT
  1
GRIDFORMAT_BEGIN
 90
        0
 91
        1
 62
     0
 92
       -2
340
14
 93
        0
 40
0.045
309
GRIDFORMAT_END
309
TABLEFORMAT_END
  1
CELLSTYLE_BEGIN
 90
        1
 91
        1
300
_TITLE
309
CELLSTYLE_END
300
CELLSTYLE
  1
TABLEFORMAT_BEGIN
 90
        5
170
     1
 91
        0
 92
        0
 62
   257
 93
        1
300
CONTENTFORMAT
  1
CONTENTFORMAT_BEGIN
 90
        0
 91
        0
 92
        4
 93
        0
300

 40
0.0
140
1.0
 94
        5
 62
     0
340
11
144
0.18
309
CONTENTFORMAT_END
171
     1
301
MARGIN
  1
CELLMARGIN_BEGIN
 40
0.06
 40
0.06
 40
0.06
 40
0.06
 40
0.06
 40
0.06
309
CELLMARGIN_END
 94
        6
 95
        1
302
GRIDFORMAT
  1
GRIDFORMAT_BEGIN
 90
        0
 91
        1
 62
     0
 92
       -2
340
14
 93
        0
 40
0.045
309
GRIDFORMAT_END
 95
        2
302
GRIDFORMAT
  1
GRIDFORMAT_BEGIN
 90
        0
 91
        1
 62
     0
 92
       -2
340
14
 93
        0
 40
0.045
309
GRIDFORMAT_END
 95
        4
302
GRIDFORMAT
  1
GRIDFORMAT_BEGIN
 90
        0
 91
        1
 62
     0
 92
       -2
340
14
 93
        0
 40
0.045
309
GRIDFORMAT_END
 95
        8
302
GRIDFORMAT
  1
GRIDFORMAT_BEGIN
 90
        0
 91
        1
 62
     0
 92
       -2
340
14
 93
        0
 40
0.045
309
GRIDFORMAT_END
 95
       16
302
GRIDFORMAT
  1
GRIDFORMAT_BEGIN
 90
        0
 91
        1
 62
     0
 92
       -2
340
14
 93
        0
 40
0.045
309
GRIDFORMAT_END
 95
       32
302
GRIDFORMAT
  1
GRIDFORMAT_BEGIN
 90
        0
 91
        1
 62
     0
 92
       -2
340
14
 93
        0
 40
0.045
309
GRIDFORMAT_END
309
TABLEFORMAT_END
  1
CELLSTYLE_BEGIN
 90
        2
 91
        1
300
_HEADER
309
CELLSTYLE_END
300
CELLSTYLE
  1
TABLEFORMAT_BEGIN
 90
        5
170
     1
 91
        0
 92
        0
 62
   257
 93
        1
300
CONTENTFORMAT
  1
CONTENTFORMAT_BEGIN
 90
        0
 91
        0
 92
        4
 93
        0
300

 40
0.0
140
1.0
 94
        2
 62
     0
340
11
144
0.18
309
CONTENTFORMAT_END
171
     1
301
MARGIN
  1
CELLMARGIN_BEGIN
 40
0.06
 40
0.06
 40
0.06
 40
0.06
 40
0.06
 40
0.06
309
CELLMARGIN_END
 94
        6
 95
        1
302
GRIDFORMAT
  1
GRIDFORMAT_BEGIN
 90
        0
 91
        1
 62
     0
 92
       -2
340
14
 93
        0
 40
0.045
309
GRIDFORMAT_END
 95
        2
302
GRIDFORMAT
  1
GRIDFORMAT_BEGIN
 90
        0
 91
        1
 62
     0
 92
       -2
340
14
 93
        0
 40
0.045
309
GRIDFORMAT_END
 95
        4
302
GRIDFORMAT
  1
GRIDFORMAT_BEGIN
 90
        0
 91
        1
 62
     0
 92
       -2
340
14
 93
        0
 40
0.045
309
GRIDFORMAT_END
 95
        8
302
GRIDFORMAT
  1
GRIDFORMAT_BEGIN
 90
        0
 91
        1
 62
     0
 92
       -2
340
14
 93
        0
 40
0.045
309
GRIDFORMAT_END
 95
       16
302
GRIDFORMAT
  1
GRIDFORMAT_BEGIN
 90
        0
 91
        1
 62
     0
 92
       -2
340
14
 93
        0
 40
0.045
309
GRIDFORMAT_END
 95
       32
302
GRIDFORMAT
  1
GRIDFORMAT_BEGIN
 90
        0
 91
        1
 62
     0
 92
       -2
340
14
 93
        0
 40
0.045
309
GRIDFORMAT_END
309
TABLEFORMAT_END
  1
CELLSTYLE_BEGIN
 90
        3
 91
        2
300
_DATA
309
CELLSTYLE_END
  0
ENDSEC
  0
EOF