0
SECTION
  2
HEADER
  9
$ACADVER
  1
AC1027
  9
$ACADMAINTVER
 70
     8
  9
$DWGCODEPAGE
  3
ANSI_1252
  9
$REQUIREDVERSIONS
160
                 0
  9
$COMMENTS
  1
File was created by Cadenas
  9
$CUSTOMPROPERTYTAG
  1
NN
  9
$CUSTOMPROPERTY
  1
Imperial -IP Pillow Block 1-1/8 thru 2-1/4  2-Bolt Inch Bore (Contact Seal)
  9
$CUSTOMPROPERTYTAG
  1
NT
  9
$CUSTOMPROPERTY
  1
Imperial 2 Bolt Piliow Block Bearings
  9
$CUSTOMPROPERTYTAG
  1
NB
  9
$CUSTOMPROPERTY
  1
069446
  9
$CUSTOMPROPERTYTAG
  1
NBSYN
  9
$CUSTOMPROPERTY
  1
$PN.
  9
$CUSTOMPROPERTYTAG
  1
LINA
  9
$CUSTOMPROPERTY
  1
069446
  9
$CUSTOMPROPERTYTAG
  1
SS
  9
$CUSTOMPROPERTY
  1
2-3/4
  9
$CUSTOMPROPERTYTAG
  1
PN
  9
$CUSTOMPROPERTY
  1
069446
  9
$CUSTOMPROPERTYTAG
  1
DESCRIPTION
  9
$CUSTOMPROPERTY
  1
P2B-IP-212RE
  9
$CUSTOMPROPERTYTAG
  1
EF
  9
$CUSTOMPROPERTY
  1
Expansion Type
  9
$CUSTOMPROPERTYTAG
  1
ST
  9
$CUSTOMPROPERTY
  1
Contact  Seal
  9
$CUSTOMPROPERTYTAG
  1
A
  9
$CUSTOMPROPERTY
  1
3-1/2
  9
$CUSTOMPROPERTYTAG
  1
B
  9
$CUSTOMPROPERTY
  1
10-7/16
  9
$CUSTOMPROPERTYTAG
  1
C
  9
$CUSTOMPROPERTY
  1
3-5/64
  9
$CUSTOMPROPERTYTAG
  1
DMIN
  9
$CUSTOMPROPERTY
  1
7-15/16
  9
$CUSTOMPROPERTYTAG
  1
DMAX
  9
$CUSTOMPROPERTY
  1
8-5/16
  9
$CUSTOMPROPERTYTAG
  1
F
  9
$CUSTOMPROPERTY
  1
3/4
  9
$CUSTOMPROPERTYTAG
  1
G
  9
$CUSTOMPROPERTY
  1
1-1/16
  9
$CUSTOMPROPERTYTAG
  1
H
  9
$CUSTOMPROPERTY
  1
1-7/8
  9
$CUSTOMPROPERTYTAG
  1
J
  9
$CUSTOMPROPERTY
  1
6-3/8
  9
$CUSTOMPROPERTYTAG
  1
L
  9
$CUSTOMPROPERTY
  1
4-9/32
  9
$CUSTOMPROPERTYTAG
  1
M
  9
$CUSTOMPROPERTY
  1
3-1/4
  9
$CUSTOMPROPERTYTAG
  1
R
  9
$CUSTOMPROPERTY
  1
1-15/64
  9
$CUSTOMPROPERTYTAG
  1
S
  9
$CUSTOMPROPERTY
  1
2-17/64
  9
$CUSTOMPROPERTYTAG
  1
X
  9
$CUSTOMPROPERTY
  1
1/4
  9
$CUSTOMPROPERTYTAG
  1
Y
  9
$CUSTOMPROPERTY
  1
0.025
  9
$CUSTOMPROPERTYTAG
  1
Z
  9
$CUSTOMPROPERTY
  1
3-15/32
  9
$CUSTOMPROPERTYTAG
  1
COMPANY
  9
$CUSTOMPROPERTY
  1
baldor
  9
$INSBASE
 10
0.0
 20
0.0
 30
0.0
  9
$EXTMIN
 10
1.000000000000000E+20
 20
1.000000000000000E+20
 30
1.000000000000000E+20
  9
$EXTMAX
 10
-1.000000000000000E+20
 20
-1.000000000000000E+20
 30
-1.000000000000000E+20
  9
$LIMMIN
 10
0.0
 20
0.0
  9
$LIMMAX
 10
12.0
 20
9.0
  9
$ORTHOMODE
 70
     0
  9
$REGENMODE
 70
     1
  9
$FILLMODE
 70
     1
  9
$QTEXTMODE
 70
     0
  9
$MIRRTEXT
 70
     1
  9
$LTSCALE
 40
1.0
  9
$ATTMODE
 70
     1
  9
$TEXTSIZE
 40
0.2
  9
$TRACEWID
 40
0.05
  9
$TEXTSTYLE
  7
Standard
  9
$CLAYER
  8
0
  9
$CELTYPE
  6
ByLayer
  9
$CECOLOR
 62
   256
  9
$CELTSCALE
 40
1.0
  9
$DISPSILH
 70
     0
  9
$DIMSCALE
 40
1.0
  9
$DIMASZ
 40
0.18
  9
$DIMEXO
 40
0.0625
  9
$DIMDLI
 40
0.38
  9
$DIMRND
 40
0.0
  9
$DIMDLE
 40
0.0
  9
$DIMEXE
 40
0.18
  9
$DIMTP
 40
0.0
  9
$DIMTM
 40
0.0
  9
$DIMTXT
 40
0.18
  9
$DIMCEN
 40
0.09
  9
$DIMTSZ
 40
0.0
  9
$DIMTOL
 70
     0
  9
$DIMLIM
 70
     0
  9
$DIMTIH
 70
     1
  9
$DIMTOH
 70
     1
  9
$DIMSE1
 70
     0
  9
$DIMSE2
 70
     0
  9
$DIMTAD
 70
     0
  9
$DIMZIN
 70
     0
  9
$DIMBLK
  1

  9
$DIMASO
 70
     1
  9
$DIMSHO
 70
     1
  9
$DIMPOST
  1

  9
$DIMAPOST
  1

  9
$DIMALT
 70
     0
  9
$DIMALTD
 70
     2
  9
$DIMALTF
 40
25.4
  9
$DIMLFAC
 40
1.0
  9
$DIMTOFL
 70
     0
  9
$DIMTVP
 40
0.0
  9
$DIMTIX
 70
     0
  9
$DIMSOXD
 70
     0
  9
$DIMSAH
 70
     0
  9
$DIMBLK1
  1

  9
$DIMBLK2
  1

  9
$DIMSTYLE
  2
Standard
  9
$DIMCLRD
 70
     0
  9
$DIMCLRE
 70
     0
  9
$DIMCLRT
 70
     0
  9
$DIMTFAC
 40
1.0
  9
$DIMGAP
 40
0.09
  9
$DIMJUST
 70
     0
  9
$DIMSD1
 70
     0
  9
$DIMSD2
 70
     0
  9
$DIMTOLJ
 70
     1
  9
$DIMTZIN
 70
     0
  9
$DIMALTZ
 70
     0
  9
$DIMALTTZ
 70
     0
  9
$DIMUPT
 70
     0
  9
$DIMDEC
 70
     4
  9
$DIMTDEC
 70
     4
  9
$DIMALTU
 70
     2
  9
$DIMALTTD
 70
     2
  9
$DIMTXSTY
  7
Standard
  9
$DIMAUNIT
 70
     0
  9
$DIMADEC
 70
     0
  9
$DIMALTRND
 40
0.0
  9
$DIMAZIN
 70
     0
  9
$DIMDSEP
 70
    46
  9
$DIMATFIT
 70
     3
  9
$DIMFRAC
 70
     0
  9
$DIMLDRBLK
  1

  9
$DIMLUNIT
 70
     2
  9
$DIMLWD
 70
    -2
  9
$DIMLWE
 70
    -2
  9
$DIMTMOVE
 70
     0
  9
$DIMFXL
 40
1.0
  9
$DIMFXLON
 70
     0
  9
$DIMJOGANG
 40
0.7853981633974483
  9
$DIMTFILL
 70
     0
  9
$DIMTFILLCLR
 70
     0
  9
$DIMARCSYM
 70
     0
  9
$DIMLTYPE
  6

  9
$DIMLTEX1
  6

  9
$DIMLTEX2
  6

  9
$DIMTXTDIRECTION
 70
     0
  9
$LUNITS
 70
     2
  9
$LUPREC
 70
     4
  9
$SKETCHINC
 40
0.1
  9
$FILLETRAD
 40
0.5
  9
$AUNITS
 70
     0
  9
$AUPREC
 70
     0
  9
$MENU
  1
.
  9
$ELEVATION
 40
0.0
  9
$PELEVATION
 40
0.0
  9
$THICKNESS
 40
0.0
  9
$LIMCHECK
 70
     0
  9
$CHAMFERA
 40
0.0
  9
$CHAMFERB
 40
0.0
  9
$CHAMFERC
 40
0.0
  9
$CHAMFERD
 40
0.0
  9
$SKPOLY
 70
     0
  9
$TDCREATE
 40
2458168.989224364
  9
$TDUCREATE
 40
2458168.947557697
  9
$TDUPDATE
 40
2458168.989224548
  9
$TDUUPDATE
 40
2458168.947557882
  9
$TDINDWG
 40
0.0000000116
  9
$TDUSRTIMER
 40
0.0000000116
  9
$USRTIMER
 70
     1
  9
$ANGBASE
 50
0.0
  9
$ANGDIR
 70
     0
  9
$PDMODE
 70
     0
  9
$PDSIZE
 40
0.0
  9
$PLINEWID
 40
0.0
  9
$SPLFRAME
 70
     0
  9
$SPLINETYPE
 70
     6
  9
$SPLINESEGS
 70
     8
  9
$HANDSEED
  5
245
  9
$SURFTAB1
 70
     6
  9
$SURFTAB2
 70
     6
  9
$SURFTYPE
 70
     6
  9
$SURFU
 70
     6
  9
$SURFV
 70
     6
  9
$UCSBASE
  2

  9
$UCSNAME
  2

  9
$UCSORG
 10
0.0
 20
0.0
 30
0.0
  9
$UCSXDIR
 10
1.0
 20
0.0
 30
0.0
  9
$UCSYDIR
 10
0.0
 20
1.0
 30
0.0
  9
$UCSORTHOREF
  2

  9
$UCSORTHOVIEW
 70
     0
  9
$UCSORGTOP
 10
0.0
 20
0.0
 30
0.0
  9
$UCSORGBOTTOM
 10
0.0
 20
0.0
 30
0.0
  9
$UCSORGLEFT
 10
0.0
 20
0.0
 30
0.0
  9
$UCSORGRIGHT
 10
0.0
 20
0.0
 30
0.0
  9
$UCSORGFRONT
 10
0.0
 20
0.0
 30
0.0
  9
$UCSORGBACK
 10
0.0
 20
0.0
 30
0.0
  9
$PUCSBASE
  2

  9
$PUCSNAME
  2

  9
$PUCSORG
 10
0.0
 20
0.0
 30
0.0
  9
$PUCSXDIR
 10
1.0
 20
0.0
 30
0.0
  9
$PUCSYDIR
 10
0.0
 20
1.0
 30
0.0
  9
$PUCSORTHOREF
  2

  9
$PUCSORTHOVIEW
 70
     0
  9
$PUCSORGTOP
 10
0.0
 20
0.0
 30
0.0
  9
$PUCSORGBOTTOM
 10
0.0
 20
0.0
 30
0.0
  9
$PUCSORGLEFT
 10
0.0
 20
0.0
 30
0.0
  9
$PUCSORGRIGHT
 10
0.0
 20
0.0
 30
0.0
  9
$PUCSORGFRONT
 10
0.0
 20
0.0
 30
0.0
  9
$PUCSORGBACK
 10
0.0
 20
0.0
 30
0.0
  9
$USERI1
 70
     0
  9
$USERI2
 70
     0
  9
$USERI3
 70
     0
  9
$USERI4
 70
     0
  9
$USERI5
 70
     0
  9
$USERR1
 40
0.0
  9
$USERR2
 40
0.0
  9
$USERR3
 40
0.0
  9
$USERR4
 40
0.0
  9
$USERR5
 40
0.0
  9
$WORLDVIEW
 70
     1
  9
$SHADEDGE
 70
     3
  9
$SHADEDIF
 70
    70
  9
$TILEMODE
 70
     1
  9
$MAXACTVP
 70
    64
  9
$PINSBASE
 10
0.0
 20
0.0
 30
0.0
  9
$PLIMCHECK
 70
     0
  9
$PEXTMIN
 10
1.000000000000000E+20
 20
1.000000000000000E+20
 30
1.000000000000000E+20
  9
$PEXTMAX
 10
-1.000000000000000E+20
 20
-1.000000000000000E+20
 30
-1.000000000000000E+20
  9
$PLIMMIN
 10
0.0
 20
0.0
  9
$PLIMMAX
 10
12.0
 20
9.0
  9
$UNITMODE
 70
     0
  9
$VISRETAIN
 70
     1
  9
$PLINEGEN
 70
     0
  9
$PSLTSCALE
 70
     1
  9
$TREEDEPTH
 70
  3020
  9
$CMLSTYLE
  2
Standard
  9
$CMLJUST
 70
     0
  9
$CMLSCALE
 40
1.0
  9
$PROXYGRAPHICS
 70
     1
  9
$MEASUREMENT
 70
     0
  9
$CELWEIGHT
370
    -1
  9
$ENDCAPS
280
     0
  9
$JOINSTYLE
280
     0
  9
$LWDISPLAY
290
     0
  9
$INSUNITS
 70
     1
  9
$HYPERLINKBASE
  1

  9
$STYLESHEET
  1

  9
$XEDIT
290
     1
  9
$CEPSNTYPE
380
     0
  9
$PSTYLEMODE
290
     1
  9
$FINGERPRINTGUID
  2
{7AF5A229-71FB-47C8-8547-955BCCFE683C}
  9
$VERSIONGUID
  2
{FAEB1C32-E019-11D5-929B-00C0DF256EC4}
  9
$EXTNAMES
290
     1
  9
$PSVPSCALE
 40
0.0
  9
$OLESTARTUP
290
     0
  9
$SORTENTS
280
   127
  9
$INDEXCTL
280
     0
  9
$HIDETEXT
280
     1
  9
$XCLIPFRAME
280
     2
  9
$HALOGAP
280
     0
  9
$OBSCOLOR
 70
   257
  9
$OBSLTYPE
280
     0
  9
$INTERSECTIONDISPLAY
280
     0
  9
$INTERSECTIONCOLOR
 70
   257
  9
$DIMASSOC
280
     2
  9
$PROJECTNAME
  1

  9
$CAMERADISPLAY
290
     0
  9
$LENSLENGTH
 40
50.0
  9
$CAMERAHEIGHT
 40
0.0
  9
$STEPSPERSEC
 40
2.0
  9
$STEPSIZE
 40
6.0
  9
$3DDWFPREC
 40
2.0
  9
$PSOLWIDTH
 40
0.25
  9
$PSOLHEIGHT
 40
4.0
  9
$LOFTANG1
 40
1.570796326794897
  9
$LOFTANG2
 40
1.570796326794897
  9
$LOFTMAG1
 40
0.0
  9
$LOFTMAG2
 40
0.0
  9
$LOFTPARAM
 70
     7
  9
$LOFTNORMALS
280
     1
  9
$LATITUDE
 40
37.795
  9
$LONGITUDE
 40
-122.394
  9
$NORTHDIRECTION
 40
0.0
  9
$TIMEZONE
 70
 -8000
  9
$LIGHTGLYPHDISPLAY
280
     1
  9
$TILEMODELIGHTSYNCH
280
     1
  9
$CMATERIAL
347
44
  9
$SOLIDHIST
280
     0
  9
$SHOWHIST
280
     1
  9
$DWFFRAME
280
     2
  9
$DGNFRAME
280
     2
  9
$REALWORLDSCALE
290
     1
  9
$INTERFERECOLOR
 62
   256
  9
$CSHADOW
280
     0
  9
$SHADOWPLANELOCATION
 40
0.0
  0
ENDSEC
  0
SECTION
  2
CLASSES
  0
CLASS
  1
ACDBDICTIONARYWDFLT
  2
AcDbDictionaryWithDefault
  3
ObjectDBX Classes
 90
        0
 91
        4
280
     0
281
     0
  0
CLASS
  1
VISUALSTYLE
  2
AcDbVisualStyle
  3
ObjectDBX Classes
 90
     4095
 91
        4
280
     0
281
     0
  0
CLASS
  1
MATERIAL
  2
AcDbMaterial
  3
ObjectDBX Classes
 90
     1153
 91
        4
280
     0
281
     0
  0
CLASS
  1
SCALE
  2
AcDbScale
  3
ObjectDBX Classes
 90
     1153
 91
        4
280
     0
281
     0
  0
CLASS
  1
TABLESTYLE
  2
AcDbTableStyle
  3
ObjectDBX Classes
 90
     4095
 91
        4
280
     0
281
     0
  0
CLASS
  1
MLEADERSTYLE
  2
AcDbMLeaderStyle
  3
ACDB_MLEADERSTYLE_CLASS
 90
     4095
 91
        4
280
     0
281
     0
  0
CLASS
  1
SUN
  2
AcDbSun
  3
SCENEOE
 90
     1153
 91
        4
280
     0
281
     0
  0
CLASS
  1
DICTIONARYVAR
  2
AcDbDictionaryVar
  3
ObjectDBX Classes
 90
        0
 91
        4
280
     0
281
     0
  0
CLASS
  1
CELLSTYLEMAP
  2
AcDbCellStyleMap
  3
ObjectDBX Classes
 90
     1152
 91
        4
280
     0
281
     0
  0
ENDSEC
  0
SECTION
  2
TABLES
  0
TABLE
  2
VPORT
  5
8
330
0
100
AcDbSymbolTable
 70
     1
  0
VPORT
  5
29
330
8
100
AcDbSymbolTableRecord
100
AcDbViewportTableRecord
  2
*Active
 70
     0
 10
0.0
 20
0.0
 11
1.0
 21
1.0
 12
0.0
 22
-0.2863281249999998
 13
0.0
 23
0.0
 14
0.5
 24
0.5
 15
0.5
 25
0.5
 16
0.0
 26
0.0
 36
1.0
 17
0.0
 27
0.0
 37
0.0
 40
4.037765625
 41
2.636668640221038
 42
50.0
 43
0.0
 44
0.0
 50
0.0
 51
0.0
 71
     0
 72
   100
 73
     1
 74
     3
 75
     0
 76
     0
 77
     0
 78
     0
281
     0
 65
     1
110
0.0
120
0.0
130
0.0
111
1.0
121
0.0
131
0.0
112
0.0
122
1.0
132
0.0
 79
     0
146
0.0
348
2F
 60
     3
 61
     5
292
     1
282
     1
141
0.0
142
0.0
 63
   250
361
6D
  0
ENDTAB
  0
TABLE
  2
LTYPE
  5
5
330
0
100
AcDbSymbolTable
 70
     3
  0
LTYPE
  5
14
330
5
100
AcDbSymbolTableRecord
100
AcDbLinetypeTableRecord
  2
ByBlock
 70
     0
  3

 72
    65
 73
     0
 40
0.0
  0
LTYPE
  5
15
330
5
100
AcDbSymbolTableRecord
100
AcDbLinetypeTableRecord
  2
ByLayer
 70
     0
  3

 72
    65
 73
     0
 40
0.0
  0
LTYPE
  5
16
330
5
100
AcDbSymbolTableRecord
100
AcDbLinetypeTableRecord
  2
Continuous
 70
     0
  3
Solid line
 72
    65
 73
     0
 40
0.0
  0
LTYPE
  5
B1
330
5
100
AcDbSymbolTableRecord
100
AcDbLinetypeTableRecord
  2
Dashed
 70
     0
  3

 72
    65
 73
     2
 40
2.0
 49
1.0
 74
     0
 49
-1.0
 74
     0
  0
LTYPE
  5
1EF
330
5
100
AcDbSymbolTableRecord
100
AcDbLinetypeTableRecord
  2
Center
 70
     0
  3

 72
    65
 73
     4
 40
1.5
 49
0.45
 74
     0
 49
-0.5
 74
     0
 49
0.05
 74
     0
 49
-0.5
 74
     0
  0
ENDTAB
  0
TABLE
  2
LAYER
  5
2
330
0
100
AcDbSymbolTable
 70
     7
  0
LAYER
  5
10
330
2
100
AcDbSymbolTableRecord
100
AcDbLayerTableRecord
  2
0
 70
     0
 62
     7
  6
Continuous
370
    -3
390
F
347
46
348
0
  0
LAYER
  5
72
330
2
100
AcDbSymbolTableRecord
100
AcDbLayerTableRecord
  2
AM_6
 70
     0
 62
    -2
  6
Continuous
370
    35
390
F
347
46
348
0
  0
LAYER
  5
9E
330
2
100
AcDbSymbolTableRecord
100
AcDbLayerTableRecord
  2
AM_5
 70
     0
 62
     3
  6
Continuous
370
    25
390
F
347
46
348
0
  0
LAYER
  5
B2
330
2
100
AcDbSymbolTableRecord
100
AcDbLayerTableRecord
  2
AM_9
 70
     0
 62
     6
  6
Dashed
370
    25
390
F
347
46
348
0
  0
LAYER
  5
BF
330
2
100
AcDbSymbolTableRecord
100
AcDbLayerTableRecord
  2
AM_4
 70
     0
 62
     7
  6
Continuous
370
    50
390
F
347
46
348
0
  0
LAYER
  5
1F0
330
2
100
AcDbSymbolTableRecord
100
AcDbLayerTableRecord
  2
AM_7
 70
     0
 62
     7
  6
Center
370
    25
390
F
347
46
348
0
  0
LAYER
  5
22E
330
2
100
AcDbSymbolTableRecord
100
AcDbLayerTableRecord
  2
ConnectionPoints
 70
     0
 62
     7
  6
Continuous
370
    50
390
F
347
46
348
0
  0
ENDTAB
  0
TABLE
  2
STYLE
  5
3
330
0
100
AcDbSymbolTable
 70
     1
  0
STYLE
  5
11
330
3
100
AcDbSymbolTableRecord
100
AcDbTextStyleTableRecord
  2
Standard
 70
     0
 40
0.0
 41
1.0
 50
0.0
 71
     0
 42
0.2
  3
txt
  4

  0
ENDTAB
  0
TABLE
  2
VIEW
  5
6
330
0
100
AcDbSymbolTable
 70
     0
  0
ENDTAB
  0
TABLE
  2
UCS
  5
7
330
0
100
AcDbSymbolTable
 70
     0
  0
ENDTAB
  0
TABLE
  2
APPID
  5
9
330
0
100
AcDbSymbolTable
 70
     1
  0
APPID
  5
12
330
9
100
AcDbSymbolTableRecord
100
AcDbRegAppTableRecord
  2
ACAD
 70
     0
  0
ENDTAB
  0
TABLE
  2
DIMSTYLE
  5
A
330
0
100
AcDbSymbolTable
 70
     1
100
AcDbDimStyleTable
  0
DIMSTYLE
105
27
330
A
100
AcDbSymbolTableRecord
100
AcDbDimStyleTableRecord
  2
Standard
 70
     0
178
     0
340
11
  0
ENDTAB
  0
TABLE
  2
BLOCK_RECORD
  5
1
330
0
100
AcDbSymbolTable
 70
     8
  0
BLOCK_RECORD
  5
1F
330
1
100
AcDbSymbolTableRecord
100
AcDbBlockTableRecord
  2
*Model_Space
340
22
 70
     0
280
     1
281
     0
  0
BLOCK_RECORD
  5
1B
330
1
100
AcDbSymbolTableRecord
100
AcDbBlockTableRecord
  2
*Paper_Space
340
1E
 70
     0
280
     1
281
     0
  0
BLOCK_RECORD
  5
23
330
1
100
AcDbSymbolTableRecord
100
AcDbBlockTableRecord
  2
*Paper_Space0
340
26
 70
     0
280
     1
281
     0
  0
BLOCK_RECORD
  5
6E
330
1
100
AcDbSymbolTableRecord
100
AcDbBlockTableRecord
  2
1_069446_4
340
0
102
{BLKREFS
331
6F
102
}
 70
     0
280
     1
281
     0
  0
BLOCK_RECORD
  5
8E
330
1
100
AcDbSymbolTableRecord
100
AcDbBlockTableRecord
  2
2_ASME_B18_3_10_1_0_in_069446_4
340
0
102
{BLKREFS
331
8F
102
}
 70
     0
280
     1
281
     0
  0
BLOCK_RECORD
  5
A1
330
1
100
AcDbSymbolTableRecord
100
AcDbBlockTableRecord
  2
3_ASME_B18_3_10_2_0_in_069446_4
340
0
102
{BLKREFS
331
A2
102
}
 70
     0
280
     1
281
     0
  0
BLOCK_RECORD
  5
C6
330
1
100
AcDbSymbolTableRecord
100
AcDbBlockTableRecord
  2
4_070898LW_0_in_069446_4
340
0
102
{BLKREFS
331
C7
102
}
 70
     0
280
     1
281
     0
  0
BLOCK_RECORD
  5
FC
330
1
100
AcDbSymbolTableRecord
100
AcDbBlockTableRecord
  2
5_070898I_0_in_069446_4
340
0
102
{BLKREFS
331
FD
102
}
 70
     0
280
     1
281
     0
  0
BLOCK_RECORD
  5
180
330
1
100
AcDbSymbolTableRecord
100
AcDbBlockTableRecord
  2
6_405015E_Inch_0_in_069446_4
340
0
102
{BLKREFS
331
181
102
}
 70
     0
280
     1
281
     0
  0
BLOCK_RECORD
  5
1CA
330
1
100
AcDbSymbolTableRecord
100
AcDbBlockTableRecord
  2
7_069446H_0_in_069446_4
340
0
102
{BLKREFS
331
1CB
102
}
 70
     0
280
     1
281
     0
  0
ENDTAB
  0
ENDSEC
  0
SECTION
  2
BLOCKS
  0
BLOCK
  5
20
330
1F
100
AcDbEntity
  8
0
100
AcDbBlockBegin
  2
*Model_Space
 70
     0
 10
0.0
 20
0.0
 30
0.0
  3
*Model_Space
  1

  0
ENDBLK
  5
21
330
1F
100
AcDbEntity
  8
0
100
AcDbBlockEnd
  0
BLOCK
  5
1C
330
1B
100
AcDbEntity
 67
     1
  8
0
100
AcDbBlockBegin
  2
*Paper_Space
 70
     0
 10
0.0
 20
0.0
 30
0.0
  3
*Paper_Space
  1

  0
ENDBLK
  5
1D
330
1B
100
AcDbEntity
 67
     1
  8
0
100
AcDbBlockEnd
  0
BLOCK
  5
24
330
23
100
AcDbEntity
  8
0
100
AcDbBlockBegin
  2
*Paper_Space0
 70
     0
 10
0.0
 20
0.0
 30
0.0
  3
*Paper_Space0
  1

  0
ENDBLK
  5
25
330
23
100
AcDbEntity
  8
0
100
AcDbBlockEnd
  0
BLOCK
  5
70
330
6E
100
AcDbEntity
  8
0
100
AcDbBlockBegin
  2
1_069446_4
 70
     2
 10
0.0
 20
0.0
 30
0.0
  3
1_069446_4
  1

  0
ATTDEF
  5
73
330
6E
100
AcDbEntity
  8
AM_6
100
AcDbText
 10
10.21875
 20
1.69296875
 30
0.0
 40
0.5
  1
Imperial -IP Pillow Block 1-1/8 thru 2-1/4  2-Bolt Inch Bore (Contact Seal)
100
AcDbAttributeDefinition
  3

  2
NN
 70
     8
280
     0
  0
ATTDEF
  5
74
330
6E
100
AcDbEntity
  8
AM_6
100
AcDbText
 10
10.21875
 20
1.19296875
 30
0.0
 40
0.5
  1
Imperial 2 Bolt Piliow Block Bearings
100
AcDbAttributeDefinition
  3

  2
NT
 70
     8
280
     0
  0
ATTDEF
  5
75
330
6E
100
AcDbEntity
  8
AM_6
100
AcDbText
 10
10.21875
 20
0.6929687499999999
 30
0.0
 40
0.5
  1
069446
100
AcDbAttributeDefinition
  3

  2
NB
 70
     8
280
     0
  0
ATTDEF
  5
76
330
6E
100
AcDbEntity
  8
AM_6
100
AcDbText
 10
10.21875
 20
0.1929687499999999
 30
0.0
 40
0.5
  1
$PN.
100
AcDbAttributeDefinition
  3

  2
NBSYN
 70
     8
280
     0
  0
ATTDEF
  5
77
330
6E
100
AcDbEntity
  8
AM_6
100
AcDbText
 10
10.21875
 20
-0.3070312500000001
 30
0.0
 40
0.5
  1
069446
100
AcDbAttributeDefinition
  3

  2
LINA
 70
     8
280
     0
  0
ATTDEF
  5
78
330
6E
100
AcDbEntity
  8
AM_6
100
AcDbText
 10
10.21875
 20
-0.8070312500000001
 30
0.0
 40
0.5
  1
2-3/4
100
AcDbAttributeDefinition
  3

  2
SS
 70
     8
280
     0
  0
ATTDEF
  5
79
330
6E
100
AcDbEntity
  8
AM_6
100
AcDbText
 10
10.21875
 20
-1.30703125
 30
0.0
 40
0.5
  1
069446
100
AcDbAttributeDefinition
  3

  2
PN
 70
     8
280
     0
  0
ATTDEF
  5
7A
330
6E
100
AcDbEntity
  8
AM_6
100
AcDbText
 10
10.21875
 20
-1.80703125
 30
0.0
 40
0.5
  1
P2B-IP-212RE
100
AcDbAttributeDefinition
  3

  2
DESCRIPTION
 70
     8
280
     0
  0
ATTDEF
  5
7B
330
6E
100
AcDbEntity
  8
AM_6
100
AcDbText
 10
10.21875
 20
-2.30703125
 30
0.0
 40
0.5
  1
Expansion Type
100
AcDbAttributeDefinition
  3

  2
EF
 70
     8
280
     0
  0
ATTDEF
  5
7C
330
6E
100
AcDbEntity
  8
AM_6
100
AcDbText
 10
10.21875
 20
-2.80703125
 30
0.0
 40
0.5
  1
Contact  Seal
100
AcDbAttributeDefinition
  3

  2
ST
 70
     8
280
     0
  0
ATTDEF
  5
7D
330
6E
100
AcDbEntity
  8
AM_6
100
AcDbText
 10
10.21875
 20
-3.30703125
 30
0.0
 40
0.5
  1
3-1/2
100
AcDbAttributeDefinition
  3

  2
A
 70
     8
280
     0
  0
ATTDEF
  5
7E
330
6E
100
AcDbEntity
  8
AM_6
100
AcDbText
 10
10.21875
 20
-3.80703125
 30
0.0
 40
0.5
  1
10-7/16
100
AcDbAttributeDefinition
  3

  2
B
 70
     8
280
     0
  0
ATTDEF
  5
7F
330
6E
100
AcDbEntity
  8
AM_6
100
AcDbText
 10
10.21875
 20
-4.30703125
 30
0.0
 40
0.5
  1
3-5/64
100
AcDbAttributeDefinition
  3

  2
C
 70
     8
280
     0
  0
ATTDEF
  5
80
330
6E
100
AcDbEntity
  8
AM_6
100
AcDbText
 10
10.21875
 20
-4.80703125
 30
0.0
 40
0.5
  1
7-15/16
100
AcDbAttributeDefinition
  3

  2
DMIN
 70
     8
280
     0
  0
ATTDEF
  5
81
330
6E
100
AcDbEntity
  8
AM_6
100
AcDbText
 10
10.21875
 20
-5.30703125
 30
0.0
 40
0.5
  1
8-5/16
100
AcDbAttributeDefinition
  3

  2
DMAX
 70
     8
280
     0
  0
ATTDEF
  5
82
330
6E
100
AcDbEntity
  8
AM_6
100
AcDbText
 10
10.21875
 20
-5.80703125
 30
0.0
 40
0.5
  1
3/4
100
AcDbAttributeDefinition
  3

  2
F
 70
     8
280
     0
  0
ATTDEF
  5
83
330
6E
100
AcDbEntity
  8
AM_6
100
AcDbText
 10
10.21875
 20
-6.30703125
 30
0.0
 40
0.5
  1
1-1/16
100
AcDbAttributeDefinition
  3

  2
G
 70
     8
280
     0
  0
ATTDEF
  5
84
330
6E
100
AcDbEntity
  8
AM_6
100
AcDbText
 10
10.21875
 20
-6.80703125
 30
0.0
 40
0.5
  1
1-7/8
100
AcDbAttributeDefinition
  3

  2
H
 70
     8
280
     0
  0
ATTDEF
  5
85
330
6E
100
AcDbEntity
  8
AM_6
100
AcDbText
 10
10.21875
 20
-7.30703125
 30
0.0
 40
0.5
  1
6-3/8
100
AcDbAttributeDefinition
  3

  2
J
 70
     8
280
     0
  0
ATTDEF
  5
86
330
6E
100
AcDbEntity
  8
AM_6
100
AcDbText
 10
10.21875
 20
-7.80703125
 30
0.0
 40
0.5
  1
4-9/32
100
AcDbAttributeDefinition
  3

  2
L
 70
     8
280
     0
  0
ATTDEF
  5
87
330
6E
100
AcDbEntity
  8
AM_6
100
AcDbText
 10
10.21875
 20
-8.30703125
 30
0.0
 40
0.5
  1
3-1/4
100
AcDbAttributeDefinition
  3

  2
M
 70
     8
280
     0
  0
ATTDEF
  5
88
330
6E
100
AcDbEntity
  8
AM_6
100
AcDbText
 10
10.21875
 20
-8.80703125
 30
0.0
 40
0.5
  1
1-15/64
100
AcDbAttributeDefinition
  3

  2
R
 70
     8
280
     0
  0
ATTDEF
  5
89
330
6E
100
AcDbEntity
  8
AM_6
100
AcDbText
 10
10.21875
 20
-9.30703125
 30
0.0
 40
0.5
  1
2-17/64
100
AcDbAttributeDefinition
  3

  2
S
 70
     8
280
     0
  0
ATTDEF
  5
8A
330
6E
100
AcDbEntity
  8
AM_6
100
AcDbText
 10
10.21875
 20
-9.80703125
 30
0.0
 40
0.5
  1
1/4
100
AcDbAttributeDefinition
  3

  2
X
 70
     8
280
     0
  0
ATTDEF
  5
8B
330
6E
100
AcDbEntity
  8
AM_6
100
AcDbText
 10
10.21875
 20
-10.30703125
 30
0.0
 40
0.5
  1
0.025
100
AcDbAttributeDefinition
  3

  2
Y
 70
     8
280
     0
  0
ATTDEF
  5
8C
330
6E
100
AcDbEntity
  8
AM_6
100
AcDbText
 10
10.21875
 20
-10.80703125
 30
0.0
 40
0.5
  1
3-15/32
100
AcDbAttributeDefinition
  3

  2
Z
 70
     8
280
     0
  0
ATTDEF
  5
8D
330
6E
100
AcDbEntity
  8
AM_6
100
AcDbText
 10
10.21875
 20
-11.30703125
 30
0.0
 40
0.5
  1
baldor
100
AcDbAttributeDefinition
  3

  2
COMPANY
 70
     8
280
     0
  0
INSERT
  5
8F
330
6E
100
AcDbEntity
  8
0
100
AcDbBlockReference
  2
2_ASME_B18_3_10_1_0_in_069446_4
 10
0.0
 20
0.0
 30
0.0
  0
INSERT
  5
A2
330
6E
100
AcDbEntity
  8
0
100
AcDbBlockReference
  2
3_ASME_B18_3_10_2_0_in_069446_4
 10
0.0
 20
0.0
 30
0.0
  0
INSERT
  5
C7
330
6E
100
AcDbEntity
  8
0
100
AcDbBlockReference
  2
4_070898LW_0_in_069446_4
 10
0.0
 20
0.0
 30
0.0
  0
INSERT
  5
FD
330
6E
100
AcDbEntity
  8
0
100
AcDbBlockReference
  2
5_070898I_0_in_069446_4
 10
0.0
 20
0.0
 30
0.0
  0
INSERT
  5
181
330
6E
100
AcDbEntity
  8
0
100
AcDbBlockReference
  2
6_405015E_Inch_0_in_069446_4
 10
0.0
 20
0.0
 30
0.0
  0
INSERT
  5
1CB
330
6E
100
AcDbEntity
  8
0
100
AcDbBlockReference
  2
7_069446H_0_in_069446_4
 10
0.0
 20
0.0
 30
0.0
  0
ENDBLK
  5
71
330
6E
100
AcDbEntity
  8
0
100
AcDbBlockEnd
  0
BLOCK
  5
90
330
8E
100
AcDbEntity
  8
0
100
AcDbBlockBegin
  2
2_ASME_B18_3_10_1_0_in_069446_4
 70
     2
 10
0.0
 20
0.0
 30
0.0
  3
2_ASME_B18_3_10_1_0_in_069446_4
  1

  0
ATTDEF
  5
92
330
8E
100
AcDbEntity
  8
AM_6
100
AcDbText
 10
5.095
 20
-1.732458333333334
 30
0.0
 40
0.5
  1
ANSI/ASME B18.3-1998
100
AcDbAttributeDefinition
  3

  2
NN
 70
     8
280
     0
  0
ATTDEF
  5
93
330
8E
100
AcDbEntity
  8
AM_6
100
AcDbText
 10
5.095
 20
-2.232458333333334
 30
0.0
 40
0.5
  1
Socket Button Head Cap Screws
100
AcDbAttributeDefinition
  3

  2
NT
 70
     8
280
     0
  0
ATTDEF
  5
94
330
8E
100
AcDbEntity
  8
AM_6
100
AcDbText
 10
5.095
 20
-2.732458333333334
 30
0.0
 40
0.5
  1
ASME B18.3-10
100
AcDbAttributeDefinition
  3

  2
NB
 70
     8
280
     0
  0
ATTDEF
  5
95
330
8E
100
AcDbEntity
  8
AM_6
100
AcDbText
 10
5.095
 20
-3.232458333333334
 30
0.0
 40
0.5
  1
ASME B18.3-$NS.
100
AcDbAttributeDefinition
  3

  2
NBSYN
 70
     8
280
     0
  0
ATTDEF
  5
96
330
8E
100
AcDbEntity
  8
AM_6
100
AcDbText
 10
5.095
 20
-3.732458333333334
 30
0.0
 40
0.5
  1
ASME B18.3-10
100
AcDbAttributeDefinition
  3

  2
LINA
 70
     8
280
     0
  0
ATTDEF
  5
97
330
8E
100
AcDbEntity
  8
AM_6
100
AcDbText
 10
5.095
 20
-4.232458333333334
 30
0.0
 40
0.5
  1
10
100
AcDbAttributeDefinition
  3

  2
NS
 70
     8
280
     0
  0
ATTDEF
  5
98
330
8E
100
AcDbEntity
  8
AM_6
100
AcDbText
 10
5.095
 20
-4.732458333333334
 30
0.0
 40
0.5
  1
0.361
100
AcDbAttributeDefinition
  3

  2
A
 70
     8
280
     0
  0
ATTDEF
  5
99
330
8E
100
AcDbEntity
  8
AM_6
100
AcDbText
 10
5.095
 20
-5.232458333333334
 30
0.0
 40
0.5
  1
0.101
100
AcDbAttributeDefinition
  3

  2
H
 70
     8
280
     0
  0
ATTDEF
  5
9A
330
8E
100
AcDbEntity
  8
AM_6
100
AcDbText
 10
5.095
 20
-5.732458333333334
 30
0.0
 40
0.5
  1
0.800
100
AcDbAttributeDefinition
  3

  2
L
 70
     8
280
     0
  0
ATTDEF
  5
9B
330
8E
100
AcDbEntity
  8
AM_6
100
AcDbText
 10
5.095
 20
-6.232458333333334
 30
0.0
 40
0.5
  1
0.020
100
AcDbAttributeDefinition
  3

  2
S
 70
     8
280
     0
  0
ATTDEF
  5
9C
330
8E
100
AcDbEntity
  8
AM_6
100
AcDbText
 10
5.095
 20
-6.732458333333334
 30
0.0
 40
0.5
  1
0.125000
100
AcDbAttributeDefinition
  3

  2
J
 70
     8
280
     0
  0
ATTDEF
  5
9D
330
8E
100
AcDbEntity
  8
AM_6
100
AcDbText
 10
5.095
 20
-7.232458333333334
 30
0.0
 40
0.5
  1
baldor
100
AcDbAttributeDefinition
  3

  2
COMPANY
 70
     8
280
     0
  0
LINE
  5
9F
330
8E
100
AcDbEntity
  8
AM_5
100
AcDbLine
 10
0.095
 20
-1.732458333333334
 30
0.0
 11
-0.095
 21
-1.732458333333334
 31
0.0
  0
LINE
  5
A0
330
8E
100
AcDbEntity
  8
AM_5
100
AcDbLine
 10
0.0764
 20
-1.732458333333334
 30
0.0
 11
0.095
 21
-1.764674478354115
 31
0.0
  0
ENDBLK
  5
91
330
8E
100
AcDbEntity
  8
0
100
AcDbBlockEnd
  0
BLOCK
  5
A3
330
A1
100
AcDbEntity
  8
0
100
AcDbBlockBegin
  2
3_ASME_B18_3_10_2_0_in_069446_4
 70
     2
 10
0.0
 20
0.0
 30
0.0
  3
3_ASME_B18_3_10_2_0_in_069446_4
  1

  0
ATTDEF
  5
A5
330
A1
100
AcDbEntity
  8
AM_6
100
AcDbText
 10
5.1805
 20
-1.012458333333333
 30
0.0
 40
0.5
  1
ANSI/ASME B18.3-1998
100
AcDbAttributeDefinition
  3

  2
NN
 70
     8
280
     0
  0
ATTDEF
  5
A6
330
A1
100
AcDbEntity
  8
AM_6
100
AcDbText
 10
5.1805
 20
-1.512458333333333
 30
0.0
 40
0.5
  1
Socket Button Head Cap Screws
100
AcDbAttributeDefinition
  3

  2
NT
 70
     8
280
     0
  0
ATTDEF
  5
A7
330
A1
100
AcDbEntity
  8
AM_6
100
AcDbText
 10
5.1805
 20
-2.012458333333333
 30
0.0
 40
0.5
  1
ASME B18.3-10
100
AcDbAttributeDefinition
  3

  2
NB
 70
     8
280
     0
  0
ATTDEF
  5
A8
330
A1
100
AcDbEntity
  8
AM_6
100
AcDbText
 10
5.1805
 20
-2.512458333333333
 30
0.0
 40
0.5
  1
ASME B18.3-$NS.
100
AcDbAttributeDefinition
  3

  2
NBSYN
 70
     8
280
     0
  0
ATTDEF
  5
A9
330
A1
100
AcDbEntity
  8
AM_6
100
AcDbText
 10
5.1805
 20
-3.012458333333333
 30
0.0
 40
0.5
  1
ASME B18.3-10
100
AcDbAttributeDefinition
  3

  2
LINA
 70
     8
280
     0
  0
ATTDEF
  5
AA
330
A1
100
AcDbEntity
  8
AM_6
100
AcDbText
 10
5.1805
 20
-3.512458333333333
 30
0.0
 40
0.5
  1
10
100
AcDbAttributeDefinition
  3

  2
NS
 70
     8
280
     0
  0
ATTDEF
  5
AB
330
A1
100
AcDbEntity
  8
AM_6
100
AcDbText
 10
5.1805
 20
-4.012458333333333
 30
0.0
 40
0.5
  1
0.361
100
AcDbAttributeDefinition
  3

  2
A
 70
     8
280
     0
  0
ATTDEF
  5
AC
330
A1
100
AcDbEntity
  8
AM_6
100
AcDbText
 10
5.1805
 20
-4.512458333333333
 30
0.0
 40
0.5
  1
0.101
100
AcDbAttributeDefinition
  3

  2
H
 70
     8
280
     0
  0
ATTDEF
  5
AD
330
A1
100
AcDbEntity
  8
AM_6
100
AcDbText
 10
5.1805
 20
-5.012458333333333
 30
0.0
 40
0.5
  1
0.800
100
AcDbAttributeDefinition
  3

  2
L
 70
     8
280
     0
  0
ATTDEF
  5
AE
330
A1
100
AcDbEntity
  8
AM_6
100
AcDbText
 10
5.1805
 20
-5.512458333333333
 30
0.0
 40
0.5
  1
0.020
100
AcDbAttributeDefinition
  3

  2
S
 70
     8
280
     0
  0
ATTDEF
  5
AF
330
A1
100
AcDbEntity
  8
AM_6
100
AcDbText
 10
5.1805
 20
-6.012458333333333
 30
0.0
 40
0.5
  1
0.125000
100
AcDbAttributeDefinition
  3

  2
J
 70
     8
280
     0
  0
ATTDEF
  5
B0
330
A1
100
AcDbEntity
  8
AM_6
100
AcDbText
 10
5.1805
 20
-6.512458333333333
 30
0.0
 40
0.5
  1
baldor
100
AcDbAttributeDefinition
  3

  2
COMPANY
 70
     8
280
     0
  0
LINE
  5
B3
330
A1
100
AcDbEntity
  8
AM_9
100
AcDbLine
 10
-0.0625
 20
-1.852458333333334
 30
0.0
 11
-0.0625
 21
-1.913458333333334
 31
0.0
  0
LINE
  5
B4
330
A1
100
AcDbEntity
  8
AM_9
100
AcDbLine
 10
0.0625
 20
-1.852458333333334
 30
0.0
 11
0.0625
 21
-1.913458333333334
 31
0.0
  0
LINE
  5
B5
330
A1
100
AcDbEntity
  8
AM_9
100
AcDbLine
 10
-0.0625
 20
-1.852458333333334
 30
0.0
 11
0.0625
 21
-1.852458333333334
 31
0.0
  0
LINE
  5
B6
330
A1
100
AcDbEntity
  8
AM_9
100
AcDbLine
 10
0.0
 20
-1.852458333333334
 30
0.0
 11
0.0
 21
-1.913458333333334
 31
0.0
  0
LINE
  5
B7
330
A1
100
AcDbEntity
  8
AM_9
100
AcDbLine
 10
-0.0764
 20
-1.012458333333333
 30
0.0
 11
-0.095
 21
-1.031058333333333
 31
0.0
  0
LINE
  5
B8
330
A1
100
AcDbEntity
  8
AM_9
100
AcDbLine
 10
0.095
 20
-1.031058333333333
 30
0.0
 11
0.0764
 21
-1.012458333333333
 31
0.0
  0
LINE
  5
B9
330
A1
100
AcDbEntity
  8
AM_9
100
AcDbLine
 10
-0.0764
 20
-1.012458333333333
 30
0.0
 11
0.0764
 21
-1.012458333333333
 31
0.0
  0
LINE
  5
BA
330
A1
100
AcDbEntity
  8
AM_9
100
AcDbLine
 10
0.095
 20
-1.812458333333334
 30
0.0
 11
0.095
 21
-1.031058333333333
 31
0.0
  0
LINE
  5
BB
330
A1
100
AcDbEntity
  8
AM_9
100
AcDbLine
 10
-0.095
 20
-1.031058333333333
 30
0.0
 11
-0.095
 21
-1.812458333333334
 31
0.0
  0
LINE
  5
BC
330
A1
100
AcDbEntity
  8
AM_9
100
AcDbLine
 10
-0.095
 20
-1.031058333333333
 30
0.0
 11
0.095
 21
-1.031058333333333
 31
0.0
  0
LINE
  5
BD
330
A1
100
AcDbEntity
  8
AM_5
100
AcDbLine
 10
-0.0950000001699732
 20
-1.732458333333334
 30
0.0
 11
0.0950000001699735
 21
-1.732458333333334
 31
0.0
  0
LINE
  5
BE
330
A1
100
AcDbEntity
  8
AM_5
100
AcDbLine
 10
-0.0764
 20
-1.732458333333334
 30
0.0
 11
-0.0950000053517355
 21
-1.764674487623592
 31
0.0
  0
LINE
  5
C0
330
A1
100
AcDbEntity
  8
AM_4
100
AcDbLine
 10
-0.0994999958919271
 20
-1.913458333333334
 30
0.0
 11
0.0995
 21
-1.913458333333334
 31
0.0
  0
ARC
  5
C1
330
A1
100
AcDbEntity
  8
AM_4
100
AcDbCircle
 10
0.0994999999999998
 20
-1.832458333333334
 30
0.0
 40
0.0810000000000002
100
AcDbArc
 50
270.0
 51
0.0
  0
ARC
  5
C2
330
A1
100
AcDbEntity
  8
AM_4
100
AcDbCircle
 10
-0.0994999999999998
 20
-1.832458333333334
 30
0.0
 40
0.0810000000000002
100
AcDbArc
 50
180.0
 51
270.0
  0
LINE
  5
C3
330
A1
100
AcDbEntity
  8
AM_4
100
AcDbLine
 10
0.1805
 20
-1.832458333333334
 30
0.0
 11
0.1805
 21
-1.812458333333334
 31
0.0
  0
LINE
  5
C4
330
A1
100
AcDbEntity
  8
AM_4
100
AcDbLine
 10
-0.1805
 20
-1.812458333333334
 30
0.0
 11
-0.1805
 21
-1.832458333333334
 31
0.0
  0
LINE
  5
C5
330
A1
100
AcDbEntity
  8
AM_4
100
AcDbLine
 10
-0.1805
 20
-1.832458333333334
 30
0.0
 11
0.1805
 21
-1.832458333333334
 31
0.0
  0
ENDBLK
  5
A4
330
A1
100
AcDbEntity
  8
0
100
AcDbBlockEnd
  0
BLOCK
  5
C8
330
C6
100
AcDbEntity
  8
0
100
AcDbBlockBegin
  2
4_070898LW_0_in_069446_4
 70
     2
 10
0.0
 20
0.0
 30
0.0
  3
4_070898LW_0_in_069446_4
  1

  0
ATTDEF
  5
CA
330
C6
100
AcDbEntity
  8
AM_6
100
AcDbText
 10
7.140625
 20
-1.372458333333334
 30
0.0
 40
0.5
  1
Imperial Insert Lockwasher -Inch
100
AcDbAttributeDefinition
  3

  2
NN
 70
     8
280
     0
  0
ATTDEF
  5
CB
330
C6
100
AcDbEntity
  8
AM_6
100
AcDbText
 10
7.140625
 20
-1.872458333333334
 30
0.0
 40
0.5
  1
Imperial Bearings
100
AcDbAttributeDefinition
  3

  2
NT
 70
     8
280
     0
  0
ATTDEF
  5
CC
330
C6
100
AcDbEntity
  8
AM_6
100
AcDbText
 10
7.140625
 20
-2.372458333333333
 30
0.0
 40
0.5
  1
070898LW
100
AcDbAttributeDefinition
  3

  2
NB
 70
     8
280
     0
  0
ATTDEF
  5
CD
330
C6
100
AcDbEntity
  8
AM_6
100
AcDbText
 10
7.140625
 20
-2.872458333333333
 30
0.0
 40
0.5
  1
$PN.LW
100
AcDbAttributeDefinition
  3

  2
NBSYN
 70
     8
280
     0
  0
ATTDEF
  5
CE
330
C6
100
AcDbEntity
  8
AM_6
100
AcDbText
 10
7.140625
 20
-3.372458333333333
 30
0.0
 40
0.5
  1
070898
100
AcDbAttributeDefinition
  3

  2
LINA
 70
     8
280
     0
  0
ATTDEF
  5
CF
330
C6
100
AcDbEntity
  8
AM_6
100
AcDbText
 10
7.140625
 20
-3.872458333333333
 30
0.0
 40
0.5
  1
2-3/4
100
AcDbAttributeDefinition
  3

  2
SS
 70
     8
280
     0
  0
ATTDEF
  5
D0
330
C6
100
AcDbEntity
  8
AM_6
100
AcDbText
 10
7.140625
 20
-4.372458333333333
 30
0.0
 40
0.5
  1
2.750000
100
AcDbAttributeDefinition
  3

  2
SS1
 70
     8
280
     0
  0
ATTDEF
  5
D1
330
C6
100
AcDbEntity
  8
AM_6
100
AcDbText
 10
7.140625
 20
-4.872458333333333
 30
0.0
 40
0.5
  1
070898
100
AcDbAttributeDefinition
  3

  2
PN
 70
     8
280
     0
  0
ATTDEF
  5
D2
330
C6
100
AcDbEntity
  8
AM_6
100
AcDbText
 10
7.140625
 20
-5.372458333333333
 30
0.0
 40
0.5
  1
INS-IP-212R
100
AcDbAttributeDefinition
  3

  2
DESCRIPTION
 70
     8
280
     0
  0
ATTDEF
  5
D3
330
C6
100
AcDbEntity
  8
AM_6
100
AcDbText
 10
7.140625
 20
-5.872458333333333
 30
0.0
 40
0.5
  1
5.1181
100
AcDbAttributeDefinition
  3

  2
A
 70
     8
280
     0
  0
ATTDEF
  5
D4
330
C6
100
AcDbEntity
  8
AM_6
100
AcDbText
 10
7.140625
 20
-6.372458333333333
 30
0.0
 40
0.5
  1
1-9/32
100
AcDbAttributeDefinition
  3

  2
B
 70
     8
280
     0
  0
ATTDEF
  5
D5
330
C6
100
AcDbEntity
  8
AM_6
100
AcDbText
 10
7.140625
 20
-6.872458333333333
 30
0.0
 40
0.5
  1
3-1/2
100
AcDbAttributeDefinition
  3

  2
C
 70
     8
280
     0
  0
ATTDEF
  5
D6
330
C6
100
AcDbEntity
  8
AM_6
100
AcDbText
 10
7.140625
 20
-7.372458333333333
 30
0.0
 40
0.5
  1
1.219
100
AcDbAttributeDefinition
  3

  2
D
 70
     8
280
     0
  0
ATTDEF
  5
D7
330
C6
100
AcDbEntity
  8
AM_6
100
AcDbText
 10
7.140625
 20
-7.872458333333333
 30
0.0
 40
0.5
  1
4-9/32
100
AcDbAttributeDefinition
  3

  2
E
 70
     8
280
     0
  0
ATTDEF
  5
D8
330
C6
100
AcDbEntity
  8
AM_6
100
AcDbText
 10
7.140625
 20
-8.372458333333334
 30
0.0
 40
0.5
  1
0.1900
100
AcDbAttributeDefinition
  3

  2
NDM
 70
     8
280
     0
  0
ATTDEF
  5
D9
330
C6
100
AcDbEntity
  8
AM_6
100
AcDbText
 10
7.140625
 20
-8.872458333333334
 30
0.0
 40
0.5
  1
0.1450
100
AcDbAttributeDefinition
  3

  2
KDM
 70
     8
280
     0
  0
ATTDEF
  5
DA
330
C6
100
AcDbEntity
  8
AM_6
100
AcDbText
 10
7.140625
 20
-9.372458333333334
 30
0.0
 40
0.5
  1
3.74
100
AcDbAttributeDefinition
  3

  2
AL
 70
     8
280
     0
  0
ATTDEF
  5
DB
330
C6
100
AcDbEntity
  8
AM_6
100
AcDbText
 10
7.140625
 20
-9.872458333333334
 30
0.0
 40
0.5
  1
0.50
100
AcDbAttributeDefinition
  3

  2
BL
 70
     8
280
     0
  0
ATTDEF
  5
DC
330
C6
100
AcDbEntity
  8
AM_6
100
AcDbText
 10
7.140625
 20
-10.37245833333333
 30
0.0
 40
0.5
  1
0.07
100
AcDbAttributeDefinition
  3

  2
CL
 70
     8
280
     0
  0
ATTDEF
  5
DD
330
C6
100
AcDbEntity
  8
AM_6
100
AcDbText
 10
7.140625
 20
-10.87245833333333
 30
0.0
 40
0.5
  1
0.44
100
AcDbAttributeDefinition
  3

  2
DL
 70
     8
280
     0
  0
ATTDEF
  5
DE
330
C6
100
AcDbEntity
  8
AM_6
100
AcDbText
 10
7.140625
 20
-11.37245833333333
 30
0.0
 40
0.5
  1
baldor
100
AcDbAttributeDefinition
  3

  2
COMPANY
 70
     8
280
     0
  0
LINE
  5
DF
330
C6
100
AcDbEntity
  8
AM_9
100
AcDbLine
 10
-1.834201388888889
 20
-1.742458333333333
 30
0.0
 11
-1.834201388888889
 21
-1.812458333333334
 31
0.0
  0
LINE
  5
E0
330
C6
100
AcDbEntity
  8
AM_9
100
AcDbLine
 10
-1.929233282008483
 20
-1.742458333333333
 30
0.0
 11
-1.929233282008483
 21
-1.812458333333334
 31
0.0
  0
LINE
  5
E1
330
C6
100
AcDbEntity
  8
AM_9
100
AcDbLine
 10
1.834201388888889
 20
-1.742458333333333
 30
0.0
 11
1.834201388888889
 21
-1.812458333333334
 31
0.0
  0
LINE
  5
E2
330
C6
100
AcDbEntity
  8
AM_9
100
AcDbLine
 10
1.929233282008483
 20
-1.812458333333334
 30
0.0
 11
1.929233282008483
 21
-1.742458333333333
 31
0.0
  0
LINE
  5
E3
330
C6
100
AcDbEntity
  8
AM_9
100
AcDbLine
 10
-1.483447698608528
 20
-1.742458333333333
 30
0.0
 11
-1.483447698608528
 21
-1.812458333333334
 31
0.0
  0
LINE
  5
E4
330
C6
100
AcDbEntity
  8
AM_9
100
AcDbLine
 10
1.483447698608528
 20
-1.742458333333333
 30
0.0
 11
1.483447698608528
 21
-1.812458333333334
 31
0.0
  0
LINE
  5
E5
330
C6
100
AcDbEntity
  8
AM_9
100
AcDbLine
 10
-1.11613107143439
 20
-1.742458333333333
 30
0.0
 11
-1.11613107143439
 21
-1.812458333333334
 31
0.0
  0
LINE
  5
E6
330
C6
100
AcDbEntity
  8
AM_9
100
AcDbLine
 10
1.11613107143439
 20
-1.742458333333333
 30
0.0
 11
1.11613107143439
 21
-1.812458333333334
 31
0.0
  0
LINE
  5
E7
330
C6
100
AcDbEntity
  8
AM_9
100
AcDbLine
 10
-0.6394958122885666
 20
-1.372458333333334
 30
0.0
 11
-0.6394958122885666
 21
-1.812458333333334
 31
0.0
  0
LINE
  5
E8
330
C6
100
AcDbEntity
  8
AM_9
100
AcDbLine
 10
-0.6823238618419788
 20
-1.742458333333333
 30
0.0
 11
-0.6823238618419788
 21
-1.812458333333334
 31
0.0
  0
LINE
  5
E9
330
C6
100
AcDbEntity
  8
AM_9
100
AcDbLine
 10
0.981780783008946
 20
-1.742458333333333
 30
0.0
 11
0.9817807830089451
 21
-1.812458333333334
 31
0.0
  0
LINE
  5
EA
330
C6
100
AcDbEntity
  8
AM_9
100
AcDbLine
 10
-0.9817807830089463
 20
-1.742458333333333
 30
0.0
 11
-0.9817807830089463
 21
-1.812458333333334
 31
0.0
  0
LINE
  5
EB
330
C6
100
AcDbEntity
  8
AM_9
100
AcDbLine
 10
-0.4513539787141572
 20
-1.742458333333333
 30
0.0
 11
-0.4513539787141572
 21
-1.812458333333334
 31
0.0
  0
LINE
  5
EC
330
C6
100
AcDbEntity
  8
AM_9
100
AcDbLine
 10
-0.4085259291607449
 20
-1.372458333333334
 30
0.0
 11
-0.6672993698979254
 21
-1.372458333333334
 31
0.0
  0
LINE
  5
ED
330
C6
100
AcDbEntity
  8
AM_9
100
AcDbLine
 10
-0.4085259291607449
 20
-1.372458333333334
 30
0.0
 11
-0.4085259291607449
 21
-1.812458333333334
 31
0.0
  0
LINE
  5
EE
330
C6
100
AcDbEntity
  8
AM_9
100
AcDbLine
 10
-1.364151384357839
 20
-1.742458333333333
 30
0.0
 11
-1.364151384357839
 21
-1.812458333333334
 31
0.0
  0
LINE
  5
EF
330
C6
100
AcDbEntity
  8
AM_9
100
AcDbLine
 10
-1.229801095932405
 20
-1.742458333333333
 30
0.0
 11
-1.229801095932405
 21
-1.812458333333334
 31
0.0
  0
LINE
  5
F0
330
C6
100
AcDbEntity
  8
AM_9
100
AcDbLine
 10
-1.391998793553742
 20
-1.742458333333333
 30
0.0
 11
-1.391998793553742
 21
-1.812458333333334
 31
0.0
  0
LINE
  5
F1
330
C6
100
AcDbEntity
  8
AM_9
100
AcDbLine
 10
1.229801095932395
 20
-1.742458333333333
 30
0.0
 11
1.229801095932395
 21
-1.812458333333334
 31
0.0
  0
LINE
  5
F2
330
C6
100
AcDbEntity
  8
AM_9
100
AcDbLine
 10
1.364151384357839
 20
-1.742458333333333
 30
0.0
 11
1.364151384357839
 21
-1.812458333333334
 31
0.0
  0
LINE
  5
F3
330
C6
100
AcDbEntity
  8
AM_9
100
AcDbLine
 10
1.391998793553742
 20
-1.812458333333334
 30
0.0
 11
1.391998793553742
 21
-1.742458333333333
 31
0.0
  0
LINE
  5
F4
330
C6
100
AcDbEntity
  8
AM_9
100
AcDbLine
 10
-0.436329486770104
 20
-1.742458333333333
 30
0.0
 11
-0.436329486770104
 21
-1.372458333333334
 31
0.0
  0
LINE
  5
F5
330
C6
100
AcDbEntity
  8
AM_9
100
AcDbLine
 10
-0.6672993698979254
 20
-1.372458333333334
 30
0.0
 11
-0.6672993698979254
 21
-1.742458333333333
 31
0.0
  0
LINE
  5
F6
330
C6
100
AcDbEntity
  8
AM_9
100
AcDbLine
 10
-0.0950000000000002
 20
-1.742458333333333
 30
0.0
 11
-0.0950000000000002
 21
-1.812458333333334
 31
0.0
  0
LINE
  5
F7
330
C6
100
AcDbEntity
  8
AM_9
100
AcDbLine
 10
0.0949999999999995
 20
-1.742458333333333
 30
0.0
 11
0.0949999999999995
 21
-1.812458333333334
 31
0.0
  0
LINE
  5
F8
330
C6
100
AcDbEntity
  8
AM_4
100
AcDbLine
 10
-2.140625
 20
-1.742458333333333
 30
0.0
 11
-2.140625
 21
-1.812458333333334
 31
0.0
  0
LINE
  5
F9
330
C6
100
AcDbEntity
  8
AM_4
100
AcDbLine
 10
2.140625
 20
-1.812458333333334
 30
0.0
 11
2.140625
 21
-1.742458333333333
 31
0.0
  0
LINE
  5
FA
330
C6
100
AcDbEntity
  8
AM_4
100
AcDbLine
 10
-2.140625
 20
-1.812458333333334
 30
0.0
 11
2.140625
 21
-1.812458333333334
 31
0.0
  0
LINE
  5
FB
330
C6
100
AcDbEntity
  8
AM_4
100
AcDbLine
 10
-2.140625
 20
-1.742458333333333
 30
0.0
 11
2.140625
 21
-1.742458333333333
 31
0.0
  0
ENDBLK
  5
C9
330
C6
100
AcDbEntity
  8
0
100
AcDbBlockEnd
  0
BLOCK
  5
FE
330
FC
100
AcDbEntity
  8
0
100
AcDbBlockBegin
  2
5_070898I_0_in_069446_4
 70
     2
 10
0.0
 20
0.0
 30
0.0
  3
5_070898I_0_in_069446_4
  1

  0
ATTDEF
  5
100
330
FC
100
AcDbEntity
  8
AM_6
100
AcDbText
 10
7.559050000000001
 20
1.509374999999999
 30
0.0
 40
0.5
  1
Imperial Insert -Inch
100
AcDbAttributeDefinition
  3

  2
NN
 70
     8
280
     0
  0
ATTDEF
  5
101
330
FC
100
AcDbEntity
  8
AM_6
100
AcDbText
 10
7.559050000000001
 20
1.009374999999999
 30
0.0
 40
0.5
  1
Imperial Bearings
100
AcDbAttributeDefinition
  3

  2
NT
 70
     8
280
     0
  0
ATTDEF
  5
102
330
FC
100
AcDbEntity
  8
AM_6
100
AcDbText
 10
7.559050000000001
 20
0.5093749999999995
 30
0.0
 40
0.5
  1
070898I
100
AcDbAttributeDefinition
  3

  2
NB
 70
     8
280
     0
  0
ATTDEF
  5
103
330
FC
100
AcDbEntity
  8
AM_6
100
AcDbText
 10
7.559050000000001
 20
0.0093749999999995
 30
0.0
 40
0.5
  1
$PN.I
100
AcDbAttributeDefinition
  3

  2
NBSYN
 70
     8
280
     0
  0
ATTDEF
  5
104
330
FC
100
AcDbEntity
  8
AM_6
100
AcDbText
 10
7.559050000000001
 20
-0.4906250000000005
 30
0.0
 40
0.5
  1
070898
100
AcDbAttributeDefinition
  3

  2
LINA
 70
     8
280
     0
  0
ATTDEF
  5
105
330
FC
100
AcDbEntity
  8
AM_6
100
AcDbText
 10
7.559050000000001
 20
-0.9906250000000005
 30
0.0
 40
0.5
  1
2-3/4
100
AcDbAttributeDefinition
  3

  2
SS
 70
     8
280
     0
  0
ATTDEF
  5
106
330
FC
100
AcDbEntity
  8
AM_6
100
AcDbText
 10
7.559050000000001
 20
-1.490625000000001
 30
0.0
 40
0.5
  1
2.750000
100
AcDbAttributeDefinition
  3

  2
SS1
 70
     8
280
     0
  0
ATTDEF
  5
107
330
FC
100
AcDbEntity
  8
AM_6
100
AcDbText
 10
7.559050000000001
 20
-1.990625000000001
 30
0.0
 40
0.5
  1
070898
100
AcDbAttributeDefinition
  3

  2
PN
 70
     8
280
     0
  0
ATTDEF
  5
108
330
FC
100
AcDbEntity
  8
AM_6
100
AcDbText
 10
7.559050000000001
 20
-2.490625000000001
 30
0.0
 40
0.5
  1
INS-IP-212R
100
AcDbAttributeDefinition
  3

  2
DESCRIPTION
 70
     8
280
     0
  0
ATTDEF
  5
109
330
FC
100
AcDbEntity
  8
AM_6
100
AcDbText
 10
7.559050000000001
 20
-2.990625000000001
 30
0.0
 40
0.5
  1
Contact Seal
100
AcDbAttributeDefinition
  3

  2
ST
 70
     8
280
     0
  0
ATTDEF
  5
10A
330
FC
100
AcDbEntity
  8
AM_6
100
AcDbText
 10
7.559050000000001
 20
-3.490625000000001
 30
0.0
 40
0.5
  1
5.1181
100
AcDbAttributeDefinition
  3

  2
A
 70
     8
280
     0
  0
ATTDEF
  5
10B
330
FC
100
AcDbEntity
  8
AM_6
100
AcDbText
 10
7.559050000000001
 20
-3.990625000000001
 30
0.0
 40
0.5
  1
1-9/32
100
AcDbAttributeDefinition
  3

  2
B
 70
     8
280
     0
  0
ATTDEF
  5
10C
330
FC
100
AcDbEntity
  8
AM_6
100
AcDbText
 10
7.559050000000001
 20
-4.490625000000001
 30
0.0
 40
0.5
  1
3-1/2
100
AcDbAttributeDefinition
  3

  2
C
 70
     8
280
     0
  0
ATTDEF
  5
10D
330
FC
100
AcDbEntity
  8
AM_6
100
AcDbText
 10
7.559050000000001
 20
-4.990625000000001
 30
0.0
 40
0.5
  1
1.219
100
AcDbAttributeDefinition
  3

  2
D
 70
     8
280
     0
  0
ATTDEF
  5
10E
330
FC
100
AcDbEntity
  8
AM_6
100
AcDbText
 10
7.559050000000001
 20
-5.490625000000001
 30
0.0
 40
0.5
  1
4-9/32
100
AcDbAttributeDefinition
  3

  2
E
 70
     8
280
     0
  0
ATTDEF
  5
10F
330
FC
100
AcDbEntity
  8
AM_6
100
AcDbText
 10
7.559050000000001
 20
-5.990625000000001
 30
0.0
 40
0.5
  1
0.1900
100
AcDbAttributeDefinition
  3

  2
NDM
 70
     8
280
     0
  0
ATTDEF
  5
110
330
FC
100
AcDbEntity
  8
AM_6
100
AcDbText
 10
7.559050000000001
 20
-6.490625000000001
 30
0.0
 40
0.5
  1
0.101
100
AcDbAttributeDefinition
  3

  2
H
 70
     8
280
     0
  0
ATTDEF
  5
111
330
FC
100
AcDbEntity
  8
AM_6
100
AcDbText
 10
7.559050000000001
 20
-6.990625000000001
 30
0.0
 40
0.5
  1
0.1450
100
AcDbAttributeDefinition
  3

  2
KDM
 70
     8
280
     0
  0
ATTDEF
  5
112
330
FC
100
AcDbEntity
  8
AM_6
100
AcDbText
 10
7.559050000000001
 20
-7.490625000000001
 30
0.0
 40
0.5
  1
3.74
100
AcDbAttributeDefinition
  3

  2
AL
 70
     8
280
     0
  0
ATTDEF
  5
113
330
FC
100
AcDbEntity
  8
AM_6
100
AcDbText
 10
7.559050000000001
 20
-7.990625000000001
 30
0.0
 40
0.5
  1
0.50
100
AcDbAttributeDefinition
  3

  2
BL
 70
     8
280
     0
  0
ATTDEF
  5
114
330
FC
100
AcDbEntity
  8
AM_6
100
AcDbText
 10
7.559050000000001
 20
-8.490625000000001
 30
0.0
 40
0.5
  1
0.07
100
AcDbAttributeDefinition
  3

  2
CL
 70
     8
280
     0
  0
ATTDEF
  5
115
330
FC
100
AcDbEntity
  8
AM_6
100
AcDbText
 10
7.559050000000001
 20
-8.990625000000001
 30
0.0
 40
0.5
  1
0.44
100
AcDbAttributeDefinition
  3

  2
DL
 70
     8
280
     0
  0
ATTDEF
  5
116
330
FC
100
AcDbEntity
  8
AM_6
100
AcDbText
 10
7.559050000000001
 20
-9.490625000000001
 30
0.0
 40
0.5
  1
0.8000
100
AcDbAttributeDefinition
  3

  2
LL
 70
     8
280
     0
  0
ATTDEF
  5
117
330
FC
100
AcDbEntity
  8
AM_6
100
AcDbText
 10
7.559050000000001
 20
-9.990625000000001
 30
0.0
 40
0.5
  1
0.025
100
AcDbAttributeDefinition
  3

  2
Y
 70
     8
280
     0
  0
ATTDEF
  5
118
330
FC
100
AcDbEntity
  8
AM_6
100
AcDbText
 10
7.559050000000001
 20
-10.490625
 30
0.0
 40
0.5
  1
0.025000
100
AcDbAttributeDefinition
  3

  2
Y1
 70
     8
280
     0
  0
ATTDEF
  5
119
330
FC
100
AcDbEntity
  8
AM_6
100
AcDbText
 10
7.559050000000001
 20
-10.990625
 30
0.0
 40
0.5
  1
3-15/32
100
AcDbAttributeDefinition
  3

  2
Z
 70
     8
280
     0
  0
ATTDEF
  5
11A
330
FC
100
AcDbEntity
  8
AM_6
100
AcDbText
 10
7.559050000000001
 20
-11.490625
 30
0.0
 40
0.5
  1
3.468750
100
AcDbAttributeDefinition
  3

  2
Z1
 70
     8
280
     0
  0
ATTDEF
  5
11B
330
FC
100
AcDbEntity
  8
AM_6
100
AcDbText
 10
7.559050000000001
 20
-11.990625
 30
0.0
 40
0.5
  1
baldor
100
AcDbAttributeDefinition
  3

  2
COMPANY
 70
     8
280
     0
  0
LINE
  5
11C
330
FC
100
AcDbEntity
  8
AM_9
100
AcDbLine
 10
-0.6687662713922112
 20
0.9059999999999998
 30
0.0
 11
-0.6687662713922112
 21
-1.742458333333334
 31
0.0
  0
LINE
  5
11D
330
FC
100
AcDbEntity
  8
AM_9
100
AcDbLine
 10
-0.4085259291607451
 20
0.9059999999999998
 30
0.0
 11
-0.4085259291607446
 21
-2.015625
 31
0.0
  0
LINE
  5
11E
330
FC
100
AcDbEntity
  8
AM_9
100
AcDbLine
 10
-0.6394958122885668
 20
-1.812458333333334
 30
0.0
 11
-0.6394958122885666
 21
0.9059999999999998
 31
0.0
  0
LINE
  5
11F
330
FC
100
AcDbEntity
  8
AM_9
100
AcDbLine
 10
-1.375
 20
0.9059999999999996
 30
0.0
 11
-1.375
 21
-2.015625
 31
0.0
  0
LINE
  5
120
330
FC
100
AcDbEntity
  8
AM_9
100
AcDbLine
 10
1.375
 20
-2.015625
 30
0.0
 11
1.375
 21
0.9059999999999996
 31
0.0
  0
LINE
  5
121
330
FC
100
AcDbEntity
  8
AM_9
100
AcDbLine
 10
-0.4377963882643895
 20
0.9059999999999998
 30
0.0
 11
-0.4377963882643895
 21
-1.742458333333334
 31
0.0
  0
LINE
  5
122
330
FC
100
AcDbEntity
  8
AM_9
100
AcDbLine
 10
-1.447368421052632
 20
1.484375
 30
0.0
 11
-1.447368421052632
 21
0.9059999999999996
 31
0.0
  0
LINE
  5
123
330
FC
100
AcDbEntity
  8
AM_9
100
AcDbLine
 10
1.447368421052632
 20
0.9059999999999996
 30
0.0
 11
1.447368421052632
 21
1.484375
 31
0.0
  0
LINE
  5
124
330
FC
100
AcDbEntity
  8
AM_9
100
AcDbLine
 10
-0.4363294867701039
 20
-1.812458333333334
 30
0.0
 11
-0.4363294867701039
 21
-1.742458333333333
 31
0.0
  0
LINE
  5
125
330
FC
100
AcDbEntity
  8
AM_9
100
AcDbLine
 10
-0.6672993698979256
 20
-1.742458333333333
 30
0.0
 11
-0.6672993698979255
 21
-1.812458333333334
 31
0.0
  0
LINE
  5
126
330
FC
100
AcDbEntity
  8
AM_9
100
AcDbLine
 10
-1.447368421052632
 20
-1.742458333333333
 30
0.0
 11
-1.447368421052632
 21
-1.812458333333334
 31
0.0
  0
LINE
  5
127
330
FC
100
AcDbEntity
  8
AM_9
100
AcDbLine
 10
1.447368421052632
 20
-1.812458333333334
 30
0.0
 11
1.447368421052632
 21
-1.742458333333333
 31
0.0
  0
LINE
  5
128
330
FC
100
AcDbEntity
  8
AM_9
100
AcDbLine
 10
1.145512985522207
 20
-1.302458333333333
 30
0.0
 11
1.145512985522207
 21
-1.742458333333333
 31
0.0
  0
LINE
  5
129
330
FC
100
AcDbEntity
  8
AM_9
100
AcDbLine
 10
1.499066376115481
 20
-1.302458333333333
 30
0.0
 11
1.499066376115481
 21
-1.38515625
 31
0.0
  0
LINE
  5
12A
330
FC
100
AcDbEntity
  8
AM_9
100
AcDbLine
 10
-1.145512985522207
 20
-1.302458333333333
 30
0.0
 11
-1.145512985522207
 21
-1.742458333333333
 31
0.0
  0
LINE
  5
12B
330
FC
100
AcDbEntity
  8
AM_9
100
AcDbLine
 10
-1.49906637611548
 20
-1.302458333333333
 30
0.0
 11
-1.49906637611548
 21
-1.38515625
 31
0.0
  0
LINE
  5
12C
330
FC
100
AcDbEntity
  8
AM_9
100
AcDbLine
 10
1.145512985522207
 20
-1.302458333333333
 30
0.0
 11
1.691008097302049
 21
-1.302458333333333
 31
0.0
  0
LINE
  5
12D
330
FC
100
AcDbEntity
  8
AM_9
100
AcDbLine
 10
-1.691008097302049
 20
-1.302458333333333
 30
0.0
 11
-1.145512985522207
 21
-1.302458333333333
 31
0.0
  0
LINE
  5
12E
330
FC
100
AcDbEntity
  8
AM_9
100
AcDbLine
 10
1.734375
 20
1.484375
 30
0.0
 11
-1.734375
 21
1.484375
 31
0.0
  0
LINE
  5
12F
330
FC
100
AcDbEntity
  8
AM_9
100
AcDbLine
 10
-1.734375
 20
1.509374999999998
 30
0.0
 11
-1.734375
 21
1.484375
 31
0.0
  0
LINE
  5
130
330
FC
100
AcDbEntity
  8
AM_9
100
AcDbLine
 10
1.734375
 20
1.484375
 30
0.0
 11
1.734375
 21
1.509374999999998
 31
0.0
  0
LINE
  5
131
330
FC
100
AcDbEntity
  8
AM_9
100
AcDbLine
 10
0.0
 20
-0.9024583333333331
 30
0.0
 11
-0.0724499999999999
 21
-0.9362423231666628
 31
0.0
  0
LINE
  5
132
330
FC
100
AcDbEntity
  8
AM_9
100
AcDbLine
 10
0.0724499999999999
 20
-0.9362423231666628
 30
0.0
 11
0.0
 21
-0.9024583333333331
 31
0.0
  0
LINE
  5
133
330
FC
100
AcDbEntity
  8
AM_9
100
AcDbLine
 10
0.0724499999999999
 20
-0.9362423231666628
 30
0.0
 11
-0.0724499999999999
 21
-0.9362423231666628
 31
0.0
  0
LINE
  5
134
330
FC
100
AcDbEntity
  8
AM_9
100
AcDbLine
 10
-0.0724499999999999
 20
-0.9362423231666628
 30
0.0
 11
-0.0724499999999999
 21
-1.719908333333333
 31
0.0
  0
LINE
  5
135
330
FC
100
AcDbEntity
  8
AM_9
100
AcDbLine
 10
0.0724499999999999
 20
-1.719908333333333
 30
0.0
 11
0.0724499999999999
 21
-0.9362423231666628
 31
0.0
  0
LINE
  5
136
330
FC
100
AcDbEntity
  8
AM_9
100
AcDbLine
 10
-1.927083333333333
 20
1.385156250000001
 30
0.0
 11
-1.927083333333333
 21
1.16225
 31
0.0
  0
LINE
  5
137
330
FC
100
AcDbEntity
  8
AM_9
100
AcDbLine
 10
1.927083333333333
 20
1.16225
 30
0.0
 11
1.927083333333333
 21
1.385156250000001
 31
0.0
  0
LINE
  5
138
330
FC
100
AcDbEntity
  8
AM_9
100
AcDbLine
 10
0.0724499999999999
 20
-1.719908333333333
 30
0.0
 11
-0.0724499999999999
 21
-1.719908333333333
 31
0.0
  0
LINE
  5
139
330
FC
100
AcDbEntity
  8
AM_9
100
AcDbLine
 10
-0.0724499999999999
 20
-1.719908333333333
 30
0.0
 11
-0.0949999999999999
 21
-1.742458333333333
 31
0.0
  0
LINE
  5
13A
330
FC
100
AcDbEntity
  8
AM_9
100
AcDbLine
 10
0.0949999999999999
 20
-1.742458333333333
 30
0.0
 11
0.0724499999999999
 21
-1.719908333333333
 31
0.0
  0
LINE
  5
13B
330
FC
100
AcDbEntity
  8
AM_9
100
AcDbLine
 10
-1.688952174099198
 20
-1.38515625350996
 30
0.0
 11
-1.691008097302049
 21
-1.302458333333333
 31
0.0
  0
LINE
  5
13C
330
FC
100
AcDbEntity
  8
AM_9
100
AcDbLine
 10
-1.337454706708775
 20
-1.302458333333333
 30
0.0
 11
-1.335398783505925
 21
-1.38515625350996
 31
0.0
  0
LINE
  5
13D
330
FC
100
AcDbEntity
  8
AM_9
100
AcDbLine
 10
1.335398783505925
 20
-1.38515625350996
 30
0.0
 11
1.337454706708776
 21
-1.302458333333333
 31
0.0
  0
LINE
  5
13E
330
FC
100
AcDbEntity
  8
AM_9
100
AcDbLine
 10
1.691008097302049
 20
-1.302458333333333
 30
0.0
 11
1.688952174099199
 21
-1.38515625350996
 31
0.0
  0
LINE
  5
13F
330
FC
100
AcDbEntity
  8
AM_9
100
AcDbLine
 10
2.153102263691005
 20
-1.38515625
 30
0.0
 11
2.18836896705553
 21
-0.3752500000000003
 31
0.0
  0
LINE
  5
140
330
FC
100
AcDbEntity
  8
AM_9
100
AcDbLine
 10
-2.18836896705553
 20
-0.3752500000000003
 30
0.0
 11
-2.153102263691005
 21
-1.38515625
 31
0.0
  0
LINE
  5
141
330
FC
100
AcDbEntity
  8
AM_9
100
AcDbLine
 10
2.153368966601195
 20
1.162249999999999
 30
0.0
 11
-2.153368966591029
 21
1.162249999999999
 31
0.0
  0
ARC
  5
142
330
FC
100
AcDbEntity
  8
AM_9
100
AcDbCircle
 10
-2.153368966601196
 20
1.062250000000001
 30
0.0
 40
0.0999999999999983
100
AcDbArc
 50
90.0
 51
150.0000000000005
  0
ARC
  5
143
330
FC
100
AcDbEntity
  8
AM_9
100
AcDbCircle
 10
2.153368966601196
 20
1.062250000000001
 30
0.0
 40
0.0999999999999985
100
AcDbArc
 50
29.99999999999951
 51
90.0
  0
LINE
  5
144
330
FC
100
AcDbEntity
  8
AM_9
100
AcDbLine
 10
2.239971506979639
 20
1.11225
 30
0.0
 11
-2.239971506979639
 21
1.11225
 31
0.0
  0
LINE
  5
145
330
FC
100
AcDbEntity
  8
AM_9
100
AcDbLine
 10
-2.239971506979639
 20
1.11225
 30
0.0
 11
-2.35905
 21
0.9059999999999996
 31
0.0
  0
LINE
  5
146
330
FC
100
AcDbEntity
  8
AM_9
100
AcDbLine
 10
2.35905
 20
0.9059999999999996
 30
0.0
 11
2.239971506979639
 21
1.11225
 31
0.0
  0
LINE
  5
147
330
FC
100
AcDbEntity
  8
AM_9
100
AcDbLine
 10
-2.4949875
 20
0.3023615016199601
 30
0.0
 11
-2.4949875
 21
0.2283884983800393
 31
0.0
  0
LINE
  5
148
330
FC
100
AcDbEntity
  8
AM_9
100
AcDbLine
 10
2.4949875
 20
0.2283884983800393
 30
0.0
 11
2.4949875
 21
0.3023615016199601
 31
0.0
  0
LINE
  5
149
330
FC
100
AcDbEntity
  8
AM_9
100
AcDbLine
 10
2.4949875
 20
0.2283884983800393
 30
0.0
 11
-2.4949875
 21
0.2283884983800393
 31
0.0
  0
LINE
  5
14A
330
FC
100
AcDbEntity
  8
AM_9
100
AcDbLine
 10
-2.4949875
 20
0.2283884983800393
 30
0.0
 11
-2.55905
 21
0.1914019967600789
 31
0.0
  0
LINE
  5
14B
330
FC
100
AcDbEntity
  8
AM_9
100
AcDbLine
 10
2.55905
 20
0.1914019967600789
 30
0.0
 11
2.4949875
 21
0.2283884983800393
 31
0.0
  0
LINE
  5
14C
330
FC
100
AcDbEntity
  8
AM_9
100
AcDbLine
 10
2.4949875
 20
0.3023615016199601
 30
0.0
 11
-2.4949875
 21
0.3023615016199601
 31
0.0
  0
LINE
  5
14D
330
FC
100
AcDbEntity
  8
AM_9
100
AcDbLine
 10
2.4949875
 20
0.3023615016199601
 30
0.0
 11
2.55905
 21
0.3393480032399203
 31
0.0
  0
LINE
  5
14E
330
FC
100
AcDbEntity
  8
AM_9
100
AcDbLine
 10
-2.55905
 20
0.3393480032399203
 30
0.0
 11
-2.4949875
 21
0.3023615016199601
 31
0.0
  0
LINE
  5
14F
330
FC
100
AcDbEntity
  8
AM_9
100
AcDbLine
 10
2.55905
 20
0.3393480032399203
 30
0.0
 11
-2.55905
 21
0.3393480032399203
 31
0.0
  0
LINE
  5
150
330
FC
100
AcDbEntity
  8
AM_9
100
AcDbLine
 10
-2.55905
 20
0.8559999999999999
 30
0.0
 11
-2.55905
 21
0.3393480032399203
 31
0.0
  0
LINE
  5
151
330
FC
100
AcDbEntity
  8
AM_9
100
AcDbLine
 10
2.55905
 20
0.3393480032399203
 30
0.0
 11
2.55905
 21
0.8559999999999999
 31
0.0
  0
LINE
  5
152
330
FC
100
AcDbEntity
  8
AM_9
100
AcDbLine
 10
2.50905
 20
0.9059999999999996
 30
0.0
 11
-2.509049999995971
 21
0.9059999999999996
 31
0.0
  0
LINE
  5
153
330
FC
100
AcDbEntity
  8
AM_9
100
AcDbLine
 10
2.55905
 20
0.8559999999999999
 30
0.0
 11
-2.55905
 21
0.8559999999999999
 31
0.0
  0
ARC
  5
154
330
FC
100
AcDbEntity
  8
AM_9
100
AcDbCircle
 10
-2.509049999999999
 20
0.8559999999999988
 30
0.0
 40
0.0500000000000008
100
AcDbArc
 50
90.0
 51
180.0
  0
ARC
  5
155
330
FC
100
AcDbEntity
  8
AM_9
100
AcDbCircle
 10
2.509049999999999
 20
0.8559999999999988
 30
0.0
 40
0.0500000000000007
100
AcDbArc
 50
0.0
 51
90.0
  0
LINE
  5
156
330
FC
100
AcDbEntity
  8
AM_9
100
AcDbLine
 10
1.517923701050143
 20
0.191401996760079
 30
0.0
 11
-2.55905
 21
0.1914019967600789
 31
0.0
  0
LINE
  5
157
330
FC
100
AcDbEntity
  8
AM_9
100
AcDbLine
 10
1.754882212113855
 20
0.191401996760079
 30
0.0
 11
1.520838064170854
 21
0.191401996760079
 31
0.0
  0
LINE
  5
158
330
FC
100
AcDbEntity
  8
AM_9
100
AcDbLine
 10
2.55905
 20
0.1914019967600789
 30
0.0
 11
1.75781105266842
 21
0.191401996760079
 31
0.0
  0
LINE
  5
159
330
FC
100
AcDbEntity
  8
AM_9
100
AcDbLine
 10
-2.55905
 20
0.1914019967600789
 30
0.0
 11
-2.55905
 21
-0.3252500000000003
 31
0.0
  0
LINE
  5
15A
330
FC
100
AcDbEntity
  8
AM_9
100
AcDbLine
 10
2.55905
 20
-0.3252500000000003
 30
0.0
 11
2.55905
 21
0.1914019967600789
 31
0.0
  0
LINE
  5
15B
330
FC
100
AcDbEntity
  8
AM_9
100
AcDbLine
 10
2.55905
 20
-0.3252500000000003
 30
0.0
 11
-2.55905
 21
-0.3252500000000003
 31
0.0
  0
LINE
  5
15C
330
FC
100
AcDbEntity
  8
AM_9
100
AcDbLine
 10
2.50905
 20
-0.3752500000000003
 30
0.0
 11
-2.509049999995971
 21
-0.3752500000000003
 31
0.0
  0
ARC
  5
15D
330
FC
100
AcDbEntity
  8
AM_9
100
AcDbCircle
 10
-2.509050000000001
 20
-0.3252500000000004
 30
0.0
 40
0.0499999999999998
100
AcDbArc
 50
180.0
 51
270.0
  0
ARC
  5
15E
330
FC
100
AcDbEntity
  8
AM_9
100
AcDbCircle
 10
2.509050000000001
 20
-0.3252500000000007
 30
0.0
 40
0.0499999999999995
100
AcDbArc
 50
270.0
 51
0.0
  0
LINE
  5
15F
330
FC
100
AcDbEntity
  8
AM_5
100
AcDbLine
 10
0.0724499999999999
 20
-0.9824583333333181
 30
0.0
 11
0.0949999999999999
 21
-0.9824583333333181
 31
0.0
  0
LINE
  5
160
330
FC
100
AcDbEntity
  8
AM_5
100
AcDbLine
 10
0.0949999999999999
 20
-0.9824583333333181
 30
0.0
 11
0.0724499999999999
 21
-0.9694390847631106
 31
0.0
  0
LINE
  5
161
330
FC
100
AcDbEntity
  8
AM_5
100
AcDbLine
 10
-0.0724499999999999
 20
-0.9824583333333181
 30
0.0
 11
-0.0949999999999999
 21
-0.9824583333333181
 31
0.0
  0
LINE
  5
162
330
FC
100
AcDbEntity
  8
AM_5
100
AcDbLine
 10
-0.0949999999999999
 20
-0.9824583333333181
 30
0.0
 11
-0.0724499999999999
 21
-0.9694390847631106
 31
0.0
  0
ARC
  5
163
330
FC
100
AcDbEntity
  8
AM_4
100
AcDbCircle
 10
2.092340561259646
 20
-1.692458333333333
 30
0.0
 40
0.05
100
AcDbArc
 50
270.0
 51
357.9999999999997
  0
ARC
  5
164
330
FC
100
AcDbEntity
  8
AM_4
100
AcDbCircle
 10
-2.092340561259646
 20
-1.692458333333333
 30
0.0
 40
0.0500000000000003
100
AcDbArc
 50
182.0000000000003
 51
270.0
  0
LWPOLYLINE
  5
165
330
FC
100
AcDbEntity
  8
AM_4
100
AcDbPolyline
 90
        6
 70
     0
 43
0.0
 10
1.68126873179059
 20
-1.694203308168459
 10
1.678876161346741
 20
-1.710557855520174
 10
1.672792404581568
 20
-1.724878833641607
 10
1.663682867646965
 20
-1.73560183994175
 10
1.652512800281862
 20
-1.741530870670556
 10
1.645685988665757
 20
-1.742458333333333
  0
LWPOLYLINE
  5
166
330
FC
100
AcDbEntity
  8
AM_4
100
AcDbPolyline
 90
        6
 70
     0
 43
0.0
 10
-1.645685988665756
 20
-1.742458333333333
 10
-1.650856707133888
 20
-1.741928406027257
 10
-1.662310724868605
 20
-1.736674174789223
 10
-1.671858426813062
 20
-1.72635859551393
 10
-1.678393042311169
 20
-1.71221650615002
 10
-1.68126873179059
 20
-1.694203308168459
  0
LINE
  5
167
330
FC
100
AcDbEntity
  8
AM_4
100
AcDbLine
 10
-0.6394958122885663
 20
-2.015625
 30
0.0
 11
-0.6394958122885668
 21
-1.812458333333334
 31
0.0
  0
LINE
  5
168
330
FC
100
AcDbEntity
  8
AM_4
100
AcDbLine
 10
-0.4363294867701038
 20
-2.015625
 30
0.0
 11
-0.4363294867701039
 21
-1.812458333333334
 31
0.0
  0
LINE
  5
169
330
FC
100
AcDbEntity
  8
AM_4
100
AcDbLine
 10
-0.6672993698979255
 20
-1.812458333333334
 30
0.0
 11
-0.6672993698979254
 21
-2.015625
 31
0.0
  0
LINE
  5
16A
330
FC
100
AcDbEntity
  8
AM_4
100
AcDbLine
 10
-1.447368421052632
 20
-1.812458333333334
 30
0.0
 11
-1.447368421052632
 21
-2.015625
 31
0.0
  0
LINE
  5
16B
330
FC
100
AcDbEntity
  8
AM_4
100
AcDbLine
 10
1.447368421052632
 20
-2.015625
 30
0.0
 11
1.447368421052632
 21
-1.812458333333334
 31
0.0
  0
LINE
  5
16C
330
FC
100
AcDbEntity
  8
AM_4
100
AcDbLine
 10
1.447368421052632
 20
-2.015625
 30
0.0
 11
-1.447368421052632
 21
-2.015625
 31
0.0
  0
LINE
  5
16D
330
FC
100
AcDbEntity
  8
AM_4
100
AcDbLine
 10
1.499066376115481
 20
-1.38515625
 30
0.0
 11
1.499066376115481
 21
-1.742458333333333
 31
0.0
  0
LINE
  5
16E
330
FC
100
AcDbEntity
  8
AM_4
100
AcDbLine
 10
-1.49906637611548
 20
-1.38515625
 30
0.0
 11
-1.49906637611548
 21
-1.742458333333333
 31
0.0
  0
LINE
  5
16F
330
FC
100
AcDbEntity
  8
AM_4
100
AcDbLine
 10
1.882612179487178
 20
1.509374999999999
 30
0.0
 11
-1.882612179484642
 21
1.509374999999999
 31
0.0
  0
ARC
  5
170
330
FC
100
AcDbEntity
  8
AM_4
100
AcDbCircle
 10
-1.88261217948718
 20
1.464903846153846
 30
0.0
 40
0.0444711538461533
100
AcDbArc
 50
90.0
 51
179.9999991462263
  0
ARC
  5
171
330
FC
100
AcDbEntity
  8
AM_4
100
AcDbCircle
 10
1.88261217948718
 20
1.464903846153846
 30
0.0
 40
0.0444711538461533
100
AcDbArc
 50
0.0000008537736463
 51
90.0
  0
LINE
  5
172
330
FC
100
AcDbEntity
  8
AM_4
100
AcDbLine
 10
1.927083333333333
 20
1.464903846153846
 30
0.0
 11
-1.927083333333333
 21
1.464903846153846
 31
0.0
  0
LINE
  5
173
330
FC
100
AcDbEntity
  8
AM_4
100
AcDbLine
 10
-1.927083333333333
 20
1.464903846153846
 30
0.0
 11
-1.927083333333333
 21
1.385156250000001
 31
0.0
  0
LINE
  5
174
330
FC
100
AcDbEntity
  8
AM_4
100
AcDbLine
 10
1.927083333333333
 20
1.385156250000001
 30
0.0
 11
1.927083333333333
 21
1.464903846153846
 31
0.0
  0
LWPOLYLINE
  5
175
330
FC
100
AcDbEntity
  8
AM_4
100
AcDbPolyline
 90
        6
 70
     0
 43
0.0
 10
1.292132598072483
 20
-1.742458333333333
 10
1.297303316540614
 20
-1.741928406027257
 10
1.308757334275332
 20
-1.736674174789223
 10
1.318305036219789
 20
-1.72635859551393
 10
1.324839651717896
 20
-1.71221650615002
 10
1.327715341197316
 20
-1.694203308168459
  0
LWPOLYLINE
  5
176
330
FC
100
AcDbEntity
  8
AM_4
100
AcDbPolyline
 90
        6
 70
     0
 43
0.0
 10
-1.327715341197316
 20
-1.694203308168459
 10
-1.325322770753467
 20
-1.710557855520174
 10
-1.319239013988293
 20
-1.724878833641607
 10
-1.310129477053691
 20
-1.73560183994175
 10
-1.298959409688588
 20
-1.741530870670556
 10
-1.292132598072483
 20
-1.742458333333333
  0
LINE
  5
177
330
FC
100
AcDbEntity
  8
AM_4
100
AcDbLine
 10
-1.68126873179059
 20
-1.694203308168459
 30
0.0
 11
-2.142310102610601
 21
-1.694203308168459
 31
0.0
  0
LINE
  5
178
330
FC
100
AcDbEntity
  8
AM_4
100
AcDbLine
 10
-1.68126873179059
 20
-1.694203308168459
 30
0.0
 11
-1.688952174099198
 21
-1.38515625350996
 31
0.0
  0
LINE
  5
179
330
FC
100
AcDbEntity
  8
AM_4
100
AcDbLine
 10
-1.335398783505925
 20
-1.38515625350996
 30
0.0
 11
-1.327715341197316
 21
-1.694203308168459
 31
0.0
  0
LINE
  5
17A
330
FC
100
AcDbEntity
  8
AM_4
100
AcDbLine
 10
1.327715341197316
 20
-1.694203308168459
 30
0.0
 11
-1.327715341197316
 21
-1.694203308168459
 31
0.0
  0
LINE
  5
17B
330
FC
100
AcDbEntity
  8
AM_4
100
AcDbLine
 10
1.327715341197316
 20
-1.694203308168459
 30
0.0
 11
1.335398783505925
 21
-1.38515625350996
 31
0.0
  0
LINE
  5
17C
330
FC
100
AcDbEntity
  8
AM_4
100
AcDbLine
 10
1.688952174099199
 20
-1.38515625350996
 30
0.0
 11
1.68126873179059
 21
-1.694203308168459
 31
0.0
  0
LINE
  5
17D
330
FC
100
AcDbEntity
  8
AM_4
100
AcDbLine
 10
2.142310102610601
 20
-1.694203308168459
 30
0.0
 11
2.153102263691005
 21
-1.38515625
 31
0.0
  0
LINE
  5
17E
330
FC
100
AcDbEntity
  8
AM_4
100
AcDbLine
 10
-2.153102263691005
 20
-1.38515625
 30
0.0
 11
-2.142310102610601
 21
-1.694203308168459
 31
0.0
  0
LINE
  5
17F
330
FC
100
AcDbEntity
  8
AM_4
100
AcDbLine
 10
2.142310102610601
 20
-1.694203308168459
 30
0.0
 11
1.68126873179059
 21
-1.694203308168459
 31
0.0
  0
ENDBLK
  5
FF
330
FC
100
AcDbEntity
  8
0
100
AcDbBlockEnd
  0
BLOCK
  5
182
330
180
100
AcDbEntity
  8
0
100
AcDbBlockBegin
  2
6_405015E_Inch_0_in_069446_4
 70
     2
 10
0.0
 20
0.0
 30
0.0
  3
6_405015E_Inch_0_in_069446_4
  1

  0
ATTDEF
  5
184
330
180
100
AcDbEntity
  8
AM_6
100
AcDbText
 10
6.888921671481428
 20
0.2525907427704614
 30
0.0
 40
0.5
  1
405015E -Inch
100
AcDbAttributeDefinition
  3

  2
NN
 70
     8
280
     0
  0
ATTDEF
  5
185
330
180
100
AcDbEntity
  8
AM_6
100
AcDbText
 10
6.888921671481428
 20
-0.2474092572295386
 30
0.0
 40
0.5
  1
Grease Fitting
100
AcDbAttributeDefinition
  3

  2
NT
 70
     8
280
     0
  0
ATTDEF
  5
186
330
180
100
AcDbEntity
  8
AM_6
100
AcDbText
 10
6.888921671481428
 20
-0.7474092572295385
 30
0.0
 40
0.5
  1
405015E-Inch
100
AcDbAttributeDefinition
  3

  2
NB
 70
     8
280
     0
  0
ATTDEF
  5
187
330
180
100
AcDbEntity
  8
AM_6
100
AcDbText
 10
6.888921671481428
 20
-1.247409257229539
 30
0.0
 40
0.5
  1
$MN.-Inch
100
AcDbAttributeDefinition
  3

  2
NBSYN
 70
     8
280
     0
  0
ATTDEF
  5
188
330
180
100
AcDbEntity
  8
AM_6
100
AcDbText
 10
6.888921671481428
 20
-1.747409257229539
 30
0.0
 40
0.5
  1
405015E
100
AcDbAttributeDefinition
  3

  2
LINA
 70
     8
280
     0
  0
ATTDEF
  5
189
330
180
100
AcDbEntity
  8
AM_6
100
AcDbText
 10
6.888921671481428
 20
-2.247409257229538
 30
0.0
 40
0.5
  1
405015E
100
AcDbAttributeDefinition
  3

  2
MN
 70
     8
280
     0
  0
ATTDEF
  5
18A
330
180
100
AcDbEntity
  8
AM_6
100
AcDbText
 10
6.888921671481428
 20
-2.747409257229538
 30
0.0
 40
0.5
  1
1/8 x 27PTF
100
AcDbAttributeDefinition
  3

  2
T
 70
     8
280
     0
  0
ATTDEF
  5
18B
330
180
100
AcDbEntity
  8
AM_6
100
AcDbText
 10
6.888921671481428
 20
-3.247409257229538
 30
0.0
 40
0.5
  1
baldor
100
AcDbAttributeDefinition
  3

  2
COMPANY
 70
     8
280
     0
  0
ELLIPSE
  5
18C
330
180
100
AcDbEntity
  8
AM_9
100
AcDbEllipse
 10
1.48
 20
0.0000000000000002
 30
0.0
 11
9.913691727296317E-18
 21
0.161902872472269
 31
0.0
210
0.0
220
0.0
230
1.0
 40
0.8660254037844383
 41
0.0
 42
6.283185307179586
  0
LWPOLYLINE
  5
18D
330
180
100
AcDbEntity
  8
AM_9
100
AcDbPolyline
 90
        3
 70
     0
 43
0.0
 10
1.806476856926153
 20
-0.1262953713852305
 10
1.75600250203231
 20
-0.1577272497321274
 10
1.707221528538923
 20
-0.1894430570778458
  0
LWPOLYLINE
  5
18E
330
180
100
AcDbEntity
  8
AM_9
100
AcDbPolyline
 90
        4
 70
     0
 43
0.0
 10
1.801943057077846
 20
0.0000000000000002
 10
1.802651837436414
 20
-0.0483998160558987
 10
1.804684263336768
 20
-0.0967996321117976
 10
1.806476856926153
 20
-0.1262953713852305
  0
LWPOLYLINE
  5
18F
330
180
100
AcDbEntity
  8
AM_9
100
AcDbPolyline
 90
        3
 70
     0
 43
0.0
 10
1.707221528538923
 20
0.1894430570778461
 10
1.755778983200902
 20
0.1578692142315385
 10
1.806476856926153
 20
0.1262953713852308
  0
LINE
  5
190
330
180
100
AcDbEntity
  8
AM_9
100
AcDbLine
 10
1.802164911799395
 20
0.0269669911910701
 30
0.0
 11
1.801943057077846
 21
0.0000000000000002
 31
0.0
  0
LWPOLYLINE
  5
191
330
180
100
AcDbEntity
  8
AM_9
100
AcDbPolyline
 90
        3
 70
     0
 43
0.0
 10
1.806476856926153
 20
0.1262953713852308
 10
1.803150319552656
 20
0.0634316146914369
 10
1.802164911799395
 20
0.0269669911910701
  0
LINE
  5
192
330
180
100
AcDbEntity
  8
AM_9
100
AcDbLine
 10
1.847409257229538
 20
-0.1262953713852305
 30
0.0
 11
1.806476856926153
 21
-0.1262953713852305
 31
0.0
  0
LINE
  5
193
330
180
100
AcDbEntity
  8
AM_9
100
AcDbLine
 10
1.847409257229538
 20
0.1262953713852308
 30
0.0
 11
1.806476856926153
 21
0.1262953713852308
 31
0.0
  0
LWPOLYLINE
  5
194
330
180
100
AcDbEntity
  8
AM_9
100
AcDbPolyline
 90
        3
 70
     0
 43
0.0
 10
1.849677294546634
 20
-0.0876639037391226
 10
1.85123014295631
 20
-0.0485424412477542
 10
1.851943057077846
 20
0.0000000000000002
  0
LWPOLYLINE
  5
195
330
180
100
AcDbEntity
  8
AM_9
100
AcDbPolyline
 90
        3
 70
     0
 43
0.0
 10
1.851943057077846
 20
0.0000000000000002
 10
1.850746366685329
 20
0.0631476856926155
 10
1.849667864371098
 20
0.0878529476487881
  0
LWPOLYLINE
  5
196
330
180
100
AcDbEntity
  8
AM_9
100
AcDbPolyline
 90
        3
 70
     0
 43
0.0
 10
1.707221528538923
 20
-0.1894430570778458
 10
1.661057454661979
 20
-0.2210168999241534
 10
1.617033799848307
 20
-0.2525907427704611
  0
LWPOLYLINE
  5
197
330
180
100
AcDbEntity
  8
AM_9
100
AcDbPolyline
 90
        3
 70
     0
 43
0.0
 10
1.617033799848307
 20
0.2525907427704614
 10
1.660855079995155
 20
0.2211588644235644
 10
1.707221528538923
 20
0.1894430570778461
  0
LINE
  5
198
330
180
100
AcDbEntity
  8
AM_9
100
AcDbLine
 10
1.489046710626154
 20
-0.1983264404626878
 30
0.0
 11
1.60285489783229
 21
-0.2054502516015133
 31
0.0
  0
LINE
  5
199
330
180
100
AcDbEntity
  8
AM_9
100
AcDbLine
 10
1.60285489783229
 20
0.2054502516015136
 30
0.0
 11
1.489046710626154
 21
0.1983264404626881
 31
0.0
  0
ELLIPSE
  5
19A
330
180
100
AcDbEntity
  8
AM_9
100
AcDbEllipse
 10
1.662500000000005
 20
-0.0000000000000014
 30
0.0
 11
-4.018372309702182E-17
 21
-0.2187499999999961
 31
0.0
210
0.0
220
0.0
230
1.0
 40
0.8660254037844288
 41
1.032970329615036
 42
2.108622323974769
  0
ELLIPSE
  5
19B
330
180
100
AcDbEntity
  8
AM_9
100
AcDbEllipse
 10
1.662500000000002
 20
0.0000000000000002
 30
0.0
 11
-3.926523799766183E-17
 21
-0.2137499999999991
 31
0.0
210
0.0
220
0.0
230
1.0
 40
0.8660254037844314
 41
0.986286852235347
 42
2.155305801354446
  0
ELLIPSE
  5
19C
330
180
100
AcDbEntity
  8
AM_9
100
AcDbEllipse
 10
1.67165909927044
 20
0.0000000000000002
 30
0.0
 11
-3.169399141454461E-17
 21
-0.1725340532830157
 31
0.0
210
0.0
220
0.0
230
1.0
 40
0.866025403784441
 41
0.6732704101475324
 42
2.468322243442263
  0
LINE
  5
19D
330
180
100
AcDbEntity
  8
AM_9
100
AcDbLine
 10
1.7825
 20
0.0703562363973518
 30
0.0
 11
1.775260904853149
 21
0.0796165180238022
 31
0.0
  0
LINE
  5
19E
330
180
100
AcDbEntity
  8
AM_9
100
AcDbLine
 10
1.775260904853149
 20
-0.0796165180238019
 30
0.0
 11
1.7825
 21
-0.0703562363973514
 31
0.0
  0
ELLIPSE
  5
19F
330
180
100
AcDbEntity
  8
AM_9
100
AcDbEllipse
 10
1.698876560809288
 20
0.000000000000001
 30
0.0
 11
-2.182689656893343E-17
 21
-0.1188200907348969
 31
0.0
210
0.0
220
0.0
230
1.0
 40
0.8660254037844318
 41
0.0521714424106028
 42
3.089421211179194
  0
ELLIPSE
  5
1A0
330
180
100
AcDbEntity
  8
AM_9
100
AcDbEllipse
 10
1.715000000000007
 20
0.0000000000000032
 30
0.0
 11
-1.928818708657137E-17
 21
-0.105000000000003
 31
0.0
210
0.0
220
0.0
230
1.0
 40
0.8660254037844475
 41
5.858105981270882
 42
9.849857286678107
  0
LINE
  5
1A1
330
180
100
AcDbEntity
  8
AM_9
100
AcDbLine
 10
1.715
 20
-0.1049999999999998
 30
0.0
 11
1.73
 21
-0.1049999999999998
 31
0.0
  0
LINE
  5
1A2
330
180
100
AcDbEntity
  8
AM_9
100
AcDbLine
 10
1.73
 20
0.1050000000000002
 30
0.0
 11
1.715
 21
0.1050000000000002
 31
0.0
  0
ELLIPSE
  5
1A3
330
180
100
AcDbEntity
  8
AM_9
100
AcDbEllipse
 10
1.73
 20
0.0000000000000002
 30
0.0
 11
-1.928818708657079E-17
 21
-0.1049999999999999
 31
0.0
210
0.0
220
0.0
230
1.0
 40
0.8660254037844398
 41
5.235987755982991
 42
10.47197551196597
  0
ELLIPSE
  5
1A4
330
180
100
AcDbEntity
  8
AM_9
100
AcDbEllipse
 10
1.76
 20
0.0000000000000002
 30
0.0
 11
-2.479909768273396E-17
 21
-0.1350000000000003
 31
0.0
210
0.0
220
0.0
230
1.0
 40
0.8660254037844358
 41
0.7751090107151226
 42
2.36648364287467
  0
ELLIPSE
  5
1A5
330
180
100
AcDbEntity
  8
AM_9
100
AcDbEllipse
 10
1.612499999999997
 20
0.0000000000000014
 30
0.0
 11
-4.018372309702216E-17
 21
-0.218749999999998
 31
0.0
210
0.0
220
0.0
230
1.0
 40
0.8660254037844347
 41
0.0
 42
6.283185307179586
  0
ELLIPSE
  5
1A6
330
180
100
AcDbEntity
  8
AM_9
100
AcDbEllipse
 10
1.612499999999909
 20
-0.0000000000000998
 30
0.0
 11
-3.779601035292748E-17
 21
-0.2057518972231696
 31
0.0
210
0.0
220
0.0
230
1.0
 40
0.86602540378443
 41
0.0
 42
6.283185307179586
  0
ELLIPSE
  5
1A7
330
180
100
AcDbEntity
  8
AM_9
100
AcDbEllipse
 10
1.498357377154288
 20
-0.0000000000000312
 30
0.0
 11
-3.648546613378463E-17
 21
-0.1986176267812468
 31
0.0
210
0.0
220
0.0
230
1.0
 40
0.8660254037844168
 41
0.0
 42
6.283185307179586
  0
LWPOLYLINE
  5
1A8
330
180
100
AcDbEntity
  8
AM_4
100
AcDbPolyline
 90
        3
 70
     0
 43
0.0
 10
1.757221528538923
 20
-0.1894430570778458
 10
1.803385602415867
 20
-0.1578692142315382
 10
1.847409257229538
 20
-0.1262953713852305
  0
LINE
  5
1A9
330
180
100
AcDbEntity
  8
AM_4
100
AcDbLine
 10
1.847409257229538
 20
-0.1262953713852305
 30
0.0
 11
1.849677294546634
 21
-0.0876639037391226
 31
0.0
  0
LWPOLYLINE
  5
1AA
330
180
100
AcDbEntity
  8
AM_4
100
AcDbPolyline
 90
        3
 70
     0
 43
0.0
 10
1.847409257229538
 20
0.1262953713852308
 10
1.80358797708269
 20
0.1577272497321277
 10
1.757221528538923
 20
0.1894430570778461
  0
LINE
  5
1AB
330
180
100
AcDbEntity
  8
AM_4
100
AcDbLine
 10
1.849667864371098
 20
0.0878529476487881
 30
0.0
 11
1.847409257229538
 21
0.1262953713852308
 31
0.0
  0
LWPOLYLINE
  5
1AC
330
180
100
AcDbEntity
  8
AM_4
100
AcDbPolyline
 90
        3
 70
     0
 43
0.0
 10
1.757221528538923
 20
0.1894430570778461
 10
1.708664073876944
 20
0.2210168999241537
 10
1.657966200151693
 20
0.2525907427704614
  0
LWPOLYLINE
  5
1AD
330
180
100
AcDbEntity
  8
AM_4
100
AcDbPolyline
 90
        3
 70
     0
 43
0.0
 10
1.657966200151693
 20
-0.2525907427704611
 10
1.708440555045535
 20
-0.2211588644235641
 10
1.757221528538923
 20
-0.1894430570778458
  0
LWPOLYLINE
  5
1AE
330
180
100
AcDbEntity
  8
AM_4
100
AcDbPolyline
 90
        3
 70
     0
 43
0.0
 10
1.657966200151693
 20
0.2525907427704614
 10
1.614144920004844
 20
0.2211588644235645
 10
1.567778471461077
 20
0.1894430570778461
  0
LINE
  5
1AF
330
180
100
AcDbEntity
  8
AM_4
100
AcDbLine
 10
1.657966200151693
 20
0.2525907427704614
 30
0.0
 11
1.617033799848307
 21
0.2525907427704614
 31
0.0
  0
LWPOLYLINE
  5
1B0
330
180
100
AcDbEntity
  8
AM_4
100
AcDbPolyline
 90
        3
 70
     0
 43
0.0
 10
1.517778471461077
 20
0.1894430570778461
 10
1.566335926123056
 20
0.2210168999241537
 10
1.617033799848307
 20
0.2525907427704614
  0
LWPOLYLINE
  5
1B1
330
180
100
AcDbEntity
  8
AM_4
100
AcDbPolyline
 90
        3
 70
     0
 43
0.0
 10
1.427590742770461
 20
0.1262953713852308
 10
1.471412022917309
 20
0.1577272497321278
 10
1.517778471461077
 20
0.1894430570778461
  0
LINE
  5
1B2
330
180
100
AcDbEntity
  8
AM_4
100
AcDbLine
 10
1.657966200151693
 20
-0.2525907427704611
 30
0.0
 11
1.617033799848307
 21
-0.2525907427704611
 31
0.0
  0
LWPOLYLINE
  5
1B3
330
180
100
AcDbEntity
  8
AM_4
100
AcDbPolyline
 90
        3
 70
     0
 43
0.0
 10
1.567778471461077
 20
-0.1894430570778458
 10
1.613942545338021
 20
-0.2210168999241534
 10
1.657966200151693
 20
-0.2525907427704611
  0
LWPOLYLINE
  5
1B4
330
180
100
AcDbEntity
  8
AM_4
100
AcDbPolyline
 90
        3
 70
     0
 43
0.0
 10
1.517778471461077
 20
-0.1894430570778458
 10
1.471614397584133
 20
-0.1578692142315381
 10
1.427590742770461
 20
-0.1262953713852305
  0
LWPOLYLINE
  5
1B5
330
180
100
AcDbEntity
  8
AM_4
100
AcDbPolyline
 90
        3
 70
     0
 43
0.0
 10
1.617033799848307
 20
-0.2525907427704611
 10
1.566559444954464
 20
-0.2211588644235641
 10
1.517778471461077
 20
-0.1894430570778458
  0
LINE
  5
1B6
330
180
100
AcDbEntity
  8
AM_4
100
AcDbLine
 10
1.468523143073847
 20
-0.1262953713852304
 30
0.0
 11
1.427590742770461
 21
-0.1262953713852305
 31
0.0
  0
LINE
  5
1B7
330
180
100
AcDbEntity
  8
AM_4
100
AcDbLine
 10
1.468523143073847
 20
0.1262953713852308
 30
0.0
 11
1.427590742770461
 21
0.1262953713852308
 31
0.0
  0
LWPOLYLINE
  5
1B8
330
180
100
AcDbEntity
  8
AM_4
100
AcDbPolyline
 90
        3
 70
     0
 43
0.0
 10
1.423056942922154
 20
0.0000000000000002
 10
1.424253633314671
 20
0.0631476856926155
 10
1.427590742770461
 20
0.1262953713852308
  0
LWPOLYLINE
  5
1B9
330
180
100
AcDbEntity
  8
AM_4
100
AcDbPolyline
 90
        4
 70
     0
 43
0.0
 10
1.427590742770461
 20
-0.1262953713852305
 10
1.425798149181076
 20
-0.0967996321117976
 10
1.42376985704369
 20
-0.0485424412477542
 10
1.423056942922154
 20
0.0000000000000002
  0
LWPOLYLINE
  5
1BA
330
180
100
AcDbEntity
  8
AM_4
100
AcDbPolyline
 90
        4
 70
     0
 43
0.0
 10
1.473056942922154
 20
0.0000000000000002
 10
1.472348162563585
 20
-0.0483998160558987
 10
1.470315736663232
 20
-0.0967996321117976
 10
1.468523143073847
 20
-0.1262953713852304
  0
LWPOLYLINE
  5
1BB
330
180
100
AcDbEntity
  8
AM_4
100
AcDbPolyline
 90
        3
 70
     0
 43
0.0
 10
1.468523143073847
 20
-0.1262953713852304
 10
1.518997497967689
 20
-0.1577272497321274
 10
1.567778471461077
 20
-0.1894430570778458
  0
ELLIPSE
  5
1BC
330
180
100
AcDbEntity
  8
AM_4
100
AcDbEllipse
 10
1.662500000000002
 20
0.0000000000000015
 30
0.0
 11
-4.018372309702293E-17
 21
-0.2187500000000022
 31
0.0
210
0.0
220
0.0
230
1.0
 40
0.8660254037844404
 41
2.108622323974755
 42
7.316155636794614
  0
LWPOLYLINE
  5
1BD
330
180
100
AcDbEntity
  8
AM_4
100
AcDbPolyline
 90
        3
 70
     0
 43
0.0
 10
1.567778471461077
 20
0.1894430570778461
 10
1.519221016799098
 20
0.1578692142315385
 10
1.468523143073847
 20
0.1262953713852308
  0
LWPOLYLINE
  5
1BE
330
180
100
AcDbEntity
  8
AM_4
100
AcDbPolyline
 90
        3
 70
     0
 43
0.0
 10
1.468523143073847
 20
0.1262953713852308
 10
1.471849680447344
 20
0.0634316146914369
 10
1.473056942922154
 20
0.0000000000000002
  0
ELLIPSE
  5
1BF
330
180
100
AcDbEntity
  8
AM_4
100
AcDbEllipse
 10
1.662499999999999
 20
-0.0000000000000006
 30
0.0
 11
-3.926523799766216E-17
 21
-0.2137500000000008
 31
0.0
210
0.0
220
0.0
230
1.0
 40
0.8660254037844387
 41
2.155305801354445
 42
7.26947215941494
  0
ELLIPSE
  5
1C0
330
180
100
AcDbEntity
  8
AM_4
100
AcDbEllipse
 10
1.671659099270441
 20
-0.000000000000001
 30
0.0
 11
-3.169399141454478E-17
 21
-0.1725340532830166
 31
0.0
210
0.0
220
0.0
230
1.0
 40
0.8660254037844368
 41
2.468322243442268
 42
6.95645571732712
  0
ELLIPSE
  5
1C1
330
180
100
AcDbEntity
  8
AM_4
100
AcDbEllipse
 10
1.698876560809286
 20
0.0000000000000002
 30
0.0
 11
-2.182689656893354E-17
 21
-0.1188200907348975
 31
0.0
210
0.0
220
0.0
230
1.0
 40
0.8660254037844292
 41
3.089421211179176
 42
6.335356749590209
  0
ELLIPSE
  5
1C2
330
180
100
AcDbEntity
  8
AM_4
100
AcDbEllipse
 10
1.715000000000001
 20
0.0000000000000002
 30
0.0
 11
-1.928818708657087E-17
 21
-0.1050000000000003
 31
0.0
210
0.0
220
0.0
230
1.0
 40
0.8660254037844384
 41
3.566671979498452
 42
5.858105981270929
  0
LINE
  5
1C3
330
180
100
AcDbEntity
  8
AM_4
100
AcDbLine
 10
1.65125
 20
-0.0524999999999999
 30
0.0
 11
1.65875
 21
-0.0675
 31
0.0
  0
LINE
  5
1C4
330
180
100
AcDbEntity
  8
AM_4
100
AcDbLine
 10
1.65875
 20
0.0675000000000004
 30
0.0
 11
1.65125
 21
0.0525000000000003
 31
0.0
  0
ELLIPSE
  5
1C5
330
180
100
AcDbEntity
  8
AM_4
100
AcDbEllipse
 10
1.729999999999998
 20
0.0000000000000002
 30
0.0
 11
-1.928818708657045E-17
 21
-0.1049999999999981
 31
0.0
210
0.0
220
0.0
230
1.0
 40
0.866025403784442
 41
4.188790204786379
 42
5.235987755983
  0
LINE
  5
1C6
330
180
100
AcDbEntity
  8
AM_4
100
AcDbLine
 10
1.862226847792107
 20
0.0733474205218689
 30
0.0
 11
1.841815310731619
 21
0.0964365416902993
 31
0.0
  0
LINE
  5
1C7
330
180
100
AcDbEntity
  8
AM_4
100
AcDbLine
 10
1.841815310731619
 20
-0.0964365416902989
 30
0.0
 11
1.862226847792107
 21
-0.0733474205218686
 31
0.0
  0
ELLIPSE
  5
1C8
330
180
100
AcDbEntity
  8
AM_4
100
AcDbEllipse
 10
1.760000000000001
 20
-0.0000000000000001
 30
0.0
 11
-2.479909768273394E-17
 21
-0.1350000000000002
 31
0.0
210
0.0
220
0.0
230
1.0
 40
0.866025403784433
 41
2.366483642874681
 42
7.058294317894701
  0
ELLIPSE
  5
1C9
330
180
100
AcDbEntity
  8
AM_4
100
AcDbEllipse
 10
1.8
 20
0.0000000000000002
 30
0.0
 11
-1.886162459184664E-17
 21
-0.1026779019331878
 31
0.0
210
0.0
220
0.0
230
1.0
 40
0.8660254037844374
 41
0.0
 42
6.283185307179586
  0
ENDBLK
  5
183
330
180
100
AcDbEntity
  8
0
100
AcDbBlockEnd
  0
BLOCK
  5
1CC
330
1CA
100
AcDbEntity
  8
0
100
AcDbBlockBegin
  2
7_069446H_0_in_069446_4
 70
     2
 10
0.0
 20
0.0
 30
0.0
  3
7_069446H_0_in_069446_4
  1

  0
ATTDEF
  5
1CE
330
1CA
100
AcDbEntity
  8
AM_6
100
AcDbText
 10
10.21875
 20
1.69296875
 30
0.0
 40
0.5
  1
P2B-IP -(Contact Seal)-Housing -Inch
100
AcDbAttributeDefinition
  3

  2
NN
 70
     8
280
     0
  0
ATTDEF
  5
1CF
330
1CA
100
AcDbEntity
  8
AM_6
100
AcDbText
 10
10.21875
 20
1.19296875
 30
0.0
 40
0.5
  1
Imperial 2 Bolt Piliow Block Bearings
100
AcDbAttributeDefinition
  3

  2
NT
 70
     8
280
     0
  0
ATTDEF
  5
1D0
330
1CA
100
AcDbEntity
  8
AM_6
100
AcDbText
 10
10.21875
 20
0.6929687499999999
 30
0.0
 40
0.5
  1
069446H
100
AcDbAttributeDefinition
  3

  2
NB
 70
     8
280
     0
  0
ATTDEF
  5
1D1
330
1CA
100
AcDbEntity
  8
AM_6
100
AcDbText
 10
10.21875
 20
0.1929687499999999
 30
0.0
 40
0.5
  1
$PN.H
100
AcDbAttributeDefinition
  3

  2
NBSYN
 70
     8
280
     0
  0
ATTDEF
  5
1D2
330
1CA
100
AcDbEntity
  8
AM_6
100
AcDbText
 10
10.21875
 20
-0.3070312500000001
 30
0.0
 40
0.5
  1
069446
100
AcDbAttributeDefinition
  3

  2
LINA
 70
     8
280
     0
  0
ATTDEF
  5
1D3
330
1CA
100
AcDbEntity
  8
AM_6
100
AcDbText
 10
10.21875
 20
-0.8070312500000001
 30
0.0
 40
0.5
  1
2-3/4
100
AcDbAttributeDefinition
  3

  2
SS
 70
     8
280
     0
  0
ATTDEF
  5
1D4
330
1CA
100
AcDbEntity
  8
AM_6
100
AcDbText
 10
10.21875
 20
-1.30703125
 30
0.0
 40
0.5
  1
069446
100
AcDbAttributeDefinition
  3

  2
PN
 70
     8
280
     0
  0
ATTDEF
  5
1D5
330
1CA
100
AcDbEntity
  8
AM_6
100
AcDbText
 10
10.21875
 20
-1.80703125
 30
0.0
 40
0.5
  1
P2B-IP-212RE
100
AcDbAttributeDefinition
  3

  2
DESCRIPTION
 70
     8
280
     0
  0
ATTDEF
  5
1D6
330
1CA
100
AcDbEntity
  8
AM_6
100
AcDbText
 10
10.21875
 20
-2.30703125
 30
0.0
 40
0.5
  1
Expansion Type
100
AcDbAttributeDefinition
  3

  2
EF
 70
     8
280
     0
  0
ATTDEF
  5
1D7
330
1CA
100
AcDbEntity
  8
AM_6
100
AcDbText
 10
10.21875
 20
-2.80703125
 30
0.0
 40
0.5
  1
Contact  Seal
100
AcDbAttributeDefinition
  3

  2
ST
 70
     8
280
     0
  0
ATTDEF
  5
1D8
330
1CA
100
AcDbEntity
  8
AM_6
100
AcDbText
 10
10.21875
 20
-3.30703125
 30
0.0
 40
0.5
  1
3-1/2
100
AcDbAttributeDefinition
  3

  2
A
 70
     8
280
     0
  0
ATTDEF
  5
1D9
330
1CA
100
AcDbEntity
  8
AM_6
100
AcDbText
 10
10.21875
 20
-3.80703125
 30
0.0
 40
0.5
  1
10-7/16
100
AcDbAttributeDefinition
  3

  2
B
 70
     8
280
     0
  0
ATTDEF
  5
1DA
330
1CA
100
AcDbEntity
  8
AM_6
100
AcDbText
 10
10.21875
 20
-4.30703125
 30
0.0
 40
0.5
  1
3-5/64
100
AcDbAttributeDefinition
  3

  2
C
 70
     8
280
     0
  0
ATTDEF
  5
1DB
330
1CA
100
AcDbEntity
  8
AM_6
100
AcDbText
 10
10.21875
 20
-4.80703125
 30
0.0
 40
0.5
  1
7-15/16
100
AcDbAttributeDefinition
  3

  2
DMIN
 70
     8
280
     0
  0
ATTDEF
  5
1DC
330
1CA
100
AcDbEntity
  8
AM_6
100
AcDbText
 10
10.21875
 20
-5.30703125
 30
0.0
 40
0.5
  1
8-5/16
100
AcDbAttributeDefinition
  3

  2
DMAX
 70
     8
280
     0
  0
ATTDEF
  5
1DD
330
1CA
100
AcDbEntity
  8
AM_6
100
AcDbText
 10
10.21875
 20
-5.80703125
 30
0.0
 40
0.5
  1
3/4
100
AcDbAttributeDefinition
  3

  2
F
 70
     8
280
     0
  0
ATTDEF
  5
1DE
330
1CA
100
AcDbEntity
  8
AM_6
100
AcDbText
 10
10.21875
 20
-6.30703125
 30
0.0
 40
0.5
  1
1-1/16
100
AcDbAttributeDefinition
  3

  2
G
 70
     8
280
     0
  0
ATTDEF
  5
1DF
330
1CA
100
AcDbEntity
  8
AM_6
100
AcDbText
 10
10.21875
 20
-6.80703125
 30
0.0
 40
0.5
  1
1-7/8
100
AcDbAttributeDefinition
  3

  2
H
 70
     8
280
     0
  0
ATTDEF
  5
1E0
330
1CA
100
AcDbEntity
  8
AM_6
100
AcDbText
 10
10.21875
 20
-7.30703125
 30
0.0
 40
0.5
  1
6-3/8
100
AcDbAttributeDefinition
  3

  2
J
 70
     8
280
     0
  0
ATTDEF
  5
1E1
330
1CA
100
AcDbEntity
  8
AM_6
100
AcDbText
 10
10.21875
 20
-7.80703125
 30
0.0
 40
0.5
  1
4-9/32
100
AcDbAttributeDefinition
  3

  2
L
 70
     8
280
     0
  0
ATTDEF
  5
1E2
330
1CA
100
AcDbEntity
  8
AM_6
100
AcDbText
 10
10.21875
 20
-8.30703125
 30
0.0
 40
0.5
  1
3-1/4
100
AcDbAttributeDefinition
  3

  2
M
 70
     8
280
     0
  0
ATTDEF
  5
1E3
330
1CA
100
AcDbEntity
  8
AM_6
100
AcDbText
 10
10.21875
 20
-8.80703125
 30
0.0
 40
0.5
  1
1-15/64
100
AcDbAttributeDefinition
  3

  2
R
 70
     8
280
     0
  0
ATTDEF
  5
1E4
330
1CA
100
AcDbEntity
  8
AM_6
100
AcDbText
 10
10.21875
 20
-9.30703125
 30
0.0
 40
0.5
  1
2-17/64
100
AcDbAttributeDefinition
  3

  2
S
 70
     8
280
     0
  0
ATTDEF
  5
1E5
330
1CA
100
AcDbEntity
  8
AM_6
100
AcDbText
 10
10.21875
 20
-9.80703125
 30
0.0
 40
0.5
  1
1/4
100
AcDbAttributeDefinition
  3

  2
X
 70
     8
280
     0
  0
ATTDEF
  5
1E6
330
1CA
100
AcDbEntity
  8
AM_6
100
AcDbText
 10
10.21875
 20
-10.30703125
 30
0.0
 40
0.5
  1
0.025
100
AcDbAttributeDefinition
  3

  2
Y
 70
     8
280
     0
  0
ATTDEF
  5
1E7
330
1CA
100
AcDbEntity
  8
AM_6
100
AcDbText
 10
10.21875
 20
-10.80703125
 30
0.0
 40
0.5
  1
3-15/32
100
AcDbAttributeDefinition
  3

  2
Z
 70
     8
280
     0
  0
ATTDEF
  5
1E8
330
1CA
100
AcDbEntity
  8
AM_6
100
AcDbText
 10
10.21875
 20
-11.30703125
 30
0.0
 40
0.5
  1
baldor
100
AcDbAttributeDefinition
  3

  2
COMPANY
 70
     8
280
     0
  0
LINE
  5
1E9
330
1CA
100
AcDbEntity
  8
AM_9
100
AcDbLine
 10
2.55905
 20
-1.38515625
 30
0.0
 11
2.55905
 21
1.38515625
 31
0.0
  0
LINE
  5
1EA
330
1CA
100
AcDbEntity
  8
AM_9
100
AcDbLine
 10
-2.55905
 20
1.38515625
 30
0.0
 11
-2.55905
 21
-1.38515625
 31
0.0
  0
LINE
  5
1EB
330
1CA
100
AcDbEntity
  8
AM_9
100
AcDbLine
 10
1.571854102095439
 20
0.4998830873025368
 30
0.0
 11
1.562500000000001
 21
0.5000000000000001
 31
0.0
  0
LWPOLYLINE
  5
1EC
330
1CA
100
AcDbEntity
  8
AM_9
100
AcDbPolyline
 90
       28
 70
     0
 43
0.0
 10
1.610618766633188
 20
-0.4968708811294384
 10
1.656387358816753
 20
-0.487816767640632
 10
1.701544684528242
 20
-0.4726377843936981
 10
1.74442443311851
 20
-0.4517394866893875
 10
1.784816790241128
 20
-0.4251245092994818
 10
1.822279063912661
 20
-0.3931981886887113
 10
1.856209881693923
 20
-0.3565477269598614
 10
1.886651793188698
 20
-0.3149608117458864
 10
1.913059072042358
 20
-0.2692621449580868
 10
1.93501715540388
 20
-0.2202960202325793
 10
1.952342915423047
 20
-0.1684218728704575
 10
1.96496088338512
 20
-0.1142118031130739
 10
1.972667728782404
 20
-0.0587013661848502
 10
1.975347048274361
 20
-0.003039847102718
 10
1.973155782363635
 20
0.0528372728196015
 10
1.966129061418048
 20
0.1078678597611228
 10
1.954334925371981
 20
0.1612053745037864
 10
1.937880414154302
 20
0.212698308968202
 10
1.917019335272366
 20
0.2614058022108837
 10
1.891591913620541
 20
0.3072218898900556
 10
1.861970758901062
 20
0.3493494148341903
 10
1.82861576985319
 20
0.3870225551566889
 10
1.791325904892473
 20
0.4201235770586678
 10
1.750714555253235
 20
0.4480234645252896
 10
1.707468405541558
 20
0.4701877986450967
 10
1.662085109977007
 20
0.4862563204909803
 10
1.614815053325855
 20
0.4962531591494465
 10
1.571854102095439
 20
0.4998830873025368
  0
LINE
  5
1ED
330
1CA
100
AcDbEntity
  8
AM_9
100
AcDbLine
 10
1.562500000000001
 20
-0.4999999999999998
 30
0.0
 11
1.567347665356307
 21
-0.4999686334245309
 31
0.0
  0
ELLIPSE
  5
1EE
330
1CA
100
AcDbEntity
  8
AM_9
100
AcDbEllipse
 10
1.562500000010811
 20
0.0000000000118362
 30
0.0
 11
-9.184850993822572E-17
 21
-0.500000000011836
 31
0.0
210
0.0
220
0.0
230
1.0
 40
0.8660254037843512
 41
0.0
 42
3.141592653589793
  0
LINE
  5
1F1
330
1CA
100
AcDbEntity
  8
AM_7
100
AcDbLine
 10
0.0
 20
1.69296875
 30
0.0
 11
0.0
 21
-2.191875
 31
0.0
  0
LINE
  5
1F2
330
1CA
100
AcDbEntity
  8
AM_7
100
AcDbLine
 10
-4.55
 20
0.0000000000000005
 30
0.0
 11
-3.574999999999999
 21
0.0000000000000004
 31
0.0
  0
LINE
  5
1F3
330
1CA
100
AcDbEntity
  8
AM_7
100
AcDbLine
 10
-4.15625
 20
-0.3937499999999995
 30
0.0
 11
-4.15625
 21
0.3937500000000005
 31
0.0
  0
LINE
  5
1F4
330
1CA
100
AcDbEntity
  8
AM_7
100
AcDbLine
 10
-3.968749999999999
 20
-0.3937499999999997
 30
0.0
 11
-3.968749999999999
 21
0.3937500000000004
 31
0.0
  0
LINE
  5
1F5
330
1CA
100
AcDbEntity
  8
AM_7
100
AcDbLine
 10
3.574999999999999
 20
-0.0000000000000002
 30
0.0
 11
4.55
 21
0.0
 31
0.0
  0
LINE
  5
1F6
330
1CA
100
AcDbEntity
  8
AM_7
100
AcDbLine
 10
3.968749999999999
 20
-0.3937500000000002
 30
0.0
 11
3.968749999999999
 21
0.3937499999999999
 31
0.0
  0
LINE
  5
1F7
330
1CA
100
AcDbEntity
  8
AM_7
100
AcDbLine
 10
4.15625
 20
-0.39375
 30
0.0
 11
4.15625
 21
0.39375
 31
0.0
  0
LINE
  5
1F8
330
1CA
100
AcDbEntity
  8
AM_4
100
AcDbLine
 10
-3.466406249999999
 20
-1.5390625
 30
0.0
 11
-4.9109375
 21
-1.5390625
 31
0.0
  0
LINE
  5
1F9
330
1CA
100
AcDbEntity
  8
AM_4
100
AcDbLine
 10
-3.466406249999999
 20
1.5390625
 30
0.0
 11
-4.9109375
 21
1.5390625
 31
0.0
  0
ARC
  5
1FA
330
1CA
100
AcDbEntity
  8
AM_4
100
AcDbCircle
 10
-3.968749999999999
 20
0.0000000000000005
 30
0.0
 40
0.3750000000000001
100
AcDbArc
 50
270.0
 51
90.0
  0
LINE
  5
1FB
330
1CA
100
AcDbEntity
  8
AM_4
100
AcDbLine
 10
-5.21875
 20
-1.231250000000001
 30
0.0
 11
-4.9109375
 21
-1.5390625
 31
0.0
  0
LINE
  5
1FC
330
1CA
100
AcDbEntity
  8
AM_4
100
AcDbLine
 10
-4.15625
 20
-0.3749999999999995
 30
0.0
 11
-3.96875
 21
-0.3749999999999996
 31
0.0
  0
LINE
  5
1FD
330
1CA
100
AcDbEntity
  8
AM_4
100
AcDbLine
 10
-3.96875
 20
0.3750000000000006
 30
0.0
 11
-4.15625
 21
0.3750000000000004
 31
0.0
  0
ARC
  5
1FE
330
1CA
100
AcDbEntity
  8
AM_4
100
AcDbCircle
 10
-4.15625
 20
0.0000000000000005
 30
0.0
 40
0.3749999999999999
100
AcDbArc
 50
90.0
 51
270.0
  0
LINE
  5
1FF
330
1CA
100
AcDbEntity
  8
AM_4
100
AcDbLine
 10
-4.9109375
 20
1.5390625
 30
0.0
 11
-5.21875
 21
1.231250000000001
 31
0.0
  0
LINE
  5
200
330
1CA
100
AcDbEntity
  8
AM_4
100
AcDbLine
 10
-5.031249999999999
 20
-1.418750000000001
 30
0.0
 11
-5.031249999999999
 21
1.418750000000001
 31
0.0
  0
LINE
  5
201
330
1CA
100
AcDbEntity
  8
AM_4
100
AcDbLine
 10
-5.21875
 20
-1.23125
 30
0.0
 11
-5.21875
 21
1.23125
 31
0.0
  0
LINE
  5
202
330
1CA
100
AcDbEntity
  8
AM_4
100
AcDbLine
 10
4.910937500000001
 20
-1.5390625
 30
0.0
 11
5.21875
 21
-1.23125
 31
0.0
  0
LINE
  5
203
330
1CA
100
AcDbEntity
  8
AM_4
100
AcDbLine
 10
5.21875
 20
1.23125
 30
0.0
 11
4.9109375
 21
1.5390625
 31
0.0
  0
LINE
  5
204
330
1CA
100
AcDbEntity
  8
AM_4
100
AcDbLine
 10
5.21875
 20
-1.23125
 30
0.0
 11
5.21875
 21
1.23125
 31
0.0
  0
LINE
  5
205
330
1CA
100
AcDbEntity
  8
AM_4
100
AcDbLine
 10
4.9109375
 20
1.5390625
 30
0.0
 11
3.46640625
 21
1.5390625
 31
0.0
  0
LINE
  5
206
330
1CA
100
AcDbEntity
  8
AM_4
100
AcDbLine
 10
4.910937500000001
 20
-1.5390625
 30
0.0
 11
3.466406249999999
 21
-1.5390625
 31
0.0
  0
LINE
  5
207
330
1CA
100
AcDbEntity
  8
AM_4
100
AcDbLine
 10
4.15625
 20
0.3750000000000002
 30
0.0
 11
3.96875
 21
0.3749999999999999
 31
0.0
  0
ARC
  5
208
330
1CA
100
AcDbEntity
  8
AM_4
100
AcDbCircle
 10
4.15625
 20
0.0
 30
0.0
 40
0.3750000000000001
100
AcDbArc
 50
270.0
 51
90.0
  0
LINE
  5
209
330
1CA
100
AcDbEntity
  8
AM_4
100
AcDbLine
 10
3.96875
 20
-0.3750000000000003
 30
0.0
 11
4.15625
 21
-0.3750000000000001
 31
0.0
  0
ARC
  5
20A
330
1CA
100
AcDbEntity
  8
AM_4
100
AcDbCircle
 10
3.968749999999999
 20
-0.0000000000000002
 30
0.0
 40
0.3750000000000001
100
AcDbArc
 50
90.0
 51
270.0
  0
LINE
  5
20B
330
1CA
100
AcDbEntity
  8
AM_4
100
AcDbLine
 10
5.031250000000001
 20
-1.418749999999999
 30
0.0
 11
5.031250000000001
 21
1.41875
 31
0.0
  0
LINE
  5
20C
330
1CA
100
AcDbEntity
  8
AM_4
100
AcDbLine
 10
3.181249999999999
 20
-1.099330357142857
 30
0.0
 11
3.181249999999999
 21
1.099330357142857
 31
0.0
  0
LINE
  5
20D
330
1CA
100
AcDbEntity
  8
AM_4
100
AcDbLine
 10
-3.18125
 20
-1.099330357142857
 30
0.0
 11
-3.18125
 21
1.099330357142857
 31
0.0
  0
LINE
  5
20E
330
1CA
100
AcDbEntity
  8
AM_4
100
AcDbLine
 10
-3.466406249999999
 20
1.5390625
 30
0.0
 11
-3.312499999999999
 21
1.38515625
 31
0.0
  0
LINE
  5
20F
330
1CA
100
AcDbEntity
  8
AM_4
100
AcDbLine
 10
-3.478837573567026
 20
1.099330357142857
 30
0.0
 11
-3.478837573567026
 21
1.5390625
 31
0.0
  0
LINE
  5
210
330
1CA
100
AcDbEntity
  8
AM_4
100
AcDbLine
 10
3.478837573567026
 20
1.099330357142857
 30
0.0
 11
3.478837573567026
 21
1.5390625
 31
0.0
  0
LINE
  5
211
330
1CA
100
AcDbEntity
  8
AM_4
100
AcDbLine
 10
3.3125
 20
1.38515625
 30
0.0
 11
3.466406249999999
 21
1.5390625
 31
0.0
  0
LINE
  5
212
330
1CA
100
AcDbEntity
  8
AM_4
100
AcDbLine
 10
-3.478837573567026
 20
-1.5390625
 30
0.0
 11
-3.478837573567026
 21
-1.099330357142857
 31
0.0
  0
LINE
  5
213
330
1CA
100
AcDbEntity
  8
AM_4
100
AcDbLine
 10
-3.3125
 20
-1.38515625
 30
0.0
 11
-3.466406249999999
 21
-1.5390625
 31
0.0
  0
LINE
  5
214
330
1CA
100
AcDbEntity
  8
AM_4
100
AcDbLine
 10
3.466406249999999
 20
-1.5390625
 30
0.0
 11
3.312499999999999
 21
-1.38515625
 31
0.0
  0
LINE
  5
215
330
1CA
100
AcDbEntity
  8
AM_4
100
AcDbLine
 10
3.478837573567026
 20
-1.5390625
 30
0.0
 11
3.478837573567026
 21
-1.099330357142857
 31
0.0
  0
LINE
  5
216
330
1CA
100
AcDbEntity
  8
AM_4
100
AcDbLine
 10
-3.292674180101276
 20
1.099330357142856
 30
0.0
 11
-3.292674180101276
 21
1.38515625
 31
0.0
  0
LINE
  5
217
330
1CA
100
AcDbEntity
  8
AM_4
100
AcDbLine
 10
-3.292674180101276
 20
-1.38515625
 30
0.0
 11
-3.292674180101276
 21
-1.099330357142857
 31
0.0
  0
LINE
  5
218
330
1CA
100
AcDbEntity
  8
AM_4
100
AcDbLine
 10
3.292674180101276
 20
1.099330357142857
 30
0.0
 11
3.292674180101276
 21
1.38515625
 31
0.0
  0
LINE
  5
219
330
1CA
100
AcDbEntity
  8
AM_4
100
AcDbLine
 10
3.292674180101276
 20
-1.38515625
 30
0.0
 11
3.292674180101276
 21
-1.099330357142857
 31
0.0
  0
LINE
  5
21A
330
1CA
100
AcDbEntity
  8
AM_4
100
AcDbLine
 10
-3.102723224429153
 20
1.099330357142857
 30
0.0
 11
-3.102723224429153
 21
1.38515625
 31
0.0
  0
LINE
  5
21B
330
1CA
100
AcDbEntity
  8
AM_4
100
AcDbLine
 10
-3.087499999999999
 20
1.099330357142857
 30
0.0
 11
-3.478837573567026
 21
1.099330357142857
 31
0.0
  0
LINE
  5
21C
330
1CA
100
AcDbEntity
  8
AM_4
100
AcDbLine
 10
-3.087499999999999
 20
-1.099330357142857
 30
0.0
 11
-3.087499999999999
 21
1.099330357142857
 31
0.0
  0
LINE
  5
21D
330
1CA
100
AcDbEntity
  8
AM_4
100
AcDbLine
 10
-3.087499999999999
 20
-1.099330357142857
 30
0.0
 11
-3.478837573567026
 21
-1.099330357142857
 31
0.0
  0
LINE
  5
21E
330
1CA
100
AcDbEntity
  8
AM_4
100
AcDbLine
 10
-3.102723224429153
 20
-1.38515625
 30
0.0
 11
-3.102723224429153
 21
-1.099330357142857
 31
0.0
  0
LINE
  5
21F
330
1CA
100
AcDbEntity
  8
AM_4
100
AcDbLine
 10
3.102723224429153
 20
1.099330357142856
 30
0.0
 11
3.102723224429153
 21
1.38515625
 31
0.0
  0
LINE
  5
220
330
1CA
100
AcDbEntity
  8
AM_4
100
AcDbLine
 10
3.102723224429153
 20
-1.38515625
 30
0.0
 11
3.102723224429153
 21
-1.099330357142857
 31
0.0
  0
LINE
  5
221
330
1CA
100
AcDbEntity
  8
AM_4
100
AcDbLine
 10
3.478837573567026
 20
-1.099330357142857
 30
0.0
 11
3.087499999999999
 21
-1.099330357142857
 31
0.0
  0
LINE
  5
222
330
1CA
100
AcDbEntity
  8
AM_4
100
AcDbLine
 10
3.087499999999999
 20
1.099330357142857
 30
0.0
 11
3.087499999999999
 21
-1.099330357142857
 31
0.0
  0
LINE
  5
223
330
1CA
100
AcDbEntity
  8
AM_4
100
AcDbLine
 10
3.478837573567026
 20
1.099330357142857
 30
0.0
 11
3.087499999999999
 21
1.099330357142857
 31
0.0
  0
LWPOLYLINE
  5
224
330
1CA
100
AcDbEntity
  8
AM_4
100
AcDbPolyline
 90
       29
 70
     0
 43
0.0
 10
1.562500000000001
 20
0.5000000000000001
 10
1.515528455341108
 20
0.497043775671494
 10
1.468523150284853
 20
0.4882833577415134
 10
1.422342390897774
 20
0.4738811287933654
 10
1.376223637646596
 20
0.4532695089039604
 10
1.331920448212847
 20
0.4270449526032065
 10
1.290303228053996
 20
0.3956957706948065
 10
1.251464000392901
 20
0.3590320242874034
 10
1.21625742199453
 20
0.317764682545478
 10
1.185414318078743
 20
0.2726500497556072
 10
1.159227268457441
 20
0.2237436081583585
 10
1.138156833167092
 20
0.1718090088395832
 10
1.122677531216222
 20
0.1178279975171212
 10
1.112716901445468
 20
0.0593417405227416
 10
1.109357633014413
 20
0.0000000000000002
 10
1.112339382748921
 20
-0.0556432743052305
 10
1.121150297313713
 20
-0.1107561396682718
 10
1.135588874750695
 20
-0.1642984711205211
 10
1.155538517345738
 20
-0.2157199758664132
 10
1.180667997465036
 20
-0.2646027368593394
 10
1.210437780198515
 20
-0.3100561284680115
 10
1.244847574646521
 20
-0.3519413443903825
 10
1.283216612793719
 20
-0.3895489252096659
 10
1.324758344229653
 20
-0.4221855673740849
 10
1.369301447436246
 20
-0.4496083395394401
 10
1.41610668368587
 20
-0.471429885259072
 10
1.464227705812748
 20
-0.4872233292992733
 10
1.513291264776014
 20
-0.4967839202298149
 10
1.562500000000001
 20
-0.4999999999999998
  0
ELLIPSE
  5
225
330
1CA
100
AcDbEntity
  8
AM_4
100
AcDbEllipse
 10
1.5625
 20
0.0000000000000003
 30
0.0
 11
-9.184850993605151E-17
 21
-0.5000000000000001
 31
0.0
210
0.0
220
0.0
230
1.0
 40
0.8660254037844382
 41
3.141592653589793
 42
6.283185307179586
  0
ELLIPSE
  5
226
330
1CA
100
AcDbEntity
  8
AM_4
100
AcDbEllipse
 10
1.6125
 20
0.0000000000000002
 30
0.0
 11
2.449293598294708E-17
 21
0.4000000000000002
 31
0.0
210
0.0
220
0.0
230
1.0
 40
0.8660254037844384
 41
0.0
 42
6.283185307179586
  0
LWPOLYLINE
  5
227
330
1CA
100
AcDbEntity
  8
AM_4
100
AcDbPolyline
 90
       45
 70
     0
 43
0.0
 10
1.563033304208367
 20
-0.499999644483148
 10
1.589151285592605
 20
-0.499111334179583
 10
1.621022589324297
 20
-0.4957001081116967
 10
1.652568822263192
 20
-0.4897529044750206
 10
1.683636755643841
 20
-0.4813025358502905
 10
1.714075644568595
 20
-0.4703916006046074
 10
1.74373708316614
 20
-0.4570726360054613
 10
1.772475023420206
 20
-0.4414084999391618
 10
1.800146034586497
 20
-0.4234728824121266
 10
1.826609844853096
 20
-0.4033508245031579
 10
1.851730162136132
 20
-0.381139117561279
 10
1.875375725651806
 20
-0.3569464717103562
 10
1.897421503024396
 20
-0.3308933781785233
 10
1.917749927026456
 20
-0.3031116376285443
 10
1.936252065667782
 20
-0.2737435760877628
 10
1.952828637980536
 20
-0.2429410105803342
 10
1.967390819389434
 20
-0.2108640506315142
 10
1.979860816425437
 20
-0.1776798271287879
 10
1.99017222266145
 20
-0.1435612293612264
 10
1.998270190821423
 20
-0.1086857103729337
 10
2.00411146830672
 20
-0.0732341966607338
 10
2.007664346116812
 20
-0.0373901159417519
 10
2.008908567143506
 20
-0.0013385391223985
 10
2.007835232166395
 20
0.03473457959331
 10
2.004446802996015
 20
0.0706425368242034
 10
1.998757181559487
 20
0.1061989582528534
 10
1.990791619196582
 20
0.1412191173521878
 10
1.980586844930653
 20
0.1755199561707093
 10
1.968191243573934
 20
0.2089208183475796
 10
1.953665059590349
 20
0.2412442844992358
 10
1.937080590497918
 20
0.2723171407068343
 10
1.918522318847231
 20
0.3019715021614114
 10
1.898086918766927
 20
0.3300460976228157
 10
1.875883065684889
 20
0.356387695857328
 10
1.852030980781372
 20
0.3808526243408589
 10
1.826661658854601
 20
0.403308298071592
 10
1.799915760607052
 20
0.423634649984071
 10
1.771942194417765
 20
0.4417253428985918
 10
1.742896460221785
 20
0.4574886528625692
 10
1.712938868078128
 20
0.4708479466492935
 10
1.682232766075278
 20
0.4817417268347089
 10
1.650942910723
 20
0.4901232755000366
 10
1.619234088857559
 20
0.4959599795652466
 10
1.587270060049452
 20
0.499232456845448
 10
1.561618894797826
 20
0.499999029566072
  0
LINE
  5
228
330
1CA
100
AcDbEntity
  8
AM_4
100
AcDbLine
 10
0.8530166666666666
 20
-1.38515625
 30
0.0
 11
0.8530166666666666
 21
1.38515625
 31
0.0
  0
LINE
  5
229
330
1CA
100
AcDbEntity
  8
AM_4
100
AcDbLine
 10
0.7592666666666654
 20
-1.38515625
 30
0.0
 11
0.7592666666666675
 21
1.38515625
 31
0.0
  0
LINE
  5
22A
330
1CA
100
AcDbEntity
  8
AM_4
100
AcDbLine
 10
-3.3125
 20
-1.38515625
 30
0.0
 11
3.312499999999999
 21
-1.38515625
 31
0.0
  0
LINE
  5
22B
330
1CA
100
AcDbEntity
  8
AM_4
100
AcDbLine
 10
-0.759266666666667
 20
-1.38515625
 30
0.0
 11
-0.7592666666666649
 21
1.38515625
 31
0.0
  0
LINE
  5
22C
330
1CA
100
AcDbEntity
  8
AM_4
100
AcDbLine
 10
3.3125
 20
1.38515625
 30
0.0
 11
-3.312499999999999
 21
1.38515625
 31
0.0
  0
LINE
  5
22D
330
1CA
100
AcDbEntity
  8
AM_4
100
AcDbLine
 10
-0.8530166666666666
 20
-1.38515625
 30
0.0
 11
-0.8530166666666666
 21
1.38515625
 31
0.0
  0
ENDBLK
  5
1CD
330
1CA
100
AcDbEntity
  8
0
100
AcDbBlockEnd
  0
ENDSEC
  0
SECTION
  2
ENTITIES
  0
INSERT
  5
6F
330
1F
100
AcDbEntity
  8
0
100
AcDbBlockReference
  2
1_069446_4
 10
0.0
 20
0.0
 30
0.0
  0
POINT
  5
22F
330
1F
100
AcDbEntity
  8
ConnectionPoints
100
AcDbPoint
 10
0.0
 20
-1.812458333333333
 30
1.834201388888889
  0
POINT
  5
230
330
1F
100
AcDbEntity
  8
ConnectionPoints
100
AcDbPoint
 10
0.0
 20
-1.742458333333333
 30
0.0000000000000001
  0
POINT
  5
231
330
1F
100
AcDbEntity
  8
ConnectionPoints
100
AcDbPoint
 10
0.0
 20
-2.015625
 30
0.0000000000000001
  0
POINT
  5
232
330
1F
100
AcDbEntity
  8
ConnectionPoints
100
AcDbPoint
 10
0.0
 20
-1.941458333333333
 30
0.0000000000000001
  0
POINT
  5
233
330
1F
100
AcDbEntity
  8
ConnectionPoints
100
AcDbPoint
 10
0.0
 20
-1.742458333333333
 30
1.834201388888889
  0
POINT
  5
234
330
1F
100
AcDbEntity
  8
ConnectionPoints
100
AcDbPoint
 10
0.0
 20
-1.914625
 30
1.834201388888889
  0
POINT
  5
235
330
1F
100
AcDbEntity
  8
ConnectionPoints
100
AcDbPoint
 10
0.0
 20
-1.742458333333333
 30
-1.834201388888889
  0
POINT
  5
236
330
1F
100
AcDbEntity
  8
ConnectionPoints
100
AcDbPoint
 10
0.0
 20
-1.914625
 30
-1.834201388888889
  0
POINT
  5
237
330
1F
100
AcDbEntity
  8
ConnectionPoints
100
AcDbPoint
 10
0.0
 20
-1.742458333333333
 30
0.0000000000000001
  0
POINT
  5
238
330
1F
100
AcDbEntity
  8
ConnectionPoints
100
AcDbPoint
 10
1.6125
 20
0.0000000000000002
 30
2.792931927204815
  0
POINT
  5
239
330
1F
100
AcDbEntity
  8
ConnectionPoints
100
AcDbPoint
 10
1.6125
 20
0.0000000000000002
 30
2.792931927204815
  0
POINT
  5
23A
330
1F
100
AcDbEntity
  8
ConnectionPoints
100
AcDbPoint
 10
0.0
 20
-2.015625
 30
0.0000000000000001
  0
POINT
  5
23B
330
1F
100
AcDbEntity
  8
ConnectionPoints
100
AcDbPoint
 10
0.0
 20
-2.265625
 30
0.0000000000000001
  0
ENDSEC
  0
SECTION
  2
OBJECTS
  0
DICTIONARY
  5
C
330
0
100
AcDbDictionary
281
     1
  3
ACAD_DETAILVIEWSTYLE
350
243
  3
ACAD_GROUP
350
D
  3
ACAD_LAYOUT
350
1A
  3
ACAD_MATERIAL
350
43
  3
ACAD_MLEADERSTYLE
350
6B
  3
ACAD_MLINESTYLE
350
17
  3
ACAD_PLOTSETTINGS
350
19
  3
ACAD_PLOTSTYLENAME
350
E
  3
ACAD_SCALELIST
350
47
  3
ACAD_SECTIONVIEWSTYLE
350
244
  3
ACAD_TABLESTYLE
350
69
  3
ACAD_VISUALSTYLE
350
2A
  3
ACDB_RECOMPOSE_DATA
350
240
  3
AcDbVariableDictionary
350
23C
  0
SUN
  5
6D
330
29
100
AcDbSun
 90
        1
290
     0
 63
     7
421
 16777215
 40
1.0
291
     1
 91
  2455826
 92
 54000000
292
     0
 70
     2
 71
   256
280
     1
  0
DICTIONARY
  5
243
102
{ACAD_REACTORS
330
C
102
}
330
C
100
AcDbDictionary
281
     1
  0
DICTIONARY
  5
D
102
{ACAD_REACTORS
330
C
102
}
330
C
100
AcDbDictionary
281
     1
  0
DICTIONARY
  5
1A
102
{ACAD_REACTORS
330
C
102
}
330
C
100
AcDbDictionary
281
     1
  3
Layout1
350
1E
  3
Layout2
350
26
  3
Model
350
22
  0
DICTIONARY
  5
43
102
{ACAD_REACTORS
330
C
102
}
330
C
100
AcDbDictionary
281
     1
  3
ByBlock
350
45
  3
ByLayer
350
44
  3
Global
350
46
  0
DICTIONARY
  5
6B
102
{ACAD_REACTORS
330
C
102
}
330
C
100
AcDbDictionary
281
     1
  3
Standard
350
6C
  0
DICTIONARY
  5
17
102
{ACAD_REACTORS
330
C
102
}
330
C
100
AcDbDictionary
281
     1
  3
Standard
350
18
  0
DICTIONARY
  5
19
102
{ACAD_REACTORS
330
C
102
}
330
C
100
AcDbDictionary
281
     1
  0
ACDBDICTIONARYWDFLT
  5
E
102
{ACAD_REACTORS
330
C
102
}
330
C
100
AcDbDictionary
281
     1
  3
Normal
350
F
100
AcDbDictionaryWithDefault
340
F
  0
DICTIONARY
  5
47
102
{ACAD_REACTORS
330
C
102
}
330
C
100
AcDbDictionary
281
     1
  3
A0
350
48
  3
A1
350
49
  3
A2
350
4A
  3
A3
350
4B
  3
A4
350
4C
  3
A5
350
4D
  3
A6
350
4E
  3
A7
350
4F
  3
A8
350
50
  3
A9
350
51
  3
B0
350
52
  3
B1
350
53
  3
B2
350
54
  3
B3
350
55
  3
B4
350
56
  3
B5
350
57
  3
B6
350
58
  3
B7
350
59
  3
B8
350
5A
  3
B9
350
5B
  3
C0
350
5C
  3
C1
350
5D
  3
C2
350
5E
  3
C3
350
5F
  3
C4
350
60
  3
C5
350
61
  3
C6
350
62
  3
C7
350
63
  3
C8
350
64
  3
C9
350
65
  3
D0
350
66
  3
D1
350
67
  3
D2
350
68
  0
DICTIONARY
  5
244
102
{ACAD_REACTORS
330
C
102
}
330
C
100
AcDbDictionary
281
     1
  0
DICTIONARY
  5
69
102
{ACAD_REACTORS
330
C
102
}
330
C
100
AcDbDictionary
281
     1
  3
Standard
350
6A
  0
DICTIONARY
  5
2A
102
{ACAD_REACTORS
330
C
102
}
330
C
100
AcDbDictionary
281
     1
  3
2dWireframe
350
2F
  3
Basic
350
32
  3
Brighten
350
36
  3
ColorChange
350
3A
  3
Conceptual
350
34
  3
Dim
350
35
  3
EdgeColorOff
350
3D
  3
Facepattern
350
39
  3
Flat
350
2B
  3
FlatWithEdges
350
2C
  3
Gouraud
350
2D
  3
GouraudWithEdges
350
2E
  3
Hidden
350
31
  3
JitterOff
350
3B
  3
Linepattern
350
38
  3
OverhangOff
350
3C
  3
Realistic
350
33
  3
Shaded
350
42
  3
Shaded with edges
350
41
  3
Shades of Gray
350
3E
  3
Sketchy
350
3F
  3
Thicken
350
37
  3
Wireframe
350
30
  3
X-Ray
350
40
  0
XRECORD
  5
240
102
{ACAD_REACTORS
330
C
102
}
330
C
100
AcDbXrecord
280
     1
 90
        1
330
6A
  0
DICTIONARY
  5
23C
102
{ACAD_REACTORS
330
C
102
}
330
C
100
AcDbDictionary
281
     1
  3
CANNOSCALE
350
23D
  3
CMLEADERSTYLE
350
242
  3
CTABLESTYLE
350
241
  0
LAYOUT
  5
1E
102
{ACAD_REACTORS
330
1A
102
}
330
1A
100
AcDbPlotSettings
  1

  2
none_device
  4

  6

 40
0.0
 41
0.0
 42
0.0
 43
0.0
 44
0.0
 45
0.0
 46
0.0
 47
0.0
 48
0.0
 49
0.0
140
0.0
141
0.0
142
1.0
143
1.0
 70
   688
 72
     0
 73
     0
 74
     5
  7

 75
    16
 76
     0
 77
     2
 78
   300
147
1.0
148
0.0
149
0.0
100
AcDbLayout
  1
Layout1
 70
     1
 71
     1
 10
0.0
 20
0.0
 11
12.0
 21
9.0
 12
0.0
 22
0.0
 32
0.0
 14
1.000000000000000E+20
 24
1.000000000000000E+20
 34
1.000000000000000E+20
 15
-1.000000000000000E+20
 25
-1.000000000000000E+20
 35
-1.000000000000000E+20
146
0.0
 13
0.0
 23
0.0
 33
0.0
 16
1.0
 26
0.0
 36
0.0
 17
0.0
 27
1.0
 37
0.0
 76
     0
330
1B
  0
LAYOUT
  5
26
102
{ACAD_REACTORS
330
1A
102
}
330
1A
100
AcDbPlotSettings
  1

  2
none_device
  4

  6

 40
0.0
 41
0.0
 42
0.0
 43
0.0
 44
0.0
 45
0.0
 46
0.0
 47
0.0
 48
0.0
 49
0.0
140
0.0
141
0.0
142
1.0
143
1.0
 70
   688
 72
     0
 73
     0
 74
     5
  7

 75
    16
 76
     0
 77
     2
 78
   300
147
1.0
148
0.0
149
0.0
100
AcDbLayout
  1
Layout2
 70
     1
 71
     2
 10
0.0
 20
0.0
 11
0.0
 21
0.0
 12
0.0
 22
0.0
 32
0.0
 14
0.0
 24
0.0
 34
0.0
 15
0.0
 25
0.0
 35
0.0
146
0.0
 13
0.0
 23
0.0
 33
0.0
 16
1.0
 26
0.0
 36
0.0
 17
0.0
 27
1.0
 37
0.0
 76
     0
330
23
  0
LAYOUT
  5
22
102
{ACAD_REACTORS
330
1A
102
}
330
1A
100
AcDbPlotSettings
  1

  2
none_device
  4
Letter_(8.50_x_11.00_Inches)
  6

 40
6.35
 41
6.35
 42
6.35000508
 43
6.35000508
 44
215.9
 45
279.4
 46
0.0
 47
0.0
 48
0.0
 49
0.0
140
0.0
141
0.0
142
1.0
143
1.0
 70
  1712
 72
     0
 73
     0
 74
     0
  7

 75
     0
 76
     0
 77
     2
 78
   300
147
1.0
148
0.0
149
0.0
100
AcDbLayout
  1
Model
 70
     1
 71
     0
 10
0.0
 20
0.0
 11
12.0
 21
9.0
 12
0.0
 22
0.0
 32
0.0
 14
1.000000000000000E+20
 24
1.000000000000000E+20
 34
1.000000000000000E+20
 15
-1.000000000000000E+20
 25
-1.000000000000000E+20
 35
-1.000000000000000E+20
146
0.0
 13
0.0
 23
0.0
 33
0.0
 16
1.0
 26
0.0
 36
0.0
 17
0.0
 27
1.0
 37
0.0
 76
     0
330
1F
331
29
  0
MATERIAL
  5
45
102
{ACAD_REACTORS
330
43
102
}
330
43
100
AcDbMaterial
  1
ByBlock
 72
     1
 94
      127
  0
MATERIAL
  5
44
102
{ACAD_REACTORS
330
43
102
}
330
43
100
AcDbMaterial
  1
ByLayer
 72
     1
 94
      127
  0
MATERIAL
  5
46
102
{ACAD_REACTORS
330
43
102
}
330
43
100
AcDbMaterial
  1
Global
 72
     1
 94
      127
  0
MLEADERSTYLE
  5
6C
102
{ACAD_REACTORS
330
6B
102
}
330
6B
100
AcDbMLeaderStyle
179
     2
170
     2
171
     1
172
     0
 90
        2
 40
0.0
 41
0.0
173
     1
 91
-1056964608
340
14
 92
       -2
290
     1
 42
0.09
291
     1
 43
0.36
  3
Standard
341
0
 44
0.18
300

342
11
174
     1
178
     6
175
     1
176
     0
 93
-1056964608
 45
0.18
292
     0
297
     0
 46
0.18
343
0
 94
-1056964608
 47
1.0
 49
1.0
140
1.0
293
     1
141
0.0
294
     1
177
     0
142
1.0
295
     0
296
     0
143
0.125
271
     0
272
     9
273
     9
298
     0
  0
MLINESTYLE
  5
18
102
{ACAD_REACTORS
330
17
102
}
330
17
100
AcDbMlineStyle
  2
Standard
 70
     0
  3

 62
   256
 51
90.0
 52
90.0
 71
     2
 49
0.5
 62
   256
  6
BYLAYER
 49
-0.5
 62
   256
  6
BYLAYER
  0
ACDBPLACEHOLDER
  5
F
102
{ACAD_REACTORS
330
E
102
}
330
E
  0
SCALE
  5
48
102
{ACAD_REACTORS
330
47
102
}
330
47
100
AcDbScale
 70
     0
300
1:1
140
1.0
141
1.0
290
     1
  0
SCALE
  5
49
102
{ACAD_REACTORS
330
47
102
}
330
47
100
AcDbScale
 70
     0
300
1:2
140
1.0
141
2.0
290
     0
  0
SCALE
  5
4A
102
{ACAD_REACTORS
330
47
102
}
330
47
100
AcDbScale
 70
     0
300
1:4
140
1.0
141
4.0
290
     0
  0
SCALE
  5
4B
102
{ACAD_REACTORS
330
47
102
}
330
47
100
AcDbScale
 70
     0
300
1:5
140
1.0
141
5.0
290
     0
  0
SCALE
  5
4C
102
{ACAD_REACTORS
330
47
102
}
330
47
100
AcDbScale
 70
     0
300
1:8
140
1.0
141
8.0
290
     0
  0
SCALE
  5
4D
102
{ACAD_REACTORS
330
47
102
}
330
47
100
AcDbScale
 70
     0
300
1:10
140
1.0
141
10.0
290
     0
  0
SCALE
  5
4E
102
{ACAD_REACTORS
330
47
102
}
330
47
100
AcDbScale
 70
     0
300
1:16
140
1.0
141
16.0
290
     0
  0
SCALE
  5
4F
102
{ACAD_REACTORS
330
47
102
}
330
47
100
AcDbScale
 70
     0
300
1:20
140
1.0
141
20.0
290
     0
  0
SCALE
  5
50
102
{ACAD_REACTORS
330
47
102
}
330
47
100
AcDbScale
 70
     0
300
1:30
140
1.0
141
30.0
290
     0
  0
SCALE
  5
51
102
{ACAD_REACTORS
330
47
102
}
330
47
100
AcDbScale
 70
     0
300
1:40
140
1.0
141
40.0
290
     0
  0
SCALE
  5
52
102
{ACAD_REACTORS
330
47
102
}
330
47
100
AcDbScale
 70
     0
300
1:50
140
1.0
141
50.0
290
     0
  0
SCALE
  5
53
102
{ACAD_REACTORS
330
47
102
}
330
47
100
AcDbScale
 70
     0
300
1:100
140
1.0
141
100.0
290
     0
  0
SCALE
  5
54
102
{ACAD_REACTORS
330
47
102
}
330
47
100
AcDbScale
 70
     0
300
2:1
140
2.0
141
1.0
290
     0
  0
SCALE
  5
55
102
{ACAD_REACTORS
330
47
102
}
330
47
100
AcDbScale
 70
     0
300
4:1
140
4.0
141
1.0
290
     0
  0
SCALE
  5
56
102
{ACAD_REACTORS
330
47
102
}
330
47
100
AcDbScale
 70
     0
300
8:1
140
8.0
141
1.0
290
     0
  0
SCALE
  5
57
102
{ACAD_REACTORS
330
47
102
}
330
47
100
AcDbScale
 70
     0
300
10:1
140
10.0
141
1.0
290
     0
  0
SCALE
  5
58
102
{ACAD_REACTORS
330
47
102
}
330
47
100
AcDbScale
 70
     0
300
100:1
140
100.0
141
1.0
290
     0
  0
SCALE
  5
59
102
{ACAD_REACTORS
330
47
102
}
330
47
100
AcDbScale
 70
     0
300
1/128" = 1'-0"
140
0.0078125
141
12.0
290
     0
  0
SCALE
  5
5A
102
{ACAD_REACTORS
330
47
102
}
330
47
100
AcDbScale
 70
     0
300
1/64" = 1'-0"
140
0.015625
141
12.0
290
     0
  0
SCALE
  5
5B
102
{ACAD_REACTORS
330
47
102
}
330
47
100
AcDbScale
 70
     0
300
1/32" = 1'-0"
140
0.03125
141
12.0
290
     0
  0
SCALE
  5
5C
102
{ACAD_REACTORS
330
47
102
}
330
47
100
AcDbScale
 70
     0
300
1/16" = 1'-0"
140
0.0625
141
12.0
290
     0
  0
SCALE
  5
5D
102
{ACAD_REACTORS
330
47
102
}
330
47
100
AcDbScale
 70
     0
300
3/32" = 1'-0"
140
0.09375
141
12.0
290
     0
  0
SCALE
  5
5E
102
{ACAD_REACTORS
330
47
102
}
330
47
100
AcDbScale
 70
     0
300
1/8" = 1'-0"
140
0.125
141
12.0
290
     0
  0
SCALE
  5
5F
102
{ACAD_REACTORS
330
47
102
}
330
47
100
AcDbScale
 70
     0
300
3/16" = 1'-0"
140
0.1875
141
12.0
290
     0
  0
SCALE
  5
60
102
{ACAD_REACTORS
330
47
102
}
330
47
100
AcDbScale
 70
     0
300
1/4" = 1'-0"
140
0.25
141
12.0
290
     0
  0
SCALE
  5
61
102
{ACAD_REACTORS
330
47
102
}
330
47
100
AcDbScale
 70
     0
300
3/8" = 1'-0"
140
0.375
141
12.0
290
     0
  0
SCALE
  5
62
102
{ACAD_REACTORS
330
47
102
}
330
47
100
AcDbScale
 70
     0
300
1/2" = 1'-0"
140
0.5
141
12.0
290
     0
  0
SCALE
  5
63
102
{ACAD_REACTORS
330
47
102
}
330
47
100
AcDbScale
 70
     0
300
3/4" = 1'-0"
140
0.75
141
12.0
290
     0
  0
SCALE
  5
64
102
{ACAD_REACTORS
330
47
102
}
330
47
100
AcDbScale
 70
     0
300
1" = 1'-0"
140
1.0
141
12.0
290
     0
  0
SCALE
  5
65
102
{ACAD_REACTORS
330
47
102
}
330
47
100
AcDbScale
 70
     0
300
1-1/2" = 1'-0"
140
1.5
141
12.0
290
     0
  0
SCALE
  5
66
102
{ACAD_REACTORS
330
47
102
}
330
47
100
AcDbScale
 70
     0
300
3" = 1'-0"
140
3.0
141
12.0
290
     0
  0
SCALE
  5
67
102
{ACAD_REACTORS
330
47
102
}
330
47
100
AcDbScale
 70
     0
300
6" = 1'-0"
140
6.0
141
12.0
290
     0
  0
SCALE
  5
68
102
{ACAD_REACTORS
330
47
102
}
330
47
100
AcDbScale
 70
     0
300
1'-0" = 1'-0"
140
12.0
141
12.0
290
     0
  0
TABLESTYLE
  5
6A
102
{ACAD_REACTORS
330
69
102
}
102
{ACAD_XDICTIONARY
360
23E
102
}
330
69
100
AcDbTableStyle
  3
Standard
 70
     0
 71
     0
 40
0.06
 41
0.06
280
     0
281
     0
  7
Standard
140
0.18
170
     2
 62
     0
 63
   257
283
     0
 90
        4
 91
        0
  1

274
    -2
284
     1
 64
     0
275
    -2
285
     1
 65
     0
276
    -2
286
     1
 66
     0
277
    -2
287
     1
 67
     0
278
    -2
288
     1
 68
     0
279
    -2
289
     1
 69
     0
  7
Standard
140
0.25
170
     5
 62
     0
 63
   257
283
     0
 90
        4
 91
        0
  1

274
    -2
284
     1
 64
     0
275
    -2
285
     1
 65
     0
276
    -2
286
     1
 66
     0
277
    -2
287
     1
 67
     0
278
    -2
288
     1
 68
     0
279
    -2
289
     1
 69
     0
  7
Standard
140
0.18
170
     5
 62
     0
 63
   257
283
     0
 90
        4
 91
        0
  1

274
    -2
284
     1
 64
     0
275
    -2
285
     1
 65
     0
276
    -2
286
     1
 66
     0
277
    -2
287
     1
 67
     0
278
    -2
288
     1
 68
     0
279
    -2
289
     1
 69
     0
  0
VISUALSTYLE
  5
2F
102
{ACAD_REACTORS
330
2A
102
}
330
2A
100
AcDbVisualStyle
  2
2dWireframe
 70
     4
177
     3
291
     0
 70
    58
 90
        0
176
     1
 90
        2
176
     1
 90
        0
176
     1
 90
        0
176
     1
 40
0.6
176
     1
 40
30.0
176
     1
 62
     7
420
 16777215
176
     1
 90
        1
176
     1
 90
        4
176
     1
 62
     7
176
     1
 62
   257
176
     1
 90
        1
176
     1
 90
        1
176
     1
 40
1.0
176
     1
 90
        0
176
     1
 62
   257
176
     1
 40
1.0
176
     1
 90
        1
176
     1
 90
        6
176
     1
 90
        2
176
     1
 62
     7
176
     1
 90
        5
176
     1
 90
        0
176
     1
 90
        0
176
     1
290
     0
176
     1
 90
        1
176
     1
 40
0.0
176
     1
 90
        0
176
     1
290
     1
176
     1
290
     1
176
     1
290
     0
176
     1
290
     0
176
     1
290
     0
176
     1
290
     0
176
     1
290
     0
176
     1
290
     0
176
     1
290
     0
176
     1
 90
       50
176
     1
 40
0.0
176
     1
 40
1.0
176
     1
 90
        0
176
     1
 62
    18
420
        0
176
     1
 90
       50
176
     1
 90
        3
176
     1
 62
     5
420
      255
176
     1
290
     0
176
     1
 90
       50
176
     1
 90
       50
176
     1
 90
       50
176
     1
290
     0
176
     1
 90
       50
176
     1
 62
   256
176
     0
 40
1.0
176
     0
 90
        2
176
     1
  1
strokes_ogs.tif
176
     1
290
     0
176
     1
 40
1.0
176
     1
 40
1.0
176
     1
  0
VISUALSTYLE
  5
32
102
{ACAD_REACTORS
330
2A
102
}
330
2A
100
AcDbVisualStyle
  2
Basic
 70
     7
177
     3
291
     1
 70
    58
 90
        1
176
     1
 90
        0
176
     1
 90
        1
176
     1
 90
        0
176
     1
 40
0.6
176
     1
 40
30.0
176
     1
 62
     7
420
 16777215
176
     1
 90
        0
176
     1
 90
        4
176
     1
 62
     7
176
     1
 62
   257
176
     1
 90
        1
176
     1
 90
        1
176
     1
 40
1.0
176
     1
 90
        8
176
     1
 62
     7
176
     1
 40
1.0
176
     1
 90
        1
176
     1
 90
        6
176
     1
 90
        2
176
     1
 62
     7
176
     1
 90
        5
176
     1
 90
        0
176
     1
 90
        0
176
     1
290
     0
176
     1
 90
        1
176
     1
 40
0.0
176
     1
 90
        0
176
     1
290
     0
176
     1
290
     1
176
     1
290
     1
176
     1
290
     0
176
     1
290
     0
176
     1
290
     0
176
     1
290
     0
176
     1
290
     0
176
     1
290
     0
176
     1
 90
       50
176
     1
 40
0.0
176
     1
 40
1.0
176
     1
 90
        0
176
     1
 62
    18
420
        0
176
     1
 90
       50
176
     1
 90
        3
176
     1
 62
     5
420
      255
176
     1
290
     0
176
     1
 90
       50
176
     1
 90
       50
176
     1
 90
       50
176
     1
290
     0
176
     1
 90
       50
176
     1
 62
   256
176
     0
 40
1.0
176
     0
 90
        2
176
     1
  1
strokes_ogs.tif
176
     1
290
     0
176
     1
 40
1.0
176
     1
 40
1.0
176
     1
  0
VISUALSTYLE
  5
36
102
{ACAD_REACTORS
330
2A
102
}
330
2A
100
AcDbVisualStyle
  2
Brighten
 70
    12
177
     3
291
     1
 70
    58
 90
        2
176
     1
 90
        2
176
     1
 90
        0
176
     1
 90
        0
176
     1
 40
0.6
176
     1
 40
30.0
176
     1
 62
     7
420
 16777215
176
     1
 90
        1
176
     1
 90
        4
176
     1
 62
     7
176
     1
 62
   257
176
     1
 90
        1
176
     1
 90
        1
176
     1
 40
1.0
176
     1
 90
        8
176
     1
 62
     7
176
     1
 40
1.0
176
     1
 90
        1
176
     1
 90
        6
176
     1
 90
        2
176
     1
 62
     7
176
     1
 90
        5
176
     1
 90
        0
176
     1
 90
        0
176
     1
290
     0
176
     1
 90
        1
176
     1
 40
50.0
176
     1
 90
        0
176
     1
290
     0
176
     1
290
     1
176
     1
290
     1
176
     1
290
     0
176
     1
290
     0
176
     1
290
     0
176
     1
290
     0
176
     1
290
     0
176
     1
290
     0
176
     1
 90
       50
176
     1
 40
0.0
176
     1
 40
1.0
176
     1
 90
        0
176
     1
 62
    18
420
        0
176
     1
 90
       50
176
     1
 90
        3
176
     1
 62
     5
420
      255
176
     1
290
     0
176
     1
 90
       50
176
     1
 90
       50
176
     1
 90
       50
176
     1
290
     0
176
     1
 90
       50
176
     1
 62
   256
176
     0
 40
1.0
176
     0
 90
        2
176
     1
  1
strokes_ogs.tif
176
     1
290
     0
176
     1
 40
1.0
176
     1
 40
1.0
176
     1
  0
VISUALSTYLE
  5
3A
102
{ACAD_REACTORS
330
2A
102
}
330
2A
100
AcDbVisualStyle
  2
ColorChange
 70
    16
177
     3
291
     1
 70
    58
 90
        2
176
     1
 90
        2
176
     1
 90
        3
176
     1
 90
        0
176
     1
 40
0.6
176
     1
 40
30.0
176
     1
 62
     8
420
  8421504
176
     1
 90
        1
176
     1
 90
        4
176
     1
 62
     7
176
     1
 62
   257
176
     1
 90
        1
176
     1
 90
        1
176
     1
 40
1.0
176
     1
 90
        8
176
     1
 62
     8
420
  8421504
176
     1
 40
1.0
176
     1
 90
        1
176
     1
 90
        6
176
     1
 90
        2
176
     1
 62
     7
176
     1
 90
        5
176
     1
 90
        0
176
     1
 90
        0
176
     1
290
     0
176
     1
 90
        1
176
     1
 40
0.0
176
     1
 90
        0
176
     1
290
     0
176
     1
290
     1
176
     1
290
     1
176
     1
290
     0
176
     1
290
     0
176
     1
290
     0
176
     1
290
     0
176
     1
290
     0
176
     1
290
     0
176
     1
 90
       50
176
     1
 40
0.0
176
     1
 40
1.0
176
     1
 90
        0
176
     1
 62
    18
420
        0
176
     1
 90
       50
176
     1
 90
        3
176
     1
 62
     5
420
      255
176
     1
290
     0
176
     1
 90
       50
176
     1
 90
       50
176
     1
 90
       50
176
     1
290
     0
176
     1
 90
       50
176
     1
 62
   256
176
     0
 40
1.0
176
     0
 90
        2
176
     1
  1
strokes_ogs.tif
176
     1
290
     0
176
     1
 40
1.0
176
     1
 40
1.0
176
     1
  0
VISUALSTYLE
  5
34
102
{ACAD_REACTORS
330
2A
102
}
330
2A
100
AcDbVisualStyle
  2
Conceptual
 70
     9
177
     3
291
     0
 70
    58
 90
        3
176
     1
 90
        2
176
     1
 90
        0
176
     1
 90
        0
176
     1
 40
0.6
176
     1
 40
30.0
176
     1
 62
     7
420
 16777215
176
     1
 90
        2
176
     1
 90
        2
176
     1
 62
     7
176
     1
 62
   257
176
     1
 90
        1
176
     1
 90
        1
176
     1
 40
179.0
176
     1
 90
        8
176
     1
 62
     7
176
     1
 40
1.0
176
     1
 90
        1
176
     1
 90
        6
176
     1
 90
        2
176
     1
 62
     7
176
     1
 90
        3
176
     1
 90
        0
176
     1
 90
        0
176
     1
290
     0
176
     1
 90
        1
176
     1
 40
0.0
176
     1
 90
        0
176
     1
290
     0
176
     1
290
     1
176
     1
290
     1
176
     1
290
     0
176
     1
290
     0
176
     1
290
     0
176
     1
290
     0
176
     1
290
     0
176
     1
290
     0
176
     1
 90
       50
176
     1
 40
0.0
176
     1
 40
1.0
176
     1
 90
        0
176
     1
 62
    18
420
        0
176
     1
 90
       50
176
     1
 90
        3
176
     1
 62
     5
420
      255
176
     1
290
     0
176
     1
 90
       50
176
     1
 90
       50
176
     1
 90
       50
176
     1
290
     0
176
     1
 90
       50
176
     1
 62
   256
176
     0
 40
1.0
176
     0
 90
        2
176
     1
  1
strokes_ogs.tif
176
     1
290
     0
176
     1
 40
1.0
176
     1
 40
1.0
176
     1
  0
VISUALSTYLE
  5
35
102
{ACAD_REACTORS
330
2A
102
}
330
2A
100
AcDbVisualStyle
  2
Dim
 70
    11
177
     3
291
     1
 70
    58
 90
        2
176
     1
 90
        2
176
     1
 90
        0
176
     1
 90
        0
176
     1
 40
0.6
176
     1
 40
30.0
176
     1
 62
     7
420
 16777215
176
     1
 90
        1
176
     1
 90
        4
176
     1
 62
     7
176
     1
 62
   257
176
     1
 90
        1
176
     1
 90
        1
176
     1
 40
1.0
176
     1
 90
        8
176
     1
 62
     7
176
     1
 40
1.0
176
     1
 90
        1
176
     1
 90
        6
176
     1
 90
        2
176
     1
 62
     7
176
     1
 90
        5
176
     1
 90
        0
176
     1
 90
        0
176
     1
290
     0
176
     1
 90
        1
176
     1
 40
-50.0
176
     1
 90
        0
176
     1
290
     0
176
     1
290
     1
176
     1
290
     1
176
     1
290
     0
176
     1
290
     0
176
     1
290
     0
176
     1
290
     0
176
     1
290
     0
176
     1
290
     0
176
     1
 90
       50
176
     1
 40
0.0
176
     1
 40
1.0
176
     1
 90
        0
176
     1
 62
    18
420
        0
176
     1
 90
       50
176
     1
 90
        3
176
     1
 62
     5
420
      255
176
     1
290
     0
176
     1
 90
       50
176
     1
 90
       50
176
     1
 90
       50
176
     1
290
     0
176
     1
 90
       50
176
     1
 62
   256
176
     0
 40
1.0
176
     0
 90
        2
176
     1
  1
strokes_ogs.tif
176
     1
290
     0
176
     1
 40
1.0
176
     1
 40
1.0
176
     1
  0
VISUALSTYLE
  5
3D
102
{ACAD_REACTORS
330
2A
102
}
330
2A
100
AcDbVisualStyle
  2
EdgeColorOff
 70
    22
177
     3
291
     1
 70
    58
 90
        2
176
     0
 90
        2
176
     0
 90
        0
176
     0
 90
        0
176
     0
 40
0.6
176
     0
 40
30.0
176
     0
 62
     7
420
 16777215
176
     0
 90
        1
176
     0
 90
        4
176
     0
 62
     7
176
     0
 62
   257
176
     0
 90
        1
176
     0
 90
        1
176
     0
 40
1.0
176
     0
 90
        8
176
     2
 62
     7
176
     0
 40
1.0
176
     0
 90
        1
176
     0
 90
        6
176
     0
 90
        2
176
     0
 62
     7
176
     0
 90
        5
176
     0
 90
        0
176
     0
 90
        0
176
     0
290
     0
176
     0
 90
        1
176
     0
 40
0.0
176
     0
 90
        0
176
     0
290
     0
176
     0
290
     1
176
     0
290
     1
176
     0
290
     0
176
     0
290
     0
176
     0
290
     0
176
     0
290
     0
176
     0
290
     0
176
     0
290
     0
176
     0
 90
       50
176
     0
 40
0.0
176
     0
 40
1.0
176
     0
 90
        0
176
     0
 62
    18
420
        0
176
     0
 90
       50
176
     0
 90
        3
176
     0
 62
     5
420
      255
176
     0
290
     0
176
     0
 90
       50
176
     0
 90
       50
176
     0
 90
       50
176
     0
290
     0
176
     0
 90
       50
176
     0
 62
   256
176
     0
 40
1.0
176
     0
 90
        2
176
     0
  1
strokes_ogs.tif
176
     0
290
     0
176
     0
 40
1.0
176
     0
 40
1.0
176
     0
  0
VISUALSTYLE
  5
39
102
{ACAD_REACTORS
330
2A
102
}
330
2A
100
AcDbVisualStyle
  2
Facepattern
 70
    15
177
     3
291
     1
 70
    58
 90
        2
176
     1
 90
        2
176
     1
 90
        0
176
     1
 90
        0
176
     1
 40
0.6
176
     1
 40
30.0
176
     1
 62
     7
420
 16777215
176
     1
 90
        1
176
     1
 90
        4
176
     1
 62
     7
176
     1
 62
   257
176
     1
 90
        1
176
     1
 90
        1
176
     1
 40
1.0
176
     1
 90
        8
176
     1
 62
     7
176
     1
 40
1.0
176
     1
 90
        1
176
     1
 90
        6
176
     1
 90
        2
176
     1
 62
     7
176
     1
 90
        5
176
     1
 90
        0
176
     1
 90
        0
176
     1
290
     0
176
     1
 90
        1
176
     1
 40
0.0
176
     1
 90
        0
176
     1
290
     0
176
     1
290
     1
176
     1
290
     1
176
     1
290
     0
176
     1
290
     0
176
     1
290
     0
176
     1
290
     0
176
     1
290
     0
176
     1
290
     0
176
     1
 90
       50
176
     1
 40
0.0
176
     1
 40
1.0
176
     1
 90
        0
176
     1
 62
    18
420
        0
176
     1
 90
       50
176
     1
 90
        3
176
     1
 62
     5
420
      255
176
     1
290
     0
176
     1
 90
       50
176
     1
 90
       50
176
     1
 90
       50
176
     1
290
     0
176
     1
 90
       50
176
     1
 62
   256
176
     0
 40
1.0
176
     0
 90
        2
176
     1
  1
strokes_ogs.tif
176
     1
290
     0
176
     1
 40
1.0
176
     1
 40
1.0
176
     1
  0
VISUALSTYLE
  5
2B
102
{ACAD_REACTORS
330
2A
102
}
330
2A
100
AcDbVisualStyle
  2
Flat
 70
     0
177
     3
291
     1
 70
    58
 90
        2
176
     1
 90
        1
176
     1
 90
        1
176
     1
 90
        2
176
     1
 40
0.6
176
     1
 40
30.0
176
     1
 62
     7
420
 16777215
176
     1
 90
        0
176
     1
 90
        0
176
     1
 62
     7
176
     1
 62
   257
176
     1
 90
        1
176
     1
 90
        1
176
     1
 40
1.0
176
     1
 90
        8
176
     1
 62
     7
176
     1
 40
1.0
176
     1
 90
        1
176
     1
 90
        6
176
     1
 90
        2
176
     1
 62
     7
176
     1
 90
        5
176
     1
 90
        0
176
     1
 90
        0
176
     1
290
     0
176
     1
 90
       13
176
     1
 40
0.0
176
     1
 90
        0
176
     1
290
     0
176
     1
290
     1
176
     1
290
     1
176
     1
290
     0
176
     1
290
     0
176
     1
290
     0
176
     1
290
     0
176
     1
290
     0
176
     1
290
     0
176
     1
 90
       50
176
     1
 40
0.0
176
     1
 40
1.0
176
     1
 90
        0
176
     1
 62
    18
420
        0
176
     1
 90
       50
176
     1
 90
        3
176
     1
 62
     5
420
      255
176
     1
290
     0
176
     1
 90
       50
176
     1
 90
       50
176
     1
 90
       50
176
     1
290
     0
176
     1
 90
       50
176
     1
 62
   256
176
     0
 40
1.0
176
     0
 90
        2
176
     1
  1
strokes_ogs.tif
176
     1
290
     0
176
     1
 40
1.0
176
     1
 40
1.0
176
     1
  0
VISUALSTYLE
  5
2C
102
{ACAD_REACTORS
330
2A
102
}
330
2A
100
AcDbVisualStyle
  2
FlatWithEdges
 70
     1
177
     3
291
     1
 70
    58
 90
        2
176
     1
 90
        1
176
     1
 90
        1
176
     1
 90
        2
176
     1
 40
0.6
176
     1
 40
30.0
176
     1
 62
     7
420
 16777215
176
     1
 90
        1
176
     1
 90
        0
176
     1
 62
     7
176
     1
 62
   257
176
     1
 90
        1
176
     1
 90
        1
176
     1
 40
1.0
176
     1
 90
        0
176
     1
 62
   257
176
     1
 40
1.0
176
     1
 90
        1
176
     1
 90
        6
176
     1
 90
        2
176
     1
 62
     7
176
     1
 90
        5
176
     1
 90
        0
176
     1
 90
        0
176
     1
290
     0
176
     1
 90
       13
176
     1
 40
0.0
176
     1
 90
        0
176
     1
290
     0
176
     1
290
     1
176
     1
290
     1
176
     1
290
     0
176
     1
290
     0
176
     1
290
     0
176
     1
290
     0
176
     1
290
     0
176
     1
290
     0
176
     1
 90
       50
176
     1
 40
0.0
176
     1
 40
1.0
176
     1
 90
        0
176
     1
 62
    18
420
        0
176
     1
 90
       50
176
     1
 90
        3
176
     1
 62
     5
420
      255
176
     1
290
     0
176
     1
 90
       50
176
     1
 90
       50
176
     1
 90
       50
176
     1
290
     0
176
     1
 90
       50
176
     1
 62
   256
176
     0
 40
1.0
176
     0
 90
        2
176
     1
  1
strokes_ogs.tif
176
     1
290
     0
176
     1
 40
1.0
176
     1
 40
1.0
176
     1
  0
VISUALSTYLE
  5
2D
102
{ACAD_REACTORS
330
2A
102
}
330
2A
100
AcDbVisualStyle
  2
Gouraud
 70
     2
177
     3
291
     1
 70
    58
 90
        2
176
     1
 90
        2
176
     1
 90
        1
176
     1
 90
        2
176
     1
 40
0.6
176
     1
 40
30.0
176
     1
 62
     7
420
 16777215
176
     1
 90
        0
176
     1
 90
        0
176
     1
 62
     7
176
     1
 62
   257
176
     1
 90
        1
176
     1
 90
        1
176
     1
 40
1.0
176
     1
 90
        0
176
     1
 62
     7
176
     1
 40
1.0
176
     1
 90
        1
176
     1
 90
        6
176
     1
 90
        2
176
     1
 62
     7
176
     1
 90
        5
176
     1
 90
        0
176
     1
 90
        0
176
     1
290
     0
176
     1
 90
       13
176
     1
 40
0.0
176
     1
 90
        0
176
     1
290
     0
176
     1
290
     1
176
     1
290
     1
176
     1
290
     0
176
     1
290
     0
176
     1
290
     0
176
     1
290
     0
176
     1
290
     0
176
     1
290
     0
176
     1
 90
       50
176
     1
 40
0.0
176
     1
 40
1.0
176
     1
 90
        0
176
     1
 62
    18
420
        0
176
     1
 90
       50
176
     1
 90
        3
176
     1
 62
     5
420
      255
176
     1
290
     0
176
     1
 90
       50
176
     1
 90
       50
176
     1
 90
       50
176
     1
290
     0
176
     1
 90
       50
176
     1
 62
   256
176
     0
 40
1.0
176
     0
 90
        2
176
     1
  1
strokes_ogs.tif
176
     1
290
     0
176
     1
 40
1.0
176
     1
 40
1.0
176
     1
  0
VISUALSTYLE
  5
2E
102
{ACAD_REACTORS
330
2A
102
}
330
2A
100
AcDbVisualStyle
  2
GouraudWithEdges
 70
     3
177
     3
291
     1
 70
    58
 90
        2
176
     1
 90
        2
176
     1
 90
        1
176
     1
 90
        2
176
     1
 40
0.6
176
     1
 40
30.0
176
     1
 62
     7
420
 16777215
176
     1
 90
        1
176
     1
 90
        0
176
     1
 62
     7
176
     1
 62
   257
176
     1
 90
        1
176
     1
 90
        1
176
     1
 40
1.0
176
     1
 90
        0
176
     1
 62
   257
176
     1
 40
1.0
176
     1
 90
        1
176
     1
 90
        6
176
     1
 90
        2
176
     1
 62
     7
176
     1
 90
        5
176
     1
 90
        0
176
     1
 90
        0
176
     1
290
     0
176
     1
 90
       13
176
     1
 40
0.0
176
     1
 90
        0
176
     1
290
     0
176
     1
290
     1
176
     1
290
     1
176
     1
290
     0
176
     1
290
     0
176
     1
290
     0
176
     1
290
     0
176
     1
290
     0
176
     1
290
     0
176
     1
 90
       50
176
     1
 40
0.0
176
     1
 40
1.0
176
     1
 90
        0
176
     1
 62
    18
420
        0
176
     1
 90
       50
176
     1
 90
        3
176
     1
 62
     5
420
      255
176
     1
290
     0
176
     1
 90
       50
176
     1
 90
       50
176
     1
 90
       50
176
     1
290
     0
176
     1
 90
       50
176
     1
 62
   256
176
     0
 40
1.0
176
     0
 90
        2
176
     1
  1
strokes_ogs.tif
176
     1
290
     0
176
     1
 40
1.0
176
     1
 40
1.0
176
     1
  0
VISUALSTYLE
  5
31
102
{ACAD_REACTORS
330
2A
102
}
330
2A
100
AcDbVisualStyle
  2
Hidden
 70
     6
177
     3
291
     0
 70
    58
 90
        1
176
     1
 90
        2
176
     1
 90
        2
176
     1
 90
        0
176
     1
 40
0.6
176
     1
 40
30.0
176
     1
 62
     7
420
 16777215
176
     1
 90
        2
176
     1
 90
        2
176
     1
 62
     7
176
     1
 62
   257
176
     1
 90
        2
176
     1
 90
        1
176
     1
 40
40.0
176
     1
 90
        0
176
     1
 62
   257
176
     1
 40
1.0
176
     1
 90
        1
176
     1
 90
        6
176
     1
 90
        2
176
     1
 62
     7
176
     1
 90
        3
176
     1
 90
        0
176
     1
 90
        0
176
     1
290
     0
176
     1
 90
        1
176
     1
 40
0.0
176
     1
 90
        0
176
     1
290
     0
176
     1
290
     1
176
     1
290
     1
176
     1
290
     0
176
     1
290
     0
176
     1
290
     0
176
     1
290
     0
176
     1
290
     0
176
     1
290
     0
176
     1
 90
       50
176
     1
 40
0.0
176
     1
 40
1.0
176
     1
 90
        0
176
     1
 62
    18
420
        0
176
     1
 90
       50
176
     1
 90
        3
176
     1
 62
     5
420
      255
176
     1
290
     0
176
     1
 90
       50
176
     1
 90
       50
176
     1
 90
       50
176
     1
290
     0
176
     1
 90
       50
176
     1
 62
   256
176
     0
 40
1.0
176
     0
 90
        2
176
     1
  1
strokes_ogs.tif
176
     1
290
     0
176
     1
 40
1.0
176
     1
 40
1.0
176
     1
  0
VISUALSTYLE
  5
3B
102
{ACAD_REACTORS
330
2A
102
}
330
2A
100
AcDbVisualStyle
  2
JitterOff
 70
    20
177
     3
291
     1
 70
    58
 90
        2
176
     0
 90
        2
176
     0
 90
        0
176
     0
 90
        0
176
     0
 40
0.6
176
     0
 40
30.0
176
     0
 62
     7
420
 16777215
176
     0
 90
        1
176
     0
 90
        4
176
     0
 62
     7
176
     0
 62
   257
176
     0
 90
        1
176
     0
 90
        1
176
     0
 40
1.0
176
     0
 90
       10
176
     2
 62
     7
176
     0
 40
1.0
176
     0
 90
        1
176
     0
 90
        6
176
     0
 90
        2
176
     0
 62
     7
176
     0
 90
        5
176
     0
 90
        0
176
     0
 90
        0
176
     0
290
     0
176
     0
 90
        1
176
     0
 40
0.0
176
     0
 90
        0
176
     0
290
     0
176
     0
290
     1
176
     0
290
     1
176
     0
290
     0
176
     0
290
     0
176
     0
290
     0
176
     0
290
     0
176
     0
290
     0
176
     0
290
     0
176
     0
 90
       50
176
     0
 40
0.0
176
     0
 40
1.0
176
     0
 90
        0
176
     0
 62
    18
420
        0
176
     0
 90
       50
176
     0
 90
        3
176
     0
 62
     5
420
      255
176
     0
290
     0
176
     0
 90
       50
176
     0
 90
       50
176
     0
 90
       50
176
     0
290
     0
176
     0
 90
       50
176
     0
 62
   256
176
     0
 40
1.0
176
     0
 90
        2
176
     0
  1
strokes_ogs.tif
176
     0
290
     0
176
     0
 40
1.0
176
     0
 40
1.0
176
     0
  0
VISUALSTYLE
  5
38
102
{ACAD_REACTORS
330
2A
102
}
330
2A
100
AcDbVisualStyle
  2
Linepattern
 70
    14
177
     3
291
     1
 70
    58
 90
        2
176
     1
 90
        2
176
     1
 90
        0
176
     1
 90
        0
176
     1
 40
0.6
176
     1
 40
30.0
176
     1
 62
     7
420
 16777215
176
     1
 90
        1
176
     1
 90
        4
176
     1
 62
     7
176
     1
 62
   257
176
     1
 90
        7
176
     1
 90
        7
176
     1
 40
1.0
176
     1
 90
        8
176
     1
 62
     7
176
     1
 40
1.0
176
     1
 90
        1
176
     1
 90
        6
176
     1
 90
        2
176
     1
 62
     7
176
     1
 90
        5
176
     1
 90
        0
176
     1
 90
        0
176
     1
290
     0
176
     1
 90
        1
176
     1
 40
0.0
176
     1
 90
        0
176
     1
290
     0
176
     1
290
     1
176
     1
290
     1
176
     1
290
     0
176
     1
290
     0
176
     1
290
     0
176
     1
290
     0
176
     1
290
     0
176
     1
290
     0
176
     1
 90
       50
176
     1
 40
0.0
176
     1
 40
1.0
176
     1
 90
        0
176
     1
 62
    18
420
        0
176
     1
 90
       50
176
     1
 90
        3
176
     1
 62
     5
420
      255
176
     1
290
     0
176
     1
 90
       50
176
     1
 90
       50
176
     1
 90
       50
176
     1
290
     0
176
     1
 90
       50
176
     1
 62
   256
176
     0
 40
1.0
176
     0
 90
        2
176
     1
  1
strokes_ogs.tif
176
     1
290
     0
176
     1
 40
1.0
176
     1
 40
1.0
176
     1
  0
VISUALSTYLE
  5
3C
102
{ACAD_REACTORS
330
2A
102
}
330
2A
100
AcDbVisualStyle
  2
OverhangOff
 70
    21
177
     3
291
     1
 70
    58
 90
        2
176
     0
 90
        2
176
     0
 90
        0
176
     0
 90
        0
176
     0
 40
0.6
176
     0
 40
30.0
176
     0
 62
     7
420
 16777215
176
     0
 90
        1
176
     0
 90
        4
176
     0
 62
     7
176
     0
 62
   257
176
     0
 90
        1
176
     0
 90
        1
176
     0
 40
1.0
176
     0
 90
        9
176
     2
 62
     7
176
     0
 40
1.0
176
     0
 90
        1
176
     0
 90
        6
176
     0
 90
        2
176
     0
 62
     7
176
     0
 90
        5
176
     0
 90
        0
176
     0
 90
        0
176
     0
290
     0
176
     0
 90
        1
176
     0
 40
0.0
176
     0
 90
        0
176
     0
290
     0
176
     0
290
     1
176
     0
290
     1
176
     0
290
     0
176
     0
290
     0
176
     0
290
     0
176
     0
290
     0
176
     0
290
     0
176
     0
290
     0
176
     0
 90
       50
176
     0
 40
0.0
176
     0
 40
1.0
176
     0
 90
        0
176
     0
 62
    18
420
        0
176
     0
 90
       50
176
     0
 90
        3
176
     0
 62
     5
420
      255
176
     0
290
     0
176
     0
 90
       50
176
     0
 90
       50
176
     0
 90
       50
176
     0
290
     0
176
     0
 90
       50
176
     0
 62
   256
176
     0
 40
1.0
176
     0
 90
        2
176
     0
  1
strokes_ogs.tif
176
     0
290
     0
176
     0
 40
1.0
176
     0
 40
1.0
176
     0
  0
VISUALSTYLE
  5
33
102
{ACAD_REACTORS
330
2A
102
}
330
2A
100
AcDbVisualStyle
  2
Realistic
 70
     8
177
     3
291
     0
 70
    58
 90
        2
176
     1
 90
        3
176
     1
 90
        0
176
     1
 90
        2
176
     1
 40
0.6
176
     1
 40
30.0
176
     1
 62
     7
420
 16777215
176
     1
 90
        0
176
     1
 90
        0
176
     1
 62
     7
176
     1
 62
   257
176
     1
 90
        1
176
     1
 90
        1
176
     1
 40
1.0
176
     1
 90
        8
176
     1
 62
   257
176
     1
 40
1.0
176
     1
 90
        1
176
     1
 90
        6
176
     1
 90
        2
176
     1
 62
     7
176
     1
 90
        3
176
     1
 90
        0
176
     1
 90
        0
176
     1
290
     0
176
     1
 90
       13
176
     1
 40
0.0
176
     1
 90
        0
176
     1
290
     0
176
     1
290
     1
176
     1
290
     1
176
     1
290
     0
176
     1
290
     0
176
     1
290
     0
176
     1
290
     0
176
     1
290
     0
176
     1
290
     0
176
     1
 90
       50
176
     1
 40
0.0
176
     1
 40
1.0
176
     1
 90
        0
176
     1
 62
    18
420
        0
176
     1
 90
       50
176
     1
 90
        3
176
     1
 62
     5
420
      255
176
     1
290
     0
176
     1
 90
       50
176
     1
 90
       50
176
     1
 90
       50
176
     1
290
     0
176
     1
 90
       50
176
     1
 62
   256
176
     0
 40
1.0
176
     0
 90
        2
176
     1
  1
strokes_ogs.tif
176
     1
290
     0
176
     1
 40
1.0
176
     1
 40
1.0
176
     1
  0
VISUALSTYLE
  5
42
102
{ACAD_REACTORS
330
2A
102
}
330
2A
100
AcDbVisualStyle
  2
Shaded
 70
    27
177
     3
291
     0
 70
    58
 90
        2
176
     1
 90
        2
176
     1
 90
        1
176
     1
 90
        2
176
     1
 40
0.6
176
     1
 40
30.0
176
     1
 62
     7
420
 16777215
176
     1
 90
        0
176
     1
 90
        4
176
     1
 62
     7
176
     1
 62
   257
176
     1
 90
        1
176
     1
 90
        1
176
     1
 40
1.0
176
     1
 90
        8
176
     1
 62
   257
176
     1
 40
1.0
176
     1
 90
        1
176
     1
 90
        6
176
     1
 90
        2
176
     1
 62
     8
420
  7895160
176
     1
 90
        3
176
     1
 90
        0
176
     1
 90
        0
176
     1
290
     0
176
     1
 90
        5
176
     1
 40
0.0
176
     1
 90
        0
176
     1
290
     0
176
     1
290
     1
176
     1
290
     1
176
     1
290
     0
176
     1
290
     0
176
     1
290
     0
176
     1
290
     0
176
     1
290
     0
176
     1
290
     0
176
     1
 90
       50
176
     1
 40
0.0
176
     1
 40
1.0
176
     1
 90
        0
176
     1
 62
    18
420
        0
176
     1
 90
       50
176
     1
 90
        3
176
     1
 62
     5
420
      255
176
     1
290
     0
176
     1
 90
       50
176
     1
 90
       50
176
     1
 90
       50
176
     1
290
     0
176
     1
 90
       50
176
     1
 62
   256
176
     0
 40
1.0
176
     0
 90
        2
176
     1
  1
strokes_ogs.tif
176
     1
290
     0
176
     1
 40
1.0
176
     1
 40
1.0
176
     1
  0
VISUALSTYLE
  5
41
102
{ACAD_REACTORS
330
2A
102
}
330
2A
100
AcDbVisualStyle
  2
Shaded with edges
 70
    26
177
     3
291
     0
 70
    58
 90
        2
176
     1
 90
        2
176
     1
 90
        1
176
     1
 90
        2
176
     1
 40
0.6
176
     1
 40
30.0
176
     1
 62
     7
420
 16777215
176
     1
 90
        1
176
     1
 90
       10
176
     1
 62
     7
176
     1
 62
   257
176
     1
 90
        2
176
     1
 90
        1
176
     1
 40
1.0
176
     1
 90
        8
176
     1
 62
   257
176
     1
 40
1.0
176
     1
 90
        1
176
     1
 90
        6
176
     1
 90
        2
176
     1
 62
     7
176
     1
 90
        3
176
     1
 90
        0
176
     1
 90
        0
176
     1
290
     0
176
     1
 90
        5
176
     1
 40
0.0
176
     1
 90
        0
176
     1
290
     0
176
     1
290
     1
176
     1
290
     1
176
     1
290
     0
176
     1
290
     0
176
     1
290
     0
176
     1
290
     0
176
     1
290
     0
176
     1
290
     0
176
     1
 90
       50
176
     1
 40
0.0
176
     1
 40
1.0
176
     1
 90
        0
176
     1
 62
    18
420
        0
176
     1
 90
       50
176
     1
 90
        3
176
     1
 62
     5
420
      255
176
     1
290
     0
176
     1
 90
       50
176
     1
 90
       50
176
     1
 90
       50
176
     1
290
     0
176
     1
 90
       50
176
     1
 62
   256
176
     0
 40
1.0
176
     0
 90
        2
176
     1
  1
strokes_ogs.tif
176
     1
290
     0
176
     1
 40
1.0
176
     1
 40
1.0
176
     1
  0
VISUALSTYLE
  5
3E
102
{ACAD_REACTORS
330
2A
102
}
330
2A
100
AcDbVisualStyle
  2
Shades of Gray
 70
    23
177
     3
291
     0
 70
    58
 90
        2
176
     1
 90
        2
176
     1
 90
        3
176
     1
 90
        0
176
     1
 40
0.6
176
     1
 40
30.0
176
     1
 62
     7
420
 16777215
176
     1
 90
        2
176
     1
 90
        2
176
     1
 62
     7
176
     1
 62
     7
176
     1
 90
        1
176
     1
 90
        1
176
     1
 40
40.0
176
     1
 90
        8
176
     1
 62
     7
176
     1
 40
1.0
176
     1
 90
        1
176
     1
 90
        6
176
     1
 90
        2
176
     1
 62
     7
176
     1
 90
        3
176
     1
 90
        0
176
     1
 90
        0
176
     1
290
     0
176
     1
 90
        1
176
     1
 40
0.0
176
     1
 90
        0
176
     1
290
     0
176
     1
290
     1
176
     1
290
     1
176
     1
290
     0
176
     1
290
     0
176
     1
290
     0
176
     1
290
     0
176
     1
290
     0
176
     1
290
     0
176
     1
 90
       50
176
     1
 40
0.0
176
     1
 40
1.0
176
     1
 90
        0
176
     1
 62
    18
420
        0
176
     1
 90
       50
176
     1
 90
        3
176
     1
 62
     5
420
      255
176
     1
290
     0
176
     1
 90
       50
176
     1
 90
       50
176
     1
 90
       50
176
     1
290
     0
176
     1
 90
       50
176
     1
 62
   256
176
     0
 40
1.0
176
     0
 90
        2
176
     1
  1
strokes_ogs.tif
176
     1
290
     0
176
     1
 40
1.0
176
     1
 40
1.0
176
     1
  0
VISUALSTYLE
  5
3F
102
{ACAD_REACTORS
330
2A
102
}
330
2A
100
AcDbVisualStyle
  2
Sketchy
 70
    24
177
     3
291
     0
 70
    58
 90
        1
176
     1
 90
        2
176
     1
 90
        2
176
     1
 90
        0
176
     1
 40
0.6
176
     1
 40
30.0
176
     1
 62
     7
420
 16777215
176
     1
 90
        2
176
     1
 90
        2
176
     1
 62
     7
176
     1
 62
     7
176
     1
 90
        1
176
     1
 90
        1
176
     1
 40
40.0
176
     1
 90
       11
176
     1
 62
     7
176
     1
 40
1.0
176
     1
 90
        1
176
     1
 90
        6
176
     1
 90
        2
176
     1
 62
     7
176
     1
 90
        6
176
     1
 90
        0
176
     1
 90
        0
176
     1
290
     0
176
     1
 90
        1
176
     1
 40
0.0
176
     1
 90
        0
176
     1
290
     0
176
     1
290
     1
176
     1
290
     1
176
     1
290
     0
176
     1
290
     0
176
     1
290
     0
176
     1
290
     0
176
     1
290
     0
176
     1
290
     0
176
     1
 90
       50
176
     1
 40
0.0
176
     1
 40
1.0
176
     1
 90
        0
176
     1
 62
    18
420
        0
176
     1
 90
       50
176
     1
 90
        3
176
     1
 62
     5
420
      255
176
     1
290
     0
176
     1
 90
       50
176
     1
 90
       50
176
     1
 90
       50
176
     1
290
     0
176
     1
 90
       50
176
     1
 62
   256
176
     0
 40
1.0
176
     0
 90
        2
176
     1
  1
strokes_ogs.tif
176
     1
290
     0
176
     1
 40
1.0
176
     1
 40
1.0
176
     1
  0
VISUALSTYLE
  5
37
102
{ACAD_REACTORS
330
2A
102
}
330
2A
100
AcDbVisualStyle
  2
Thicken
 70
    13
177
     3
291
     1
 70
    58
 90
        2
176
     1
 90
        2
176
     1
 90
        0
176
     1
 90
        0
176
     1
 40
0.6
176
     1
 40
30.0
176
     1
 62
     7
420
 16777215
176
     1
 90
        1
176
     1
 90
        4
176
     1
 62
     7
176
     1
 62
   257
176
     1
 90
        1
176
     1
 90
        1
176
     1
 40
1.0
176
     1
 90
       12
176
     1
 62
     7
176
     1
 40
1.0
176
     1
 90
        1
176
     1
 90
        6
176
     1
 90
        2
176
     1
 62
     7
176
     1
 90
        5
176
     1
 90
        0
176
     1
 90
        0
176
     1
290
     0
176
     1
 90
        1
176
     1
 40
0.0
176
     1
 90
        0
176
     1
290
     0
176
     1
290
     1
176
     1
290
     1
176
     1
290
     0
176
     1
290
     0
176
     1
290
     0
176
     1
290
     0
176
     1
290
     0
176
     1
290
     0
176
     1
 90
       50
176
     1
 40
0.0
176
     1
 40
1.0
176
     1
 90
        0
176
     1
 62
    18
420
        0
176
     1
 90
       50
176
     1
 90
        3
176
     1
 62
     5
420
      255
176
     1
290
     0
176
     1
 90
       50
176
     1
 90
       50
176
     1
 90
       50
176
     1
290
     0
176
     1
 90
       50
176
     1
 62
   256
176
     0
 40
1.0
176
     0
 90
        2
176
     1
  1
strokes_ogs.tif
176
     1
290
     0
176
     1
 40
1.0
176
     1
 40
1.0
176
     1
  0
VISUALSTYLE
  5
30
102
{ACAD_REACTORS
330
2A
102
}
330
2A
100
AcDbVisualStyle
  2
Wireframe
 70
     5
177
     3
291
     0
 70
    58
 90
        0
176
     1
 90
        2
176
     1
 90
        0
176
     1
 90
        0
176
     1
 40
0.6
176
     1
 40
30.0
176
     1
 62
     7
420
 16777215
176
     1
 90
        1
176
     1
 90
        4
176
     1
 62
     7
176
     1
 62
   257
176
     1
 90
        1
176
     1
 90
        1
176
     1
 40
1.0
176
     1
 90
        0
176
     1
 62
   257
176
     1
 40
1.0
176
     1
 90
        1
176
     1
 90
        6
176
     1
 90
        2
176
     1
 62
     7
176
     1
 90
        3
176
     1
 90
        0
176
     1
 90
        0
176
     1
290
     0
176
     1
 90
        1
176
     1
 40
0.0
176
     1
 90
        0
176
     1
290
     0
176
     1
290
     1
176
     1
290
     1
176
     1
290
     0
176
     1
290
     0
176
     1
290
     0
176
     1
290
     0
176
     1
290
     0
176
     1
290
     0
176
     1
 90
       50
176
     1
 40
0.0
176
     1
 40
1.0
176
     1
 90
        0
176
     1
 62
    18
420
        0
176
     1
 90
       50
176
     1
 90
        3
176
     1
 62
     5
420
      255
176
     1
290
     0
176
     1
 90
       50
176
     1
 90
       50
176
     1
 90
       50
176
     1
290
     0
176
     1
 90
       50
176
     1
 62
   256
176
     0
 40
1.0
176
     0
 90
        2
176
     1
  1
strokes_ogs.tif
176
     1
290
     0
176
     1
 40
1.0
176
     1
 40
1.0
176
     1
  0
VISUALSTYLE
  5
40
102
{ACAD_REACTORS
330
2A
102
}
330
2A
100
AcDbVisualStyle
  2
X-Ray
 70
    25
177
     3
291
     0
 70
    58
 90
        2
176
     1
 90
        2
176
     1
 90
        1
176
     1
 90
        1
176
     1
 40
0.5
176
     1
 40
30.0
176
     1
 62
     7
420
 16777215
176
     1
 90
        1
176
     1
 90
        0
176
     1
 62
     7
176
     1
 62
   257
176
     1
 90
        1
176
     1
 90
        1
176
     1
 40
1.0
176
     1
 90
        8
176
     1
 62
     7
176
     1
 40
1.0
176
     1
 90
        1
176
     1
 90
        6
176
     1
 90
        2
176
     1
 62
     7
176
     1
 90
        3
176
     1
 90
        0
176
     1
 90
        0
176
     1
290
     0
176
     1
 90
       13
176
     1
 40
0.0
176
     1
 90
        0
176
     1
290
     0
176
     1
290
     1
176
     1
290
     1
176
     1
290
     0
176
     1
290
     0
176
     1
290
     0
176
     1
290
     0
176
     1
290
     0
176
     1
290
     0
176
     1
 90
       50
176
     1
 40
0.0
176
     1
 40
1.0
176
     1
 90
        0
176
     1
 62
    18
420
        0
176
     1
 90
       50
176
     1
 90
        3
176
     1
 62
     5
420
      255
176
     1
290
     0
176
     1
 90
       50
176
     1
 90
       50
176
     1
 90
       50
176
     1
290
     0
176
     1
 90
       50
176
     1
 62
   256
176
     0
 40
1.0
176
     0
 90
        2
176
     1
  1
strokes_ogs.tif
176
     1
290
     0
176
     1
 40
1.0
176
     1
 40
1.0
176
     1
  0
DICTIONARYVAR
  5
23D
102
{ACAD_REACTORS
330
23C
102
}
330
23C
100
DictionaryVariables
280
     0
  1
1:1
  0
DICTIONARYVAR
  5
242
102
{ACAD_REACTORS
330
23C
102
}
330
23C
100
DictionaryVariables
280
     0
  1
Standard
  0
DICTIONARYVAR
  5
241
102
{ACAD_REACTORS
330
23C
102
}
330
23C
100
DictionaryVariables
280
     0
  1
Standard
  0
DICTIONARY
  5
23E
330
6A
100
AcDbDictionary
280
     1
281
     1
  3
ACAD_ROUNDTRIP_2008_TABLESTYLE_CELLSTYLEMAP
360
23F
  0
CELLSTYLEMAP
  5
23F
102
{ACAD_REACTORS
330
23E
102
}
330
23E
100
AcDbCellStyleMap
 90
        3
300
CELLSTYLE
  1
TABLEFORMAT_BEGIN
 90
        5
170
     1
 91
        0
 92
    32768
 62
   257
 93
        1
300
CONTENTFORMAT
  1
CONTENTFORMAT_BEGIN
 90
        0
 91
        0
 92
        4
 93
        0
300

 40
0.0
140
1.0
 94
        5
 62
     0
340
11
144
0.25
309
CONTENTFORMAT_END
171
     1
301
MARGIN
  1
CELLMARGIN_BEGIN
 40
0.06
 40
0.06
 40
0.06
 40
0.06
 40
0.06
 40
0.06
309
CELLMARGIN_END
 94
        6
 95
        1
302
GRIDFORMAT
  1
GRIDFORMAT_BEGIN
 90
        0
 91
        1
 62
     0
 92
       -2
340
14
 93
        0
 40
0.045
309
GRIDFORMAT_END
 95
        2
302
GRIDFORMAT
  1
GRIDFORMAT_BEGIN
 90
        0
 91
        1
 62
     0
 92
       -2
340
14
 93
        0
 40
0.045
309
GRIDFORMAT_END
 95
        4
302
GRIDFORMAT
  1
GRIDFORMAT_BEGIN
 90
        0
 91
        1
 62
     0
 92
       -2
340
14
 93
        0
 40
0.045
309
GRIDFORMAT_END
 95
        8
302
GRIDFORMAT
  1
GRIDFORMAT_BEGIN
 90
        0
 91
        1
 62
     0
 92
       -2
340
14
 93
        0
 40
0.045
309
GRIDFORMAT_END
 95
       16
302
GRIDFORMAT
  1
GRIDFORMAT_BEGIN
 90
        0
 91
        1
 62
     0
 92
       -2
340
14
 93
        0
 40
0.045
309
GRIDFORMAT_END
 95
       32
302
GRIDFORMAT
  1
GRIDFORMAT_BEGIN
 90
        0
 91
        1
 62
     0
 92
       -2
340
14
 93
        0
 40
0.045
309
GRIDFORMAT_END
309
TABLEFORMAT_END
  1
CELLSTYLE_BEGIN
 90
        1
 91
        1
300
_TITLE
309
CELLSTYLE_END
300
CELLSTYLE
  1
TABLEFORMAT_BEGIN
 90
        5
170
     1
 91
        0
 92
        0
 62
   257
 93
        1
300
CONTENTFORMAT
  1
CONTENTFORMAT_BEGIN
 90
        0
 91
        0
 92
        4
 93
        0
300

 40
0.0
140
1.0
 94
        5
 62
     0
340
11
144
0.18
309
CONTENTFORMAT_END
171
     1
301
MARGIN
  1
CELLMARGIN_BEGIN
 40
0.06
 40
0.06
 40
0.06
 40
0.06
 40
0.06
 40
0.06
309
CELLMARGIN_END
 94
        6
 95
        1
302
GRIDFORMAT
  1
GRIDFORMAT_BEGIN
 90
        0
 91
        1
 62
     0
 92
       -2
340
14
 93
        0
 40
0.045
309
GRIDFORMAT_END
 95
        2
302
GRIDFORMAT
  1
GRIDFORMAT_BEGIN
 90
        0
 91
        1
 62
     0
 92
       -2
340
14
 93
        0
 40
0.045
309
GRIDFORMAT_END
 95
        4
302
GRIDFORMAT
  1
GRIDFORMAT_BEGIN
 90
        0
 91
        1
 62
     0
 92
       -2
340
14
 93
        0
 40
0.045
309
GRIDFORMAT_END
 95
        8
302
GRIDFORMAT
  1
GRIDFORMAT_BEGIN
 90
        0
 91
        1
 62
     0
 92
       -2
340
14
 93
        0
 40
0.045
309
GRIDFORMAT_END
 95
       16
302
GRIDFORMAT
  1
GRIDFORMAT_BEGIN
 90
        0
 91
        1
 62
     0
 92
       -2
340
14
 93
        0
 40
0.045
309
GRIDFORMAT_END
 95
       32
302
GRIDFORMAT
  1
GRIDFORMAT_BEGIN
 90
        0
 91
        1
 62
     0
 92
       -2
340
14
 93
        0
 40
0.045
309
GRIDFORMAT_END
309
TABLEFORMAT_END
  1
CELLSTYLE_BEGIN
 90
        2
 91
        1
300
_HEADER
309
CELLSTYLE_END
300
CELLSTYLE
  1
TABLEFORMAT_BEGIN
 90
        5
170
     1
 91
        0
 92
        0
 62
   257
 93
        1
300
CONTENTFORMAT
  1
CONTENTFORMAT_BEGIN
 90
        0
 91
        0
 92
        4
 93
        0
300

 40
0.0
140
1.0
 94
        2
 62
     0
340
11
144
0.18
309
CONTENTFORMAT_END
171
     1
301
MARGIN
  1
CELLMARGIN_BEGIN
 40
0.06
 40
0.06
 40
0.06
 40
0.06
 40
0.06
 40
0.06
309
CELLMARGIN_END
 94
        6
 95
        1
302
GRIDFORMAT
  1
GRIDFORMAT_BEGIN
 90
        0
 91
        1
 62
     0
 92
       -2
340
14
 93
        0
 40
0.045
309
GRIDFORMAT_END
 95
        2
302
GRIDFORMAT
  1
GRIDFORMAT_BEGIN
 90
        0
 91
        1
 62
     0
 92
       -2
340
14
 93
        0
 40
0.045
309
GRIDFORMAT_END
 95
        4
302
GRIDFORMAT
  1
GRIDFORMAT_BEGIN
 90
        0
 91
        1
 62
     0
 92
       -2
340
14
 93
        0
 40
0.045
309
GRIDFORMAT_END
 95
        8
302
GRIDFORMAT
  1
GRIDFORMAT_BEGIN
 90
        0
 91
        1
 62
     0
 92
       -2
340
14
 93
        0
 40
0.045
309
GRIDFORMAT_END
 95
       16
302
GRIDFORMAT
  1
GRIDFORMAT_BEGIN
 90
        0
 91
        1
 62
     0
 92
       -2
340
14
 93
        0
 40
0.045
309
GRIDFORMAT_END
 95
       32
302
GRIDFORMAT
  1
GRIDFORMAT_BEGIN
 90
        0
 91
        1
 62
     0
 92
       -2
340
14
 93
        0
 40
0.045
309
GRIDFORMAT_END
309
TABLEFORMAT_END
  1
CELLSTYLE_BEGIN
 90
        3
 91
        2
300
_DATA
309
CELLSTYLE_END
  0
ENDSEC
  0
EOF