0
SECTION
  2
HEADER
  9
$ACADVER
  1
AC1027
  9
$ACADMAINTVER
 70
     8
  9
$DWGCODEPAGE
  3
ANSI_1252
  9
$REQUIREDVERSIONS
160
                 0
  9
$COMMENTS
  1
File was created by Cadenas
  9
$CUSTOMPROPERTYTAG
  1
NN
  9
$CUSTOMPROPERTY
  1
Imperial -IP Pillow Block 1-1/8 thru 2-1/4  2-Bolt Inch Bore (Contact Seal)
  9
$CUSTOMPROPERTYTAG
  1
NT
  9
$CUSTOMPROPERTY
  1
Imperial 2 Bolt Piliow Block Bearings
  9
$CUSTOMPROPERTYTAG
  1
NB
  9
$CUSTOMPROPERTY
  1
069433
  9
$CUSTOMPROPERTYTAG
  1
NBSYN
  9
$CUSTOMPROPERTY
  1
$PN.
  9
$CUSTOMPROPERTYTAG
  1
LINA
  9
$CUSTOMPROPERTY
  1
069433
  9
$CUSTOMPROPERTYTAG
  1
SS
  9
$CUSTOMPROPERTY
  1
1-1/2
  9
$CUSTOMPROPERTYTAG
  1
PN
  9
$CUSTOMPROPERTY
  1
069433
  9
$CUSTOMPROPERTYTAG
  1
DESCRIPTION
  9
$CUSTOMPROPERTY
  1
P2B-IP-108RE
  9
$CUSTOMPROPERTYTAG
  1
EF
  9
$CUSTOMPROPERTY
  1
Expansion Type
  9
$CUSTOMPROPERTYTAG
  1
ST
  9
$CUSTOMPROPERTY
  1
Contact  Seal
  9
$CUSTOMPROPERTYTAG
  1
A
  9
$CUSTOMPROPERTY
  1
2-5/8
  9
$CUSTOMPROPERTYTAG
  1
B
  9
$CUSTOMPROPERTY
  1
6-7/8
  9
$CUSTOMPROPERTYTAG
  1
C
  9
$CUSTOMPROPERTY
  1
1-61/64
  9
$CUSTOMPROPERTYTAG
  1
DMIN
  9
$CUSTOMPROPERTY
  1
4-13/16
  9
$CUSTOMPROPERTYTAG
  1
DMAX
  9
$CUSTOMPROPERTY
  1
5-13/64
  9
$CUSTOMPROPERTYTAG
  1
F
  9
$CUSTOMPROPERTY
  1
1/2
  9
$CUSTOMPROPERTYTAG
  1
G
  9
$CUSTOMPROPERTY
  1
13/16
  9
$CUSTOMPROPERTYTAG
  1
H
  9
$CUSTOMPROPERTY
  1
1-1/8
  9
$CUSTOMPROPERTYTAG
  1
J
  9
$CUSTOMPROPERTY
  1
3-7/8
  9
$CUSTOMPROPERTYTAG
  1
L
  9
$CUSTOMPROPERTY
  1
2-23/32
  9
$CUSTOMPROPERTYTAG
  1
M
  9
$CUSTOMPROPERTY
  1
1-7/8
  9
$CUSTOMPROPERTYTAG
  1
R
  9
$CUSTOMPROPERTY
  1
7/8
  9
$CUSTOMPROPERTYTAG
  1
S
  9
$CUSTOMPROPERTY
  1
1-3/4
  9
$CUSTOMPROPERTYTAG
  1
X
  9
$CUSTOMPROPERTY
  1
3/16
  9
$CUSTOMPROPERTYTAG
  1
Y
  9
$CUSTOMPROPERTY
  1
0.020
  9
$CUSTOMPROPERTYTAG
  1
Z
  9
$CUSTOMPROPERTY
  1
1-51/64
  9
$CUSTOMPROPERTYTAG
  1
COMPANY
  9
$CUSTOMPROPERTY
  1
baldor
  9
$INSBASE
 10
0.0
 20
0.0
 30
0.0
  9
$EXTMIN
 10
1.000000000000000E+20
 20
1.000000000000000E+20
 30
1.000000000000000E+20
  9
$EXTMAX
 10
-1.000000000000000E+20
 20
-1.000000000000000E+20
 30
-1.000000000000000E+20
  9
$LIMMIN
 10
0.0
 20
0.0
  9
$LIMMAX
 10
12.0
 20
9.0
  9
$ORTHOMODE
 70
     0
  9
$REGENMODE
 70
     1
  9
$FILLMODE
 70
     1
  9
$QTEXTMODE
 70
     0
  9
$MIRRTEXT
 70
     1
  9
$LTSCALE
 40
1.0
  9
$ATTMODE
 70
     1
  9
$TEXTSIZE
 40
0.2
  9
$TRACEWID
 40
0.05
  9
$TEXTSTYLE
  7
Standard
  9
$CLAYER
  8
0
  9
$CELTYPE
  6
ByLayer
  9
$CECOLOR
 62
   256
  9
$CELTSCALE
 40
1.0
  9
$DISPSILH
 70
     0
  9
$DIMSCALE
 40
1.0
  9
$DIMASZ
 40
0.18
  9
$DIMEXO
 40
0.0625
  9
$DIMDLI
 40
0.38
  9
$DIMRND
 40
0.0
  9
$DIMDLE
 40
0.0
  9
$DIMEXE
 40
0.18
  9
$DIMTP
 40
0.0
  9
$DIMTM
 40
0.0
  9
$DIMTXT
 40
0.18
  9
$DIMCEN
 40
0.09
  9
$DIMTSZ
 40
0.0
  9
$DIMTOL
 70
     0
  9
$DIMLIM
 70
     0
  9
$DIMTIH
 70
     1
  9
$DIMTOH
 70
     1
  9
$DIMSE1
 70
     0
  9
$DIMSE2
 70
     0
  9
$DIMTAD
 70
     0
  9
$DIMZIN
 70
     0
  9
$DIMBLK
  1

  9
$DIMASO
 70
     1
  9
$DIMSHO
 70
     1
  9
$DIMPOST
  1

  9
$DIMAPOST
  1

  9
$DIMALT
 70
     0
  9
$DIMALTD
 70
     2
  9
$DIMALTF
 40
25.4
  9
$DIMLFAC
 40
1.0
  9
$DIMTOFL
 70
     0
  9
$DIMTVP
 40
0.0
  9
$DIMTIX
 70
     0
  9
$DIMSOXD
 70
     0
  9
$DIMSAH
 70
     0
  9
$DIMBLK1
  1

  9
$DIMBLK2
  1

  9
$DIMSTYLE
  2
Standard
  9
$DIMCLRD
 70
     0
  9
$DIMCLRE
 70
     0
  9
$DIMCLRT
 70
     0
  9
$DIMTFAC
 40
1.0
  9
$DIMGAP
 40
0.09
  9
$DIMJUST
 70
     0
  9
$DIMSD1
 70
     0
  9
$DIMSD2
 70
     0
  9
$DIMTOLJ
 70
     1
  9
$DIMTZIN
 70
     0
  9
$DIMALTZ
 70
     0
  9
$DIMALTTZ
 70
     0
  9
$DIMUPT
 70
     0
  9
$DIMDEC
 70
     4
  9
$DIMTDEC
 70
     4
  9
$DIMALTU
 70
     2
  9
$DIMALTTD
 70
     2
  9
$DIMTXSTY
  7
Standard
  9
$DIMAUNIT
 70
     0
  9
$DIMADEC
 70
     0
  9
$DIMALTRND
 40
0.0
  9
$DIMAZIN
 70
     0
  9
$DIMDSEP
 70
    46
  9
$DIMATFIT
 70
     3
  9
$DIMFRAC
 70
     0
  9
$DIMLDRBLK
  1

  9
$DIMLUNIT
 70
     2
  9
$DIMLWD
 70
    -2
  9
$DIMLWE
 70
    -2
  9
$DIMTMOVE
 70
     0
  9
$DIMFXL
 40
1.0
  9
$DIMFXLON
 70
     0
  9
$DIMJOGANG
 40
0.7853981633974483
  9
$DIMTFILL
 70
     0
  9
$DIMTFILLCLR
 70
     0
  9
$DIMARCSYM
 70
     0
  9
$DIMLTYPE
  6

  9
$DIMLTEX1
  6

  9
$DIMLTEX2
  6

  9
$DIMTXTDIRECTION
 70
     0
  9
$LUNITS
 70
     2
  9
$LUPREC
 70
     4
  9
$SKETCHINC
 40
0.1
  9
$FILLETRAD
 40
0.5
  9
$AUNITS
 70
     0
  9
$AUPREC
 70
     0
  9
$MENU
  1
.
  9
$ELEVATION
 40
0.0
  9
$PELEVATION
 40
0.0
  9
$THICKNESS
 40
0.0
  9
$LIMCHECK
 70
     0
  9
$CHAMFERA
 40
0.0
  9
$CHAMFERB
 40
0.0
  9
$CHAMFERC
 40
0.0
  9
$CHAMFERD
 40
0.0
  9
$SKPOLY
 70
     0
  9
$TDCREATE
 40
2458168.988317616
  9
$TDUCREATE
 40
2458168.946650949
  9
$TDUPDATE
 40
2458168.98831779
  9
$TDUUPDATE
 40
2458168.946651123
  9
$TDINDWG
 40
0.0000000116
  9
$TDUSRTIMER
 40
0.0000000116
  9
$USRTIMER
 70
     1
  9
$ANGBASE
 50
0.0
  9
$ANGDIR
 70
     0
  9
$PDMODE
 70
     0
  9
$PDSIZE
 40
0.0
  9
$PLINEWID
 40
0.0
  9
$SPLFRAME
 70
     0
  9
$SPLINETYPE
 70
     6
  9
$SPLINESEGS
 70
     8
  9
$HANDSEED
  5
23D
  9
$SURFTAB1
 70
     6
  9
$SURFTAB2
 70
     6
  9
$SURFTYPE
 70
     6
  9
$SURFU
 70
     6
  9
$SURFV
 70
     6
  9
$UCSBASE
  2

  9
$UCSNAME
  2

  9
$UCSORG
 10
0.0
 20
0.0
 30
0.0
  9
$UCSXDIR
 10
1.0
 20
0.0
 30
0.0
  9
$UCSYDIR
 10
0.0
 20
1.0
 30
0.0
  9
$UCSORTHOREF
  2

  9
$UCSORTHOVIEW
 70
     0
  9
$UCSORGTOP
 10
0.0
 20
0.0
 30
0.0
  9
$UCSORGBOTTOM
 10
0.0
 20
0.0
 30
0.0
  9
$UCSORGLEFT
 10
0.0
 20
0.0
 30
0.0
  9
$UCSORGRIGHT
 10
0.0
 20
0.0
 30
0.0
  9
$UCSORGFRONT
 10
0.0
 20
0.0
 30
0.0
  9
$UCSORGBACK
 10
0.0
 20
0.0
 30
0.0
  9
$PUCSBASE
  2

  9
$PUCSNAME
  2

  9
$PUCSORG
 10
0.0
 20
0.0
 30
0.0
  9
$PUCSXDIR
 10
1.0
 20
0.0
 30
0.0
  9
$PUCSYDIR
 10
0.0
 20
1.0
 30
0.0
  9
$PUCSORTHOREF
  2

  9
$PUCSORTHOVIEW
 70
     0
  9
$PUCSORGTOP
 10
0.0
 20
0.0
 30
0.0
  9
$PUCSORGBOTTOM
 10
0.0
 20
0.0
 30
0.0
  9
$PUCSORGLEFT
 10
0.0
 20
0.0
 30
0.0
  9
$PUCSORGRIGHT
 10
0.0
 20
0.0
 30
0.0
  9
$PUCSORGFRONT
 10
0.0
 20
0.0
 30
0.0
  9
$PUCSORGBACK
 10
0.0
 20
0.0
 30
0.0
  9
$USERI1
 70
     0
  9
$USERI2
 70
     0
  9
$USERI3
 70
     0
  9
$USERI4
 70
     0
  9
$USERI5
 70
     0
  9
$USERR1
 40
0.0
  9
$USERR2
 40
0.0
  9
$USERR3
 40
0.0
  9
$USERR4
 40
0.0
  9
$USERR5
 40
0.0
  9
$WORLDVIEW
 70
     1
  9
$SHADEDGE
 70
     3
  9
$SHADEDIF
 70
    70
  9
$TILEMODE
 70
     1
  9
$MAXACTVP
 70
    64
  9
$PINSBASE
 10
0.0
 20
0.0
 30
0.0
  9
$PLIMCHECK
 70
     0
  9
$PEXTMIN
 10
1.000000000000000E+20
 20
1.000000000000000E+20
 30
1.000000000000000E+20
  9
$PEXTMAX
 10
-1.000000000000000E+20
 20
-1.000000000000000E+20
 30
-1.000000000000000E+20
  9
$PLIMMIN
 10
0.0
 20
0.0
  9
$PLIMMAX
 10
12.0
 20
9.0
  9
$UNITMODE
 70
     0
  9
$VISRETAIN
 70
     1
  9
$PLINEGEN
 70
     0
  9
$PSLTSCALE
 70
     1
  9
$TREEDEPTH
 70
  3020
  9
$CMLSTYLE
  2
Standard
  9
$CMLJUST
 70
     0
  9
$CMLSCALE
 40
1.0
  9
$PROXYGRAPHICS
 70
     1
  9
$MEASUREMENT
 70
     0
  9
$CELWEIGHT
370
    -1
  9
$ENDCAPS
280
     0
  9
$JOINSTYLE
280
     0
  9
$LWDISPLAY
290
     0
  9
$INSUNITS
 70
     1
  9
$HYPERLINKBASE
  1

  9
$STYLESHEET
  1

  9
$XEDIT
290
     1
  9
$CEPSNTYPE
380
     0
  9
$PSTYLEMODE
290
     1
  9
$FINGERPRINTGUID
  2
{F137B0D2-757D-43C2-A10D-1043E9A7D1D6}
  9
$VERSIONGUID
  2
{FAEB1C32-E019-11D5-929B-00C0DF256EC4}
  9
$EXTNAMES
290
     1
  9
$PSVPSCALE
 40
0.0
  9
$OLESTARTUP
290
     0
  9
$SORTENTS
280
   127
  9
$INDEXCTL
280
     0
  9
$HIDETEXT
280
     1
  9
$XCLIPFRAME
280
     2
  9
$HALOGAP
280
     0
  9
$OBSCOLOR
 70
   257
  9
$OBSLTYPE
280
     0
  9
$INTERSECTIONDISPLAY
280
     0
  9
$INTERSECTIONCOLOR
 70
   257
  9
$DIMASSOC
280
     2
  9
$PROJECTNAME
  1

  9
$CAMERADISPLAY
290
     0
  9
$LENSLENGTH
 40
50.0
  9
$CAMERAHEIGHT
 40
0.0
  9
$STEPSPERSEC
 40
2.0
  9
$STEPSIZE
 40
6.0
  9
$3DDWFPREC
 40
2.0
  9
$PSOLWIDTH
 40
0.25
  9
$PSOLHEIGHT
 40
4.0
  9
$LOFTANG1
 40
1.570796326794897
  9
$LOFTANG2
 40
1.570796326794897
  9
$LOFTMAG1
 40
0.0
  9
$LOFTMAG2
 40
0.0
  9
$LOFTPARAM
 70
     7
  9
$LOFTNORMALS
280
     1
  9
$LATITUDE
 40
37.795
  9
$LONGITUDE
 40
-122.394
  9
$NORTHDIRECTION
 40
0.0
  9
$TIMEZONE
 70
 -8000
  9
$LIGHTGLYPHDISPLAY
280
     1
  9
$TILEMODELIGHTSYNCH
280
     1
  9
$CMATERIAL
347
44
  9
$SOLIDHIST
280
     0
  9
$SHOWHIST
280
     1
  9
$DWFFRAME
280
     2
  9
$DGNFRAME
280
     2
  9
$REALWORLDSCALE
290
     1
  9
$INTERFERECOLOR
 62
   256
  9
$CSHADOW
280
     0
  9
$SHADOWPLANELOCATION
 40
0.0
  0
ENDSEC
  0
SECTION
  2
CLASSES
  0
CLASS
  1
ACDBDICTIONARYWDFLT
  2
AcDbDictionaryWithDefault
  3
ObjectDBX Classes
 90
        0
 91
        4
280
     0
281
     0
  0
CLASS
  1
VISUALSTYLE
  2
AcDbVisualStyle
  3
ObjectDBX Classes
 90
     4095
 91
        4
280
     0
281
     0
  0
CLASS
  1
MATERIAL
  2
AcDbMaterial
  3
ObjectDBX Classes
 90
     1153
 91
        4
280
     0
281
     0
  0
CLASS
  1
SCALE
  2
AcDbScale
  3
ObjectDBX Classes
 90
     1153
 91
        4
280
     0
281
     0
  0
CLASS
  1
TABLESTYLE
  2
AcDbTableStyle
  3
ObjectDBX Classes
 90
     4095
 91
        4
280
     0
281
     0
  0
CLASS
  1
MLEADERSTYLE
  2
AcDbMLeaderStyle
  3
ACDB_MLEADERSTYLE_CLASS
 90
     4095
 91
        4
280
     0
281
     0
  0
CLASS
  1
SUN
  2
AcDbSun
  3
SCENEOE
 90
     1153
 91
        4
280
     0
281
     0
  0
CLASS
  1
DICTIONARYVAR
  2
AcDbDictionaryVar
  3
ObjectDBX Classes
 90
        0
 91
        4
280
     0
281
     0
  0
CLASS
  1
CELLSTYLEMAP
  2
AcDbCellStyleMap
  3
ObjectDBX Classes
 90
     1152
 91
        4
280
     0
281
     0
  0
ENDSEC
  0
SECTION
  2
TABLES
  0
TABLE
  2
VPORT
  5
8
330
0
100
AcDbSymbolTable
 70
     1
  0
VPORT
  5
29
330
8
100
AcDbSymbolTableRecord
100
AcDbViewportTableRecord
  2
*Active
 70
     0
 10
0.0
 20
0.0
 11
1.0
 21
1.0
 12
0.0
 22
-0.2676249999999998
 13
0.0
 23
0.0
 14
0.5
 24
0.5
 15
0.5
 25
0.5
 16
0.0
 26
0.0
 36
1.0
 17
0.0
 27
0.0
 37
0.0
 40
3.024045000000001
 41
2.318913905051016
 42
50.0
 43
0.0
 44
0.0
 50
0.0
 51
0.0
 71
     0
 72
   100
 73
     1
 74
     3
 75
     0
 76
     0
 77
     0
 78
     0
281
     0
 65
     1
110
0.0
120
0.0
130
0.0
111
1.0
121
0.0
131
0.0
112
0.0
122
1.0
132
0.0
 79
     0
146
0.0
348
2F
 60
     3
 61
     5
292
     1
282
     1
141
0.0
142
0.0
 63
   250
361
6D
  0
ENDTAB
  0
TABLE
  2
LTYPE
  5
5
330
0
100
AcDbSymbolTable
 70
     3
  0
LTYPE
  5
14
330
5
100
AcDbSymbolTableRecord
100
AcDbLinetypeTableRecord
  2
ByBlock
 70
     0
  3

 72
    65
 73
     0
 40
0.0
  0
LTYPE
  5
15
330
5
100
AcDbSymbolTableRecord
100
AcDbLinetypeTableRecord
  2
ByLayer
 70
     0
  3

 72
    65
 73
     0
 40
0.0
  0
LTYPE
  5
16
330
5
100
AcDbSymbolTableRecord
100
AcDbLinetypeTableRecord
  2
Continuous
 70
     0
  3
Solid line
 72
    65
 73
     0
 40
0.0
  0
LTYPE
  5
B1
330
5
100
AcDbSymbolTableRecord
100
AcDbLinetypeTableRecord
  2
Dashed
 70
     0
  3

 72
    65
 73
     2
 40
2.0
 49
1.0
 74
     0
 49
-1.0
 74
     0
  0
LTYPE
  5
159
330
5
100
AcDbSymbolTableRecord
100
AcDbLinetypeTableRecord
  2
Center
 70
     0
  3

 72
    65
 73
     4
 40
1.5
 49
0.45
 74
     0
 49
-0.5
 74
     0
 49
0.05
 74
     0
 49
-0.5
 74
     0
  0
ENDTAB
  0
TABLE
  2
LAYER
  5
2
330
0
100
AcDbSymbolTable
 70
     7
  0
LAYER
  5
10
330
2
100
AcDbSymbolTableRecord
100
AcDbLayerTableRecord
  2
0
 70
     0
 62
     7
  6
Continuous
370
    -3
390
F
347
46
348
0
  0
LAYER
  5
72
330
2
100
AcDbSymbolTableRecord
100
AcDbLayerTableRecord
  2
AM_6
 70
     0
 62
    -2
  6
Continuous
370
    35
390
F
347
46
348
0
  0
LAYER
  5
9E
330
2
100
AcDbSymbolTableRecord
100
AcDbLayerTableRecord
  2
AM_5
 70
     0
 62
     3
  6
Continuous
370
    25
390
F
347
46
348
0
  0
LAYER
  5
B2
330
2
100
AcDbSymbolTableRecord
100
AcDbLayerTableRecord
  2
AM_9
 70
     0
 62
     6
  6
Dashed
370
    25
390
F
347
46
348
0
  0
LAYER
  5
BF
330
2
100
AcDbSymbolTableRecord
100
AcDbLayerTableRecord
  2
AM_4
 70
     0
 62
     7
  6
Continuous
370
    50
390
F
347
46
348
0
  0
LAYER
  5
15A
330
2
100
AcDbSymbolTableRecord
100
AcDbLayerTableRecord
  2
AM_7
 70
     0
 62
     7
  6
Center
370
    25
390
F
347
46
348
0
  0
LAYER
  5
226
330
2
100
AcDbSymbolTableRecord
100
AcDbLayerTableRecord
  2
ConnectionPoints
 70
     0
 62
     7
  6
Continuous
370
    50
390
F
347
46
348
0
  0
ENDTAB
  0
TABLE
  2
STYLE
  5
3
330
0
100
AcDbSymbolTable
 70
     1
  0
STYLE
  5
11
330
3
100
AcDbSymbolTableRecord
100
AcDbTextStyleTableRecord
  2
Standard
 70
     0
 40
0.0
 41
1.0
 50
0.0
 71
     0
 42
0.2
  3
txt
  4

  0
ENDTAB
  0
TABLE
  2
VIEW
  5
6
330
0
100
AcDbSymbolTable
 70
     0
  0
ENDTAB
  0
TABLE
  2
UCS
  5
7
330
0
100
AcDbSymbolTable
 70
     0
  0
ENDTAB
  0
TABLE
  2
APPID
  5
9
330
0
100
AcDbSymbolTable
 70
     1
  0
APPID
  5
12
330
9
100
AcDbSymbolTableRecord
100
AcDbRegAppTableRecord
  2
ACAD
 70
     0
  0
ENDTAB
  0
TABLE
  2
DIMSTYLE
  5
A
330
0
100
AcDbSymbolTable
 70
     1
100
AcDbDimStyleTable
  0
DIMSTYLE
105
27
330
A
100
AcDbSymbolTableRecord
100
AcDbDimStyleTableRecord
  2
Standard
 70
     0
178
     0
340
11
  0
ENDTAB
  0
TABLE
  2
BLOCK_RECORD
  5
1
330
0
100
AcDbSymbolTable
 70
     8
  0
BLOCK_RECORD
  5
1F
330
1
100
AcDbSymbolTableRecord
100
AcDbBlockTableRecord
  2
*Model_Space
340
22
 70
     0
280
     1
281
     0
  0
BLOCK_RECORD
  5
1B
330
1
100
AcDbSymbolTableRecord
100
AcDbBlockTableRecord
  2
*Paper_Space
340
1E
 70
     0
280
     1
281
     0
  0
BLOCK_RECORD
  5
23
330
1
100
AcDbSymbolTableRecord
100
AcDbBlockTableRecord
  2
*Paper_Space0
340
26
 70
     0
280
     1
281
     0
  0
BLOCK_RECORD
  5
6E
330
1
100
AcDbSymbolTableRecord
100
AcDbBlockTableRecord
  2
1_069433_4
340
0
102
{BLKREFS
331
6F
102
}
 70
     0
280
     1
281
     0
  0
BLOCK_RECORD
  5
8E
330
1
100
AcDbSymbolTableRecord
100
AcDbBlockTableRecord
  2
2_ASME_B18_3_10_1_0_in_069433_4
340
0
102
{BLKREFS
331
8F
102
}
 70
     0
280
     1
281
     0
  0
BLOCK_RECORD
  5
A1
330
1
100
AcDbSymbolTableRecord
100
AcDbBlockTableRecord
  2
3_ASME_B18_3_10_2_0_in_069433_4
340
0
102
{BLKREFS
331
A2
102
}
 70
     0
280
     1
281
     0
  0
BLOCK_RECORD
  5
C6
330
1
100
AcDbSymbolTableRecord
100
AcDbBlockTableRecord
  2
4_070885LW_0_in_069433_4
340
0
102
{BLKREFS
331
C7
102
}
 70
     0
280
     1
281
     0
  0
BLOCK_RECORD
  5
FC
330
1
100
AcDbSymbolTableRecord
100
AcDbBlockTableRecord
  2
5_070885I_0_in_069433_4
340
0
102
{BLKREFS
331
FD
102
}
 70
     0
280
     1
281
     0
  0
BLOCK_RECORD
  5
17B
330
1
100
AcDbSymbolTableRecord
100
AcDbBlockTableRecord
  2
6_405015E_Inch_0_in_069433_4
340
0
102
{BLKREFS
331
17C
102
}
 70
     0
280
     1
281
     0
  0
BLOCK_RECORD
  5
1C4
330
1
100
AcDbSymbolTableRecord
100
AcDbBlockTableRecord
  2
7_069433H_0_in_069433_4
340
0
102
{BLKREFS
331
1C5
102
}
 70
     0
280
     1
281
     0
  0
ENDTAB
  0
ENDSEC
  0
SECTION
  2
BLOCKS
  0
BLOCK
  5
20
330
1F
100
AcDbEntity
  8
0
100
AcDbBlockBegin
  2
*Model_Space
 70
     0
 10
0.0
 20
0.0
 30
0.0
  3
*Model_Space
  1

  0
ENDBLK
  5
21
330
1F
100
AcDbEntity
  8
0
100
AcDbBlockEnd
  0
BLOCK
  5
1C
330
1B
100
AcDbEntity
 67
     1
  8
0
100
AcDbBlockBegin
  2
*Paper_Space
 70
     0
 10
0.0
 20
0.0
 30
0.0
  3
*Paper_Space
  1

  0
ENDBLK
  5
1D
330
1B
100
AcDbEntity
 67
     1
  8
0
100
AcDbBlockEnd
  0
BLOCK
  5
24
330
23
100
AcDbEntity
  8
0
100
AcDbBlockBegin
  2
*Paper_Space0
 70
     0
 10
0.0
 20
0.0
 30
0.0
  3
*Paper_Space0
  1

  0
ENDBLK
  5
25
330
23
100
AcDbEntity
  8
0
100
AcDbBlockEnd
  0
BLOCK
  5
70
330
6E
100
AcDbEntity
  8
0
100
AcDbBlockBegin
  2
1_069433_4
 70
     2
 10
0.0
 20
0.0
 30
0.0
  3
1_069433_4
  1

  0
ATTDEF
  5
73
330
6E
100
AcDbEntity
  8
AM_6
100
AcDbText
 10
8.4375
 20
1.21475
 30
0.0
 40
0.5
  1
Imperial -IP Pillow Block 1-1/8 thru 2-1/4  2-Bolt Inch Bore (Contact Seal)
100
AcDbAttributeDefinition
  3

  2
NN
 70
     8
280
     0
  0
ATTDEF
  5
74
330
6E
100
AcDbEntity
  8
AM_6
100
AcDbText
 10
8.4375
 20
0.7147500000000002
 30
0.0
 40
0.5
  1
Imperial 2 Bolt Piliow Block Bearings
100
AcDbAttributeDefinition
  3

  2
NT
 70
     8
280
     0
  0
ATTDEF
  5
75
330
6E
100
AcDbEntity
  8
AM_6
100
AcDbText
 10
8.4375
 20
0.2147500000000002
 30
0.0
 40
0.5
  1
069433
100
AcDbAttributeDefinition
  3

  2
NB
 70
     8
280
     0
  0
ATTDEF
  5
76
330
6E
100
AcDbEntity
  8
AM_6
100
AcDbText
 10
8.4375
 20
-0.2852499999999998
 30
0.0
 40
0.5
  1
$PN.
100
AcDbAttributeDefinition
  3

  2
NBSYN
 70
     8
280
     0
  0
ATTDEF
  5
77
330
6E
100
AcDbEntity
  8
AM_6
100
AcDbText
 10
8.4375
 20
-0.7852499999999998
 30
0.0
 40
0.5
  1
069433
100
AcDbAttributeDefinition
  3

  2
LINA
 70
     8
280
     0
  0
ATTDEF
  5
78
330
6E
100
AcDbEntity
  8
AM_6
100
AcDbText
 10
8.4375
 20
-1.28525
 30
0.0
 40
0.5
  1
1-1/2
100
AcDbAttributeDefinition
  3

  2
SS
 70
     8
280
     0
  0
ATTDEF
  5
79
330
6E
100
AcDbEntity
  8
AM_6
100
AcDbText
 10
8.4375
 20
-1.78525
 30
0.0
 40
0.5
  1
069433
100
AcDbAttributeDefinition
  3

  2
PN
 70
     8
280
     0
  0
ATTDEF
  5
7A
330
6E
100
AcDbEntity
  8
AM_6
100
AcDbText
 10
8.4375
 20
-2.28525
 30
0.0
 40
0.5
  1
P2B-IP-108RE
100
AcDbAttributeDefinition
  3

  2
DESCRIPTION
 70
     8
280
     0
  0
ATTDEF
  5
7B
330
6E
100
AcDbEntity
  8
AM_6
100
AcDbText
 10
8.4375
 20
-2.78525
 30
0.0
 40
0.5
  1
Expansion Type
100
AcDbAttributeDefinition
  3

  2
EF
 70
     8
280
     0
  0
ATTDEF
  5
7C
330
6E
100
AcDbEntity
  8
AM_6
100
AcDbText
 10
8.4375
 20
-3.28525
 30
0.0
 40
0.5
  1
Contact  Seal
100
AcDbAttributeDefinition
  3

  2
ST
 70
     8
280
     0
  0
ATTDEF
  5
7D
330
6E
100
AcDbEntity
  8
AM_6
100
AcDbText
 10
8.4375
 20
-3.78525
 30
0.0
 40
0.5
  1
2-5/8
100
AcDbAttributeDefinition
  3

  2
A
 70
     8
280
     0
  0
ATTDEF
  5
7E
330
6E
100
AcDbEntity
  8
AM_6
100
AcDbText
 10
8.4375
 20
-4.28525
 30
0.0
 40
0.5
  1
6-7/8
100
AcDbAttributeDefinition
  3

  2
B
 70
     8
280
     0
  0
ATTDEF
  5
7F
330
6E
100
AcDbEntity
  8
AM_6
100
AcDbText
 10
8.4375
 20
-4.78525
 30
0.0
 40
0.5
  1
1-61/64
100
AcDbAttributeDefinition
  3

  2
C
 70
     8
280
     0
  0
ATTDEF
  5
80
330
6E
100
AcDbEntity
  8
AM_6
100
AcDbText
 10
8.4375
 20
-5.28525
 30
0.0
 40
0.5
  1
4-13/16
100
AcDbAttributeDefinition
  3

  2
DMIN
 70
     8
280
     0
  0
ATTDEF
  5
81
330
6E
100
AcDbEntity
  8
AM_6
100
AcDbText
 10
8.4375
 20
-5.78525
 30
0.0
 40
0.5
  1
5-13/64
100
AcDbAttributeDefinition
  3

  2
DMAX
 70
     8
280
     0
  0
ATTDEF
  5
82
330
6E
100
AcDbEntity
  8
AM_6
100
AcDbText
 10
8.4375
 20
-6.28525
 30
0.0
 40
0.5
  1
1/2
100
AcDbAttributeDefinition
  3

  2
F
 70
     8
280
     0
  0
ATTDEF
  5
83
330
6E
100
AcDbEntity
  8
AM_6
100
AcDbText
 10
8.4375
 20
-6.78525
 30
0.0
 40
0.5
  1
13/16
100
AcDbAttributeDefinition
  3

  2
G
 70
     8
280
     0
  0
ATTDEF
  5
84
330
6E
100
AcDbEntity
  8
AM_6
100
AcDbText
 10
8.4375
 20
-7.28525
 30
0.0
 40
0.5
  1
1-1/8
100
AcDbAttributeDefinition
  3

  2
H
 70
     8
280
     0
  0
ATTDEF
  5
85
330
6E
100
AcDbEntity
  8
AM_6
100
AcDbText
 10
8.4375
 20
-7.78525
 30
0.0
 40
0.5
  1
3-7/8
100
AcDbAttributeDefinition
  3

  2
J
 70
     8
280
     0
  0
ATTDEF
  5
86
330
6E
100
AcDbEntity
  8
AM_6
100
AcDbText
 10
8.4375
 20
-8.28525
 30
0.0
 40
0.5
  1
2-23/32
100
AcDbAttributeDefinition
  3

  2
L
 70
     8
280
     0
  0
ATTDEF
  5
87
330
6E
100
AcDbEntity
  8
AM_6
100
AcDbText
 10
8.4375
 20
-8.78525
 30
0.0
 40
0.5
  1
1-7/8
100
AcDbAttributeDefinition
  3

  2
M
 70
     8
280
     0
  0
ATTDEF
  5
88
330
6E
100
AcDbEntity
  8
AM_6
100
AcDbText
 10
8.4375
 20
-9.28525
 30
0.0
 40
0.5
  1
7/8
100
AcDbAttributeDefinition
  3

  2
R
 70
     8
280
     0
  0
ATTDEF
  5
89
330
6E
100
AcDbEntity
  8
AM_6
100
AcDbText
 10
8.4375
 20
-9.78525
 30
0.0
 40
0.5
  1
1-3/4
100
AcDbAttributeDefinition
  3

  2
S
 70
     8
280
     0
  0
ATTDEF
  5
8A
330
6E
100
AcDbEntity
  8
AM_6
100
AcDbText
 10
8.4375
 20
-10.28525
 30
0.0
 40
0.5
  1
3/16
100
AcDbAttributeDefinition
  3

  2
X
 70
     8
280
     0
  0
ATTDEF
  5
8B
330
6E
100
AcDbEntity
  8
AM_6
100
AcDbText
 10
8.4375
 20
-10.78525
 30
0.0
 40
0.5
  1
0.020
100
AcDbAttributeDefinition
  3

  2
Y
 70
     8
280
     0
  0
ATTDEF
  5
8C
330
6E
100
AcDbEntity
  8
AM_6
100
AcDbText
 10
8.4375
 20
-11.28525
 30
0.0
 40
0.5
  1
1-51/64
100
AcDbAttributeDefinition
  3

  2
Z
 70
     8
280
     0
  0
ATTDEF
  5
8D
330
6E
100
AcDbEntity
  8
AM_6
100
AcDbText
 10
8.4375
 20
-11.78525
 30
0.0
 40
0.5
  1
baldor
100
AcDbAttributeDefinition
  3

  2
COMPANY
 70
     8
280
     0
  0
INSERT
  5
8F
330
6E
100
AcDbEntity
  8
0
100
AcDbBlockReference
  2
2_ASME_B18_3_10_1_0_in_069433_4
 10
0.0
 20
0.0
 30
0.0
  0
INSERT
  5
A2
330
6E
100
AcDbEntity
  8
0
100
AcDbBlockReference
  2
3_ASME_B18_3_10_2_0_in_069433_4
 10
0.0
 20
0.0
 30
0.0
  0
INSERT
  5
C7
330
6E
100
AcDbEntity
  8
0
100
AcDbBlockReference
  2
4_070885LW_0_in_069433_4
 10
0.0
 20
0.0
 30
0.0
  0
INSERT
  5
FD
330
6E
100
AcDbEntity
  8
0
100
AcDbBlockReference
  2
5_070885I_0_in_069433_4
 10
0.0
 20
0.0
 30
0.0
  0
INSERT
  5
17C
330
6E
100
AcDbEntity
  8
0
100
AcDbBlockReference
  2
6_405015E_Inch_0_in_069433_4
 10
0.0
 20
0.0
 30
0.0
  0
INSERT
  5
1C5
330
6E
100
AcDbEntity
  8
0
100
AcDbBlockReference
  2
7_069433H_0_in_069433_4
 10
0.0
 20
0.0
 30
0.0
  0
ENDBLK
  5
71
330
6E
100
AcDbEntity
  8
0
100
AcDbBlockEnd
  0
BLOCK
  5
90
330
8E
100
AcDbEntity
  8
0
100
AcDbBlockBegin
  2
2_ASME_B18_3_10_1_0_in_069433_4
 70
     2
 10
0.0
 20
0.0
 30
0.0
  3
2_ASME_B18_3_10_1_0_in_069433_4
  1

  0
ATTDEF
  5
92
330
8E
100
AcDbEntity
  8
AM_6
100
AcDbText
 10
5.095
 20
-1.320833333333333
 30
0.0
 40
0.5
  1
ANSI/ASME B18.3-1998
100
AcDbAttributeDefinition
  3

  2
NN
 70
     8
280
     0
  0
ATTDEF
  5
93
330
8E
100
AcDbEntity
  8
AM_6
100
AcDbText
 10
5.095
 20
-1.820833333333333
 30
0.0
 40
0.5
  1
Socket Button Head Cap Screws
100
AcDbAttributeDefinition
  3

  2
NT
 70
     8
280
     0
  0
ATTDEF
  5
94
330
8E
100
AcDbEntity
  8
AM_6
100
AcDbText
 10
5.095
 20
-2.320833333333333
 30
0.0
 40
0.5
  1
ASME B18.3-10
100
AcDbAttributeDefinition
  3

  2
NB
 70
     8
280
     0
  0
ATTDEF
  5
95
330
8E
100
AcDbEntity
  8
AM_6
100
AcDbText
 10
5.095
 20
-2.820833333333333
 30
0.0
 40
0.5
  1
ASME B18.3-$NS.
100
AcDbAttributeDefinition
  3

  2
NBSYN
 70
     8
280
     0
  0
ATTDEF
  5
96
330
8E
100
AcDbEntity
  8
AM_6
100
AcDbText
 10
5.095
 20
-3.320833333333333
 30
0.0
 40
0.5
  1
ASME B18.3-10
100
AcDbAttributeDefinition
  3

  2
LINA
 70
     8
280
     0
  0
ATTDEF
  5
97
330
8E
100
AcDbEntity
  8
AM_6
100
AcDbText
 10
5.095
 20
-3.820833333333333
 30
0.0
 40
0.5
  1
10
100
AcDbAttributeDefinition
  3

  2
NS
 70
     8
280
     0
  0
ATTDEF
  5
98
330
8E
100
AcDbEntity
  8
AM_6
100
AcDbText
 10
5.095
 20
-4.320833333333333
 30
0.0
 40
0.5
  1
0.361
100
AcDbAttributeDefinition
  3

  2
A
 70
     8
280
     0
  0
ATTDEF
  5
99
330
8E
100
AcDbEntity
  8
AM_6
100
AcDbText
 10
5.095
 20
-4.820833333333333
 30
0.0
 40
0.5
  1
0.101
100
AcDbAttributeDefinition
  3

  2
H
 70
     8
280
     0
  0
ATTDEF
  5
9A
330
8E
100
AcDbEntity
  8
AM_6
100
AcDbText
 10
5.095
 20
-5.320833333333333
 30
0.0
 40
0.5
  1
0.800
100
AcDbAttributeDefinition
  3

  2
L
 70
     8
280
     0
  0
ATTDEF
  5
9B
330
8E
100
AcDbEntity
  8
AM_6
100
AcDbText
 10
5.095
 20
-5.820833333333333
 30
0.0
 40
0.5
  1
0.020
100
AcDbAttributeDefinition
  3

  2
S
 70
     8
280
     0
  0
ATTDEF
  5
9C
330
8E
100
AcDbEntity
  8
AM_6
100
AcDbText
 10
5.095
 20
-6.320833333333333
 30
0.0
 40
0.5
  1
0.125000
100
AcDbAttributeDefinition
  3

  2
J
 70
     8
280
     0
  0
ATTDEF
  5
9D
330
8E
100
AcDbEntity
  8
AM_6
100
AcDbText
 10
5.095
 20
-6.820833333333333
 30
0.0
 40
0.5
  1
baldor
100
AcDbAttributeDefinition
  3

  2
COMPANY
 70
     8
280
     0
  0
LINE
  5
9F
330
8E
100
AcDbEntity
  8
AM_5
100
AcDbLine
 10
0.095
 20
-1.320833333333333
 30
0.0
 11
-0.095
 21
-1.320833333333333
 31
0.0
  0
LINE
  5
A0
330
8E
100
AcDbEntity
  8
AM_5
100
AcDbLine
 10
0.0764
 20
-1.320833333333333
 30
0.0
 11
0.095
 21
-1.353049478354114
 31
0.0
  0
ENDBLK
  5
91
330
8E
100
AcDbEntity
  8
0
100
AcDbBlockEnd
  0
BLOCK
  5
A3
330
A1
100
AcDbEntity
  8
0
100
AcDbBlockBegin
  2
3_ASME_B18_3_10_2_0_in_069433_4
 70
     2
 10
0.0
 20
0.0
 30
0.0
  3
3_ASME_B18_3_10_2_0_in_069433_4
  1

  0
ATTDEF
  5
A5
330
A1
100
AcDbEntity
  8
AM_6
100
AcDbText
 10
5.1805
 20
-0.6008333333333332
 30
0.0
 40
0.5
  1
ANSI/ASME B18.3-1998
100
AcDbAttributeDefinition
  3

  2
NN
 70
     8
280
     0
  0
ATTDEF
  5
A6
330
A1
100
AcDbEntity
  8
AM_6
100
AcDbText
 10
5.1805
 20
-1.100833333333333
 30
0.0
 40
0.5
  1
Socket Button Head Cap Screws
100
AcDbAttributeDefinition
  3

  2
NT
 70
     8
280
     0
  0
ATTDEF
  5
A7
330
A1
100
AcDbEntity
  8
AM_6
100
AcDbText
 10
5.1805
 20
-1.600833333333333
 30
0.0
 40
0.5
  1
ASME B18.3-10
100
AcDbAttributeDefinition
  3

  2
NB
 70
     8
280
     0
  0
ATTDEF
  5
A8
330
A1
100
AcDbEntity
  8
AM_6
100
AcDbText
 10
5.1805
 20
-2.100833333333333
 30
0.0
 40
0.5
  1
ASME B18.3-$NS.
100
AcDbAttributeDefinition
  3

  2
NBSYN
 70
     8
280
     0
  0
ATTDEF
  5
A9
330
A1
100
AcDbEntity
  8
AM_6
100
AcDbText
 10
5.1805
 20
-2.600833333333333
 30
0.0
 40
0.5
  1
ASME B18.3-10
100
AcDbAttributeDefinition
  3

  2
LINA
 70
     8
280
     0
  0
ATTDEF
  5
AA
330
A1
100
AcDbEntity
  8
AM_6
100
AcDbText
 10
5.1805
 20
-3.100833333333333
 30
0.0
 40
0.5
  1
10
100
AcDbAttributeDefinition
  3

  2
NS
 70
     8
280
     0
  0
ATTDEF
  5
AB
330
A1
100
AcDbEntity
  8
AM_6
100
AcDbText
 10
5.1805
 20
-3.600833333333333
 30
0.0
 40
0.5
  1
0.361
100
AcDbAttributeDefinition
  3

  2
A
 70
     8
280
     0
  0
ATTDEF
  5
AC
330
A1
100
AcDbEntity
  8
AM_6
100
AcDbText
 10
5.1805
 20
-4.100833333333333
 30
0.0
 40
0.5
  1
0.101
100
AcDbAttributeDefinition
  3

  2
H
 70
     8
280
     0
  0
ATTDEF
  5
AD
330
A1
100
AcDbEntity
  8
AM_6
100
AcDbText
 10
5.1805
 20
-4.600833333333333
 30
0.0
 40
0.5
  1
0.800
100
AcDbAttributeDefinition
  3

  2
L
 70
     8
280
     0
  0
ATTDEF
  5
AE
330
A1
100
AcDbEntity
  8
AM_6
100
AcDbText
 10
5.1805
 20
-5.100833333333333
 30
0.0
 40
0.5
  1
0.020
100
AcDbAttributeDefinition
  3

  2
S
 70
     8
280
     0
  0
ATTDEF
  5
AF
330
A1
100
AcDbEntity
  8
AM_6
100
AcDbText
 10
5.1805
 20
-5.600833333333333
 30
0.0
 40
0.5
  1
0.125000
100
AcDbAttributeDefinition
  3

  2
J
 70
     8
280
     0
  0
ATTDEF
  5
B0
330
A1
100
AcDbEntity
  8
AM_6
100
AcDbText
 10
5.1805
 20
-6.100833333333333
 30
0.0
 40
0.5
  1
baldor
100
AcDbAttributeDefinition
  3

  2
COMPANY
 70
     8
280
     0
  0
LINE
  5
B3
330
A1
100
AcDbEntity
  8
AM_9
100
AcDbLine
 10
-0.0625
 20
-1.440833333333333
 30
0.0
 11
-0.0625
 21
-1.501833333333333
 31
0.0
  0
LINE
  5
B4
330
A1
100
AcDbEntity
  8
AM_9
100
AcDbLine
 10
0.0625
 20
-1.440833333333333
 30
0.0
 11
0.0625
 21
-1.501833333333333
 31
0.0
  0
LINE
  5
B5
330
A1
100
AcDbEntity
  8
AM_9
100
AcDbLine
 10
0.0
 20
-1.440833333333333
 30
0.0
 11
0.0
 21
-1.501833333333333
 31
0.0
  0
LINE
  5
B6
330
A1
100
AcDbEntity
  8
AM_9
100
AcDbLine
 10
-0.0625
 20
-1.440833333333333
 30
0.0
 11
0.0625
 21
-1.440833333333333
 31
0.0
  0
LINE
  5
B7
330
A1
100
AcDbEntity
  8
AM_9
100
AcDbLine
 10
-0.0764
 20
-0.6008333333333332
 30
0.0
 11
-0.095
 21
-0.6194333333333333
 31
0.0
  0
LINE
  5
B8
330
A1
100
AcDbEntity
  8
AM_9
100
AcDbLine
 10
0.095
 20
-0.6194333333333333
 30
0.0
 11
0.0764
 21
-0.6008333333333332
 31
0.0
  0
LINE
  5
B9
330
A1
100
AcDbEntity
  8
AM_9
100
AcDbLine
 10
-0.0764
 20
-0.6008333333333332
 30
0.0
 11
0.0764
 21
-0.6008333333333332
 31
0.0
  0
LINE
  5
BA
330
A1
100
AcDbEntity
  8
AM_9
100
AcDbLine
 10
0.095
 20
-1.400833333333333
 30
0.0
 11
0.095
 21
-0.6194333333333333
 31
0.0
  0
LINE
  5
BB
330
A1
100
AcDbEntity
  8
AM_9
100
AcDbLine
 10
-0.095
 20
-0.6194333333333333
 30
0.0
 11
-0.095
 21
-1.400833333333333
 31
0.0
  0
LINE
  5
BC
330
A1
100
AcDbEntity
  8
AM_9
100
AcDbLine
 10
-0.095
 20
-0.6194333333333333
 30
0.0
 11
0.095
 21
-0.6194333333333333
 31
0.0
  0
LINE
  5
BD
330
A1
100
AcDbEntity
  8
AM_5
100
AcDbLine
 10
-0.095000000676617
 20
-1.320833333333333
 30
0.0
 11
0.0950000006766172
 21
-1.320833333333333
 31
0.0
  0
LINE
  5
BE
330
A1
100
AcDbEntity
  8
AM_5
100
AcDbLine
 10
-0.0764
 20
-1.320833333333333
 30
0.0
 11
-0.095
 21
-1.353049478354114
 31
0.0
  0
LINE
  5
C0
330
A1
100
AcDbEntity
  8
AM_4
100
AcDbLine
 10
-0.0994999980611923
 20
-1.501833333333333
 30
0.0
 11
0.0995
 21
-1.501833333333333
 31
0.0
  0
ARC
  5
C1
330
A1
100
AcDbEntity
  8
AM_4
100
AcDbCircle
 10
0.0995000000000003
 20
-1.420833333333334
 30
0.0
 40
0.0809999999999995
100
AcDbArc
 50
270.0
 51
0.0
  0
ARC
  5
C2
330
A1
100
AcDbEntity
  8
AM_4
100
AcDbCircle
 10
-0.0995000000000005
 20
-1.420833333333334
 30
0.0
 40
0.0809999999999995
100
AcDbArc
 50
180.0
 51
270.0
  0
LINE
  5
C3
330
A1
100
AcDbEntity
  8
AM_4
100
AcDbLine
 10
0.1805
 20
-1.420833333333333
 30
0.0
 11
0.1805
 21
-1.400833333333333
 31
0.0
  0
LINE
  5
C4
330
A1
100
AcDbEntity
  8
AM_4
100
AcDbLine
 10
-0.1805
 20
-1.400833333333333
 30
0.0
 11
-0.1805
 21
-1.420833333333333
 31
0.0
  0
LINE
  5
C5
330
A1
100
AcDbEntity
  8
AM_4
100
AcDbLine
 10
-0.1805
 20
-1.420833333333333
 30
0.0
 11
0.1805
 21
-1.420833333333333
 31
0.0
  0
ENDBLK
  5
A4
330
A1
100
AcDbEntity
  8
0
100
AcDbBlockEnd
  0
BLOCK
  5
C8
330
C6
100
AcDbEntity
  8
0
100
AcDbBlockBegin
  2
4_070885LW_0_in_069433_4
 70
     2
 10
0.0
 20
0.0
 30
0.0
  3
4_070885LW_0_in_069433_4
  1

  0
ATTDEF
  5
CA
330
C6
100
AcDbEntity
  8
AM_6
100
AcDbText
 10
6.359375
 20
-0.9608333333333333
 30
0.0
 40
0.5
  1
Imperial Insert Lockwasher -Inch
100
AcDbAttributeDefinition
  3

  2
NN
 70
     8
280
     0
  0
ATTDEF
  5
CB
330
C6
100
AcDbEntity
  8
AM_6
100
AcDbText
 10
6.359375
 20
-1.460833333333333
 30
0.0
 40
0.5
  1
Imperial Bearings
100
AcDbAttributeDefinition
  3

  2
NT
 70
     8
280
     0
  0
ATTDEF
  5
CC
330
C6
100
AcDbEntity
  8
AM_6
100
AcDbText
 10
6.359375
 20
-1.960833333333333
 30
0.0
 40
0.5
  1
070885LW
100
AcDbAttributeDefinition
  3

  2
NB
 70
     8
280
     0
  0
ATTDEF
  5
CD
330
C6
100
AcDbEntity
  8
AM_6
100
AcDbText
 10
6.359375
 20
-2.460833333333333
 30
0.0
 40
0.5
  1
$PN.LW
100
AcDbAttributeDefinition
  3

  2
NBSYN
 70
     8
280
     0
  0
ATTDEF
  5
CE
330
C6
100
AcDbEntity
  8
AM_6
100
AcDbText
 10
6.359375
 20
-2.960833333333333
 30
0.0
 40
0.5
  1
070885
100
AcDbAttributeDefinition
  3

  2
LINA
 70
     8
280
     0
  0
ATTDEF
  5
CF
330
C6
100
AcDbEntity
  8
AM_6
100
AcDbText
 10
6.359375
 20
-3.460833333333333
 30
0.0
 40
0.5
  1
1-1/2
100
AcDbAttributeDefinition
  3

  2
SS
 70
     8
280
     0
  0
ATTDEF
  5
D0
330
C6
100
AcDbEntity
  8
AM_6
100
AcDbText
 10
6.359375
 20
-3.960833333333333
 30
0.0
 40
0.5
  1
1.500000
100
AcDbAttributeDefinition
  3

  2
SS1
 70
     8
280
     0
  0
ATTDEF
  5
D1
330
C6
100
AcDbEntity
  8
AM_6
100
AcDbText
 10
6.359375
 20
-4.460833333333333
 30
0.0
 40
0.5
  1
070885
100
AcDbAttributeDefinition
  3

  2
PN
 70
     8
280
     0
  0
ATTDEF
  5
D2
330
C6
100
AcDbEntity
  8
AM_6
100
AcDbText
 10
6.359375
 20
-4.960833333333333
 30
0.0
 40
0.5
  1
INS-IP-108R
100
AcDbAttributeDefinition
  3

  2
DESCRIPTION
 70
     8
280
     0
  0
ATTDEF
  5
D3
330
C6
100
AcDbEntity
  8
AM_6
100
AcDbText
 10
6.359375
 20
-5.460833333333333
 30
0.0
 40
0.5
  1
3.1496
100
AcDbAttributeDefinition
  3

  2
A
 70
     8
280
     0
  0
ATTDEF
  5
D4
330
C6
100
AcDbEntity
  8
AM_6
100
AcDbText
 10
6.359375
 20
-5.960833333333333
 30
0.0
 40
0.5
  1
61/64
100
AcDbAttributeDefinition
  3

  2
B
 70
     8
280
     0
  0
ATTDEF
  5
D5
330
C6
100
AcDbEntity
  8
AM_6
100
AcDbText
 10
6.359375
 20
-6.460833333333333
 30
0.0
 40
0.5
  1
2-5/8
100
AcDbAttributeDefinition
  3

  2
C
 70
     8
280
     0
  0
ATTDEF
  5
D6
330
C6
100
AcDbEntity
  8
AM_6
100
AcDbText
 10
6.359375
 20
-6.960833333333333
 30
0.0
 40
0.5
  1
0.970
100
AcDbAttributeDefinition
  3

  2
D
 70
     8
280
     0
  0
ATTDEF
  5
D7
330
C6
100
AcDbEntity
  8
AM_6
100
AcDbText
 10
6.359375
 20
-7.460833333333333
 30
0.0
 40
0.5
  1
2-23/32
100
AcDbAttributeDefinition
  3

  2
E
 70
     8
280
     0
  0
ATTDEF
  5
D8
330
C6
100
AcDbEntity
  8
AM_6
100
AcDbText
 10
6.359375
 20
-7.960833333333333
 30
0.0
 40
0.5
  1
0.1900
100
AcDbAttributeDefinition
  3

  2
NDM
 70
     8
280
     0
  0
ATTDEF
  5
D9
330
C6
100
AcDbEntity
  8
AM_6
100
AcDbText
 10
6.359375
 20
-8.460833333333333
 30
0.0
 40
0.5
  1
0.1450
100
AcDbAttributeDefinition
  3

  2
KDM
 70
     8
280
     0
  0
ATTDEF
  5
DA
330
C6
100
AcDbEntity
  8
AM_6
100
AcDbText
 10
6.359375
 20
-8.960833333333333
 30
0.0
 40
0.5
  1
2.22
100
AcDbAttributeDefinition
  3

  2
AL
 70
     8
280
     0
  0
ATTDEF
  5
DB
330
C6
100
AcDbEntity
  8
AM_6
100
AcDbText
 10
6.359375
 20
-9.460833333333333
 30
0.0
 40
0.5
  1
0.38
100
AcDbAttributeDefinition
  3

  2
BL
 70
     8
280
     0
  0
ATTDEF
  5
DC
330
C6
100
AcDbEntity
  8
AM_6
100
AcDbText
 10
6.359375
 20
-9.960833333333333
 30
0.0
 40
0.5
  1
0.07
100
AcDbAttributeDefinition
  3

  2
CL
 70
     8
280
     0
  0
ATTDEF
  5
DD
330
C6
100
AcDbEntity
  8
AM_6
100
AcDbText
 10
6.359375
 20
-10.46083333333333
 30
0.0
 40
0.5
  1
0.44
100
AcDbAttributeDefinition
  3

  2
DL
 70
     8
280
     0
  0
ATTDEF
  5
DE
330
C6
100
AcDbEntity
  8
AM_6
100
AcDbText
 10
6.359375
 20
-10.96083333333333
 30
0.0
 40
0.5
  1
baldor
100
AcDbAttributeDefinition
  3

  2
COMPANY
 70
     8
280
     0
  0
LINE
  5
DF
330
C6
100
AcDbEntity
  8
AM_9
100
AcDbLine
 10
-1.096354166666666
 20
-1.330833333333333
 30
0.0
 11
-1.096354166666666
 21
-1.400833333333333
 31
0.0
  0
LINE
  5
E0
330
C6
100
AcDbEntity
  8
AM_9
100
AcDbLine
 10
-1.191443622710965
 20
-1.330833333333333
 30
0.0
 11
-1.191443622710965
 21
-1.400833333333333
 31
0.0
  0
LINE
  5
E1
330
C6
100
AcDbEntity
  8
AM_9
100
AcDbLine
 10
1.096354166666667
 20
-1.330833333333333
 30
0.0
 11
1.096354166666667
 21
-1.400833333333333
 31
0.0
  0
LINE
  5
E2
330
C6
100
AcDbEntity
  8
AM_9
100
AcDbLine
 10
1.191443622710965
 20
-1.400833333333333
 30
0.0
 11
1.191443622710965
 21
-1.330833333333333
 31
0.0
  0
LINE
  5
E3
330
C6
100
AcDbEntity
  8
AM_9
100
AcDbLine
 10
-0.8052261613532461
 20
-1.330833333333333
 30
0.0
 11
-0.8052261613532461
 21
-1.400833333333333
 31
0.0
  0
LINE
  5
E4
330
C6
100
AcDbEntity
  8
AM_9
100
AcDbLine
 10
0.8052261613532462
 20
-1.330833333333333
 30
0.0
 11
0.8052261613532462
 21
-1.400833333333333
 31
0.0
  0
LINE
  5
E5
330
C6
100
AcDbEntity
  8
AM_9
100
AcDbLine
 10
-0.3724693408726804
 20
-0.9608333333333333
 30
0.0
 11
-0.3724693408726804
 21
-1.400833333333333
 31
0.0
  0
LINE
  5
E6
330
C6
100
AcDbEntity
  8
AM_9
100
AcDbLine
 10
-0.3959152668453984
 20
-1.330833333333333
 30
0.0
 11
-0.3959152668453984
 21
-1.400833333333333
 31
0.0
  0
LINE
  5
E7
330
C6
100
AcDbEntity
  8
AM_9
100
AcDbLine
 10
-0.6365560232944156
 20
-1.330833333333333
 30
0.0
 11
-0.6365560232944159
 21
-1.400833333333333
 31
0.0
  0
LINE
  5
E8
330
C6
100
AcDbEntity
  8
AM_9
100
AcDbLine
 10
0.6365560232944154
 20
-1.330833333333333
 30
0.0
 11
0.6365560232944154
 21
-1.400833333333333
 31
0.0
  0
LINE
  5
E9
330
C6
100
AcDbEntity
  8
AM_9
100
AcDbLine
 10
-0.5022057348689716
 20
-1.330833333333333
 30
0.0
 11
-0.5022057348689716
 21
-1.400833333333333
 31
0.0
  0
LINE
  5
EA
330
C6
100
AcDbEntity
  8
AM_9
100
AcDbLine
 10
-0.2203781556682536
 20
-1.330833333333333
 30
0.0
 11
-0.2203781556682536
 21
-1.400833333333333
 31
0.0
  0
LINE
  5
EB
330
C6
100
AcDbEntity
  8
AM_9
100
AcDbLine
 10
-0.1969322296955357
 20
-0.9608333333333333
 30
0.0
 11
-0.387691723967532
 21
-0.9608333333333333
 31
0.0
  0
LINE
  5
EC
330
C6
100
AcDbEntity
  8
AM_9
100
AcDbLine
 10
-0.1969322296955357
 20
-0.9608333333333333
 30
0.0
 11
-0.1969322296955357
 21
-1.400833333333333
 31
0.0
  0
LINE
  5
ED
330
C6
100
AcDbEntity
  8
AM_9
100
AcDbLine
 10
-0.2121546127903874
 20
-1.330833333333333
 30
0.0
 11
-0.2121546127903874
 21
-0.9608333333333333
 31
0.0
  0
LINE
  5
EE
330
C6
100
AcDbEntity
  8
AM_9
100
AcDbLine
 10
-0.387691723967532
 20
-0.9608333333333333
 30
0.0
 11
-0.387691723967532
 21
-1.330833333333333
 31
0.0
  0
LINE
  5
EF
330
C6
100
AcDbEntity
  8
AM_9
100
AcDbLine
 10
0.5022057348689714
 20
-1.330833333333333
 30
0.0
 11
0.5022057348689712
 21
-1.400833333333333
 31
0.0
  0
LINE
  5
F0
330
C6
100
AcDbEntity
  8
AM_9
100
AcDbLine
 10
-0.8424146100448483
 20
-1.330833333333333
 30
0.0
 11
-0.8424146100448483
 21
-1.400833333333333
 31
0.0
  0
LINE
  5
F1
330
C6
100
AcDbEntity
  8
AM_9
100
AcDbLine
 10
-0.7080643216193956
 20
-1.330833333333333
 30
0.0
 11
-0.7080643216193956
 21
-1.400833333333333
 31
0.0
  0
LINE
  5
F2
330
C6
100
AcDbEntity
  8
AM_9
100
AcDbLine
 10
-0.8703027331320835
 20
-1.330833333333333
 30
0.0
 11
-0.8703027331320835
 21
-1.400833333333333
 31
0.0
  0
LINE
  5
F3
330
C6
100
AcDbEntity
  8
AM_9
100
AcDbLine
 10
0.7080643216194039
 20
-1.330833333333333
 30
0.0
 11
0.7080643216194039
 21
-1.400833333333333
 31
0.0
  0
LINE
  5
F4
330
C6
100
AcDbEntity
  8
AM_9
100
AcDbLine
 10
0.8424146100448481
 20
-1.330833333333333
 30
0.0
 11
0.8424146100448481
 21
-1.400833333333333
 31
0.0
  0
LINE
  5
F5
330
C6
100
AcDbEntity
  8
AM_9
100
AcDbLine
 10
0.8703027331320833
 20
-1.400833333333333
 30
0.0
 11
0.8703027331320833
 21
-1.330833333333333
 31
0.0
  0
LINE
  5
F6
330
C6
100
AcDbEntity
  8
AM_9
100
AcDbLine
 10
0.0949999999999998
 20
-1.330833333333333
 30
0.0
 11
0.0949999999999996
 21
-1.400833333333333
 31
0.0
  0
LINE
  5
F7
330
C6
100
AcDbEntity
  8
AM_9
100
AcDbLine
 10
-0.0950000000000002
 20
-1.330833333333333
 30
0.0
 11
-0.0950000000000002
 21
-1.400833333333333
 31
0.0
  0
LINE
  5
F8
330
C6
100
AcDbEntity
  8
AM_4
100
AcDbLine
 10
-1.359375
 20
-1.330833333333333
 30
0.0
 11
-1.359375
 21
-1.400833333333333
 31
0.0
  0
LINE
  5
F9
330
C6
100
AcDbEntity
  8
AM_4
100
AcDbLine
 10
1.359375
 20
-1.400833333333333
 30
0.0
 11
1.359375
 21
-1.330833333333333
 31
0.0
  0
LINE
  5
FA
330
C6
100
AcDbEntity
  8
AM_4
100
AcDbLine
 10
-1.359375
 20
-1.400833333333333
 30
0.0
 11
1.359375
 21
-1.400833333333333
 31
0.0
  0
LINE
  5
FB
330
C6
100
AcDbEntity
  8
AM_4
100
AcDbLine
 10
-1.359375
 20
-1.330833333333333
 30
0.0
 11
1.359375
 21
-1.330833333333333
 31
0.0
  0
ENDBLK
  5
C9
330
C6
100
AcDbEntity
  8
0
100
AcDbBlockEnd
  0
BLOCK
  5
FE
330
FC
100
AcDbEntity
  8
0
100
AcDbBlockBegin
  2
5_070885I_0_in_069433_4
 70
     2
 10
0.0
 20
0.0
 30
0.0
  3
5_070885I_0_in_069433_4
  1

  0
ATTDEF
  5
100
330
FC
100
AcDbEntity
  8
AM_6
100
AcDbText
 10
6.5748
 20
1.21475
 30
0.0
 40
0.5
  1
Imperial Insert -Inch
100
AcDbAttributeDefinition
  3

  2
NN
 70
     8
280
     0
  0
ATTDEF
  5
101
330
FC
100
AcDbEntity
  8
AM_6
100
AcDbText
 10
6.5748
 20
0.7147500000000002
 30
0.0
 40
0.5
  1
Imperial Bearings
100
AcDbAttributeDefinition
  3

  2
NT
 70
     8
280
     0
  0
ATTDEF
  5
102
330
FC
100
AcDbEntity
  8
AM_6
100
AcDbText
 10
6.5748
 20
0.2147500000000002
 30
0.0
 40
0.5
  1
070885I
100
AcDbAttributeDefinition
  3

  2
NB
 70
     8
280
     0
  0
ATTDEF
  5
103
330
FC
100
AcDbEntity
  8
AM_6
100
AcDbText
 10
6.5748
 20
-0.2852499999999998
 30
0.0
 40
0.5
  1
$PN.I
100
AcDbAttributeDefinition
  3

  2
NBSYN
 70
     8
280
     0
  0
ATTDEF
  5
104
330
FC
100
AcDbEntity
  8
AM_6
100
AcDbText
 10
6.5748
 20
-0.7852499999999998
 30
0.0
 40
0.5
  1
070885
100
AcDbAttributeDefinition
  3

  2
LINA
 70
     8
280
     0
  0
ATTDEF
  5
105
330
FC
100
AcDbEntity
  8
AM_6
100
AcDbText
 10
6.5748
 20
-1.28525
 30
0.0
 40
0.5
  1
1-1/2
100
AcDbAttributeDefinition
  3

  2
SS
 70
     8
280
     0
  0
ATTDEF
  5
106
330
FC
100
AcDbEntity
  8
AM_6
100
AcDbText
 10
6.5748
 20
-1.78525
 30
0.0
 40
0.5
  1
1.500000
100
AcDbAttributeDefinition
  3

  2
SS1
 70
     8
280
     0
  0
ATTDEF
  5
107
330
FC
100
AcDbEntity
  8
AM_6
100
AcDbText
 10
6.5748
 20
-2.28525
 30
0.0
 40
0.5
  1
070885
100
AcDbAttributeDefinition
  3

  2
PN
 70
     8
280
     0
  0
ATTDEF
  5
108
330
FC
100
AcDbEntity
  8
AM_6
100
AcDbText
 10
6.5748
 20
-2.78525
 30
0.0
 40
0.5
  1
INS-IP-108R
100
AcDbAttributeDefinition
  3

  2
DESCRIPTION
 70
     8
280
     0
  0
ATTDEF
  5
109
330
FC
100
AcDbEntity
  8
AM_6
100
AcDbText
 10
6.5748
 20
-3.28525
 30
0.0
 40
0.5
  1
Contact Seal
100
AcDbAttributeDefinition
  3

  2
ST
 70
     8
280
     0
  0
ATTDEF
  5
10A
330
FC
100
AcDbEntity
  8
AM_6
100
AcDbText
 10
6.5748
 20
-3.78525
 30
0.0
 40
0.5
  1
3.1496
100
AcDbAttributeDefinition
  3

  2
A
 70
     8
280
     0
  0
ATTDEF
  5
10B
330
FC
100
AcDbEntity
  8
AM_6
100
AcDbText
 10
6.5748
 20
-4.28525
 30
0.0
 40
0.5
  1
61/64
100
AcDbAttributeDefinition
  3

  2
B
 70
     8
280
     0
  0
ATTDEF
  5
10C
330
FC
100
AcDbEntity
  8
AM_6
100
AcDbText
 10
6.5748
 20
-4.78525
 30
0.0
 40
0.5
  1
2-5/8
100
AcDbAttributeDefinition
  3

  2
C
 70
     8
280
     0
  0
ATTDEF
  5
10D
330
FC
100
AcDbEntity
  8
AM_6
100
AcDbText
 10
6.5748
 20
-5.28525
 30
0.0
 40
0.5
  1
0.970
100
AcDbAttributeDefinition
  3

  2
D
 70
     8
280
     0
  0
ATTDEF
  5
10E
330
FC
100
AcDbEntity
  8
AM_6
100
AcDbText
 10
6.5748
 20
-5.78525
 30
0.0
 40
0.5
  1
2-23/32
100
AcDbAttributeDefinition
  3

  2
E
 70
     8
280
     0
  0
ATTDEF
  5
10F
330
FC
100
AcDbEntity
  8
AM_6
100
AcDbText
 10
6.5748
 20
-6.28525
 30
0.0
 40
0.5
  1
0.1900
100
AcDbAttributeDefinition
  3

  2
NDM
 70
     8
280
     0
  0
ATTDEF
  5
110
330
FC
100
AcDbEntity
  8
AM_6
100
AcDbText
 10
6.5748
 20
-6.78525
 30
0.0
 40
0.5
  1
0.101
100
AcDbAttributeDefinition
  3

  2
H
 70
     8
280
     0
  0
ATTDEF
  5
111
330
FC
100
AcDbEntity
  8
AM_6
100
AcDbText
 10
6.5748
 20
-7.28525
 30
0.0
 40
0.5
  1
0.1450
100
AcDbAttributeDefinition
  3

  2
KDM
 70
     8
280
     0
  0
ATTDEF
  5
112
330
FC
100
AcDbEntity
  8
AM_6
100
AcDbText
 10
6.5748
 20
-7.78525
 30
0.0
 40
0.5
  1
2.22
100
AcDbAttributeDefinition
  3

  2
AL
 70
     8
280
     0
  0
ATTDEF
  5
113
330
FC
100
AcDbEntity
  8
AM_6
100
AcDbText
 10
6.5748
 20
-8.28525
 30
0.0
 40
0.5
  1
0.38
100
AcDbAttributeDefinition
  3

  2
BL
 70
     8
280
     0
  0
ATTDEF
  5
114
330
FC
100
AcDbEntity
  8
AM_6
100
AcDbText
 10
6.5748
 20
-8.78525
 30
0.0
 40
0.5
  1
0.07
100
AcDbAttributeDefinition
  3

  2
CL
 70
     8
280
     0
  0
ATTDEF
  5
115
330
FC
100
AcDbEntity
  8
AM_6
100
AcDbText
 10
6.5748
 20
-9.28525
 30
0.0
 40
0.5
  1
0.44
100
AcDbAttributeDefinition
  3

  2
DL
 70
     8
280
     0
  0
ATTDEF
  5
116
330
FC
100
AcDbEntity
  8
AM_6
100
AcDbText
 10
6.5748
 20
-9.78525
 30
0.0
 40
0.5
  1
0.8000
100
AcDbAttributeDefinition
  3

  2
LL
 70
     8
280
     0
  0
ATTDEF
  5
117
330
FC
100
AcDbEntity
  8
AM_6
100
AcDbText
 10
6.5748
 20
-10.28525
 30
0.0
 40
0.5
  1
0.020
100
AcDbAttributeDefinition
  3

  2
Y
 70
     8
280
     0
  0
ATTDEF
  5
118
330
FC
100
AcDbEntity
  8
AM_6
100
AcDbText
 10
6.5748
 20
-10.78525
 30
0.0
 40
0.5
  1
0.020000
100
AcDbAttributeDefinition
  3

  2
Y1
 70
     8
280
     0
  0
ATTDEF
  5
119
330
FC
100
AcDbEntity
  8
AM_6
100
AcDbText
 10
6.5748
 20
-11.28525
 30
0.0
 40
0.5
  1
1-51/64
100
AcDbAttributeDefinition
  3

  2
Z
 70
     8
280
     0
  0
ATTDEF
  5
11A
330
FC
100
AcDbEntity
  8
AM_6
100
AcDbText
 10
6.5748
 20
-11.78525
 30
0.0
 40
0.5
  1
1.796875
100
AcDbAttributeDefinition
  3

  2
Z1
 70
     8
280
     0
  0
ATTDEF
  5
11B
330
FC
100
AcDbEntity
  8
AM_6
100
AcDbText
 10
6.5748
 20
-12.28525
 30
0.0
 40
0.5
  1
baldor
100
AcDbAttributeDefinition
  3

  2
COMPANY
 70
     8
280
     0
  0
LINE
  5
11C
330
FC
100
AcDbEntity
  8
AM_9
100
AcDbLine
 10
-0.1969322296955359
 20
0.5690625000000005
 30
0.0
 11
-0.1969322296955358
 21
-1.5625
 31
0.0
  0
LINE
  5
11D
330
FC
100
AcDbEntity
  8
AM_9
100
AcDbLine
 10
-0.3724693408726804
 20
-1.400833333333333
 30
0.0
 11
-0.3724693408726804
 21
0.5690625000000005
 31
0.0
  0
LINE
  5
11E
330
FC
100
AcDbEntity
  8
AM_9
100
AcDbLine
 10
-0.7500000000000002
 20
0.5690624999999999
 30
0.0
 11
-0.7500000000000002
 21
-1.5625
 31
0.0
  0
LINE
  5
11F
330
FC
100
AcDbEntity
  8
AM_9
100
AcDbLine
 10
0.7500000000000002
 20
-1.5625
 30
0.0
 11
0.7500000000000002
 21
0.5690624999999999
 31
0.0
  0
LINE
  5
120
330
FC
100
AcDbEntity
  8
AM_9
100
AcDbLine
 10
-0.7894736842105261
 20
1.0625
 30
0.0
 11
-0.7894736842105261
 21
0.5690625000000001
 31
0.0
  0
LINE
  5
121
330
FC
100
AcDbEntity
  8
AM_9
100
AcDbLine
 10
0.7894736842105261
 20
0.5690625000000001
 30
0.0
 11
0.7894736842105261
 21
1.0625
 31
0.0
  0
LINE
  5
122
330
FC
100
AcDbEntity
  8
AM_9
100
AcDbLine
 10
-0.2121546127903875
 20
-1.400833333333333
 30
0.0
 11
-0.21295757853138
 21
0.5690625000000005
 31
0.0
  0
LINE
  5
123
330
FC
100
AcDbEntity
  8
AM_9
100
AcDbLine
 10
-0.3884946897085244
 20
0.5690625000000005
 30
0.0
 11
-0.387691723967532
 21
-1.400833333333333
 31
0.0
  0
LINE
  5
124
330
FC
100
AcDbEntity
  8
AM_9
100
AcDbLine
 10
-0.7894736842105263
 20
-1.330833333333334
 30
0.0
 11
-0.7894736842105263
 21
-1.400833333333333
 31
0.0
  0
LINE
  5
125
330
FC
100
AcDbEntity
  8
AM_9
100
AcDbLine
 10
0.7894736842105263
 20
-1.400833333333333
 30
0.0
 11
0.7894736842105263
 21
-1.330833333333334
 31
0.0
  0
LINE
  5
126
330
FC
100
AcDbEntity
  8
AM_9
100
AcDbLine
 10
0.8984375
 20
1.0625
 30
0.0
 11
-0.8984375
 21
1.0625
 31
0.0
  0
LINE
  5
127
330
FC
100
AcDbEntity
  8
AM_9
100
AcDbLine
 10
-0.8984375
 20
1.0825
 30
0.0
 11
-0.8984375
 21
1.0625
 31
0.0
  0
LINE
  5
128
330
FC
100
AcDbEntity
  8
AM_9
100
AcDbLine
 10
0.8984375
 20
1.0625
 30
0.0
 11
0.8984375
 21
1.0825
 31
0.0
  0
LINE
  5
129
330
FC
100
AcDbEntity
  8
AM_9
100
AcDbLine
 10
0.650538238691624
 20
-0.8908333333333334
 30
0.0
 11
0.650538238691624
 21
-1.330833333333334
 31
0.0
  0
LINE
  5
12A
330
FC
100
AcDbEntity
  8
AM_9
100
AcDbLine
 10
-0.6505382386916237
 20
-0.8908333333333334
 30
0.0
 11
-0.6505382386916237
 21
-1.330833333333334
 31
0.0
  0
LINE
  5
12B
330
FC
100
AcDbEntity
  8
AM_9
100
AcDbLine
 10
-0.9982638888888888
 20
0.87890625
 30
0.0
 11
-0.9982638888888888
 21
0.7596874999999997
 31
0.0
  0
LINE
  5
12C
330
FC
100
AcDbEntity
  8
AM_9
100
AcDbLine
 10
0.9982638888888888
 20
0.7596874999999997
 30
0.0
 11
0.9982638888888888
 21
0.87890625
 31
0.0
  0
LINE
  5
12D
330
FC
100
AcDbEntity
  8
AM_9
100
AcDbLine
 10
-0.8284088841127804
 20
-0.8908333333333334
 30
0.0
 11
-0.6505382386916237
 21
-0.8908333333333334
 31
0.0
  0
LINE
  5
12E
330
FC
100
AcDbEntity
  8
AM_9
100
AcDbLine
 10
0.650538238691624
 20
-0.8908333333333334
 30
0.0
 11
0.8284088841127804
 21
-0.8908333333333334
 31
0.0
  0
LINE
  5
12F
330
FC
100
AcDbEntity
  8
AM_9
100
AcDbLine
 10
0.0
 20
-0.4908333333333332
 30
0.0
 11
-0.0724499999999998
 21
-0.5246173231666627
 31
0.0
  0
LINE
  5
130
330
FC
100
AcDbEntity
  8
AM_9
100
AcDbLine
 10
0.0724499999999998
 20
-0.5246173231666627
 30
0.0
 11
0.0
 21
-0.4908333333333332
 31
0.0
  0
LINE
  5
131
330
FC
100
AcDbEntity
  8
AM_9
100
AcDbLine
 10
0.0724499999999998
 20
-0.5246173231666627
 30
0.0
 11
-0.0724499999999998
 21
-0.5246173231666627
 31
0.0
  0
LINE
  5
132
330
FC
100
AcDbEntity
  8
AM_9
100
AcDbLine
 10
-0.0724499999999998
 20
-0.5246173231666627
 30
0.0
 11
-0.0724499999999998
 21
-1.308283333333333
 31
0.0
  0
LINE
  5
133
330
FC
100
AcDbEntity
  8
AM_9
100
AcDbLine
 10
0.0724499999999998
 20
-1.308283333333333
 30
0.0
 11
0.0724499999999998
 21
-0.5246173231666627
 31
0.0
  0
LINE
  5
134
330
FC
100
AcDbEntity
  8
AM_9
100
AcDbLine
 10
0.0724499999999998
 20
-1.308283333333333
 30
0.0
 11
-0.0724499999999998
 21
-1.308283333333333
 31
0.0
  0
LINE
  5
135
330
FC
100
AcDbEntity
  8
AM_9
100
AcDbLine
 10
-0.0724499999999998
 20
-1.308283333333333
 30
0.0
 11
-0.0949999999999999
 21
-1.330833333333334
 31
0.0
  0
LINE
  5
136
330
FC
100
AcDbEntity
  8
AM_9
100
AcDbLine
 10
0.0949999999999999
 20
-1.330833333333334
 30
0.0
 11
0.0724499999999998
 21
-1.308283333333333
 31
0.0
  0
LINE
  5
137
330
FC
100
AcDbEntity
  8
AM_9
100
AcDbLine
 10
1.207007578016764
 20
0.7596875000000003
 30
0.0
 11
-1.2070075780167
 21
0.7596875000000003
 31
0.0
  0
ARC
  5
138
330
FC
100
AcDbEntity
  8
AM_9
100
AcDbCircle
 10
-1.207007578016764
 20
0.6596874999999998
 30
0.0
 40
0.1000000000000005
100
AcDbArc
 50
90.0
 51
150.0000000000001
  0
ARC
  5
139
330
FC
100
AcDbEntity
  8
AM_9
100
AcDbCircle
 10
1.207007578016764
 20
0.6596874999999998
 30
0.0
 40
0.1000000000000006
100
AcDbArc
 50
29.99999999999988
 51
90.0
  0
LINE
  5
13A
330
FC
100
AcDbEntity
  8
AM_9
100
AcDbLine
 10
1.293610118395209
 20
0.7096874999999999
 30
0.0
 11
-1.293610118395209
 21
0.7096874999999999
 31
0.0
  0
LINE
  5
13B
330
FC
100
AcDbEntity
  8
AM_9
100
AcDbLine
 10
-1.293610118395209
 20
0.7096874999999999
 30
0.0
 11
-1.3748
 21
0.5690624999999999
 31
0.0
  0
LINE
  5
13C
330
FC
100
AcDbEntity
  8
AM_9
100
AcDbLine
 10
1.3748
 20
0.5690624999999999
 30
0.0
 11
1.293610118395209
 21
0.7096874999999999
 31
0.0
  0
LINE
  5
13D
330
FC
100
AcDbEntity
  8
AM_9
100
AcDbLine
 10
1.375156641504161
 20
-0.87890625
 30
0.0
 11
1.392436966032342
 21
-0.3840624999999999
 31
0.0
  0
LINE
  5
13E
330
FC
100
AcDbEntity
  8
AM_9
100
AcDbLine
 10
-1.392436966032342
 20
-0.3840624999999999
 30
0.0
 11
-1.375156641504161
 21
-0.87890625
 31
0.0
  0
LINE
  5
13F
330
FC
100
AcDbEntity
  8
AM_9
100
AcDbLine
 10
-1.52714375
 20
0.120014348766068
 30
0.0
 11
-1.52714375
 21
0.0649856512339321
 31
0.0
  0
LINE
  5
140
330
FC
100
AcDbEntity
  8
AM_9
100
AcDbLine
 10
1.52714375
 20
0.0649856512339321
 30
0.0
 11
1.52714375
 21
0.120014348766068
 31
0.0
  0
LINE
  5
141
330
FC
100
AcDbEntity
  8
AM_9
100
AcDbLine
 10
1.5248
 20
-0.3840624999999999
 30
0.0
 11
-1.524799999992305
 21
-0.3840624999999999
 31
0.0
  0
ARC
  5
142
330
FC
100
AcDbEntity
  8
AM_9
100
AcDbCircle
 10
-1.5248
 20
-0.3340625000000003
 30
0.0
 40
0.0499999999999996
100
AcDbArc
 50
180.0
 51
270.0
  0
ARC
  5
143
330
FC
100
AcDbEntity
  8
AM_9
100
AcDbCircle
 10
1.5248
 20
-0.3340625000000003
 30
0.0
 40
0.0499999999999997
100
AcDbArc
 50
270.0
 51
0.0
  0
LINE
  5
144
330
FC
100
AcDbEntity
  8
AM_9
100
AcDbLine
 10
1.52714375
 20
0.0649856512339321
 30
0.0
 11
-1.52714375
 21
0.0649856512339321
 31
0.0
  0
LINE
  5
145
330
FC
100
AcDbEntity
  8
AM_9
100
AcDbLine
 10
-1.52714375
 20
0.0649856512339321
 30
0.0
 11
-1.5748
 21
0.0374713024678641
 31
0.0
  0
LINE
  5
146
330
FC
100
AcDbEntity
  8
AM_9
100
AcDbLine
 10
1.5748
 20
0.0374713024678641
 30
0.0
 11
1.52714375
 21
0.0649856512339321
 31
0.0
  0
LINE
  5
147
330
FC
100
AcDbEntity
  8
AM_9
100
AcDbLine
 10
1.52714375
 20
0.120014348766068
 30
0.0
 11
-1.52714375
 21
0.120014348766068
 31
0.0
  0
LINE
  5
148
330
FC
100
AcDbEntity
  8
AM_9
100
AcDbLine
 10
1.52714375
 20
0.120014348766068
 30
0.0
 11
1.5748
 21
0.1475286975321362
 31
0.0
  0
LINE
  5
149
330
FC
100
AcDbEntity
  8
AM_9
100
AcDbLine
 10
-1.5748
 20
0.1475286975321362
 30
0.0
 11
-1.52714375
 21
0.120014348766068
 31
0.0
  0
LINE
  5
14A
330
FC
100
AcDbEntity
  8
AM_9
100
AcDbLine
 10
1.5248
 20
0.5690624999999999
 30
0.0
 11
-1.524799999992304
 21
0.5690624999999999
 31
0.0
  0
ARC
  5
14B
330
FC
100
AcDbEntity
  8
AM_9
100
AcDbCircle
 10
-1.5248
 20
0.5190625000000002
 30
0.0
 40
0.0499999999999997
100
AcDbArc
 50
90.0
 51
180.0
  0
ARC
  5
14C
330
FC
100
AcDbEntity
  8
AM_9
100
AcDbCircle
 10
1.5248
 20
0.5190625000000002
 30
0.0
 40
0.0499999999999998
100
AcDbArc
 50
0.0
 51
90.0
  0
LINE
  5
14D
330
FC
100
AcDbEntity
  8
AM_9
100
AcDbLine
 10
1.5748
 20
0.5190625000000001
 30
0.0
 11
-1.5748
 21
0.5190625000000001
 31
0.0
  0
LINE
  5
14E
330
FC
100
AcDbEntity
  8
AM_9
100
AcDbLine
 10
1.5748
 20
0.1475286975321362
 30
0.0
 11
-1.5748
 21
0.1475286975321362
 31
0.0
  0
LINE
  5
14F
330
FC
100
AcDbEntity
  8
AM_9
100
AcDbLine
 10
-1.5748
 20
0.5190625000000001
 30
0.0
 11
-1.5748
 21
0.1475286975321362
 31
0.0
  0
LINE
  5
150
330
FC
100
AcDbEntity
  8
AM_9
100
AcDbLine
 10
1.5748
 20
0.1475286975321362
 30
0.0
 11
1.5748
 21
0.5190625000000001
 31
0.0
  0
LINE
  5
151
330
FC
100
AcDbEntity
  8
AM_9
100
AcDbLine
 10
1.5748
 20
0.0374713024678641
 30
0.0
 11
-1.5748
 21
0.0374713024678641
 31
0.0
  0
LINE
  5
152
330
FC
100
AcDbEntity
  8
AM_9
100
AcDbLine
 10
1.5748
 20
-0.3340625000000003
 30
0.0
 11
-1.5748
 21
-0.3340625000000003
 31
0.0
  0
LINE
  5
153
330
FC
100
AcDbEntity
  8
AM_9
100
AcDbLine
 10
-1.5748
 20
0.0374713024678641
 30
0.0
 11
-1.5748
 21
-0.3340625000000003
 31
0.0
  0
LINE
  5
154
330
FC
100
AcDbEntity
  8
AM_9
100
AcDbLine
 10
1.5748
 20
-0.3340625000000003
 30
0.0
 11
1.5748
 21
0.0374713024678641
 31
0.0
  0
LINE
  5
155
330
FC
100
AcDbEntity
  8
AM_5
100
AcDbLine
 10
0.0950000000000001
 20
-0.5708333333333332
 30
0.0
 11
0.0724499999999998
 21
-0.5578140847631075
 31
0.0
  0
LINE
  5
156
330
FC
100
AcDbEntity
  8
AM_5
100
AcDbLine
 10
0.0724499999999998
 20
-0.5708333333333346
 30
0.0
 11
0.0949999999999999
 21
-0.5708333333333346
 31
0.0
  0
LINE
  5
157
330
FC
100
AcDbEntity
  8
AM_5
100
AcDbLine
 10
-0.0724499999999999
 20
-0.5708333333333346
 30
0.0
 11
-0.0950000000000001
 21
-0.5708333333333346
 31
0.0
  0
LINE
  5
158
330
FC
100
AcDbEntity
  8
AM_5
100
AcDbLine
 10
-0.0950000000000001
 20
-0.5708333333333346
 30
0.0
 11
-0.0724499999999998
 21
-0.5578140847631271
 31
0.0
  0
LINE
  5
15B
330
FC
100
AcDbEntity
  8
AM_7
100
AcDbLine
 10
0.0
 20
1.21475
 30
0.0
 11
0.0
 21
-1.69475
 31
0.0
  0
LINE
  5
15C
330
FC
100
AcDbEntity
  8
AM_4
100
AcDbLine
 10
-0.3724693408726803
 20
-1.5625
 30
0.0
 11
-0.3724693408726804
 21
-1.400833333333333
 31
0.0
  0
LINE
  5
15D
330
FC
100
AcDbEntity
  8
AM_4
100
AcDbLine
 10
-0.2121546127903875
 20
-1.5625
 30
0.0
 11
-0.2121546127903875
 21
-1.400833333333333
 31
0.0
  0
LINE
  5
15E
330
FC
100
AcDbEntity
  8
AM_4
100
AcDbLine
 10
-0.387691723967532
 20
-1.400833333333333
 30
0.0
 11
-0.387691723967532
 21
-1.5625
 31
0.0
  0
LINE
  5
15F
330
FC
100
AcDbEntity
  8
AM_4
100
AcDbLine
 10
-0.7894736842105263
 20
-1.400833333333333
 30
0.0
 11
-0.7894736842105263
 21
-1.5625
 31
0.0
  0
LINE
  5
160
330
FC
100
AcDbEntity
  8
AM_4
100
AcDbLine
 10
0.7894736842105263
 20
-1.5625
 30
0.0
 11
0.7894736842105263
 21
-1.400833333333333
 31
0.0
  0
LINE
  5
161
330
FC
100
AcDbEntity
  8
AM_4
100
AcDbLine
 10
0.7894736842105263
 20
-1.5625
 30
0.0
 11
-0.7894736842105263
 21
-1.5625
 31
0.0
  0
ARC
  5
162
330
FC
100
AcDbEntity
  8
AM_4
100
AcDbCircle
 10
1.311090561259646
 20
-1.280833333333333
 30
0.0
 40
0.0500000000000003
100
AcDbArc
 50
270.0
 51
358.0000000000002
  0
ARC
  5
163
330
FC
100
AcDbEntity
  8
AM_4
100
AcDbCircle
 10
-1.311090561259646
 20
-1.280833333333333
 30
0.0
 40
0.0500000000000001
100
AcDbArc
 50
181.9999999999997
 51
270.0
  0
LWPOLYLINE
  5
164
330
FC
100
AcDbEntity
  8
AM_4
100
AcDbPolyline
 90
        6
 70
     0
 43
0.0
 10
1.087341527345923
 20
-1.282578308168458
 10
1.084951493284856
 20
-1.298897767759576
 10
1.078879906620323
 20
-1.313187212123401
 10
1.069782372867751
 20
-1.323910152478868
 10
1.058595723464173
 20
-1.329878046236281
 10
1.051644804876986
 20
-1.330833333333334
  0
LWPOLYLINE
  5
165
330
FC
100
AcDbEntity
  8
AM_4
100
AcDbPolyline
 90
        6
 70
     0
 43
0.0
 10
-1.051644804876985
 20
-1.330833333333334
 10
-1.056745917779431
 20
-1.33032115334545
 10
-1.068288439312639
 20
-1.325075969166354
 10
-1.077904345034989
 20
-1.314730922695886
 10
-1.084467122687451
 20
-1.300559162505154
 10
-1.087341527345923
 20
-1.282578308168458
  0
LINE
  5
166
330
FC
100
AcDbEntity
  8
AM_4
100
AcDbLine
 10
0.9192388155425123
 20
-0.8908333333333334
 30
0.0
 11
0.9192388155425123
 21
-1.330833333333334
 31
0.0
  0
LINE
  5
167
330
FC
100
AcDbEntity
  8
AM_4
100
AcDbLine
 10
-0.9192388155425117
 20
-0.8908333333333334
 30
0.0
 11
-0.9192388155425117
 21
-1.330833333333334
 31
0.0
  0
LINE
  5
168
330
FC
100
AcDbEntity
  8
AM_4
100
AcDbLine
 10
-0.9982638888888888
 20
1.059463141025641
 30
0.0
 11
-0.9982638888888888
 21
0.87890625
 31
0.0
  0
LINE
  5
169
330
FC
100
AcDbEntity
  8
AM_4
100
AcDbLine
 10
0.9982638888888888
 20
0.87890625
 30
0.0
 11
0.9982638888888888
 21
1.059463141025641
 31
0.0
  0
LINE
  5
16A
330
FC
100
AcDbEntity
  8
AM_4
100
AcDbLine
 10
0.9752270299145298
 20
1.0825
 30
0.0
 11
-0.9752270298971709
 21
1.0825
 31
0.0
  0
LINE
  5
16B
330
FC
100
AcDbEntity
  8
AM_4
100
AcDbLine
 10
0.9982638888888888
 20
1.059463141025641
 30
0.0
 11
-0.9982638888888888
 21
1.059463141025641
 31
0.0
  0
ARC
  5
16C
330
FC
100
AcDbEntity
  8
AM_4
100
AcDbCircle
 10
-0.9752270299145303
 20
1.059463141025641
 30
0.0
 40
0.0230368589743586
100
AcDbArc
 50
90.0
 51
180.0
  0
ARC
  5
16D
330
FC
100
AcDbEntity
  8
AM_4
100
AcDbCircle
 10
0.9752270299145303
 20
1.059463141025641
 30
0.0
 40
0.0230368589743586
100
AcDbArc
 50
0.0
 51
90.0
  0
LWPOLYLINE
  5
16E
330
FC
100
AcDbEntity
  8
AM_4
100
AcDbPolyline
 90
        6
 70
     0
 43
0.0
 10
0.7829442280260974
 20
-1.330833333333334
 10
0.7880453409285434
 20
-1.33032115334545
 10
0.7995878624617515
 20
-1.325075969166354
 10
0.8092037681841016
 20
-1.314730922695886
 10
0.8157665458365636
 20
-1.300559162505154
 10
0.8186409504950352
 20
-1.282578308168458
  0
LWPOLYLINE
  5
16F
330
FC
100
AcDbEntity
  8
AM_4
100
AcDbPolyline
 90
        6
 70
     0
 43
0.0
 10
-0.8186409504950352
 20
-1.282578308168458
 10
-0.816250916433965
 20
-1.298897767759586
 10
-0.8101793297694295
 20
-1.313187212123409
 10
-0.8010817960168559
 20
-1.323910152478873
 10
-0.7898951466132774
 20
-1.329878046236283
 10
-0.7829442280260974
 20
-1.330833333333334
  0
LINE
  5
170
330
FC
100
AcDbEntity
  8
AM_4
100
AcDbLine
 10
-1.087341527345923
 20
-1.282578308168458
 30
0.0
 11
-1.361060102610601
 21
-1.282578308168458
 31
0.0
  0
LINE
  5
171
330
FC
100
AcDbEntity
  8
AM_4
100
AcDbLine
 10
-1.087341527345923
 20
-1.282578308168458
 30
0.0
 11
-1.097109460963668
 21
-0.8908333333333334
 31
0.0
  0
LINE
  5
172
330
FC
100
AcDbEntity
  8
AM_4
100
AcDbLine
 10
-1.097109460963668
 20
-0.8908333333333334
 30
0.0
 11
-0.8284088841127804
 21
-0.8908333333333334
 31
0.0
  0
LINE
  5
173
330
FC
100
AcDbEntity
  8
AM_4
100
AcDbLine
 10
-0.8284088841127804
 20
-0.8908333333333334
 30
0.0
 11
-0.8186409504950352
 21
-1.282578308168458
 31
0.0
  0
LINE
  5
174
330
FC
100
AcDbEntity
  8
AM_4
100
AcDbLine
 10
0.8186409504950352
 20
-1.282578308168458
 30
0.0
 11
-0.8186409504950352
 21
-1.282578308168458
 31
0.0
  0
LINE
  5
175
330
FC
100
AcDbEntity
  8
AM_4
100
AcDbLine
 10
0.8186409504950352
 20
-1.282578308168458
 30
0.0
 11
0.8284088841127804
 21
-0.8908333333333334
 31
0.0
  0
LINE
  5
176
330
FC
100
AcDbEntity
  8
AM_4
100
AcDbLine
 10
0.8284088841127804
 20
-0.8908333333333334
 30
0.0
 11
1.097109460963669
 21
-0.8908333333333334
 31
0.0
  0
LINE
  5
177
330
FC
100
AcDbEntity
  8
AM_4
100
AcDbLine
 10
1.097109460963669
 20
-0.8908333333333334
 30
0.0
 11
1.087341527345923
 21
-1.282578308168458
 31
0.0
  0
LINE
  5
178
330
FC
100
AcDbEntity
  8
AM_4
100
AcDbLine
 10
1.361060102610601
 20
-1.282578308168458
 30
0.0
 11
1.375156641504161
 21
-0.87890625
 31
0.0
  0
LINE
  5
179
330
FC
100
AcDbEntity
  8
AM_4
100
AcDbLine
 10
-1.375156641504161
 20
-0.87890625
 30
0.0
 11
-1.361060102610601
 21
-1.282578308168458
 31
0.0
  0
LINE
  5
17A
330
FC
100
AcDbEntity
  8
AM_4
100
AcDbLine
 10
1.361060102610601
 20
-1.282578308168458
 30
0.0
 11
1.087341527345923
 21
-1.282578308168458
 31
0.0
  0
ENDBLK
  5
FF
330
FC
100
AcDbEntity
  8
0
100
AcDbBlockEnd
  0
BLOCK
  5
17D
330
17B
100
AcDbEntity
  8
0
100
AcDbBlockBegin
  2
6_405015E_Inch_0_in_069433_4
 70
     2
 10
0.0
 20
0.0
 30
0.0
  3
6_405015E_Inch_0_in_069433_4
  1

  0
ATTDEF
  5
17F
330
17B
100
AcDbEntity
  8
AM_6
100
AcDbText
 10
6.326421671481428
 20
0.2525907427704613
 30
0.0
 40
0.5
  1
405015E -Inch
100
AcDbAttributeDefinition
  3

  2
NN
 70
     8
280
     0
  0
ATTDEF
  5
180
330
17B
100
AcDbEntity
  8
AM_6
100
AcDbText
 10
6.326421671481428
 20
-0.2474092572295387
 30
0.0
 40
0.5
  1
Grease Fitting
100
AcDbAttributeDefinition
  3

  2
NT
 70
     8
280
     0
  0
ATTDEF
  5
181
330
17B
100
AcDbEntity
  8
AM_6
100
AcDbText
 10
6.326421671481428
 20
-0.7474092572295388
 30
0.0
 40
0.5
  1
405015E-Inch
100
AcDbAttributeDefinition
  3

  2
NB
 70
     8
280
     0
  0
ATTDEF
  5
182
330
17B
100
AcDbEntity
  8
AM_6
100
AcDbText
 10
6.326421671481428
 20
-1.247409257229539
 30
0.0
 40
0.5
  1
$MN.-Inch
100
AcDbAttributeDefinition
  3

  2
NBSYN
 70
     8
280
     0
  0
ATTDEF
  5
183
330
17B
100
AcDbEntity
  8
AM_6
100
AcDbText
 10
6.326421671481428
 20
-1.747409257229539
 30
0.0
 40
0.5
  1
405015E
100
AcDbAttributeDefinition
  3

  2
LINA
 70
     8
280
     0
  0
ATTDEF
  5
184
330
17B
100
AcDbEntity
  8
AM_6
100
AcDbText
 10
6.326421671481428
 20
-2.247409257229539
 30
0.0
 40
0.5
  1
405015E
100
AcDbAttributeDefinition
  3

  2
MN
 70
     8
280
     0
  0
ATTDEF
  5
185
330
17B
100
AcDbEntity
  8
AM_6
100
AcDbText
 10
6.326421671481428
 20
-2.747409257229539
 30
0.0
 40
0.5
  1
1/8 x 27PTF
100
AcDbAttributeDefinition
  3

  2
T
 70
     8
280
     0
  0
ATTDEF
  5
186
330
17B
100
AcDbEntity
  8
AM_6
100
AcDbText
 10
6.326421671481428
 20
-3.247409257229539
 30
0.0
 40
0.5
  1
baldor
100
AcDbAttributeDefinition
  3

  2
COMPANY
 70
     8
280
     0
  0
ELLIPSE
  5
187
330
17B
100
AcDbEntity
  8
AM_9
100
AcDbEllipse
 10
0.9174999999999999
 20
0.0000000000000001
 30
0.0
 11
9.913691727296317E-18
 21
0.161902872472269
 31
0.0
210
0.0
220
0.0
230
1.0
 40
0.866025403784439
 41
0.0
 42
6.283185307179586
  0
LWPOLYLINE
  5
188
330
17B
100
AcDbEntity
  8
AM_9
100
AcDbPolyline
 90
        4
 70
     0
 43
0.0
 10
1.243976856926153
 20
-0.1262953713852305
 10
1.19350250203231
 20
-0.1577272497321275
 10
1.168848837232497
 20
-0.1735630385535387
 10
1.144721528538923
 20
-0.1894430570778459
  0
LWPOLYLINE
  5
189
330
17B
100
AcDbEntity
  8
AM_9
100
AcDbPolyline
 90
        4
 70
     0
 43
0.0
 10
1.239443057077846
 20
0.0000000000000001
 10
1.240151837436415
 20
-0.0483998160558988
 10
1.242184263336768
 20
-0.0967996321117977
 10
1.243976856926153
 20
-0.1262953713852305
  0
LWPOLYLINE
  5
18A
330
17B
100
AcDbEntity
  8
AM_9
100
AcDbPolyline
 90
        4
 70
     0
 43
0.0
 10
1.144721528538923
 20
0.1894430570778461
 10
1.168705617675653
 20
0.1736561356546922
 10
1.193278983200902
 20
0.1578692142315384
 10
1.243976856926153
 20
0.1262953713852308
  0
LWPOLYLINE
  5
18B
330
17B
100
AcDbEntity
  8
AM_9
100
AcDbPolyline
 90
        4
 70
     0
 43
0.0
 10
1.243976856926153
 20
0.1262953713852308
 10
1.240650319552656
 20
0.0634316146914368
 10
1.239750337984959
 20
0.0317600370486144
 10
1.239443057077846
 20
0.0000000000000001
  0
LINE
  5
18C
330
17B
100
AcDbEntity
  8
AM_9
100
AcDbLine
 10
1.284909257229539
 20
0.1262953713852308
 30
0.0
 11
1.243976856926153
 21
0.1262953713852308
 31
0.0
  0
LINE
  5
18D
330
17B
100
AcDbEntity
  8
AM_9
100
AcDbLine
 10
1.284909257229539
 20
-0.1262953713852305
 30
0.0
 11
1.243976856926153
 21
-0.1262953713852305
 31
0.0
  0
LWPOLYLINE
  5
18E
330
17B
100
AcDbEntity
  8
AM_9
100
AcDbPolyline
 90
        3
 70
     0
 43
0.0
 10
1.287177294546634
 20
-0.0876639037391227
 10
1.28873014295631
 20
-0.0485424412477543
 10
1.289443057077846
 20
0.0000000000000001
  0
LWPOLYLINE
  5
18F
330
17B
100
AcDbEntity
  8
AM_9
100
AcDbPolyline
 90
        4
 70
     0
 43
0.0
 10
1.289443057077846
 20
0.0000000000000001
 10
1.289139350075846
 20
0.0315738428463078
 10
1.288246366685329
 20
0.0631476856926154
 10
1.287167864371098
 20
0.0878529476487881
  0
LWPOLYLINE
  5
190
330
17B
100
AcDbEntity
  8
AM_9
100
AcDbPolyline
 90
        4
 70
     0
 43
0.0
 10
1.144721528538923
 20
-0.1894430570778459
 10
1.121344853406192
 20
-0.2052299785009997
 10
1.098557454661979
 20
-0.2210168999241535
 10
1.054533799848307
 20
-0.2525907427704611
  0
LWPOLYLINE
  5
191
330
17B
100
AcDbEntity
  8
AM_9
100
AcDbPolyline
 90
        4
 70
     0
 43
0.0
 10
1.054533799848307
 20
0.2525907427704613
 10
1.098355079995155
 20
0.2211588644235644
 10
1.121208781659576
 20
0.2053230756021532
 10
1.144721528538923
 20
0.1894430570778461
  0
LINE
  5
192
330
17B
100
AcDbEntity
  8
AM_9
100
AcDbLine
 10
0.9265467106261545
 20
-0.1983264404626879
 30
0.0
 11
1.04035489783229
 21
-0.2054502516015134
 31
0.0
  0
LINE
  5
193
330
17B
100
AcDbEntity
  8
AM_9
100
AcDbLine
 10
1.04035489783229
 20
0.2054502516015136
 30
0.0
 11
0.9265467106261545
 21
0.198326440462688
 31
0.0
  0
ELLIPSE
  5
194
330
17B
100
AcDbEntity
  8
AM_9
100
AcDbEllipse
 10
1.099999999999998
 20
0.0000000000000006
 30
0.0
 11
-4.018372309702280E-17
 21
-0.2187500000000015
 31
0.0
210
0.0
220
0.0
230
1.0
 40
0.8660254037844412
 41
1.032970329614995
 42
2.108622323974793
  0
ELLIPSE
  5
195
330
17B
100
AcDbEntity
  8
AM_9
100
AcDbEllipse
 10
1.1
 20
0.0000000000000001
 30
0.0
 11
-3.926523799766202E-17
 21
-0.2137500000000001
 31
0.0
210
0.0
220
0.0
230
1.0
 40
0.8660254037844397
 41
0.9862868522353212
 42
2.155305801354472
  0
ELLIPSE
  5
196
330
17B
100
AcDbEntity
  8
AM_9
100
AcDbEllipse
 10
1.109159099270441
 20
0.0000000000000001
 30
0.0
 11
-3.169399141454458E-17
 21
-0.1725340532830156
 31
0.0
210
0.0
220
0.0
230
1.0
 40
0.8660254037844395
 41
0.6732704101474889
 42
2.468322243442305
  0
LINE
  5
197
330
17B
100
AcDbEntity
  8
AM_9
100
AcDbLine
 10
1.22
 20
0.0703562363973516
 30
0.0
 11
1.212760904853149
 21
0.079616518023802
 31
0.0
  0
LINE
  5
198
330
17B
100
AcDbEntity
  8
AM_9
100
AcDbLine
 10
1.212760904853149
 20
-0.0796165180238018
 30
0.0
 11
1.22
 21
-0.0703562363973513
 31
0.0
  0
ELLIPSE
  5
199
330
17B
100
AcDbEntity
  8
AM_9
100
AcDbEllipse
 10
1.136376560809286
 20
0.0000000000000008
 30
0.0
 11
-2.182689656893343E-17
 21
-0.1188200907348969
 31
0.0
210
0.0
220
0.0
230
1.0
 40
0.8660254037844388
 41
0.052171442410569
 42
3.089421211179224
  0
ELLIPSE
  5
19A
330
17B
100
AcDbEntity
  8
AM_9
100
AcDbEllipse
 10
1.152500000000001
 20
-0.0000000000000004
 30
0.0
 11
-1.928818708657072E-17
 21
-0.1049999999999995
 31
0.0
210
0.0
220
0.0
230
1.0
 40
0.8660254037844405
 41
5.858105981271219
 42
9.849857286677743
  0
LINE
  5
19B
330
17B
100
AcDbEntity
  8
AM_9
100
AcDbLine
 10
1.1525
 20
-0.1049999999999999
 30
0.0
 11
1.1675
 21
-0.1049999999999999
 31
0.0
  0
LINE
  5
19C
330
17B
100
AcDbEntity
  8
AM_9
100
AcDbLine
 10
1.1675
 20
0.1050000000000001
 30
0.0
 11
1.1525
 21
0.1050000000000001
 31
0.0
  0
ELLIPSE
  5
19D
330
17B
100
AcDbEntity
  8
AM_9
100
AcDbEllipse
 10
1.1675
 20
0.0000000000000001
 30
0.0
 11
-1.928818708657084E-17
 21
-0.1050000000000002
 31
0.0
210
0.0
220
0.0
230
1.0
 40
0.8660254037844392
 41
5.23598775598299
 42
10.47197551196598
  0
ELLIPSE
  5
19E
330
17B
100
AcDbEntity
  8
AM_9
100
AcDbEllipse
 10
1.1975
 20
0.0000000000000002
 30
0.0
 11
-2.479909768273388E-17
 21
-0.1349999999999999
 31
0.0
210
0.0
220
0.0
230
1.0
 40
0.8660254037844352
 41
0.7751090107151217
 42
2.36648364287467
  0
ELLIPSE
  5
19F
330
17B
100
AcDbEntity
  8
AM_9
100
AcDbEllipse
 10
1.05
 20
-0.0000000000000003
 30
0.0
 11
-4.018372309702263E-17
 21
-0.2187500000000006
 31
0.0
210
0.0
220
0.0
230
1.0
 40
0.8660254037844367
 41
0.0
 42
6.283185307179586
  0
ELLIPSE
  5
1A0
330
17B
100
AcDbEntity
  8
AM_9
100
AcDbEllipse
 10
1.049999999999983
 20
-0.0000000000000065
 30
0.0
 11
-3.779601035291031E-17
 21
-0.2057518972230762
 31
0.0
210
0.0
220
0.0
230
1.0
 40
0.8660254037844358
 41
0.0
 42
6.283185307179586
  0
ELLIPSE
  5
1A1
330
17B
100
AcDbEntity
  8
AM_9
100
AcDbEllipse
 10
0.9358573771544726
 20
0.0000000000000367
 30
0.0
 11
-3.648546613377214E-17
 21
-0.1986176267811788
 31
0.0
210
0.0
220
0.0
230
1.0
 40
0.8660254037844377
 41
0.0
 42
6.283185307179586
  0
LWPOLYLINE
  5
1A2
330
17B
100
AcDbEntity
  8
AM_4
100
AcDbPolyline
 90
        4
 70
     0
 43
0.0
 10
1.194721528538923
 20
-0.1894430570778459
 10
1.218098203671654
 20
-0.173656135654692
 10
1.240885602415867
 20
-0.1578692142315382
 10
1.284909257229539
 20
-0.1262953713852305
  0
LINE
  5
1A3
330
17B
100
AcDbEntity
  8
AM_4
100
AcDbLine
 10
1.284909257229539
 20
-0.1262953713852305
 30
0.0
 11
1.287177294546634
 21
-0.0876639037391227
 31
0.0
  0
LWPOLYLINE
  5
1A4
330
17B
100
AcDbEntity
  8
AM_4
100
AcDbPolyline
 90
        4
 70
     0
 43
0.0
 10
1.284909257229539
 20
0.1262953713852308
 10
1.24108797708269
 20
0.1577272497321277
 10
1.21823427541827
 20
0.1735630385535389
 10
1.194721528538923
 20
0.1894430570778461
  0
LINE
  5
1A5
330
17B
100
AcDbEntity
  8
AM_4
100
AcDbLine
 10
1.287167864371098
 20
0.0878529476487881
 30
0.0
 11
1.284909257229539
 21
0.1262953713852308
 31
0.0
  0
LWPOLYLINE
  5
1A6
330
17B
100
AcDbEntity
  8
AM_4
100
AcDbPolyline
 90
        4
 70
     0
 43
0.0
 10
1.194721528538923
 20
0.1894430570778461
 10
1.170737439402192
 20
0.2052299785009998
 10
1.146164073876944
 20
0.2210168999241537
 10
1.095466200151693
 20
0.2525907427704613
  0
LWPOLYLINE
  5
1A7
330
17B
100
AcDbEntity
  8
AM_4
100
AcDbPolyline
 90
        4
 70
     0
 43
0.0
 10
1.095466200151693
 20
-0.2525907427704611
 10
1.145940555045535
 20
-0.2211588644235642
 10
1.170594219845349
 20
-0.205323075602153
 10
1.194721528538923
 20
-0.1894430570778459
  0
LINE
  5
1A8
330
17B
100
AcDbEntity
  8
AM_4
100
AcDbLine
 10
1.095466200151693
 20
-0.2525907427704611
 30
0.0
 11
1.054533799848307
 21
-0.2525907427704611
 31
0.0
  0
LWPOLYLINE
  5
1A9
330
17B
100
AcDbEntity
  8
AM_4
100
AcDbPolyline
 90
        4
 70
     0
 43
0.0
 10
1.005278471461077
 20
-0.1894430570778459
 10
1.028655146593808
 20
-0.2052299785009997
 10
1.051442545338021
 20
-0.2210168999241535
 10
1.095466200151693
 20
-0.2525907427704611
  0
LWPOLYLINE
  5
1AA
330
17B
100
AcDbEntity
  8
AM_4
100
AcDbPolyline
 90
        4
 70
     0
 43
0.0
 10
0.9552784714610769
 20
-0.1894430570778459
 10
0.9319017963283458
 20
-0.173656135654692
 10
0.9091143975841327
 20
-0.1578692142315382
 10
0.865090742770461
 20
-0.1262953713852305
  0
LWPOLYLINE
  5
1AB
330
17B
100
AcDbEntity
  8
AM_4
100
AcDbPolyline
 90
        4
 70
     0
 43
0.0
 10
1.054533799848307
 20
-0.2525907427704611
 10
1.004059444954464
 20
-0.2211588644235642
 10
0.9794057801546513
 20
-0.205323075602153
 10
0.9552784714610769
 20
-0.1894430570778459
  0
LWPOLYLINE
  5
1AC
330
17B
100
AcDbEntity
  8
AM_4
100
AcDbPolyline
 90
        4
 70
     0
 43
0.0
 10
0.9060231430738466
 20
-0.1262953713852305
 10
0.9564974979676893
 20
-0.1577272497321275
 10
0.9811511627675026
 20
-0.1735630385535387
 10
1.005278471461077
 20
-0.1894430570778459
  0
ELLIPSE
  5
1AD
330
17B
100
AcDbEntity
  8
AM_4
100
AcDbEllipse
 10
1.100000000000001
 20
0.0000000000000006
 30
0.0
 11
-4.018372309702265E-17
 21
-0.2187500000000007
 31
0.0
210
0.0
220
0.0
230
1.0
 40
0.8660254037844414
 41
2.108622323974802
 42
7.316155636794574
  0
LWPOLYLINE
  5
1AE
330
17B
100
AcDbEntity
  8
AM_4
100
AcDbPolyline
 90
        4
 70
     0
 43
0.0
 10
1.005278471461077
 20
0.1894430570778461
 10
0.9812943823243465
 20
0.1736561356546923
 10
0.956721016799098
 20
0.1578692142315384
 10
0.9060231430738466
 20
0.1262953713852308
  0
LWPOLYLINE
  5
1AF
330
17B
100
AcDbEntity
  8
AM_4
100
AcDbPolyline
 90
        4
 70
     0
 43
0.0
 10
1.095466200151693
 20
0.2525907427704613
 10
1.051644920004844
 20
0.2211588644235644
 10
1.028791218340424
 20
0.2053230756021532
 10
1.005278471461077
 20
0.1894430570778461
  0
LINE
  5
1B0
330
17B
100
AcDbEntity
  8
AM_4
100
AcDbLine
 10
1.095466200151693
 20
0.2525907427704613
 30
0.0
 11
1.054533799848307
 21
0.2525907427704613
 31
0.0
  0
LWPOLYLINE
  5
1B1
330
17B
100
AcDbEntity
  8
AM_4
100
AcDbPolyline
 90
        4
 70
     0
 43
0.0
 10
0.9552784714610769
 20
0.1894430570778461
 10
0.9792625605978071
 20
0.2052299785009999
 10
1.003835926123056
 20
0.2210168999241537
 10
1.054533799848307
 20
0.2525907427704613
  0
LWPOLYLINE
  5
1B2
330
17B
100
AcDbEntity
  8
AM_4
100
AcDbPolyline
 90
        4
 70
     0
 43
0.0
 10
0.865090742770461
 20
0.1262953713852308
 10
0.9089120229173093
 20
0.1577272497321277
 10
0.9317657245817299
 20
0.1735630385535389
 10
0.9552784714610769
 20
0.1894430570778461
  0
LINE
  5
1B3
330
17B
100
AcDbEntity
  8
AM_4
100
AcDbLine
 10
0.9060231430738466
 20
-0.1262953713852305
 30
0.0
 11
0.865090742770461
 21
-0.1262953713852305
 31
0.0
  0
LWPOLYLINE
  5
1B4
330
17B
100
AcDbEntity
  8
AM_4
100
AcDbPolyline
 90
        4
 70
     0
 43
0.0
 10
0.9105569429221538
 20
0.0000000000000001
 10
0.9098481625635851
 20
-0.0483998160558988
 10
0.907815736663232
 20
-0.0967996321117977
 10
0.9060231430738466
 20
-0.1262953713852305
  0
LWPOLYLINE
  5
1B5
330
17B
100
AcDbEntity
  8
AM_4
100
AcDbPolyline
 90
        4
 70
     0
 43
0.0
 10
0.9060231430738466
 20
0.1262953713852308
 10
0.9093496804473438
 20
0.0634316146914368
 10
0.9102496620150402
 20
0.0317600370486144
 10
0.9105569429221538
 20
0.0000000000000001
  0
LINE
  5
1B6
330
17B
100
AcDbEntity
  8
AM_4
100
AcDbLine
 10
0.9060231430738466
 20
0.1262953713852308
 30
0.0
 11
0.865090742770461
 21
0.1262953713852308
 31
0.0
  0
LWPOLYLINE
  5
1B7
330
17B
100
AcDbEntity
  8
AM_4
100
AcDbPolyline
 90
        4
 70
     0
 43
0.0
 10
0.8605569429221538
 20
0.0000000000000001
 10
0.8608606499241535
 20
0.0315738428463078
 10
0.8617536333146711
 20
0.0631476856926154
 10
0.865090742770461
 20
0.1262953713852308
  0
LWPOLYLINE
  5
1B8
330
17B
100
AcDbEntity
  8
AM_4
100
AcDbPolyline
 90
        4
 70
     0
 43
0.0
 10
0.865090742770461
 20
-0.1262953713852305
 10
0.8632981491810758
 20
-0.0967996321117977
 10
0.8612698570436897
 20
-0.0485424412477542
 10
0.8605569429221538
 20
0.0000000000000001
  0
ELLIPSE
  5
1B9
330
17B
100
AcDbEntity
  8
AM_4
100
AcDbEllipse
 10
1.099999999999999
 20
-0.0000000000000003
 30
0.0
 11
-3.926523799766209E-17
 21
-0.2137500000000005
 31
0.0
210
0.0
220
0.0
230
1.0
 40
0.8660254037844402
 41
2.155305801354473
 42
7.26947215941491
  0
ELLIPSE
  5
1BA
330
17B
100
AcDbEntity
  8
AM_4
100
AcDbEllipse
 10
1.109159099270442
 20
0.0000000000000011
 30
0.0
 11
-3.169399141454436E-17
 21
-0.1725340532830144
 31
0.0
210
0.0
220
0.0
230
1.0
 40
0.8660254037844377
 41
2.468322243442306
 42
6.956455717327067
  0
ELLIPSE
  5
1BB
330
17B
100
AcDbEntity
  8
AM_4
100
AcDbEllipse
 10
1.136376560809286
 20
0.0
 30
0.0
 11
-2.182689656893355E-17
 21
-0.1188200907348976
 31
0.0
210
0.0
220
0.0
230
1.0
 40
0.8660254037844435
 41
3.089421211179229
 42
6.335356749590155
  0
ELLIPSE
  5
1BC
330
17B
100
AcDbEntity
  8
AM_4
100
AcDbEllipse
 10
1.1525
 20
0.0000000000000001
 30
0.0
 11
-1.928818708657079E-17
 21
-0.1049999999999999
 31
0.0
210
0.0
220
0.0
230
1.0
 40
0.8660254037844396
 41
3.566671979498146
 42
5.858105981271232
  0
LINE
  5
1BD
330
17B
100
AcDbEntity
  8
AM_4
100
AcDbLine
 10
1.08875
 20
-0.0524999999999998
 30
0.0
 11
1.09625
 21
-0.0674999999999998
 31
0.0
  0
LINE
  5
1BE
330
17B
100
AcDbEntity
  8
AM_4
100
AcDbLine
 10
1.09625
 20
0.0675
 30
0.0
 11
1.08875
 21
0.0525
 31
0.0
  0
ELLIPSE
  5
1BF
330
17B
100
AcDbEntity
  8
AM_4
100
AcDbEllipse
 10
1.167500000000002
 20
0.0000000000000001
 30
0.0
 11
-1.928818708657107E-17
 21
-0.1050000000000014
 31
0.0
210
0.0
220
0.0
230
1.0
 40
0.8660254037844463
 41
4.1887902047864
 42
5.235987755982981
  0
LINE
  5
1C0
330
17B
100
AcDbEntity
  8
AM_4
100
AcDbLine
 10
1.299726847792107
 20
0.0733474205218688
 30
0.0
 11
1.279315310731619
 21
0.0964365416902992
 31
0.0
  0
LINE
  5
1C1
330
17B
100
AcDbEntity
  8
AM_4
100
AcDbLine
 10
1.279315310731619
 20
-0.0964365416902989
 30
0.0
 11
1.299726847792107
 21
-0.0733474205218685
 31
0.0
  0
ELLIPSE
  5
1C2
330
17B
100
AcDbEntity
  8
AM_4
100
AcDbEllipse
 10
1.197500000000001
 20
-0.0000000000000001
 30
0.0
 11
-2.479909768273395E-17
 21
-0.1350000000000003
 31
0.0
210
0.0
220
0.0
230
1.0
 40
0.8660254037844345
 41
2.366483642874677
 42
7.058294317894706
  0
ELLIPSE
  5
1C3
330
17B
100
AcDbEntity
  8
AM_4
100
AcDbEllipse
 10
1.2375
 20
0.0000000000000002
 30
0.0
 11
-1.886162459184657E-17
 21
-0.1026779019331874
 31
0.0
210
0.0
220
0.0
230
1.0
 40
0.8660254037844384
 41
0.0
 42
6.283185307179586
  0
ENDBLK
  5
17E
330
17B
100
AcDbEntity
  8
0
100
AcDbBlockEnd
  0
BLOCK
  5
1C6
330
1C4
100
AcDbEntity
  8
0
100
AcDbBlockBegin
  2
7_069433H_0_in_069433_4
 70
     2
 10
0.0
 20
0.0
 30
0.0
  3
7_069433H_0_in_069433_4
  1

  0
ATTDEF
  5
1C8
330
1C4
100
AcDbEntity
  8
AM_6
100
AcDbText
 10
8.4375
 20
0.9765625000000001
 30
0.0
 40
0.5
  1
P2B-IP -(Contact Seal)-Housing -Inch
100
AcDbAttributeDefinition
  3

  2
NN
 70
     8
280
     0
  0
ATTDEF
  5
1C9
330
1C4
100
AcDbEntity
  8
AM_6
100
AcDbText
 10
8.4375
 20
0.4765625000000001
 30
0.0
 40
0.5
  1
Imperial 2 Bolt Piliow Block Bearings
100
AcDbAttributeDefinition
  3

  2
NT
 70
     8
280
     0
  0
ATTDEF
  5
1CA
330
1C4
100
AcDbEntity
  8
AM_6
100
AcDbText
 10
8.4375
 20
-0.0234374999999999
 30
0.0
 40
0.5
  1
069433H
100
AcDbAttributeDefinition
  3

  2
NB
 70
     8
280
     0
  0
ATTDEF
  5
1CB
330
1C4
100
AcDbEntity
  8
AM_6
100
AcDbText
 10
8.4375
 20
-0.5234374999999999
 30
0.0
 40
0.5
  1
$PN.H
100
AcDbAttributeDefinition
  3

  2
NBSYN
 70
     8
280
     0
  0
ATTDEF
  5
1CC
330
1C4
100
AcDbEntity
  8
AM_6
100
AcDbText
 10
8.4375
 20
-1.0234375
 30
0.0
 40
0.5
  1
069433
100
AcDbAttributeDefinition
  3

  2
LINA
 70
     8
280
     0
  0
ATTDEF
  5
1CD
330
1C4
100
AcDbEntity
  8
AM_6
100
AcDbText
 10
8.4375
 20
-1.5234375
 30
0.0
 40
0.5
  1
1-1/2
100
AcDbAttributeDefinition
  3

  2
SS
 70
     8
280
     0
  0
ATTDEF
  5
1CE
330
1C4
100
AcDbEntity
  8
AM_6
100
AcDbText
 10
8.4375
 20
-2.0234375
 30
0.0
 40
0.5
  1
069433
100
AcDbAttributeDefinition
  3

  2
PN
 70
     8
280
     0
  0
ATTDEF
  5
1CF
330
1C4
100
AcDbEntity
  8
AM_6
100
AcDbText
 10
8.4375
 20
-2.5234375
 30
0.0
 40
0.5
  1
P2B-IP-108RE
100
AcDbAttributeDefinition
  3

  2
DESCRIPTION
 70
     8
280
     0
  0
ATTDEF
  5
1D0
330
1C4
100
AcDbEntity
  8
AM_6
100
AcDbText
 10
8.4375
 20
-3.0234375
 30
0.0
 40
0.5
  1
Expansion Type
100
AcDbAttributeDefinition
  3

  2
EF
 70
     8
280
     0
  0
ATTDEF
  5
1D1
330
1C4
100
AcDbEntity
  8
AM_6
100
AcDbText
 10
8.4375
 20
-3.5234375
 30
0.0
 40
0.5
  1
Contact  Seal
100
AcDbAttributeDefinition
  3

  2
ST
 70
     8
280
     0
  0
ATTDEF
  5
1D2
330
1C4
100
AcDbEntity
  8
AM_6
100
AcDbText
 10
8.4375
 20
-4.0234375
 30
0.0
 40
0.5
  1
2-5/8
100
AcDbAttributeDefinition
  3

  2
A
 70
     8
280
     0
  0
ATTDEF
  5
1D3
330
1C4
100
AcDbEntity
  8
AM_6
100
AcDbText
 10
8.4375
 20
-4.5234375
 30
0.0
 40
0.5
  1
6-7/8
100
AcDbAttributeDefinition
  3

  2
B
 70
     8
280
     0
  0
ATTDEF
  5
1D4
330
1C4
100
AcDbEntity
  8
AM_6
100
AcDbText
 10
8.4375
 20
-5.0234375
 30
0.0
 40
0.5
  1
1-61/64
100
AcDbAttributeDefinition
  3

  2
C
 70
     8
280
     0
  0
ATTDEF
  5
1D5
330
1C4
100
AcDbEntity
  8
AM_6
100
AcDbText
 10
8.4375
 20
-5.5234375
 30
0.0
 40
0.5
  1
4-13/16
100
AcDbAttributeDefinition
  3

  2
DMIN
 70
     8
280
     0
  0
ATTDEF
  5
1D6
330
1C4
100
AcDbEntity
  8
AM_6
100
AcDbText
 10
8.4375
 20
-6.0234375
 30
0.0
 40
0.5
  1
5-13/64
100
AcDbAttributeDefinition
  3

  2
DMAX
 70
     8
280
     0
  0
ATTDEF
  5
1D7
330
1C4
100
AcDbEntity
  8
AM_6
100
AcDbText
 10
8.4375
 20
-6.5234375
 30
0.0
 40
0.5
  1
1/2
100
AcDbAttributeDefinition
  3

  2
F
 70
     8
280
     0
  0
ATTDEF
  5
1D8
330
1C4
100
AcDbEntity
  8
AM_6
100
AcDbText
 10
8.4375
 20
-7.0234375
 30
0.0
 40
0.5
  1
13/16
100
AcDbAttributeDefinition
  3

  2
G
 70
     8
280
     0
  0
ATTDEF
  5
1D9
330
1C4
100
AcDbEntity
  8
AM_6
100
AcDbText
 10
8.4375
 20
-7.5234375
 30
0.0
 40
0.5
  1
1-1/8
100
AcDbAttributeDefinition
  3

  2
H
 70
     8
280
     0
  0
ATTDEF
  5
1DA
330
1C4
100
AcDbEntity
  8
AM_6
100
AcDbText
 10
8.4375
 20
-8.0234375
 30
0.0
 40
0.5
  1
3-7/8
100
AcDbAttributeDefinition
  3

  2
J
 70
     8
280
     0
  0
ATTDEF
  5
1DB
330
1C4
100
AcDbEntity
  8
AM_6
100
AcDbText
 10
8.4375
 20
-8.5234375
 30
0.0
 40
0.5
  1
2-23/32
100
AcDbAttributeDefinition
  3

  2
L
 70
     8
280
     0
  0
ATTDEF
  5
1DC
330
1C4
100
AcDbEntity
  8
AM_6
100
AcDbText
 10
8.4375
 20
-9.0234375
 30
0.0
 40
0.5
  1
1-7/8
100
AcDbAttributeDefinition
  3

  2
M
 70
     8
280
     0
  0
ATTDEF
  5
1DD
330
1C4
100
AcDbEntity
  8
AM_6
100
AcDbText
 10
8.4375
 20
-9.5234375
 30
0.0
 40
0.5
  1
7/8
100
AcDbAttributeDefinition
  3

  2
R
 70
     8
280
     0
  0
ATTDEF
  5
1DE
330
1C4
100
AcDbEntity
  8
AM_6
100
AcDbText
 10
8.4375
 20
-10.0234375
 30
0.0
 40
0.5
  1
1-3/4
100
AcDbAttributeDefinition
  3

  2
S
 70
     8
280
     0
  0
ATTDEF
  5
1DF
330
1C4
100
AcDbEntity
  8
AM_6
100
AcDbText
 10
8.4375
 20
-10.5234375
 30
0.0
 40
0.5
  1
3/16
100
AcDbAttributeDefinition
  3

  2
X
 70
     8
280
     0
  0
ATTDEF
  5
1E0
330
1C4
100
AcDbEntity
  8
AM_6
100
AcDbText
 10
8.4375
 20
-11.0234375
 30
0.0
 40
0.5
  1
0.020
100
AcDbAttributeDefinition
  3

  2
Y
 70
     8
280
     0
  0
ATTDEF
  5
1E1
330
1C4
100
AcDbEntity
  8
AM_6
100
AcDbText
 10
8.4375
 20
-11.5234375
 30
0.0
 40
0.5
  1
1-51/64
100
AcDbAttributeDefinition
  3

  2
Z
 70
     8
280
     0
  0
ATTDEF
  5
1E2
330
1C4
100
AcDbEntity
  8
AM_6
100
AcDbText
 10
8.4375
 20
-12.0234375
 30
0.0
 40
0.5
  1
baldor
100
AcDbAttributeDefinition
  3

  2
COMPANY
 70
     8
280
     0
  0
LINE
  5
1E3
330
1C4
100
AcDbEntity
  8
AM_9
100
AcDbLine
 10
1.5748
 20
-0.87890625
 30
0.0
 11
1.5748
 21
0.87890625
 31
0.0
  0
LINE
  5
1E4
330
1C4
100
AcDbEntity
  8
AM_9
100
AcDbLine
 10
-1.5748
 20
0.87890625
 30
0.0
 11
-1.5748
 21
-0.87890625
 31
0.0
  0
LINE
  5
1E5
330
1C4
100
AcDbEntity
  8
AM_9
100
AcDbLine
 10
1.003438093340812
 20
0.4999842210151368
 30
0.0
 11
0.9999999999999994
 21
0.5000000000000002
 31
0.0
  0
LWPOLYLINE
  5
1E6
330
1C4
100
AcDbEntity
  8
AM_9
100
AcDbPolyline
 90
       29
 70
     0
 43
0.0
 10
1.00322829539367
 20
-0.4999860889781529
 10
1.043408106206273
 20
-0.4974440864698419
 10
1.089007295124343
 20
-0.4889495022803837
 10
1.132947431891534
 20
-0.4746417480143665
 10
1.174489968829378
 20
-0.45480622560574
 10
1.213649649349646
 20
-0.4293210445593361
 10
1.249851976861704
 20
-0.3986576318079569
 10
1.28259022554275
 20
-0.3633652023379577
 10
1.312407373584643
 20
-0.3225563238133374
 10
1.338285741943557
 20
-0.2775365636916623
 10
1.359876706327251
 20
-0.2291117670466901
 10
1.377108749303086
 20
-0.1774079285402906
 10
1.38984189800137
 20
-0.1231694919900286
 10
1.397887323326627
 20
-0.0674529914307665
 10
1.401120836936627
 20
-0.01230679281418
 10
1.399855349188996
 20
0.0431785020369813
 10
1.394109755966704
 20
0.0979262438433346
 10
1.384065126508868
 20
0.1505289029506211
 10
1.369760554308602
 20
0.2014377230147182
 10
1.351387087121236
 20
0.2497569876349152
 10
1.328492676300175
 20
0.2959058837552039
 10
1.301536380195627
 20
0.338561574510901
 10
1.270867723784549
 20
0.3769902205200945
 10
1.235663540298055
 20
0.4115954974848477
 10
1.196874126627629
 20
0.4410962970721434
 10
1.155094362956091
 20
0.4649193241526821
 10
1.110893453587236
 20
0.4826180597677119
 10
1.064363779100779
 20
0.4942761504023927
 10
1.019619278228641
 20
0.499483127259251
  0
LINE
  5
1E7
330
1C4
100
AcDbEntity
  8
AM_9
100
AcDbLine
 10
0.9999999999999996
 20
-0.5
 30
0.0
 11
1.00322829539367
 21
-0.4999860889781529
 31
0.0
  0
ELLIPSE
  5
1E8
330
1C4
100
AcDbEntity
  8
AM_9
100
AcDbEllipse
 10
1.000000000004103
 20
0.0000000000026988
 30
0.0
 11
-9.184850993555576E-17
 21
-0.4999999999973014
 31
0.0
210
0.0
220
0.0
230
1.0
 40
0.8660254037843639
 41
3.130868489664615
 42
3.141592653589793
  0
ELLIPSE
  5
1E9
330
1C4
100
AcDbEntity
  8
AM_9
100
AcDbEllipse
 10
0.9999999999999999
 20
0.0000000000000001
 30
0.0
 11
-9.184850993605151E-17
 21
-0.5000000000000001
 31
0.0
210
0.0
220
0.0
230
1.0
 40
0.866025403784434
 41
0.0
 42
3.119403959147504
  0
LINE
  5
1EA
330
1C4
100
AcDbEntity
  8
AM_7
100
AcDbLine
 10
-2.8640625
 20
0.0000000000000003
 30
0.0
 11
-2.14375
 21
0.0000000000000003
 31
0.0
  0
LINE
  5
1EB
330
1C4
100
AcDbEntity
  8
AM_7
100
AcDbLine
 10
-2.40625
 20
-0.2624999999999997
 30
0.0
 11
-2.40625
 21
0.2625000000000003
 31
0.0
  0
LINE
  5
1EC
330
1C4
100
AcDbEntity
  8
AM_7
100
AcDbLine
 10
2.14375
 20
-0.0000000000000001
 30
0.0
 11
2.8640625
 21
0.0
 31
0.0
  0
LINE
  5
1ED
330
1C4
100
AcDbEntity
  8
AM_7
100
AcDbLine
 10
2.40625
 20
-0.2625000000000001
 30
0.0
 11
2.40625
 21
0.2624999999999999
 31
0.0
  0
LINE
  5
1EE
330
1C4
100
AcDbEntity
  8
AM_7
100
AcDbLine
 10
-2.6015625
 20
-0.2624999999999997
 30
0.0
 11
-2.6015625
 21
0.2625000000000003
 31
0.0
  0
LINE
  5
1EF
330
1C4
100
AcDbEntity
  8
AM_7
100
AcDbLine
 10
2.6015625
 20
-0.2625
 30
0.0
 11
2.6015625
 21
0.2625
 31
0.0
  0
LINE
  5
1F0
330
1C4
100
AcDbEntity
  8
AM_4
100
AcDbLine
 10
3.4375
 20
0.78125
 30
0.0
 11
3.2421875
 21
0.9765625
 31
0.0
  0
LINE
  5
1F1
330
1C4
100
AcDbEntity
  8
AM_4
100
AcDbLine
 10
3.4375
 20
-0.78125
 30
0.0
 11
3.4375
 21
0.7812499999999998
 31
0.0
  0
LINE
  5
1F2
330
1C4
100
AcDbEntity
  8
AM_4
100
AcDbLine
 10
3.2421875
 20
-0.9765625
 30
0.0
 11
3.4375
 21
-0.78125
 31
0.0
  0
LINE
  5
1F3
330
1C4
100
AcDbEntity
  8
AM_4
100
AcDbLine
 10
3.2421875
 20
0.9765625
 30
0.0
 11
2.21015625
 21
0.9765625
 31
0.0
  0
LINE
  5
1F4
330
1C4
100
AcDbEntity
  8
AM_4
100
AcDbLine
 10
3.2421875
 20
-0.9765625
 30
0.0
 11
2.21015625
 21
-0.9765625
 31
0.0
  0
LINE
  5
1F5
330
1C4
100
AcDbEntity
  8
AM_4
100
AcDbLine
 10
2.6015625
 20
0.25
 30
0.0
 11
2.40625
 21
0.25
 31
0.0
  0
ARC
  5
1F6
330
1C4
100
AcDbEntity
  8
AM_4
100
AcDbCircle
 10
2.6015625
 20
-0.0000000000000001
 30
0.0
 40
0.25
100
AcDbArc
 50
270.0
 51
90.0
  0
LINE
  5
1F7
330
1C4
100
AcDbEntity
  8
AM_4
100
AcDbLine
 10
2.40625
 20
-0.2500000000000002
 30
0.0
 11
2.6015625
 21
-0.2500000000000001
 31
0.0
  0
ARC
  5
1F8
330
1C4
100
AcDbEntity
  8
AM_4
100
AcDbCircle
 10
2.40625
 20
-0.0000000000000001
 30
0.0
 40
0.2500000000000001
100
AcDbArc
 50
90.0
 51
270.0
  0
LINE
  5
1F9
330
1C4
100
AcDbEntity
  8
AM_4
100
AcDbLine
 10
3.325
 20
-0.89375
 30
0.0
 11
3.325
 21
0.8937499999999997
 31
0.0
  0
LINE
  5
1FA
330
1C4
100
AcDbEntity
  8
AM_4
100
AcDbLine
 10
-3.2421875
 20
0.9765625
 30
0.0
 11
-3.4375
 21
0.78125
 31
0.0
  0
LINE
  5
1FB
330
1C4
100
AcDbEntity
  8
AM_4
100
AcDbLine
 10
-3.4375
 20
-0.78125
 30
0.0
 11
-3.4375
 21
0.78125
 31
0.0
  0
LINE
  5
1FC
330
1C4
100
AcDbEntity
  8
AM_4
100
AcDbLine
 10
-3.4375
 20
-0.78125
 30
0.0
 11
-3.2421875
 21
-0.9765625
 31
0.0
  0
LINE
  5
1FD
330
1C4
100
AcDbEntity
  8
AM_4
100
AcDbLine
 10
-2.21015625
 20
-0.9765625
 30
0.0
 11
-3.2421875
 21
-0.9765625
 31
0.0
  0
LINE
  5
1FE
330
1C4
100
AcDbEntity
  8
AM_4
100
AcDbLine
 10
-2.21015625
 20
0.9765625
 30
0.0
 11
-3.2421875
 21
0.9765625
 31
0.0
  0
LINE
  5
1FF
330
1C4
100
AcDbEntity
  8
AM_4
100
AcDbLine
 10
-2.40625
 20
0.2500000000000004
 30
0.0
 11
-2.6015625
 21
0.2500000000000003
 31
0.0
  0
ARC
  5
200
330
1C4
100
AcDbEntity
  8
AM_4
100
AcDbCircle
 10
-2.40625
 20
0.0000000000000003
 30
0.0
 40
0.2500000000000001
100
AcDbArc
 50
270.0
 51
90.0
  0
LINE
  5
201
330
1C4
100
AcDbEntity
  8
AM_4
100
AcDbLine
 10
-2.6015625
 20
-0.2499999999999997
 30
0.0
 11
-2.40625
 21
-0.2499999999999998
 31
0.0
  0
ARC
  5
202
330
1C4
100
AcDbEntity
  8
AM_4
100
AcDbCircle
 10
-2.6015625
 20
0.0000000000000003
 30
0.0
 40
0.25
100
AcDbArc
 50
90.0
 51
270.0
  0
LINE
  5
203
330
1C4
100
AcDbEntity
  8
AM_4
100
AcDbLine
 10
-3.325
 20
-0.8937499999999997
 30
0.0
 11
-3.325
 21
0.89375
 31
0.0
  0
LINE
  5
204
330
1C4
100
AcDbEntity
  8
AM_4
100
AcDbLine
 10
-2.03375
 20
-0.6975446428571429
 30
0.0
 11
-2.03375
 21
0.6975446428571429
 31
0.0
  0
LINE
  5
205
330
1C4
100
AcDbEntity
  8
AM_4
100
AcDbLine
 10
2.03375
 20
-0.6975446428571429
 30
0.0
 11
2.03375
 21
0.6975446428571429
 31
0.0
  0
LINE
  5
206
330
1C4
100
AcDbEntity
  8
AM_4
100
AcDbLine
 10
2.2115
 20
0.697544642857143
 30
0.0
 11
2.2115
 21
0.9765625
 31
0.0
  0
LINE
  5
207
330
1C4
100
AcDbEntity
  8
AM_4
100
AcDbLine
 10
2.1125
 20
0.87890625
 30
0.0
 11
2.21015625
 21
0.9765624999999999
 31
0.0
  0
LINE
  5
208
330
1C4
100
AcDbEntity
  8
AM_4
100
AcDbLine
 10
-2.21015625
 20
0.9765625000000001
 30
0.0
 11
-2.112499999999999
 21
0.8789062500000001
 31
0.0
  0
LINE
  5
209
330
1C4
100
AcDbEntity
  8
AM_4
100
AcDbLine
 10
-2.2115
 20
0.6975446428571429
 30
0.0
 11
-2.2115
 21
0.9765625
 31
0.0
  0
LINE
  5
20A
330
1C4
100
AcDbEntity
  8
AM_4
100
AcDbLine
 10
-2.2115
 20
-0.9765625
 30
0.0
 11
-2.2115
 21
-0.6975446428571429
 31
0.0
  0
LINE
  5
20B
330
1C4
100
AcDbEntity
  8
AM_4
100
AcDbLine
 10
-2.1125
 20
-0.87890625
 30
0.0
 11
-2.21015625
 21
-0.9765625
 31
0.0
  0
LINE
  5
20C
330
1C4
100
AcDbEntity
  8
AM_4
100
AcDbLine
 10
2.21015625
 20
-0.9765625
 30
0.0
 11
2.1125
 21
-0.87890625
 31
0.0
  0
LINE
  5
20D
330
1C4
100
AcDbEntity
  8
AM_4
100
AcDbLine
 10
2.2115
 20
-0.9765625
 30
0.0
 11
2.2115
 21
-0.6975446428571429
 31
0.0
  0
LINE
  5
20E
330
1C4
100
AcDbEntity
  8
AM_4
100
AcDbLine
 10
-2.099912984670874
 20
0.6975446428571425
 30
0.0
 11
-2.099912984670874
 21
0.87890625
 31
0.0
  0
LINE
  5
20F
330
1C4
100
AcDbEntity
  8
AM_4
100
AcDbLine
 10
-2.099912984670874
 20
-0.87890625
 30
0.0
 11
-2.099912984670874
 21
-0.6975446428571429
 31
0.0
  0
LINE
  5
210
330
1C4
100
AcDbEntity
  8
AM_4
100
AcDbLine
 10
2.099912984670874
 20
0.697544642857143
 30
0.0
 11
2.099912984670874
 21
0.87890625
 31
0.0
  0
LINE
  5
211
330
1C4
100
AcDbEntity
  8
AM_4
100
AcDbLine
 10
2.099912984670874
 20
-0.87890625
 30
0.0
 11
2.099912984670874
 21
-0.6975446428571429
 31
0.0
  0
LINE
  5
212
330
1C4
100
AcDbEntity
  8
AM_4
100
AcDbLine
 10
-1.983769161406673
 20
0.697544642857143
 30
0.0
 11
-1.983769161406673
 21
0.87890625
 31
0.0
  0
LINE
  5
213
330
1C4
100
AcDbEntity
  8
AM_4
100
AcDbLine
 10
-1.9775
 20
0.697544642857143
 30
0.0
 11
-2.2115
 21
0.6975446428571429
 31
0.0
  0
LINE
  5
214
330
1C4
100
AcDbEntity
  8
AM_4
100
AcDbLine
 10
-1.9775
 20
-0.6975446428571429
 30
0.0
 11
-1.9775
 21
0.697544642857143
 31
0.0
  0
LINE
  5
215
330
1C4
100
AcDbEntity
  8
AM_4
100
AcDbLine
 10
-1.9775
 20
-0.6975446428571429
 30
0.0
 11
-2.2115
 21
-0.6975446428571429
 31
0.0
  0
LINE
  5
216
330
1C4
100
AcDbEntity
  8
AM_4
100
AcDbLine
 10
-1.983769161406673
 20
-0.87890625
 30
0.0
 11
-1.983769161406673
 21
-0.6975446428571429
 31
0.0
  0
LINE
  5
217
330
1C4
100
AcDbEntity
  8
AM_4
100
AcDbLine
 10
1.983769161406673
 20
0.6975446428571425
 30
0.0
 11
1.983769161406673
 21
0.87890625
 31
0.0
  0
LINE
  5
218
330
1C4
100
AcDbEntity
  8
AM_4
100
AcDbLine
 10
1.983769161406673
 20
-0.87890625
 30
0.0
 11
1.983769161406673
 21
-0.6975446428571429
 31
0.0
  0
LINE
  5
219
330
1C4
100
AcDbEntity
  8
AM_4
100
AcDbLine
 10
2.2115
 20
-0.6975446428571429
 30
0.0
 11
1.9775
 21
-0.6975446428571429
 31
0.0
  0
LINE
  5
21A
330
1C4
100
AcDbEntity
  8
AM_4
100
AcDbLine
 10
1.9775
 20
0.697544642857143
 30
0.0
 11
1.9775
 21
-0.6975446428571429
 31
0.0
  0
LINE
  5
21B
330
1C4
100
AcDbEntity
  8
AM_4
100
AcDbLine
 10
2.2115
 20
0.697544642857143
 30
0.0
 11
1.9775
 21
0.697544642857143
 31
0.0
  0
LWPOLYLINE
  5
21C
330
1C4
100
AcDbEntity
  8
AM_4
100
AcDbPolyline
 90
       39
 70
     0
 43
0.0
 10
0.9999999999999994
 20
0.5000000000000002
 10
0.9685863331878076
 20
0.4986942717820289
 10
0.9370239348049026
 20
0.4947931184142557
 10
0.9047724460237841
 20
0.4881357660325124
 10
0.8727499841418269
 20
0.4788328728485691
 10
0.8381547914655713
 20
0.4656627121782513
 10
0.8043247635629964
 20
0.44948618008979
 10
0.7706200118351653
 20
0.4298404653182969
 10
0.7382511854435263
 20
0.4072831431368223
 10
0.7075864017290564
 20
0.3820578313926509
 10
0.6787444796222913
 20
0.3542631572124822
 10
0.6512473304721501
 20
0.3231916839952142
 10
0.6261659779720495
 20
0.2898006092403309
 10
0.6039543218034078
 20
0.2546764961297213
 10
0.5845436655944071
 20
0.217726734032668
 10
0.5676923668892211
 20
0.1780132635837434
 10
0.5542003778294037
 20
0.1369137016023819
 10
0.5460259637082775
 20
0.103645350421782
 10
0.5401107375105815
 20
0.0698624933983191
 10
0.5364569319670026
 20
0.0350226567299854
 10
0.535233134659635
 20
0.0000000000000001
 10
0.5368939652717732
 20
-0.0407808153045626
 10
0.5418441919660006
 20
-0.0812732539419916
 10
0.5503347184240909
 20
-0.1223625151184875
 10
0.5621584956420904
 20
-0.1625465078839833
 10
0.5767184613010337
 20
-0.2004232739809365
 10
0.5941556913499769
 20
-0.2369314054372962
 10
0.6149156064987117
 20
-0.272785105454746
 10
0.6383438570472321
 20
-0.3067146337486432
 10
0.6640199621637768
 20
-0.3382502034047329
 10
0.6918922766844531
 20
-0.3674773664645391
 10
0.722605115686894
 20
-0.3949182283476459
 10
0.7551331657604949
 20
-0.4195309809885527
 10
0.7886938806785102
 20
-0.4408321762488715
 10
0.8234811604671716
 20
-0.4590624823193908
 10
0.8603125298439251
 20
-0.4744751601043109
 10
0.8978365533234937
 20
-0.486352274441734
 10
0.9485944522543369
 20
-0.496523664599752
 10
0.9999999999999996
 20
-0.5
  0
LINE
  5
21D
330
1C4
100
AcDbEntity
  8
AM_4
100
AcDbLine
 10
0.5249333333333334
 20
-0.8789062499999999
 30
0.0
 11
0.5249333333333334
 21
0.8789062500000001
 31
0.0
  0
LINE
  5
21E
330
1C4
100
AcDbEntity
  8
AM_4
100
AcDbLine
 10
0.468683333333333
 20
-0.8789062499999999
 30
0.0
 11
0.4686833333333332
 21
0.8789062500000001
 31
0.0
  0
LINE
  5
21F
330
1C4
100
AcDbEntity
  8
AM_4
100
AcDbLine
 10
-2.1125
 20
-0.87890625
 30
0.0
 11
2.1125
 21
-0.87890625
 31
0.0
  0
LINE
  5
220
330
1C4
100
AcDbEntity
  8
AM_4
100
AcDbLine
 10
-0.4686833333333335
 20
-0.8789062499999999
 30
0.0
 11
-0.4686833333333335
 21
0.8789062500000001
 31
0.0
  0
LINE
  5
221
330
1C4
100
AcDbEntity
  8
AM_4
100
AcDbLine
 10
2.1125
 20
0.87890625
 30
0.0
 11
-2.1125
 21
0.87890625
 31
0.0
  0
LINE
  5
222
330
1C4
100
AcDbEntity
  8
AM_4
100
AcDbLine
 10
-0.5249333333333334
 20
-0.8789062499999999
 30
0.0
 11
-0.5249333333333334
 21
0.8789062500000001
 31
0.0
  0
ELLIPSE
  5
223
330
1C4
100
AcDbEntity
  8
AM_4
100
AcDbEllipse
 10
1.0
 20
0.0000000000000001
 30
0.0
 11
-9.184850993605151E-17
 21
-0.5000000000000001
 31
0.0
210
0.0
220
0.0
230
1.0
 40
0.8660254037844395
 41
3.141592653589793
 42
6.283185307179586
  0
ELLIPSE
  5
224
330
1C4
100
AcDbEntity
  8
AM_4
100
AcDbEllipse
 10
1.05
 20
0.0000000000000001
 30
0.0
 11
2.449293598294706E-17
 21
0.4
 31
0.0
210
0.0
220
0.0
230
1.0
 40
0.8660254037844383
 41
0.0
 42
6.283185307179586
  0
LWPOLYLINE
  5
225
330
1C4
100
AcDbEntity
  8
AM_4
100
AcDbPolyline
 90
       53
 70
     0
 43
0.0
 10
1.000796245235609
 20
-0.4999992074912681
 10
1.00992718443212
 20
-0.4998767983458179
 10
1.037520189264624
 20
-0.4982371382080173
 10
1.06495205182463
 20
-0.4946979936268308
 10
1.092122354950076
 20
-0.4892750628614916
 10
1.11893257723022
 20
-0.4819895691243652
 10
1.145285396340656
 20
-0.4728682732567398
 10
1.171084656930256
 20
-0.4619435806175688
 10
1.196235409541781
 20
-0.4492537334037939
 10
1.220644047010789
 20
-0.4348430533715468
 10
1.244218553856529
 20
-0.4187621926450389
 10
1.266868870923975
 20
-0.4010683477158217
 10
1.288507363519299
 20
-0.3818253946779828
 10
1.309049368511589
 20
-0.3611039121925333
 10
1.328413786412227
 20
-0.3389810715457493
 10
1.346523679869981
 20
-0.315540388424653
 10
1.363306840980032
 20
-0.2908713461130573
 10
1.378696295814036
 20
-0.2650689122480098
 10
1.392630724171001
 20
-0.2382329793069828
 10
1.405054783711987
 20
-0.2104677619326995
 10
1.415919338365432
 20
-0.1818811824496141
 10
1.425181599630952
 20
-0.1525842706958957
 10
1.432805195339847
 20
-0.1226905971568851
 10
1.438760183439163
 20
-0.0923157508313629
 10
1.443023028876787
 20
-0.0615768664075287
 10
1.445576560380391
 20
-0.0305921997975109
 10
1.446409921583899
 20
0.0005192529517852
 10
1.445518528173208
 20
0.0316381010436904
 10
1.442904084336933
 20
0.0626444825538616
 10
1.438574619197303
 20
0.093418775572957
 10
1.432544431657809
 20
0.1238422246966722
 10
1.424834145132098
 20
0.1537968828601579
 10
1.415470782864396
 20
0.183165949059277
 10
1.404487857531876
 20
0.2118341424715416
 10
1.391925464612007
 20
0.2396881243507506
 10
1.377830364662067
 20
0.2666169774134032
 10
1.362256035325872
 20
0.2925127489847296
 10
1.345262670245226
 20
0.3172710586887912
 10
1.326917100065494
 20
0.3407917638838781
 10
1.307292611446837
 20
0.3629796667920865
 10
1.286468644326566
 20
0.3837452374014307
 10
1.264530356020249
 20
0.4030053173733585
 10
1.241568052671487
 20
0.4206837643504717
 10
1.217676502657923
 20
0.4367119950763536
 10
1.19295416060008
 20
0.4510293907429058
 10
1.167502342012543
 20
0.4635835389029941
 10
1.141424395129388
 20
0.4743303017028214
 10
1.114824916755255
 20
0.483233717600788
 10
1.087809053196706
 20
0.4902657602280666
 10
1.060481916707252
 20
0.4954059910426508
 10
1.032948134478724
 20
0.4986411503111288
 10
1.005311533191062
 20
0.4999647332557755
 10
0.9995935089899354
 20
0.4999997934562804
  0
ENDBLK
  5
1C7
330
1C4
100
AcDbEntity
  8
0
100
AcDbBlockEnd
  0
ENDSEC
  0
SECTION
  2
ENTITIES
  0
INSERT
  5
6F
330
1F
100
AcDbEntity
  8
0
100
AcDbBlockReference
  2
1_069433_4
 10
0.0
 20
0.0
 30
0.0
  0
POINT
  5
227
330
1F
100
AcDbEntity
  8
ConnectionPoints
100
AcDbPoint
 10
0.0
 20
-1.400833333333333
 30
1.096354166666667
  0
POINT
  5
228
330
1F
100
AcDbEntity
  8
ConnectionPoints
100
AcDbPoint
 10
0.0
 20
-1.330833333333333
 30
0.0000000000000001
  0
POINT
  5
229
330
1F
100
AcDbEntity
  8
ConnectionPoints
100
AcDbPoint
 10
0.0
 20
-1.5625
 30
0.0000000000000001
  0
POINT
  5
22A
330
1F
100
AcDbEntity
  8
ConnectionPoints
100
AcDbPoint
 10
0.0
 20
-1.529833333333333
 30
0.0000000000000001
  0
POINT
  5
22B
330
1F
100
AcDbEntity
  8
ConnectionPoints
100
AcDbPoint
 10
0.0
 20
-1.330833333333333
 30
1.096354166666667
  0
POINT
  5
22C
330
1F
100
AcDbEntity
  8
ConnectionPoints
100
AcDbPoint
 10
0.0
 20
-1.4615
 30
1.096354166666667
  0
POINT
  5
22D
330
1F
100
AcDbEntity
  8
ConnectionPoints
100
AcDbPoint
 10
0.0
 20
-1.330833333333333
 30
-1.096354166666667
  0
POINT
  5
22E
330
1F
100
AcDbEntity
  8
ConnectionPoints
100
AcDbPoint
 10
0.0
 20
-1.4615
 30
-1.096354166666667
  0
POINT
  5
22F
330
1F
100
AcDbEntity
  8
ConnectionPoints
100
AcDbPoint
 10
0.0
 20
-1.330833333333333
 30
0.0000000000000001
  0
POINT
  5
230
330
1F
100
AcDbEntity
  8
ConnectionPoints
100
AcDbPoint
 10
1.05
 20
0.0000000000000001
 30
1.818653347947321
  0
POINT
  5
231
330
1F
100
AcDbEntity
  8
ConnectionPoints
100
AcDbPoint
 10
1.05
 20
0.0000000000000001
 30
1.818653347947321
  0
POINT
  5
232
330
1F
100
AcDbEntity
  8
ConnectionPoints
100
AcDbPoint
 10
0.0
 20
-1.5625
 30
0.0000000000000001
  0
POINT
  5
233
330
1F
100
AcDbEntity
  8
ConnectionPoints
100
AcDbPoint
 10
0.0
 20
-1.75
 30
0.0000000000000001
  0
ENDSEC
  0
SECTION
  2
OBJECTS
  0
DICTIONARY
  5
C
330
0
100
AcDbDictionary
281
     1
  3
ACAD_DETAILVIEWSTYLE
350
23B
  3
ACAD_GROUP
350
D
  3
ACAD_LAYOUT
350
1A
  3
ACAD_MATERIAL
350
43
  3
ACAD_MLEADERSTYLE
350
6B
  3
ACAD_MLINESTYLE
350
17
  3
ACAD_PLOTSETTINGS
350
19
  3
ACAD_PLOTSTYLENAME
350
E
  3
ACAD_SCALELIST
350
47
  3
ACAD_SECTIONVIEWSTYLE
350
23C
  3
ACAD_TABLESTYLE
350
69
  3
ACAD_VISUALSTYLE
350
2A
  3
ACDB_RECOMPOSE_DATA
350
238
  3
AcDbVariableDictionary
350
234
  0
SUN
  5
6D
330
29
100
AcDbSun
 90
        1
290
     0
 63
     7
421
 16777215
 40
1.0
291
     1
 91
  2455826
 92
 54000000
292
     0
 70
     2
 71
   256
280
     1
  0
DICTIONARY
  5
23B
102
{ACAD_REACTORS
330
C
102
}
330
C
100
AcDbDictionary
281
     1
  0
DICTIONARY
  5
D
102
{ACAD_REACTORS
330
C
102
}
330
C
100
AcDbDictionary
281
     1
  0
DICTIONARY
  5
1A
102
{ACAD_REACTORS
330
C
102
}
330
C
100
AcDbDictionary
281
     1
  3
Layout1
350
1E
  3
Layout2
350
26
  3
Model
350
22
  0
DICTIONARY
  5
43
102
{ACAD_REACTORS
330
C
102
}
330
C
100
AcDbDictionary
281
     1
  3
ByBlock
350
45
  3
ByLayer
350
44
  3
Global
350
46
  0
DICTIONARY
  5
6B
102
{ACAD_REACTORS
330
C
102
}
330
C
100
AcDbDictionary
281
     1
  3
Standard
350
6C
  0
DICTIONARY
  5
17
102
{ACAD_REACTORS
330
C
102
}
330
C
100
AcDbDictionary
281
     1
  3
Standard
350
18
  0
DICTIONARY
  5
19
102
{ACAD_REACTORS
330
C
102
}
330
C
100
AcDbDictionary
281
     1
  0
ACDBDICTIONARYWDFLT
  5
E
102
{ACAD_REACTORS
330
C
102
}
330
C
100
AcDbDictionary
281
     1
  3
Normal
350
F
100
AcDbDictionaryWithDefault
340
F
  0
DICTIONARY
  5
47
102
{ACAD_REACTORS
330
C
102
}
330
C
100
AcDbDictionary
281
     1
  3
A0
350
48
  3
A1
350
49
  3
A2
350
4A
  3
A3
350
4B
  3
A4
350
4C
  3
A5
350
4D
  3
A6
350
4E
  3
A7
350
4F
  3
A8
350
50
  3
A9
350
51
  3
B0
350
52
  3
B1
350
53
  3
B2
350
54
  3
B3
350
55
  3
B4
350
56
  3
B5
350
57
  3
B6
350
58
  3
B7
350
59
  3
B8
350
5A
  3
B9
350
5B
  3
C0
350
5C
  3
C1
350
5D
  3
C2
350
5E
  3
C3
350
5F
  3
C4
350
60
  3
C5
350
61
  3
C6
350
62
  3
C7
350
63
  3
C8
350
64
  3
C9
350
65
  3
D0
350
66
  3
D1
350
67
  3
D2
350
68
  0
DICTIONARY
  5
23C
102
{ACAD_REACTORS
330
C
102
}
330
C
100
AcDbDictionary
281
     1
  0
DICTIONARY
  5
69
102
{ACAD_REACTORS
330
C
102
}
330
C
100
AcDbDictionary
281
     1
  3
Standard
350
6A
  0
DICTIONARY
  5
2A
102
{ACAD_REACTORS
330
C
102
}
330
C
100
AcDbDictionary
281
     1
  3
2dWireframe
350
2F
  3
Basic
350
32
  3
Brighten
350
36
  3
ColorChange
350
3A
  3
Conceptual
350
34
  3
Dim
350
35
  3
EdgeColorOff
350
3D
  3
Facepattern
350
39
  3
Flat
350
2B
  3
FlatWithEdges
350
2C
  3
Gouraud
350
2D
  3
GouraudWithEdges
350
2E
  3
Hidden
350
31
  3
JitterOff
350
3B
  3
Linepattern
350
38
  3
OverhangOff
350
3C
  3
Realistic
350
33
  3
Shaded
350
42
  3
Shaded with edges
350
41
  3
Shades of Gray
350
3E
  3
Sketchy
350
3F
  3
Thicken
350
37
  3
Wireframe
350
30
  3
X-Ray
350
40
  0
XRECORD
  5
238
102
{ACAD_REACTORS
330
C
102
}
330
C
100
AcDbXrecord
280
     1
 90
        1
330
6A
  0
DICTIONARY
  5
234
102
{ACAD_REACTORS
330
C
102
}
330
C
100
AcDbDictionary
281
     1
  3
CANNOSCALE
350
235
  3
CMLEADERSTYLE
350
23A
  3
CTABLESTYLE
350
239
  0
LAYOUT
  5
1E
102
{ACAD_REACTORS
330
1A
102
}
330
1A
100
AcDbPlotSettings
  1

  2
none_device
  4

  6

 40
0.0
 41
0.0
 42
0.0
 43
0.0
 44
0.0
 45
0.0
 46
0.0
 47
0.0
 48
0.0
 49
0.0
140
0.0
141
0.0
142
1.0
143
1.0
 70
   688
 72
     0
 73
     0
 74
     5
  7

 75
    16
 76
     0
 77
     2
 78
   300
147
1.0
148
0.0
149
0.0
100
AcDbLayout
  1
Layout1
 70
     1
 71
     1
 10
0.0
 20
0.0
 11
12.0
 21
9.0
 12
0.0
 22
0.0
 32
0.0
 14
1.000000000000000E+20
 24
1.000000000000000E+20
 34
1.000000000000000E+20
 15
-1.000000000000000E+20
 25
-1.000000000000000E+20
 35
-1.000000000000000E+20
146
0.0
 13
0.0
 23
0.0
 33
0.0
 16
1.0
 26
0.0
 36
0.0
 17
0.0
 27
1.0
 37
0.0
 76
     0
330
1B
  0
LAYOUT
  5
26
102
{ACAD_REACTORS
330
1A
102
}
330
1A
100
AcDbPlotSettings
  1

  2
none_device
  4

  6

 40
0.0
 41
0.0
 42
0.0
 43
0.0
 44
0.0
 45
0.0
 46
0.0
 47
0.0
 48
0.0
 49
0.0
140
0.0
141
0.0
142
1.0
143
1.0
 70
   688
 72
     0
 73
     0
 74
     5
  7

 75
    16
 76
     0
 77
     2
 78
   300
147
1.0
148
0.0
149
0.0
100
AcDbLayout
  1
Layout2
 70
     1
 71
     2
 10
0.0
 20
0.0
 11
0.0
 21
0.0
 12
0.0
 22
0.0
 32
0.0
 14
0.0
 24
0.0
 34
0.0
 15
0.0
 25
0.0
 35
0.0
146
0.0
 13
0.0
 23
0.0
 33
0.0
 16
1.0
 26
0.0
 36
0.0
 17
0.0
 27
1.0
 37
0.0
 76
     0
330
23
  0
LAYOUT
  5
22
102
{ACAD_REACTORS
330
1A
102
}
330
1A
100
AcDbPlotSettings
  1

  2
none_device
  4
Letter_(8.50_x_11.00_Inches)
  6

 40
6.35
 41
6.35
 42
6.35000508
 43
6.35000508
 44
215.9
 45
279.4
 46
0.0
 47
0.0
 48
0.0
 49
0.0
140
0.0
141
0.0
142
1.0
143
1.0
 70
  1712
 72
     0
 73
     0
 74
     0
  7

 75
     0
 76
     0
 77
     2
 78
   300
147
1.0
148
0.0
149
0.0
100
AcDbLayout
  1
Model
 70
     1
 71
     0
 10
0.0
 20
0.0
 11
12.0
 21
9.0
 12
0.0
 22
0.0
 32
0.0
 14
1.000000000000000E+20
 24
1.000000000000000E+20
 34
1.000000000000000E+20
 15
-1.000000000000000E+20
 25
-1.000000000000000E+20
 35
-1.000000000000000E+20
146
0.0
 13
0.0
 23
0.0
 33
0.0
 16
1.0
 26
0.0
 36
0.0
 17
0.0
 27
1.0
 37
0.0
 76
     0
330
1F
331
29
  0
MATERIAL
  5
45
102
{ACAD_REACTORS
330
43
102
}
330
43
100
AcDbMaterial
  1
ByBlock
 72
     1
 94
      127
  0
MATERIAL
  5
44
102
{ACAD_REACTORS
330
43
102
}
330
43
100
AcDbMaterial
  1
ByLayer
 72
     1
 94
      127
  0
MATERIAL
  5
46
102
{ACAD_REACTORS
330
43
102
}
330
43
100
AcDbMaterial
  1
Global
 72
     1
 94
      127
  0
MLEADERSTYLE
  5
6C
102
{ACAD_REACTORS
330
6B
102
}
330
6B
100
AcDbMLeaderStyle
179
     2
170
     2
171
     1
172
     0
 90
        2
 40
0.0
 41
0.0
173
     1
 91
-1056964608
340
14
 92
       -2
290
     1
 42
0.09
291
     1
 43
0.36
  3
Standard
341
0
 44
0.18
300

342
11
174
     1
178
     6
175
     1
176
     0
 93
-1056964608
 45
0.18
292
     0
297
     0
 46
0.18
343
0
 94
-1056964608
 47
1.0
 49
1.0
140
1.0
293
     1
141
0.0
294
     1
177
     0
142
1.0
295
     0
296
     0
143
0.125
271
     0
272
     9
273
     9
298
     0
  0
MLINESTYLE
  5
18
102
{ACAD_REACTORS
330
17
102
}
330
17
100
AcDbMlineStyle
  2
Standard
 70
     0
  3

 62
   256
 51
90.0
 52
90.0
 71
     2
 49
0.5
 62
   256
  6
BYLAYER
 49
-0.5
 62
   256
  6
BYLAYER
  0
ACDBPLACEHOLDER
  5
F
102
{ACAD_REACTORS
330
E
102
}
330
E
  0
SCALE
  5
48
102
{ACAD_REACTORS
330
47
102
}
330
47
100
AcDbScale
 70
     0
300
1:1
140
1.0
141
1.0
290
     1
  0
SCALE
  5
49
102
{ACAD_REACTORS
330
47
102
}
330
47
100
AcDbScale
 70
     0
300
1:2
140
1.0
141
2.0
290
     0
  0
SCALE
  5
4A
102
{ACAD_REACTORS
330
47
102
}
330
47
100
AcDbScale
 70
     0
300
1:4
140
1.0
141
4.0
290
     0
  0
SCALE
  5
4B
102
{ACAD_REACTORS
330
47
102
}
330
47
100
AcDbScale
 70
     0
300
1:5
140
1.0
141
5.0
290
     0
  0
SCALE
  5
4C
102
{ACAD_REACTORS
330
47
102
}
330
47
100
AcDbScale
 70
     0
300
1:8
140
1.0
141
8.0
290
     0
  0
SCALE
  5
4D
102
{ACAD_REACTORS
330
47
102
}
330
47
100
AcDbScale
 70
     0
300
1:10
140
1.0
141
10.0
290
     0
  0
SCALE
  5
4E
102
{ACAD_REACTORS
330
47
102
}
330
47
100
AcDbScale
 70
     0
300
1:16
140
1.0
141
16.0
290
     0
  0
SCALE
  5
4F
102
{ACAD_REACTORS
330
47
102
}
330
47
100
AcDbScale
 70
     0
300
1:20
140
1.0
141
20.0
290
     0
  0
SCALE
  5
50
102
{ACAD_REACTORS
330
47
102
}
330
47
100
AcDbScale
 70
     0
300
1:30
140
1.0
141
30.0
290
     0
  0
SCALE
  5
51
102
{ACAD_REACTORS
330
47
102
}
330
47
100
AcDbScale
 70
     0
300
1:40
140
1.0
141
40.0
290
     0
  0
SCALE
  5
52
102
{ACAD_REACTORS
330
47
102
}
330
47
100
AcDbScale
 70
     0
300
1:50
140
1.0
141
50.0
290
     0
  0
SCALE
  5
53
102
{ACAD_REACTORS
330
47
102
}
330
47
100
AcDbScale
 70
     0
300
1:100
140
1.0
141
100.0
290
     0
  0
SCALE
  5
54
102
{ACAD_REACTORS
330
47
102
}
330
47
100
AcDbScale
 70
     0
300
2:1
140
2.0
141
1.0
290
     0
  0
SCALE
  5
55
102
{ACAD_REACTORS
330
47
102
}
330
47
100
AcDbScale
 70
     0
300
4:1
140
4.0
141
1.0
290
     0
  0
SCALE
  5
56
102
{ACAD_REACTORS
330
47
102
}
330
47
100
AcDbScale
 70
     0
300
8:1
140
8.0
141
1.0
290
     0
  0
SCALE
  5
57
102
{ACAD_REACTORS
330
47
102
}
330
47
100
AcDbScale
 70
     0
300
10:1
140
10.0
141
1.0
290
     0
  0
SCALE
  5
58
102
{ACAD_REACTORS
330
47
102
}
330
47
100
AcDbScale
 70
     0
300
100:1
140
100.0
141
1.0
290
     0
  0
SCALE
  5
59
102
{ACAD_REACTORS
330
47
102
}
330
47
100
AcDbScale
 70
     0
300
1/128" = 1'-0"
140
0.0078125
141
12.0
290
     0
  0
SCALE
  5
5A
102
{ACAD_REACTORS
330
47
102
}
330
47
100
AcDbScale
 70
     0
300
1/64" = 1'-0"
140
0.015625
141
12.0
290
     0
  0
SCALE
  5
5B
102
{ACAD_REACTORS
330
47
102
}
330
47
100
AcDbScale
 70
     0
300
1/32" = 1'-0"
140
0.03125
141
12.0
290
     0
  0
SCALE
  5
5C
102
{ACAD_REACTORS
330
47
102
}
330
47
100
AcDbScale
 70
     0
300
1/16" = 1'-0"
140
0.0625
141
12.0
290
     0
  0
SCALE
  5
5D
102
{ACAD_REACTORS
330
47
102
}
330
47
100
AcDbScale
 70
     0
300
3/32" = 1'-0"
140
0.09375
141
12.0
290
     0
  0
SCALE
  5
5E
102
{ACAD_REACTORS
330
47
102
}
330
47
100
AcDbScale
 70
     0
300
1/8" = 1'-0"
140
0.125
141
12.0
290
     0
  0
SCALE
  5
5F
102
{ACAD_REACTORS
330
47
102
}
330
47
100
AcDbScale
 70
     0
300
3/16" = 1'-0"
140
0.1875
141
12.0
290
     0
  0
SCALE
  5
60
102
{ACAD_REACTORS
330
47
102
}
330
47
100
AcDbScale
 70
     0
300
1/4" = 1'-0"
140
0.25
141
12.0
290
     0
  0
SCALE
  5
61
102
{ACAD_REACTORS
330
47
102
}
330
47
100
AcDbScale
 70
     0
300
3/8" = 1'-0"
140
0.375
141
12.0
290
     0
  0
SCALE
  5
62
102
{ACAD_REACTORS
330
47
102
}
330
47
100
AcDbScale
 70
     0
300
1/2" = 1'-0"
140
0.5
141
12.0
290
     0
  0
SCALE
  5
63
102
{ACAD_REACTORS
330
47
102
}
330
47
100
AcDbScale
 70
     0
300
3/4" = 1'-0"
140
0.75
141
12.0
290
     0
  0
SCALE
  5
64
102
{ACAD_REACTORS
330
47
102
}
330
47
100
AcDbScale
 70
     0
300
1" = 1'-0"
140
1.0
141
12.0
290
     0
  0
SCALE
  5
65
102
{ACAD_REACTORS
330
47
102
}
330
47
100
AcDbScale
 70
     0
300
1-1/2" = 1'-0"
140
1.5
141
12.0
290
     0
  0
SCALE
  5
66
102
{ACAD_REACTORS
330
47
102
}
330
47
100
AcDbScale
 70
     0
300
3" = 1'-0"
140
3.0
141
12.0
290
     0
  0
SCALE
  5
67
102
{ACAD_REACTORS
330
47
102
}
330
47
100
AcDbScale
 70
     0
300
6" = 1'-0"
140
6.0
141
12.0
290
     0
  0
SCALE
  5
68
102
{ACAD_REACTORS
330
47
102
}
330
47
100
AcDbScale
 70
     0
300
1'-0" = 1'-0"
140
12.0
141
12.0
290
     0
  0
TABLESTYLE
  5
6A
102
{ACAD_REACTORS
330
69
102
}
102
{ACAD_XDICTIONARY
360
236
102
}
330
69
100
AcDbTableStyle
  3
Standard
 70
     0
 71
     0
 40
0.06
 41
0.06
280
     0
281
     0
  7
Standard
140
0.18
170
     2
 62
     0
 63
   257
283
     0
 90
        4
 91
        0
  1

274
    -2
284
     1
 64
     0
275
    -2
285
     1
 65
     0
276
    -2
286
     1
 66
     0
277
    -2
287
     1
 67
     0
278
    -2
288
     1
 68
     0
279
    -2
289
     1
 69
     0
  7
Standard
140
0.25
170
     5
 62
     0
 63
   257
283
     0
 90
        4
 91
        0
  1

274
    -2
284
     1
 64
     0
275
    -2
285
     1
 65
     0
276
    -2
286
     1
 66
     0
277
    -2
287
     1
 67
     0
278
    -2
288
     1
 68
     0
279
    -2
289
     1
 69
     0
  7
Standard
140
0.18
170
     5
 62
     0
 63
   257
283
     0
 90
        4
 91
        0
  1

274
    -2
284
     1
 64
     0
275
    -2
285
     1
 65
     0
276
    -2
286
     1
 66
     0
277
    -2
287
     1
 67
     0
278
    -2
288
     1
 68
     0
279
    -2
289
     1
 69
     0
  0
VISUALSTYLE
  5
2F
102
{ACAD_REACTORS
330
2A
102
}
330
2A
100
AcDbVisualStyle
  2
2dWireframe
 70
     4
177
     3
291
     0
 70
    58
 90
        0
176
     1
 90
        2
176
     1
 90
        0
176
     1
 90
        0
176
     1
 40
0.6
176
     1
 40
30.0
176
     1
 62
     7
420
 16777215
176
     1
 90
        1
176
     1
 90
        4
176
     1
 62
     7
176
     1
 62
   257
176
     1
 90
        1
176
     1
 90
        1
176
     1
 40
1.0
176
     1
 90
        0
176
     1
 62
   257
176
     1
 40
1.0
176
     1
 90
        1
176
     1
 90
        6
176
     1
 90
        2
176
     1
 62
     7
176
     1
 90
        5
176
     1
 90
        0
176
     1
 90
        0
176
     1
290
     0
176
     1
 90
        1
176
     1
 40
0.0
176
     1
 90
        0
176
     1
290
     1
176
     1
290
     1
176
     1
290
     0
176
     1
290
     0
176
     1
290
     0
176
     1
290
     0
176
     1
290
     0
176
     1
290
     0
176
     1
290
     0
176
     1
 90
       50
176
     1
 40
0.0
176
     1
 40
1.0
176
     1
 90
        0
176
     1
 62
    18
420
        0
176
     1
 90
       50
176
     1
 90
        3
176
     1
 62
     5
420
      255
176
     1
290
     0
176
     1
 90
       50
176
     1
 90
       50
176
     1
 90
       50
176
     1
290
     0
176
     1
 90
       50
176
     1
 62
   256
176
     0
 40
1.0
176
     0
 90
        2
176
     1
  1
strokes_ogs.tif
176
     1
290
     0
176
     1
 40
1.0
176
     1
 40
1.0
176
     1
  0
VISUALSTYLE
  5
32
102
{ACAD_REACTORS
330
2A
102
}
330
2A
100
AcDbVisualStyle
  2
Basic
 70
     7
177
     3
291
     1
 70
    58
 90
        1
176
     1
 90
        0
176
     1
 90
        1
176
     1
 90
        0
176
     1
 40
0.6
176
     1
 40
30.0
176
     1
 62
     7
420
 16777215
176
     1
 90
        0
176
     1
 90
        4
176
     1
 62
     7
176
     1
 62
   257
176
     1
 90
        1
176
     1
 90
        1
176
     1
 40
1.0
176
     1
 90
        8
176
     1
 62
     7
176
     1
 40
1.0
176
     1
 90
        1
176
     1
 90
        6
176
     1
 90
        2
176
     1
 62
     7
176
     1
 90
        5
176
     1
 90
        0
176
     1
 90
        0
176
     1
290
     0
176
     1
 90
        1
176
     1
 40
0.0
176
     1
 90
        0
176
     1
290
     0
176
     1
290
     1
176
     1
290
     1
176
     1
290
     0
176
     1
290
     0
176
     1
290
     0
176
     1
290
     0
176
     1
290
     0
176
     1
290
     0
176
     1
 90
       50
176
     1
 40
0.0
176
     1
 40
1.0
176
     1
 90
        0
176
     1
 62
    18
420
        0
176
     1
 90
       50
176
     1
 90
        3
176
     1
 62
     5
420
      255
176
     1
290
     0
176
     1
 90
       50
176
     1
 90
       50
176
     1
 90
       50
176
     1
290
     0
176
     1
 90
       50
176
     1
 62
   256
176
     0
 40
1.0
176
     0
 90
        2
176
     1
  1
strokes_ogs.tif
176
     1
290
     0
176
     1
 40
1.0
176
     1
 40
1.0
176
     1
  0
VISUALSTYLE
  5
36
102
{ACAD_REACTORS
330
2A
102
}
330
2A
100
AcDbVisualStyle
  2
Brighten
 70
    12
177
     3
291
     1
 70
    58
 90
        2
176
     1
 90
        2
176
     1
 90
        0
176
     1
 90
        0
176
     1
 40
0.6
176
     1
 40
30.0
176
     1
 62
     7
420
 16777215
176
     1
 90
        1
176
     1
 90
        4
176
     1
 62
     7
176
     1
 62
   257
176
     1
 90
        1
176
     1
 90
        1
176
     1
 40
1.0
176
     1
 90
        8
176
     1
 62
     7
176
     1
 40
1.0
176
     1
 90
        1
176
     1
 90
        6
176
     1
 90
        2
176
     1
 62
     7
176
     1
 90
        5
176
     1
 90
        0
176
     1
 90
        0
176
     1
290
     0
176
     1
 90
        1
176
     1
 40
50.0
176
     1
 90
        0
176
     1
290
     0
176
     1
290
     1
176
     1
290
     1
176
     1
290
     0
176
     1
290
     0
176
     1
290
     0
176
     1
290
     0
176
     1
290
     0
176
     1
290
     0
176
     1
 90
       50
176
     1
 40
0.0
176
     1
 40
1.0
176
     1
 90
        0
176
     1
 62
    18
420
        0
176
     1
 90
       50
176
     1
 90
        3
176
     1
 62
     5
420
      255
176
     1
290
     0
176
     1
 90
       50
176
     1
 90
       50
176
     1
 90
       50
176
     1
290
     0
176
     1
 90
       50
176
     1
 62
   256
176
     0
 40
1.0
176
     0
 90
        2
176
     1
  1
strokes_ogs.tif
176
     1
290
     0
176
     1
 40
1.0
176
     1
 40
1.0
176
     1
  0
VISUALSTYLE
  5
3A
102
{ACAD_REACTORS
330
2A
102
}
330
2A
100
AcDbVisualStyle
  2
ColorChange
 70
    16
177
     3
291
     1
 70
    58
 90
        2
176
     1
 90
        2
176
     1
 90
        3
176
     1
 90
        0
176
     1
 40
0.6
176
     1
 40
30.0
176
     1
 62
     8
420
  8421504
176
     1
 90
        1
176
     1
 90
        4
176
     1
 62
     7
176
     1
 62
   257
176
     1
 90
        1
176
     1
 90
        1
176
     1
 40
1.0
176
     1
 90
        8
176
     1
 62
     8
420
  8421504
176
     1
 40
1.0
176
     1
 90
        1
176
     1
 90
        6
176
     1
 90
        2
176
     1
 62
     7
176
     1
 90
        5
176
     1
 90
        0
176
     1
 90
        0
176
     1
290
     0
176
     1
 90
        1
176
     1
 40
0.0
176
     1
 90
        0
176
     1
290
     0
176
     1
290
     1
176
     1
290
     1
176
     1
290
     0
176
     1
290
     0
176
     1
290
     0
176
     1
290
     0
176
     1
290
     0
176
     1
290
     0
176
     1
 90
       50
176
     1
 40
0.0
176
     1
 40
1.0
176
     1
 90
        0
176
     1
 62
    18
420
        0
176
     1
 90
       50
176
     1
 90
        3
176
     1
 62
     5
420
      255
176
     1
290
     0
176
     1
 90
       50
176
     1
 90
       50
176
     1
 90
       50
176
     1
290
     0
176
     1
 90
       50
176
     1
 62
   256
176
     0
 40
1.0
176
     0
 90
        2
176
     1
  1
strokes_ogs.tif
176
     1
290
     0
176
     1
 40
1.0
176
     1
 40
1.0
176
     1
  0
VISUALSTYLE
  5
34
102
{ACAD_REACTORS
330
2A
102
}
330
2A
100
AcDbVisualStyle
  2
Conceptual
 70
     9
177
     3
291
     0
 70
    58
 90
        3
176
     1
 90
        2
176
     1
 90
        0
176
     1
 90
        0
176
     1
 40
0.6
176
     1
 40
30.0
176
     1
 62
     7
420
 16777215
176
     1
 90
        2
176
     1
 90
        2
176
     1
 62
     7
176
     1
 62
   257
176
     1
 90
        1
176
     1
 90
        1
176
     1
 40
179.0
176
     1
 90
        8
176
     1
 62
     7
176
     1
 40
1.0
176
     1
 90
        1
176
     1
 90
        6
176
     1
 90
        2
176
     1
 62
     7
176
     1
 90
        3
176
     1
 90
        0
176
     1
 90
        0
176
     1
290
     0
176
     1
 90
        1
176
     1
 40
0.0
176
     1
 90
        0
176
     1
290
     0
176
     1
290
     1
176
     1
290
     1
176
     1
290
     0
176
     1
290
     0
176
     1
290
     0
176
     1
290
     0
176
     1
290
     0
176
     1
290
     0
176
     1
 90
       50
176
     1
 40
0.0
176
     1
 40
1.0
176
     1
 90
        0
176
     1
 62
    18
420
        0
176
     1
 90
       50
176
     1
 90
        3
176
     1
 62
     5
420
      255
176
     1
290
     0
176
     1
 90
       50
176
     1
 90
       50
176
     1
 90
       50
176
     1
290
     0
176
     1
 90
       50
176
     1
 62
   256
176
     0
 40
1.0
176
     0
 90
        2
176
     1
  1
strokes_ogs.tif
176
     1
290
     0
176
     1
 40
1.0
176
     1
 40
1.0
176
     1
  0
VISUALSTYLE
  5
35
102
{ACAD_REACTORS
330
2A
102
}
330
2A
100
AcDbVisualStyle
  2
Dim
 70
    11
177
     3
291
     1
 70
    58
 90
        2
176
     1
 90
        2
176
     1
 90
        0
176
     1
 90
        0
176
     1
 40
0.6
176
     1
 40
30.0
176
     1
 62
     7
420
 16777215
176
     1
 90
        1
176
     1
 90
        4
176
     1
 62
     7
176
     1
 62
   257
176
     1
 90
        1
176
     1
 90
        1
176
     1
 40
1.0
176
     1
 90
        8
176
     1
 62
     7
176
     1
 40
1.0
176
     1
 90
        1
176
     1
 90
        6
176
     1
 90
        2
176
     1
 62
     7
176
     1
 90
        5
176
     1
 90
        0
176
     1
 90
        0
176
     1
290
     0
176
     1
 90
        1
176
     1
 40
-50.0
176
     1
 90
        0
176
     1
290
     0
176
     1
290
     1
176
     1
290
     1
176
     1
290
     0
176
     1
290
     0
176
     1
290
     0
176
     1
290
     0
176
     1
290
     0
176
     1
290
     0
176
     1
 90
       50
176
     1
 40
0.0
176
     1
 40
1.0
176
     1
 90
        0
176
     1
 62
    18
420
        0
176
     1
 90
       50
176
     1
 90
        3
176
     1
 62
     5
420
      255
176
     1
290
     0
176
     1
 90
       50
176
     1
 90
       50
176
     1
 90
       50
176
     1
290
     0
176
     1
 90
       50
176
     1
 62
   256
176
     0
 40
1.0
176
     0
 90
        2
176
     1
  1
strokes_ogs.tif
176
     1
290
     0
176
     1
 40
1.0
176
     1
 40
1.0
176
     1
  0
VISUALSTYLE
  5
3D
102
{ACAD_REACTORS
330
2A
102
}
330
2A
100
AcDbVisualStyle
  2
EdgeColorOff
 70
    22
177
     3
291
     1
 70
    58
 90
        2
176
     0
 90
        2
176
     0
 90
        0
176
     0
 90
        0
176
     0
 40
0.6
176
     0
 40
30.0
176
     0
 62
     7
420
 16777215
176
     0
 90
        1
176
     0
 90
        4
176
     0
 62
     7
176
     0
 62
   257
176
     0
 90
        1
176
     0
 90
        1
176
     0
 40
1.0
176
     0
 90
        8
176
     2
 62
     7
176
     0
 40
1.0
176
     0
 90
        1
176
     0
 90
        6
176
     0
 90
        2
176
     0
 62
     7
176
     0
 90
        5
176
     0
 90
        0
176
     0
 90
        0
176
     0
290
     0
176
     0
 90
        1
176
     0
 40
0.0
176
     0
 90
        0
176
     0
290
     0
176
     0
290
     1
176
     0
290
     1
176
     0
290
     0
176
     0
290
     0
176
     0
290
     0
176
     0
290
     0
176
     0
290
     0
176
     0
290
     0
176
     0
 90
       50
176
     0
 40
0.0
176
     0
 40
1.0
176
     0
 90
        0
176
     0
 62
    18
420
        0
176
     0
 90
       50
176
     0
 90
        3
176
     0
 62
     5
420
      255
176
     0
290
     0
176
     0
 90
       50
176
     0
 90
       50
176
     0
 90
       50
176
     0
290
     0
176
     0
 90
       50
176
     0
 62
   256
176
     0
 40
1.0
176
     0
 90
        2
176
     0
  1
strokes_ogs.tif
176
     0
290
     0
176
     0
 40
1.0
176
     0
 40
1.0
176
     0
  0
VISUALSTYLE
  5
39
102
{ACAD_REACTORS
330
2A
102
}
330
2A
100
AcDbVisualStyle
  2
Facepattern
 70
    15
177
     3
291
     1
 70
    58
 90
        2
176
     1
 90
        2
176
     1
 90
        0
176
     1
 90
        0
176
     1
 40
0.6
176
     1
 40
30.0
176
     1
 62
     7
420
 16777215
176
     1
 90
        1
176
     1
 90
        4
176
     1
 62
     7
176
     1
 62
   257
176
     1
 90
        1
176
     1
 90
        1
176
     1
 40
1.0
176
     1
 90
        8
176
     1
 62
     7
176
     1
 40
1.0
176
     1
 90
        1
176
     1
 90
        6
176
     1
 90
        2
176
     1
 62
     7
176
     1
 90
        5
176
     1
 90
        0
176
     1
 90
        0
176
     1
290
     0
176
     1
 90
        1
176
     1
 40
0.0
176
     1
 90
        0
176
     1
290
     0
176
     1
290
     1
176
     1
290
     1
176
     1
290
     0
176
     1
290
     0
176
     1
290
     0
176
     1
290
     0
176
     1
290
     0
176
     1
290
     0
176
     1
 90
       50
176
     1
 40
0.0
176
     1
 40
1.0
176
     1
 90
        0
176
     1
 62
    18
420
        0
176
     1
 90
       50
176
     1
 90
        3
176
     1
 62
     5
420
      255
176
     1
290
     0
176
     1
 90
       50
176
     1
 90
       50
176
     1
 90
       50
176
     1
290
     0
176
     1
 90
       50
176
     1
 62
   256
176
     0
 40
1.0
176
     0
 90
        2
176
     1
  1
strokes_ogs.tif
176
     1
290
     0
176
     1
 40
1.0
176
     1
 40
1.0
176
     1
  0
VISUALSTYLE
  5
2B
102
{ACAD_REACTORS
330
2A
102
}
330
2A
100
AcDbVisualStyle
  2
Flat
 70
     0
177
     3
291
     1
 70
    58
 90
        2
176
     1
 90
        1
176
     1
 90
        1
176
     1
 90
        2
176
     1
 40
0.6
176
     1
 40
30.0
176
     1
 62
     7
420
 16777215
176
     1
 90
        0
176
     1
 90
        0
176
     1
 62
     7
176
     1
 62
   257
176
     1
 90
        1
176
     1
 90
        1
176
     1
 40
1.0
176
     1
 90
        8
176
     1
 62
     7
176
     1
 40
1.0
176
     1
 90
        1
176
     1
 90
        6
176
     1
 90
        2
176
     1
 62
     7
176
     1
 90
        5
176
     1
 90
        0
176
     1
 90
        0
176
     1
290
     0
176
     1
 90
       13
176
     1
 40
0.0
176
     1
 90
        0
176
     1
290
     0
176
     1
290
     1
176
     1
290
     1
176
     1
290
     0
176
     1
290
     0
176
     1
290
     0
176
     1
290
     0
176
     1
290
     0
176
     1
290
     0
176
     1
 90
       50
176
     1
 40
0.0
176
     1
 40
1.0
176
     1
 90
        0
176
     1
 62
    18
420
        0
176
     1
 90
       50
176
     1
 90
        3
176
     1
 62
     5
420
      255
176
     1
290
     0
176
     1
 90
       50
176
     1
 90
       50
176
     1
 90
       50
176
     1
290
     0
176
     1
 90
       50
176
     1
 62
   256
176
     0
 40
1.0
176
     0
 90
        2
176
     1
  1
strokes_ogs.tif
176
     1
290
     0
176
     1
 40
1.0
176
     1
 40
1.0
176
     1
  0
VISUALSTYLE
  5
2C
102
{ACAD_REACTORS
330
2A
102
}
330
2A
100
AcDbVisualStyle
  2
FlatWithEdges
 70
     1
177
     3
291
     1
 70
    58
 90
        2
176
     1
 90
        1
176
     1
 90
        1
176
     1
 90
        2
176
     1
 40
0.6
176
     1
 40
30.0
176
     1
 62
     7
420
 16777215
176
     1
 90
        1
176
     1
 90
        0
176
     1
 62
     7
176
     1
 62
   257
176
     1
 90
        1
176
     1
 90
        1
176
     1
 40
1.0
176
     1
 90
        0
176
     1
 62
   257
176
     1
 40
1.0
176
     1
 90
        1
176
     1
 90
        6
176
     1
 90
        2
176
     1
 62
     7
176
     1
 90
        5
176
     1
 90
        0
176
     1
 90
        0
176
     1
290
     0
176
     1
 90
       13
176
     1
 40
0.0
176
     1
 90
        0
176
     1
290
     0
176
     1
290
     1
176
     1
290
     1
176
     1
290
     0
176
     1
290
     0
176
     1
290
     0
176
     1
290
     0
176
     1
290
     0
176
     1
290
     0
176
     1
 90
       50
176
     1
 40
0.0
176
     1
 40
1.0
176
     1
 90
        0
176
     1
 62
    18
420
        0
176
     1
 90
       50
176
     1
 90
        3
176
     1
 62
     5
420
      255
176
     1
290
     0
176
     1
 90
       50
176
     1
 90
       50
176
     1
 90
       50
176
     1
290
     0
176
     1
 90
       50
176
     1
 62
   256
176
     0
 40
1.0
176
     0
 90
        2
176
     1
  1
strokes_ogs.tif
176
     1
290
     0
176
     1
 40
1.0
176
     1
 40
1.0
176
     1
  0
VISUALSTYLE
  5
2D
102
{ACAD_REACTORS
330
2A
102
}
330
2A
100
AcDbVisualStyle
  2
Gouraud
 70
     2
177
     3
291
     1
 70
    58
 90
        2
176
     1
 90
        2
176
     1
 90
        1
176
     1
 90
        2
176
     1
 40
0.6
176
     1
 40
30.0
176
     1
 62
     7
420
 16777215
176
     1
 90
        0
176
     1
 90
        0
176
     1
 62
     7
176
     1
 62
   257
176
     1
 90
        1
176
     1
 90
        1
176
     1
 40
1.0
176
     1
 90
        0
176
     1
 62
     7
176
     1
 40
1.0
176
     1
 90
        1
176
     1
 90
        6
176
     1
 90
        2
176
     1
 62
     7
176
     1
 90
        5
176
     1
 90
        0
176
     1
 90
        0
176
     1
290
     0
176
     1
 90
       13
176
     1
 40
0.0
176
     1
 90
        0
176
     1
290
     0
176
     1
290
     1
176
     1
290
     1
176
     1
290
     0
176
     1
290
     0
176
     1
290
     0
176
     1
290
     0
176
     1
290
     0
176
     1
290
     0
176
     1
 90
       50
176
     1
 40
0.0
176
     1
 40
1.0
176
     1
 90
        0
176
     1
 62
    18
420
        0
176
     1
 90
       50
176
     1
 90
        3
176
     1
 62
     5
420
      255
176
     1
290
     0
176
     1
 90
       50
176
     1
 90
       50
176
     1
 90
       50
176
     1
290
     0
176
     1
 90
       50
176
     1
 62
   256
176
     0
 40
1.0
176
     0
 90
        2
176
     1
  1
strokes_ogs.tif
176
     1
290
     0
176
     1
 40
1.0
176
     1
 40
1.0
176
     1
  0
VISUALSTYLE
  5
2E
102
{ACAD_REACTORS
330
2A
102
}
330
2A
100
AcDbVisualStyle
  2
GouraudWithEdges
 70
     3
177
     3
291
     1
 70
    58
 90
        2
176
     1
 90
        2
176
     1
 90
        1
176
     1
 90
        2
176
     1
 40
0.6
176
     1
 40
30.0
176
     1
 62
     7
420
 16777215
176
     1
 90
        1
176
     1
 90
        0
176
     1
 62
     7
176
     1
 62
   257
176
     1
 90
        1
176
     1
 90
        1
176
     1
 40
1.0
176
     1
 90
        0
176
     1
 62
   257
176
     1
 40
1.0
176
     1
 90
        1
176
     1
 90
        6
176
     1
 90
        2
176
     1
 62
     7
176
     1
 90
        5
176
     1
 90
        0
176
     1
 90
        0
176
     1
290
     0
176
     1
 90
       13
176
     1
 40
0.0
176
     1
 90
        0
176
     1
290
     0
176
     1
290
     1
176
     1
290
     1
176
     1
290
     0
176
     1
290
     0
176
     1
290
     0
176
     1
290
     0
176
     1
290
     0
176
     1
290
     0
176
     1
 90
       50
176
     1
 40
0.0
176
     1
 40
1.0
176
     1
 90
        0
176
     1
 62
    18
420
        0
176
     1
 90
       50
176
     1
 90
        3
176
     1
 62
     5
420
      255
176
     1
290
     0
176
     1
 90
       50
176
     1
 90
       50
176
     1
 90
       50
176
     1
290
     0
176
     1
 90
       50
176
     1
 62
   256
176
     0
 40
1.0
176
     0
 90
        2
176
     1
  1
strokes_ogs.tif
176
     1
290
     0
176
     1
 40
1.0
176
     1
 40
1.0
176
     1
  0
VISUALSTYLE
  5
31
102
{ACAD_REACTORS
330
2A
102
}
330
2A
100
AcDbVisualStyle
  2
Hidden
 70
     6
177
     3
291
     0
 70
    58
 90
        1
176
     1
 90
        2
176
     1
 90
        2
176
     1
 90
        0
176
     1
 40
0.6
176
     1
 40
30.0
176
     1
 62
     7
420
 16777215
176
     1
 90
        2
176
     1
 90
        2
176
     1
 62
     7
176
     1
 62
   257
176
     1
 90
        2
176
     1
 90
        1
176
     1
 40
40.0
176
     1
 90
        0
176
     1
 62
   257
176
     1
 40
1.0
176
     1
 90
        1
176
     1
 90
        6
176
     1
 90
        2
176
     1
 62
     7
176
     1
 90
        3
176
     1
 90
        0
176
     1
 90
        0
176
     1
290
     0
176
     1
 90
        1
176
     1
 40
0.0
176
     1
 90
        0
176
     1
290
     0
176
     1
290
     1
176
     1
290
     1
176
     1
290
     0
176
     1
290
     0
176
     1
290
     0
176
     1
290
     0
176
     1
290
     0
176
     1
290
     0
176
     1
 90
       50
176
     1
 40
0.0
176
     1
 40
1.0
176
     1
 90
        0
176
     1
 62
    18
420
        0
176
     1
 90
       50
176
     1
 90
        3
176
     1
 62
     5
420
      255
176
     1
290
     0
176
     1
 90
       50
176
     1
 90
       50
176
     1
 90
       50
176
     1
290
     0
176
     1
 90
       50
176
     1
 62
   256
176
     0
 40
1.0
176
     0
 90
        2
176
     1
  1
strokes_ogs.tif
176
     1
290
     0
176
     1
 40
1.0
176
     1
 40
1.0
176
     1
  0
VISUALSTYLE
  5
3B
102
{ACAD_REACTORS
330
2A
102
}
330
2A
100
AcDbVisualStyle
  2
JitterOff
 70
    20
177
     3
291
     1
 70
    58
 90
        2
176
     0
 90
        2
176
     0
 90
        0
176
     0
 90
        0
176
     0
 40
0.6
176
     0
 40
30.0
176
     0
 62
     7
420
 16777215
176
     0
 90
        1
176
     0
 90
        4
176
     0
 62
     7
176
     0
 62
   257
176
     0
 90
        1
176
     0
 90
        1
176
     0
 40
1.0
176
     0
 90
       10
176
     2
 62
     7
176
     0
 40
1.0
176
     0
 90
        1
176
     0
 90
        6
176
     0
 90
        2
176
     0
 62
     7
176
     0
 90
        5
176
     0
 90
        0
176
     0
 90
        0
176
     0
290
     0
176
     0
 90
        1
176
     0
 40
0.0
176
     0
 90
        0
176
     0
290
     0
176
     0
290
     1
176
     0
290
     1
176
     0
290
     0
176
     0
290
     0
176
     0
290
     0
176
     0
290
     0
176
     0
290
     0
176
     0
290
     0
176
     0
 90
       50
176
     0
 40
0.0
176
     0
 40
1.0
176
     0
 90
        0
176
     0
 62
    18
420
        0
176
     0
 90
       50
176
     0
 90
        3
176
     0
 62
     5
420
      255
176
     0
290
     0
176
     0
 90
       50
176
     0
 90
       50
176
     0
 90
       50
176
     0
290
     0
176
     0
 90
       50
176
     0
 62
   256
176
     0
 40
1.0
176
     0
 90
        2
176
     0
  1
strokes_ogs.tif
176
     0
290
     0
176
     0
 40
1.0
176
     0
 40
1.0
176
     0
  0
VISUALSTYLE
  5
38
102
{ACAD_REACTORS
330
2A
102
}
330
2A
100
AcDbVisualStyle
  2
Linepattern
 70
    14
177
     3
291
     1
 70
    58
 90
        2
176
     1
 90
        2
176
     1
 90
        0
176
     1
 90
        0
176
     1
 40
0.6
176
     1
 40
30.0
176
     1
 62
     7
420
 16777215
176
     1
 90
        1
176
     1
 90
        4
176
     1
 62
     7
176
     1
 62
   257
176
     1
 90
        7
176
     1
 90
        7
176
     1
 40
1.0
176
     1
 90
        8
176
     1
 62
     7
176
     1
 40
1.0
176
     1
 90
        1
176
     1
 90
        6
176
     1
 90
        2
176
     1
 62
     7
176
     1
 90
        5
176
     1
 90
        0
176
     1
 90
        0
176
     1
290
     0
176
     1
 90
        1
176
     1
 40
0.0
176
     1
 90
        0
176
     1
290
     0
176
     1
290
     1
176
     1
290
     1
176
     1
290
     0
176
     1
290
     0
176
     1
290
     0
176
     1
290
     0
176
     1
290
     0
176
     1
290
     0
176
     1
 90
       50
176
     1
 40
0.0
176
     1
 40
1.0
176
     1
 90
        0
176
     1
 62
    18
420
        0
176
     1
 90
       50
176
     1
 90
        3
176
     1
 62
     5
420
      255
176
     1
290
     0
176
     1
 90
       50
176
     1
 90
       50
176
     1
 90
       50
176
     1
290
     0
176
     1
 90
       50
176
     1
 62
   256
176
     0
 40
1.0
176
     0
 90
        2
176
     1
  1
strokes_ogs.tif
176
     1
290
     0
176
     1
 40
1.0
176
     1
 40
1.0
176
     1
  0
VISUALSTYLE
  5
3C
102
{ACAD_REACTORS
330
2A
102
}
330
2A
100
AcDbVisualStyle
  2
OverhangOff
 70
    21
177
     3
291
     1
 70
    58
 90
        2
176
     0
 90
        2
176
     0
 90
        0
176
     0
 90
        0
176
     0
 40
0.6
176
     0
 40
30.0
176
     0
 62
     7
420
 16777215
176
     0
 90
        1
176
     0
 90
        4
176
     0
 62
     7
176
     0
 62
   257
176
     0
 90
        1
176
     0
 90
        1
176
     0
 40
1.0
176
     0
 90
        9
176
     2
 62
     7
176
     0
 40
1.0
176
     0
 90
        1
176
     0
 90
        6
176
     0
 90
        2
176
     0
 62
     7
176
     0
 90
        5
176
     0
 90
        0
176
     0
 90
        0
176
     0
290
     0
176
     0
 90
        1
176
     0
 40
0.0
176
     0
 90
        0
176
     0
290
     0
176
     0
290
     1
176
     0
290
     1
176
     0
290
     0
176
     0
290
     0
176
     0
290
     0
176
     0
290
     0
176
     0
290
     0
176
     0
290
     0
176
     0
 90
       50
176
     0
 40
0.0
176
     0
 40
1.0
176
     0
 90
        0
176
     0
 62
    18
420
        0
176
     0
 90
       50
176
     0
 90
        3
176
     0
 62
     5
420
      255
176
     0
290
     0
176
     0
 90
       50
176
     0
 90
       50
176
     0
 90
       50
176
     0
290
     0
176
     0
 90
       50
176
     0
 62
   256
176
     0
 40
1.0
176
     0
 90
        2
176
     0
  1
strokes_ogs.tif
176
     0
290
     0
176
     0
 40
1.0
176
     0
 40
1.0
176
     0
  0
VISUALSTYLE
  5
33
102
{ACAD_REACTORS
330
2A
102
}
330
2A
100
AcDbVisualStyle
  2
Realistic
 70
     8
177
     3
291
     0
 70
    58
 90
        2
176
     1
 90
        3
176
     1
 90
        0
176
     1
 90
        2
176
     1
 40
0.6
176
     1
 40
30.0
176
     1
 62
     7
420
 16777215
176
     1
 90
        0
176
     1
 90
        0
176
     1
 62
     7
176
     1
 62
   257
176
     1
 90
        1
176
     1
 90
        1
176
     1
 40
1.0
176
     1
 90
        8
176
     1
 62
   257
176
     1
 40
1.0
176
     1
 90
        1
176
     1
 90
        6
176
     1
 90
        2
176
     1
 62
     7
176
     1
 90
        3
176
     1
 90
        0
176
     1
 90
        0
176
     1
290
     0
176
     1
 90
       13
176
     1
 40
0.0
176
     1
 90
        0
176
     1
290
     0
176
     1
290
     1
176
     1
290
     1
176
     1
290
     0
176
     1
290
     0
176
     1
290
     0
176
     1
290
     0
176
     1
290
     0
176
     1
290
     0
176
     1
 90
       50
176
     1
 40
0.0
176
     1
 40
1.0
176
     1
 90
        0
176
     1
 62
    18
420
        0
176
     1
 90
       50
176
     1
 90
        3
176
     1
 62
     5
420
      255
176
     1
290
     0
176
     1
 90
       50
176
     1
 90
       50
176
     1
 90
       50
176
     1
290
     0
176
     1
 90
       50
176
     1
 62
   256
176
     0
 40
1.0
176
     0
 90
        2
176
     1
  1
strokes_ogs.tif
176
     1
290
     0
176
     1
 40
1.0
176
     1
 40
1.0
176
     1
  0
VISUALSTYLE
  5
42
102
{ACAD_REACTORS
330
2A
102
}
330
2A
100
AcDbVisualStyle
  2
Shaded
 70
    27
177
     3
291
     0
 70
    58
 90
        2
176
     1
 90
        2
176
     1
 90
        1
176
     1
 90
        2
176
     1
 40
0.6
176
     1
 40
30.0
176
     1
 62
     7
420
 16777215
176
     1
 90
        0
176
     1
 90
        4
176
     1
 62
     7
176
     1
 62
   257
176
     1
 90
        1
176
     1
 90
        1
176
     1
 40
1.0
176
     1
 90
        8
176
     1
 62
   257
176
     1
 40
1.0
176
     1
 90
        1
176
     1
 90
        6
176
     1
 90
        2
176
     1
 62
     8
420
  7895160
176
     1
 90
        3
176
     1
 90
        0
176
     1
 90
        0
176
     1
290
     0
176
     1
 90
        5
176
     1
 40
0.0
176
     1
 90
        0
176
     1
290
     0
176
     1
290
     1
176
     1
290
     1
176
     1
290
     0
176
     1
290
     0
176
     1
290
     0
176
     1
290
     0
176
     1
290
     0
176
     1
290
     0
176
     1
 90
       50
176
     1
 40
0.0
176
     1
 40
1.0
176
     1
 90
        0
176
     1
 62
    18
420
        0
176
     1
 90
       50
176
     1
 90
        3
176
     1
 62
     5
420
      255
176
     1
290
     0
176
     1
 90
       50
176
     1
 90
       50
176
     1
 90
       50
176
     1
290
     0
176
     1
 90
       50
176
     1
 62
   256
176
     0
 40
1.0
176
     0
 90
        2
176
     1
  1
strokes_ogs.tif
176
     1
290
     0
176
     1
 40
1.0
176
     1
 40
1.0
176
     1
  0
VISUALSTYLE
  5
41
102
{ACAD_REACTORS
330
2A
102
}
330
2A
100
AcDbVisualStyle
  2
Shaded with edges
 70
    26
177
     3
291
     0
 70
    58
 90
        2
176
     1
 90
        2
176
     1
 90
        1
176
     1
 90
        2
176
     1
 40
0.6
176
     1
 40
30.0
176
     1
 62
     7
420
 16777215
176
     1
 90
        1
176
     1
 90
       10
176
     1
 62
     7
176
     1
 62
   257
176
     1
 90
        2
176
     1
 90
        1
176
     1
 40
1.0
176
     1
 90
        8
176
     1
 62
   257
176
     1
 40
1.0
176
     1
 90
        1
176
     1
 90
        6
176
     1
 90
        2
176
     1
 62
     7
176
     1
 90
        3
176
     1
 90
        0
176
     1
 90
        0
176
     1
290
     0
176
     1
 90
        5
176
     1
 40
0.0
176
     1
 90
        0
176
     1
290
     0
176
     1
290
     1
176
     1
290
     1
176
     1
290
     0
176
     1
290
     0
176
     1
290
     0
176
     1
290
     0
176
     1
290
     0
176
     1
290
     0
176
     1
 90
       50
176
     1
 40
0.0
176
     1
 40
1.0
176
     1
 90
        0
176
     1
 62
    18
420
        0
176
     1
 90
       50
176
     1
 90
        3
176
     1
 62
     5
420
      255
176
     1
290
     0
176
     1
 90
       50
176
     1
 90
       50
176
     1
 90
       50
176
     1
290
     0
176
     1
 90
       50
176
     1
 62
   256
176
     0
 40
1.0
176
     0
 90
        2
176
     1
  1
strokes_ogs.tif
176
     1
290
     0
176
     1
 40
1.0
176
     1
 40
1.0
176
     1
  0
VISUALSTYLE
  5
3E
102
{ACAD_REACTORS
330
2A
102
}
330
2A
100
AcDbVisualStyle
  2
Shades of Gray
 70
    23
177
     3
291
     0
 70
    58
 90
        2
176
     1
 90
        2
176
     1
 90
        3
176
     1
 90
        0
176
     1
 40
0.6
176
     1
 40
30.0
176
     1
 62
     7
420
 16777215
176
     1
 90
        2
176
     1
 90
        2
176
     1
 62
     7
176
     1
 62
     7
176
     1
 90
        1
176
     1
 90
        1
176
     1
 40
40.0
176
     1
 90
        8
176
     1
 62
     7
176
     1
 40
1.0
176
     1
 90
        1
176
     1
 90
        6
176
     1
 90
        2
176
     1
 62
     7
176
     1
 90
        3
176
     1
 90
        0
176
     1
 90
        0
176
     1
290
     0
176
     1
 90
        1
176
     1
 40
0.0
176
     1
 90
        0
176
     1
290
     0
176
     1
290
     1
176
     1
290
     1
176
     1
290
     0
176
     1
290
     0
176
     1
290
     0
176
     1
290
     0
176
     1
290
     0
176
     1
290
     0
176
     1
 90
       50
176
     1
 40
0.0
176
     1
 40
1.0
176
     1
 90
        0
176
     1
 62
    18
420
        0
176
     1
 90
       50
176
     1
 90
        3
176
     1
 62
     5
420
      255
176
     1
290
     0
176
     1
 90
       50
176
     1
 90
       50
176
     1
 90
       50
176
     1
290
     0
176
     1
 90
       50
176
     1
 62
   256
176
     0
 40
1.0
176
     0
 90
        2
176
     1
  1
strokes_ogs.tif
176
     1
290
     0
176
     1
 40
1.0
176
     1
 40
1.0
176
     1
  0
VISUALSTYLE
  5
3F
102
{ACAD_REACTORS
330
2A
102
}
330
2A
100
AcDbVisualStyle
  2
Sketchy
 70
    24
177
     3
291
     0
 70
    58
 90
        1
176
     1
 90
        2
176
     1
 90
        2
176
     1
 90
        0
176
     1
 40
0.6
176
     1
 40
30.0
176
     1
 62
     7
420
 16777215
176
     1
 90
        2
176
     1
 90
        2
176
     1
 62
     7
176
     1
 62
     7
176
     1
 90
        1
176
     1
 90
        1
176
     1
 40
40.0
176
     1
 90
       11
176
     1
 62
     7
176
     1
 40
1.0
176
     1
 90
        1
176
     1
 90
        6
176
     1
 90
        2
176
     1
 62
     7
176
     1
 90
        6
176
     1
 90
        0
176
     1
 90
        0
176
     1
290
     0
176
     1
 90
        1
176
     1
 40
0.0
176
     1
 90
        0
176
     1
290
     0
176
     1
290
     1
176
     1
290
     1
176
     1
290
     0
176
     1
290
     0
176
     1
290
     0
176
     1
290
     0
176
     1
290
     0
176
     1
290
     0
176
     1
 90
       50
176
     1
 40
0.0
176
     1
 40
1.0
176
     1
 90
        0
176
     1
 62
    18
420
        0
176
     1
 90
       50
176
     1
 90
        3
176
     1
 62
     5
420
      255
176
     1
290
     0
176
     1
 90
       50
176
     1
 90
       50
176
     1
 90
       50
176
     1
290
     0
176
     1
 90
       50
176
     1
 62
   256
176
     0
 40
1.0
176
     0
 90
        2
176
     1
  1
strokes_ogs.tif
176
     1
290
     0
176
     1
 40
1.0
176
     1
 40
1.0
176
     1
  0
VISUALSTYLE
  5
37
102
{ACAD_REACTORS
330
2A
102
}
330
2A
100
AcDbVisualStyle
  2
Thicken
 70
    13
177
     3
291
     1
 70
    58
 90
        2
176
     1
 90
        2
176
     1
 90
        0
176
     1
 90
        0
176
     1
 40
0.6
176
     1
 40
30.0
176
     1
 62
     7
420
 16777215
176
     1
 90
        1
176
     1
 90
        4
176
     1
 62
     7
176
     1
 62
   257
176
     1
 90
        1
176
     1
 90
        1
176
     1
 40
1.0
176
     1
 90
       12
176
     1
 62
     7
176
     1
 40
1.0
176
     1
 90
        1
176
     1
 90
        6
176
     1
 90
        2
176
     1
 62
     7
176
     1
 90
        5
176
     1
 90
        0
176
     1
 90
        0
176
     1
290
     0
176
     1
 90
        1
176
     1
 40
0.0
176
     1
 90
        0
176
     1
290
     0
176
     1
290
     1
176
     1
290
     1
176
     1
290
     0
176
     1
290
     0
176
     1
290
     0
176
     1
290
     0
176
     1
290
     0
176
     1
290
     0
176
     1
 90
       50
176
     1
 40
0.0
176
     1
 40
1.0
176
     1
 90
        0
176
     1
 62
    18
420
        0
176
     1
 90
       50
176
     1
 90
        3
176
     1
 62
     5
420
      255
176
     1
290
     0
176
     1
 90
       50
176
     1
 90
       50
176
     1
 90
       50
176
     1
290
     0
176
     1
 90
       50
176
     1
 62
   256
176
     0
 40
1.0
176
     0
 90
        2
176
     1
  1
strokes_ogs.tif
176
     1
290
     0
176
     1
 40
1.0
176
     1
 40
1.0
176
     1
  0
VISUALSTYLE
  5
30
102
{ACAD_REACTORS
330
2A
102
}
330
2A
100
AcDbVisualStyle
  2
Wireframe
 70
     5
177
     3
291
     0
 70
    58
 90
        0
176
     1
 90
        2
176
     1
 90
        0
176
     1
 90
        0
176
     1
 40
0.6
176
     1
 40
30.0
176
     1
 62
     7
420
 16777215
176
     1
 90
        1
176
     1
 90
        4
176
     1
 62
     7
176
     1
 62
   257
176
     1
 90
        1
176
     1
 90
        1
176
     1
 40
1.0
176
     1
 90
        0
176
     1
 62
   257
176
     1
 40
1.0
176
     1
 90
        1
176
     1
 90
        6
176
     1
 90
        2
176
     1
 62
     7
176
     1
 90
        3
176
     1
 90
        0
176
     1
 90
        0
176
     1
290
     0
176
     1
 90
        1
176
     1
 40
0.0
176
     1
 90
        0
176
     1
290
     0
176
     1
290
     1
176
     1
290
     1
176
     1
290
     0
176
     1
290
     0
176
     1
290
     0
176
     1
290
     0
176
     1
290
     0
176
     1
290
     0
176
     1
 90
       50
176
     1
 40
0.0
176
     1
 40
1.0
176
     1
 90
        0
176
     1
 62
    18
420
        0
176
     1
 90
       50
176
     1
 90
        3
176
     1
 62
     5
420
      255
176
     1
290
     0
176
     1
 90
       50
176
     1
 90
       50
176
     1
 90
       50
176
     1
290
     0
176
     1
 90
       50
176
     1
 62
   256
176
     0
 40
1.0
176
     0
 90
        2
176
     1
  1
strokes_ogs.tif
176
     1
290
     0
176
     1
 40
1.0
176
     1
 40
1.0
176
     1
  0
VISUALSTYLE
  5
40
102
{ACAD_REACTORS
330
2A
102
}
330
2A
100
AcDbVisualStyle
  2
X-Ray
 70
    25
177
     3
291
     0
 70
    58
 90
        2
176
     1
 90
        2
176
     1
 90
        1
176
     1
 90
        1
176
     1
 40
0.5
176
     1
 40
30.0
176
     1
 62
     7
420
 16777215
176
     1
 90
        1
176
     1
 90
        0
176
     1
 62
     7
176
     1
 62
   257
176
     1
 90
        1
176
     1
 90
        1
176
     1
 40
1.0
176
     1
 90
        8
176
     1
 62
     7
176
     1
 40
1.0
176
     1
 90
        1
176
     1
 90
        6
176
     1
 90
        2
176
     1
 62
     7
176
     1
 90
        3
176
     1
 90
        0
176
     1
 90
        0
176
     1
290
     0
176
     1
 90
       13
176
     1
 40
0.0
176
     1
 90
        0
176
     1
290
     0
176
     1
290
     1
176
     1
290
     1
176
     1
290
     0
176
     1
290
     0
176
     1
290
     0
176
     1
290
     0
176
     1
290
     0
176
     1
290
     0
176
     1
 90
       50
176
     1
 40
0.0
176
     1
 40
1.0
176
     1
 90
        0
176
     1
 62
    18
420
        0
176
     1
 90
       50
176
     1
 90
        3
176
     1
 62
     5
420
      255
176
     1
290
     0
176
     1
 90
       50
176
     1
 90
       50
176
     1
 90
       50
176
     1
290
     0
176
     1
 90
       50
176
     1
 62
   256
176
     0
 40
1.0
176
     0
 90
        2
176
     1
  1
strokes_ogs.tif
176
     1
290
     0
176
     1
 40
1.0
176
     1
 40
1.0
176
     1
  0
DICTIONARYVAR
  5
235
102
{ACAD_REACTORS
330
234
102
}
330
234
100
DictionaryVariables
280
     0
  1
1:1
  0
DICTIONARYVAR
  5
23A
102
{ACAD_REACTORS
330
234
102
}
330
234
100
DictionaryVariables
280
     0
  1
Standard
  0
DICTIONARYVAR
  5
239
102
{ACAD_REACTORS
330
234
102
}
330
234
100
DictionaryVariables
280
     0
  1
Standard
  0
DICTIONARY
  5
236
330
6A
100
AcDbDictionary
280
     1
281
     1
  3
ACAD_ROUNDTRIP_2008_TABLESTYLE_CELLSTYLEMAP
360
237
  0
CELLSTYLEMAP
  5
237
102
{ACAD_REACTORS
330
236
102
}
330
236
100
AcDbCellStyleMap
 90
        3
300
CELLSTYLE
  1
TABLEFORMAT_BEGIN
 90
        5
170
     1
 91
        0
 92
    32768
 62
   257
 93
        1
300
CONTENTFORMAT
  1
CONTENTFORMAT_BEGIN
 90
        0
 91
        0
 92
        4
 93
        0
300

 40
0.0
140
1.0
 94
        5
 62
     0
340
11
144
0.25
309
CONTENTFORMAT_END
171
     1
301
MARGIN
  1
CELLMARGIN_BEGIN
 40
0.06
 40
0.06
 40
0.06
 40
0.06
 40
0.06
 40
0.06
309
CELLMARGIN_END
 94
        6
 95
        1
302
GRIDFORMAT
  1
GRIDFORMAT_BEGIN
 90
        0
 91
        1
 62
     0
 92
       -2
340
14
 93
        0
 40
0.045
309
GRIDFORMAT_END
 95
        2
302
GRIDFORMAT
  1
GRIDFORMAT_BEGIN
 90
        0
 91
        1
 62
     0
 92
       -2
340
14
 93
        0
 40
0.045
309
GRIDFORMAT_END
 95
        4
302
GRIDFORMAT
  1
GRIDFORMAT_BEGIN
 90
        0
 91
        1
 62
     0
 92
       -2
340
14
 93
        0
 40
0.045
309
GRIDFORMAT_END
 95
        8
302
GRIDFORMAT
  1
GRIDFORMAT_BEGIN
 90
        0
 91
        1
 62
     0
 92
       -2
340
14
 93
        0
 40
0.045
309
GRIDFORMAT_END
 95
       16
302
GRIDFORMAT
  1
GRIDFORMAT_BEGIN
 90
        0
 91
        1
 62
     0
 92
       -2
340
14
 93
        0
 40
0.045
309
GRIDFORMAT_END
 95
       32
302
GRIDFORMAT
  1
GRIDFORMAT_BEGIN
 90
        0
 91
        1
 62
     0
 92
       -2
340
14
 93
        0
 40
0.045
309
GRIDFORMAT_END
309
TABLEFORMAT_END
  1
CELLSTYLE_BEGIN
 90
        1
 91
        1
300
_TITLE
309
CELLSTYLE_END
300
CELLSTYLE
  1
TABLEFORMAT_BEGIN
 90
        5
170
     1
 91
        0
 92
        0
 62
   257
 93
        1
300
CONTENTFORMAT
  1
CONTENTFORMAT_BEGIN
 90
        0
 91
        0
 92
        4
 93
        0
300

 40
0.0
140
1.0
 94
        5
 62
     0
340
11
144
0.18
309
CONTENTFORMAT_END
171
     1
301
MARGIN
  1
CELLMARGIN_BEGIN
 40
0.06
 40
0.06
 40
0.06
 40
0.06
 40
0.06
 40
0.06
309
CELLMARGIN_END
 94
        6
 95
        1
302
GRIDFORMAT
  1
GRIDFORMAT_BEGIN
 90
        0
 91
        1
 62
     0
 92
       -2
340
14
 93
        0
 40
0.045
309
GRIDFORMAT_END
 95
        2
302
GRIDFORMAT
  1
GRIDFORMAT_BEGIN
 90
        0
 91
        1
 62
     0
 92
       -2
340
14
 93
        0
 40
0.045
309
GRIDFORMAT_END
 95
        4
302
GRIDFORMAT
  1
GRIDFORMAT_BEGIN
 90
        0
 91
        1
 62
     0
 92
       -2
340
14
 93
        0
 40
0.045
309
GRIDFORMAT_END
 95
        8
302
GRIDFORMAT
  1
GRIDFORMAT_BEGIN
 90
        0
 91
        1
 62
     0
 92
       -2
340
14
 93
        0
 40
0.045
309
GRIDFORMAT_END
 95
       16
302
GRIDFORMAT
  1
GRIDFORMAT_BEGIN
 90
        0
 91
        1
 62
     0
 92
       -2
340
14
 93
        0
 40
0.045
309
GRIDFORMAT_END
 95
       32
302
GRIDFORMAT
  1
GRIDFORMAT_BEGIN
 90
        0
 91
        1
 62
     0
 92
       -2
340
14
 93
        0
 40
0.045
309
GRIDFORMAT_END
309
TABLEFORMAT_END
  1
CELLSTYLE_BEGIN
 90
        2
 91
        1
300
_HEADER
309
CELLSTYLE_END
300
CELLSTYLE
  1
TABLEFORMAT_BEGIN
 90
        5
170
     1
 91
        0
 92
        0
 62
   257
 93
        1
300
CONTENTFORMAT
  1
CONTENTFORMAT_BEGIN
 90
        0
 91
        0
 92
        4
 93
        0
300

 40
0.0
140
1.0
 94
        2
 62
     0
340
11
144
0.18
309
CONTENTFORMAT_END
171
     1
301
MARGIN
  1
CELLMARGIN_BEGIN
 40
0.06
 40
0.06
 40
0.06
 40
0.06
 40
0.06
 40
0.06
309
CELLMARGIN_END
 94
        6
 95
        1
302
GRIDFORMAT
  1
GRIDFORMAT_BEGIN
 90
        0
 91
        1
 62
     0
 92
       -2
340
14
 93
        0
 40
0.045
309
GRIDFORMAT_END
 95
        2
302
GRIDFORMAT
  1
GRIDFORMAT_BEGIN
 90
        0
 91
        1
 62
     0
 92
       -2
340
14
 93
        0
 40
0.045
309
GRIDFORMAT_END
 95
        4
302
GRIDFORMAT
  1
GRIDFORMAT_BEGIN
 90
        0
 91
        1
 62
     0
 92
       -2
340
14
 93
        0
 40
0.045
309
GRIDFORMAT_END
 95
        8
302
GRIDFORMAT
  1
GRIDFORMAT_BEGIN
 90
        0
 91
        1
 62
     0
 92
       -2
340
14
 93
        0
 40
0.045
309
GRIDFORMAT_END
 95
       16
302
GRIDFORMAT
  1
GRIDFORMAT_BEGIN
 90
        0
 91
        1
 62
     0
 92
       -2
340
14
 93
        0
 40
0.045
309
GRIDFORMAT_END
 95
       32
302
GRIDFORMAT
  1
GRIDFORMAT_BEGIN
 90
        0
 91
        1
 62
     0
 92
       -2
340
14
 93
        0
 40
0.045
309
GRIDFORMAT_END
309
TABLEFORMAT_END
  1
CELLSTYLE_BEGIN
 90
        3
 91
        2
300
_DATA
309
CELLSTYLE_END
  0
ENDSEC
  0
EOF