0
SECTION
  2
HEADER
  9
$ACADVER
  1
AC1027
  9
$ACADMAINTVER
 70
     8
  9
$DWGCODEPAGE
  3
ANSI_1252
  9
$REQUIREDVERSIONS
160
                 0
  9
$COMMENTS
  1
File was created by Cadenas
  9
$CUSTOMPROPERTYTAG
  1
NN
  9
$CUSTOMPROPERTY
  1
Imperial -IP Pillow Block 1-1/8 thru 2-1/4  2-Bolt Inch Bore (Contact Seal)
  9
$CUSTOMPROPERTYTAG
  1
NT
  9
$CUSTOMPROPERTY
  1
Imperial 2 Bolt Piliow Block Bearings
  9
$CUSTOMPROPERTYTAG
  1
NB
  9
$CUSTOMPROPERTY
  1
069421
  9
$CUSTOMPROPERTYTAG
  1
NBSYN
  9
$CUSTOMPROPERTY
  1
$PN.
  9
$CUSTOMPROPERTYTAG
  1
LINA
  9
$CUSTOMPROPERTY
  1
069421
  9
$CUSTOMPROPERTYTAG
  1
SS
  9
$CUSTOMPROPERTY
  1
3-3/16
  9
$CUSTOMPROPERTYTAG
  1
PN
  9
$CUSTOMPROPERTY
  1
069421
  9
$CUSTOMPROPERTYTAG
  1
DESCRIPTION
  9
$CUSTOMPROPERTY
  1
P2B-IP-303R
  9
$CUSTOMPROPERTYTAG
  1
EF
  9
$CUSTOMPROPERTY
  1
Non-Expansion Type
  9
$CUSTOMPROPERTYTAG
  1
ST
  9
$CUSTOMPROPERTY
  1
Contact  Seal
  9
$CUSTOMPROPERTYTAG
  1
A
  9
$CUSTOMPROPERTY
  1
4-11/64
  9
$CUSTOMPROPERTYTAG
  1
B
  9
$CUSTOMPROPERTY
  1
13
  9
$CUSTOMPROPERTYTAG
  1
C
  9
$CUSTOMPROPERTY
  1
3-27/64
  9
$CUSTOMPROPERTYTAG
  1
DMIN
  9
$CUSTOMPROPERTY
  1
9-3/8
  9
$CUSTOMPROPERTYTAG
  1
DMAX
  9
$CUSTOMPROPERTY
  1
10-5/8
  9
$CUSTOMPROPERTYTAG
  1
F
  9
$CUSTOMPROPERTY
  1
7/8
  9
$CUSTOMPROPERTYTAG
  1
G
  9
$CUSTOMPROPERTY
  1
1-5/8
  9
$CUSTOMPROPERTYTAG
  1
H
  9
$CUSTOMPROPERTY
  1
2-1/4
  9
$CUSTOMPROPERTYTAG
  1
J
  9
$CUSTOMPROPERTY
  1
7-1/2
  9
$CUSTOMPROPERTYTAG
  1
L
  9
$CUSTOMPROPERTY
  1
5
  9
$CUSTOMPROPERTYTAG
  1
M
  9
$CUSTOMPROPERTY
  1
3-3/4
  9
$CUSTOMPROPERTYTAG
  1
R
  9
$CUSTOMPROPERTY
  1
1-31/64
  9
$CUSTOMPROPERTYTAG
  1
S
  9
$CUSTOMPROPERTY
  1
2-11/16
  9
$CUSTOMPROPERTYTAG
  1
X
  9
$CUSTOMPROPERTY
  1
1/4
  9
$CUSTOMPROPERTYTAG
  1
Y
  9
$CUSTOMPROPERTY
  1
0.025
  9
$CUSTOMPROPERTYTAG
  1
Z
  9
$CUSTOMPROPERTY
  1
4-3/64
  9
$CUSTOMPROPERTYTAG
  1
COMPANY
  9
$CUSTOMPROPERTY
  1
baldor
  9
$INSBASE
 10
0.0
 20
0.0
 30
0.0
  9
$EXTMIN
 10
1.000000000000000E+20
 20
1.000000000000000E+20
 30
1.000000000000000E+20
  9
$EXTMAX
 10
-1.000000000000000E+20
 20
-1.000000000000000E+20
 30
-1.000000000000000E+20
  9
$LIMMIN
 10
0.0
 20
0.0
  9
$LIMMAX
 10
12.0
 20
9.0
  9
$ORTHOMODE
 70
     0
  9
$REGENMODE
 70
     1
  9
$FILLMODE
 70
     1
  9
$QTEXTMODE
 70
     0
  9
$MIRRTEXT
 70
     1
  9
$LTSCALE
 40
1.0
  9
$ATTMODE
 70
     1
  9
$TEXTSIZE
 40
0.2
  9
$TRACEWID
 40
0.05
  9
$TEXTSTYLE
  7
Standard
  9
$CLAYER
  8
0
  9
$CELTYPE
  6
ByLayer
  9
$CECOLOR
 62
   256
  9
$CELTSCALE
 40
1.0
  9
$DISPSILH
 70
     0
  9
$DIMSCALE
 40
1.0
  9
$DIMASZ
 40
0.18
  9
$DIMEXO
 40
0.0625
  9
$DIMDLI
 40
0.38
  9
$DIMRND
 40
0.0
  9
$DIMDLE
 40
0.0
  9
$DIMEXE
 40
0.18
  9
$DIMTP
 40
0.0
  9
$DIMTM
 40
0.0
  9
$DIMTXT
 40
0.18
  9
$DIMCEN
 40
0.09
  9
$DIMTSZ
 40
0.0
  9
$DIMTOL
 70
     0
  9
$DIMLIM
 70
     0
  9
$DIMTIH
 70
     1
  9
$DIMTOH
 70
     1
  9
$DIMSE1
 70
     0
  9
$DIMSE2
 70
     0
  9
$DIMTAD
 70
     0
  9
$DIMZIN
 70
     0
  9
$DIMBLK
  1

  9
$DIMASO
 70
     1
  9
$DIMSHO
 70
     1
  9
$DIMPOST
  1

  9
$DIMAPOST
  1

  9
$DIMALT
 70
     0
  9
$DIMALTD
 70
     2
  9
$DIMALTF
 40
25.4
  9
$DIMLFAC
 40
1.0
  9
$DIMTOFL
 70
     0
  9
$DIMTVP
 40
0.0
  9
$DIMTIX
 70
     0
  9
$DIMSOXD
 70
     0
  9
$DIMSAH
 70
     0
  9
$DIMBLK1
  1

  9
$DIMBLK2
  1

  9
$DIMSTYLE
  2
Standard
  9
$DIMCLRD
 70
     0
  9
$DIMCLRE
 70
     0
  9
$DIMCLRT
 70
     0
  9
$DIMTFAC
 40
1.0
  9
$DIMGAP
 40
0.09
  9
$DIMJUST
 70
     0
  9
$DIMSD1
 70
     0
  9
$DIMSD2
 70
     0
  9
$DIMTOLJ
 70
     1
  9
$DIMTZIN
 70
     0
  9
$DIMALTZ
 70
     0
  9
$DIMALTTZ
 70
     0
  9
$DIMUPT
 70
     0
  9
$DIMDEC
 70
     4
  9
$DIMTDEC
 70
     4
  9
$DIMALTU
 70
     2
  9
$DIMALTTD
 70
     2
  9
$DIMTXSTY
  7
Standard
  9
$DIMAUNIT
 70
     0
  9
$DIMADEC
 70
     0
  9
$DIMALTRND
 40
0.0
  9
$DIMAZIN
 70
     0
  9
$DIMDSEP
 70
    46
  9
$DIMATFIT
 70
     3
  9
$DIMFRAC
 70
     0
  9
$DIMLDRBLK
  1

  9
$DIMLUNIT
 70
     2
  9
$DIMLWD
 70
    -2
  9
$DIMLWE
 70
    -2
  9
$DIMTMOVE
 70
     0
  9
$DIMFXL
 40
1.0
  9
$DIMFXLON
 70
     0
  9
$DIMJOGANG
 40
0.7853981633974483
  9
$DIMTFILL
 70
     0
  9
$DIMTFILLCLR
 70
     0
  9
$DIMARCSYM
 70
     0
  9
$DIMLTYPE
  6

  9
$DIMLTEX1
  6

  9
$DIMLTEX2
  6

  9
$DIMTXTDIRECTION
 70
     0
  9
$LUNITS
 70
     2
  9
$LUPREC
 70
     4
  9
$SKETCHINC
 40
0.1
  9
$FILLETRAD
 40
0.5
  9
$AUNITS
 70
     0
  9
$AUPREC
 70
     0
  9
$MENU
  1
.
  9
$ELEVATION
 40
0.0
  9
$PELEVATION
 40
0.0
  9
$THICKNESS
 40
0.0
  9
$LIMCHECK
 70
     0
  9
$CHAMFERA
 40
0.0
  9
$CHAMFERB
 40
0.0
  9
$CHAMFERC
 40
0.0
  9
$CHAMFERD
 40
0.0
  9
$SKPOLY
 70
     0
  9
$TDCREATE
 40
2458168.988865926
  9
$TDUCREATE
 40
2458168.947199259
  9
$TDUPDATE
 40
2458168.988865926
  9
$TDUUPDATE
 40
2458168.947199259
  9
$TDINDWG
 40
0.0000000116
  9
$TDUSRTIMER
 40
0.0000000116
  9
$USRTIMER
 70
     1
  9
$ANGBASE
 50
0.0
  9
$ANGDIR
 70
     0
  9
$PDMODE
 70
     0
  9
$PDSIZE
 40
0.0
  9
$PLINEWID
 40
0.0
  9
$SPLFRAME
 70
     0
  9
$SPLINETYPE
 70
     6
  9
$SPLINESEGS
 70
     8
  9
$HANDSEED
  5
240
  9
$SURFTAB1
 70
     6
  9
$SURFTAB2
 70
     6
  9
$SURFTYPE
 70
     6
  9
$SURFU
 70
     6
  9
$SURFV
 70
     6
  9
$UCSBASE
  2

  9
$UCSNAME
  2

  9
$UCSORG
 10
0.0
 20
0.0
 30
0.0
  9
$UCSXDIR
 10
1.0
 20
0.0
 30
0.0
  9
$UCSYDIR
 10
0.0
 20
1.0
 30
0.0
  9
$UCSORTHOREF
  2

  9
$UCSORTHOVIEW
 70
     0
  9
$UCSORGTOP
 10
0.0
 20
0.0
 30
0.0
  9
$UCSORGBOTTOM
 10
0.0
 20
0.0
 30
0.0
  9
$UCSORGLEFT
 10
0.0
 20
0.0
 30
0.0
  9
$UCSORGRIGHT
 10
0.0
 20
0.0
 30
0.0
  9
$UCSORGFRONT
 10
0.0
 20
0.0
 30
0.0
  9
$UCSORGBACK
 10
0.0
 20
0.0
 30
0.0
  9
$PUCSBASE
  2

  9
$PUCSNAME
  2

  9
$PUCSORG
 10
0.0
 20
0.0
 30
0.0
  9
$PUCSXDIR
 10
1.0
 20
0.0
 30
0.0
  9
$PUCSYDIR
 10
0.0
 20
1.0
 30
0.0
  9
$PUCSORTHOREF
  2

  9
$PUCSORTHOVIEW
 70
     0
  9
$PUCSORGTOP
 10
0.0
 20
0.0
 30
0.0
  9
$PUCSORGBOTTOM
 10
0.0
 20
0.0
 30
0.0
  9
$PUCSORGLEFT
 10
0.0
 20
0.0
 30
0.0
  9
$PUCSORGRIGHT
 10
0.0
 20
0.0
 30
0.0
  9
$PUCSORGFRONT
 10
0.0
 20
0.0
 30
0.0
  9
$PUCSORGBACK
 10
0.0
 20
0.0
 30
0.0
  9
$USERI1
 70
     0
  9
$USERI2
 70
     0
  9
$USERI3
 70
     0
  9
$USERI4
 70
     0
  9
$USERI5
 70
     0
  9
$USERR1
 40
0.0
  9
$USERR2
 40
0.0
  9
$USERR3
 40
0.0
  9
$USERR4
 40
0.0
  9
$USERR5
 40
0.0
  9
$WORLDVIEW
 70
     1
  9
$SHADEDGE
 70
     3
  9
$SHADEDIF
 70
    70
  9
$TILEMODE
 70
     1
  9
$MAXACTVP
 70
    64
  9
$PINSBASE
 10
0.0
 20
0.0
 30
0.0
  9
$PLIMCHECK
 70
     0
  9
$PEXTMIN
 10
1.000000000000000E+20
 20
1.000000000000000E+20
 30
1.000000000000000E+20
  9
$PEXTMAX
 10
-1.000000000000000E+20
 20
-1.000000000000000E+20
 30
-1.000000000000000E+20
  9
$PLIMMIN
 10
0.0
 20
0.0
  9
$PLIMMAX
 10
12.0
 20
9.0
  9
$UNITMODE
 70
     0
  9
$VISRETAIN
 70
     1
  9
$PLINEGEN
 70
     0
  9
$PSLTSCALE
 70
     1
  9
$TREEDEPTH
 70
  3020
  9
$CMLSTYLE
  2
Standard
  9
$CMLJUST
 70
     0
  9
$CMLSCALE
 40
1.0
  9
$PROXYGRAPHICS
 70
     1
  9
$MEASUREMENT
 70
     0
  9
$CELWEIGHT
370
    -1
  9
$ENDCAPS
280
     0
  9
$JOINSTYLE
280
     0
  9
$LWDISPLAY
290
     0
  9
$INSUNITS
 70
     1
  9
$HYPERLINKBASE
  1

  9
$STYLESHEET
  1

  9
$XEDIT
290
     1
  9
$CEPSNTYPE
380
     0
  9
$PSTYLEMODE
290
     1
  9
$FINGERPRINTGUID
  2
{2915040E-18CC-4CDD-A78B-C6E575E32982}
  9
$VERSIONGUID
  2
{FAEB1C32-E019-11D5-929B-00C0DF256EC4}
  9
$EXTNAMES
290
     1
  9
$PSVPSCALE
 40
0.0
  9
$OLESTARTUP
290
     0
  9
$SORTENTS
280
   127
  9
$INDEXCTL
280
     0
  9
$HIDETEXT
280
     1
  9
$XCLIPFRAME
280
     2
  9
$HALOGAP
280
     0
  9
$OBSCOLOR
 70
   257
  9
$OBSLTYPE
280
     0
  9
$INTERSECTIONDISPLAY
280
     0
  9
$INTERSECTIONCOLOR
 70
   257
  9
$DIMASSOC
280
     2
  9
$PROJECTNAME
  1

  9
$CAMERADISPLAY
290
     0
  9
$LENSLENGTH
 40
50.0
  9
$CAMERAHEIGHT
 40
0.0
  9
$STEPSPERSEC
 40
2.0
  9
$STEPSIZE
 40
6.0
  9
$3DDWFPREC
 40
2.0
  9
$PSOLWIDTH
 40
0.25
  9
$PSOLHEIGHT
 40
4.0
  9
$LOFTANG1
 40
1.570796326794897
  9
$LOFTANG2
 40
1.570796326794897
  9
$LOFTMAG1
 40
0.0
  9
$LOFTMAG2
 40
0.0
  9
$LOFTPARAM
 70
     7
  9
$LOFTNORMALS
280
     1
  9
$LATITUDE
 40
37.795
  9
$LONGITUDE
 40
-122.394
  9
$NORTHDIRECTION
 40
0.0
  9
$TIMEZONE
 70
 -8000
  9
$LIGHTGLYPHDISPLAY
280
     1
  9
$TILEMODELIGHTSYNCH
280
     1
  9
$CMATERIAL
347
44
  9
$SOLIDHIST
280
     0
  9
$SHOWHIST
280
     1
  9
$DWFFRAME
280
     2
  9
$DGNFRAME
280
     2
  9
$REALWORLDSCALE
290
     1
  9
$INTERFERECOLOR
 62
   256
  9
$CSHADOW
280
     0
  9
$SHADOWPLANELOCATION
 40
0.0
  0
ENDSEC
  0
SECTION
  2
CLASSES
  0
CLASS
  1
ACDBDICTIONARYWDFLT
  2
AcDbDictionaryWithDefault
  3
ObjectDBX Classes
 90
        0
 91
        4
280
     0
281
     0
  0
CLASS
  1
VISUALSTYLE
  2
AcDbVisualStyle
  3
ObjectDBX Classes
 90
     4095
 91
        4
280
     0
281
     0
  0
CLASS
  1
MATERIAL
  2
AcDbMaterial
  3
ObjectDBX Classes
 90
     1153
 91
        4
280
     0
281
     0
  0
CLASS
  1
SCALE
  2
AcDbScale
  3
ObjectDBX Classes
 90
     1153
 91
        4
280
     0
281
     0
  0
CLASS
  1
TABLESTYLE
  2
AcDbTableStyle
  3
ObjectDBX Classes
 90
     4095
 91
        4
280
     0
281
     0
  0
CLASS
  1
MLEADERSTYLE
  2
AcDbMLeaderStyle
  3
ACDB_MLEADERSTYLE_CLASS
 90
     4095
 91
        4
280
     0
281
     0
  0
CLASS
  1
SUN
  2
AcDbSun
  3
SCENEOE
 90
     1153
 91
        4
280
     0
281
     0
  0
CLASS
  1
DICTIONARYVAR
  2
AcDbDictionaryVar
  3
ObjectDBX Classes
 90
        0
 91
        4
280
     0
281
     0
  0
CLASS
  1
CELLSTYLEMAP
  2
AcDbCellStyleMap
  3
ObjectDBX Classes
 90
     1152
 91
        4
280
     0
281
     0
  0
ENDSEC
  0
SECTION
  2
TABLES
  0
TABLE
  2
VPORT
  5
8
330
0
100
AcDbSymbolTable
 70
     1
  0
VPORT
  5
29
330
8
100
AcDbSymbolTableRecord
100
AcDbViewportTableRecord
  2
*Active
 70
     0
 10
0.0
 20
0.0
 11
1.0
 21
1.0
 12
0.0
 22
-0.5076562500000001
 13
0.0
 23
0.0
 14
0.5
 24
0.5
 15
0.5
 25
0.5
 16
0.0
 26
0.0
 36
1.0
 17
0.0
 27
0.0
 37
0.0
 40
4.874962500000001
 41
2.72002092323787
 42
50.0
 43
0.0
 44
0.0
 50
0.0
 51
0.0
 71
     0
 72
   100
 73
     1
 74
     3
 75
     0
 76
     0
 77
     0
 78
     0
281
     0
 65
     1
110
0.0
120
0.0
130
0.0
111
1.0
121
0.0
131
0.0
112
0.0
122
1.0
132
0.0
 79
     0
146
0.0
348
2F
 60
     3
 61
     5
292
     1
282
     1
141
0.0
142
0.0
 63
   250
361
6D
  0
ENDTAB
  0
TABLE
  2
LTYPE
  5
5
330
0
100
AcDbSymbolTable
 70
     3
  0
LTYPE
  5
14
330
5
100
AcDbSymbolTableRecord
100
AcDbLinetypeTableRecord
  2
ByBlock
 70
     0
  3

 72
    65
 73
     0
 40
0.0
  0
LTYPE
  5
15
330
5
100
AcDbSymbolTableRecord
100
AcDbLinetypeTableRecord
  2
ByLayer
 70
     0
  3

 72
    65
 73
     0
 40
0.0
  0
LTYPE
  5
16
330
5
100
AcDbSymbolTableRecord
100
AcDbLinetypeTableRecord
  2
Continuous
 70
     0
  3
Solid line
 72
    65
 73
     0
 40
0.0
  0
LTYPE
  5
B1
330
5
100
AcDbSymbolTableRecord
100
AcDbLinetypeTableRecord
  2
Dashed
 70
     0
  3

 72
    65
 73
     2
 40
2.0
 49
1.0
 74
     0
 49
-1.0
 74
     0
  0
LTYPE
  5
1EA
330
5
100
AcDbSymbolTableRecord
100
AcDbLinetypeTableRecord
  2
Center
 70
     0
  3

 72
    65
 73
     4
 40
1.5
 49
0.45
 74
     0
 49
-0.5
 74
     0
 49
0.05
 74
     0
 49
-0.5
 74
     0
  0
ENDTAB
  0
TABLE
  2
LAYER
  5
2
330
0
100
AcDbSymbolTable
 70
     7
  0
LAYER
  5
10
330
2
100
AcDbSymbolTableRecord
100
AcDbLayerTableRecord
  2
0
 70
     0
 62
     7
  6
Continuous
370
    -3
390
F
347
46
348
0
  0
LAYER
  5
72
330
2
100
AcDbSymbolTableRecord
100
AcDbLayerTableRecord
  2
AM_6
 70
     0
 62
    -2
  6
Continuous
370
    35
390
F
347
46
348
0
  0
LAYER
  5
9E
330
2
100
AcDbSymbolTableRecord
100
AcDbLayerTableRecord
  2
AM_5
 70
     0
 62
     3
  6
Continuous
370
    25
390
F
347
46
348
0
  0
LAYER
  5
B2
330
2
100
AcDbSymbolTableRecord
100
AcDbLayerTableRecord
  2
AM_9
 70
     0
 62
     6
  6
Dashed
370
    25
390
F
347
46
348
0
  0
LAYER
  5
BF
330
2
100
AcDbSymbolTableRecord
100
AcDbLayerTableRecord
  2
AM_4
 70
     0
 62
     7
  6
Continuous
370
    50
390
F
347
46
348
0
  0
LAYER
  5
1EB
330
2
100
AcDbSymbolTableRecord
100
AcDbLayerTableRecord
  2
AM_7
 70
     0
 62
     7
  6
Center
370
    25
390
F
347
46
348
0
  0
LAYER
  5
229
330
2
100
AcDbSymbolTableRecord
100
AcDbLayerTableRecord
  2
ConnectionPoints
 70
     0
 62
     7
  6
Continuous
370
    50
390
F
347
46
348
0
  0
ENDTAB
  0
TABLE
  2
STYLE
  5
3
330
0
100
AcDbSymbolTable
 70
     1
  0
STYLE
  5
11
330
3
100
AcDbSymbolTableRecord
100
AcDbTextStyleTableRecord
  2
Standard
 70
     0
 40
0.0
 41
1.0
 50
0.0
 71
     0
 42
0.2
  3
txt
  4

  0
ENDTAB
  0
TABLE
  2
VIEW
  5
6
330
0
100
AcDbSymbolTable
 70
     0
  0
ENDTAB
  0
TABLE
  2
UCS
  5
7
330
0
100
AcDbSymbolTable
 70
     0
  0
ENDTAB
  0
TABLE
  2
APPID
  5
9
330
0
100
AcDbSymbolTable
 70
     1
  0
APPID
  5
12
330
9
100
AcDbSymbolTableRecord
100
AcDbRegAppTableRecord
  2
ACAD
 70
     0
  0
ENDTAB
  0
TABLE
  2
DIMSTYLE
  5
A
330
0
100
AcDbSymbolTable
 70
     1
100
AcDbDimStyleTable
  0
DIMSTYLE
105
27
330
A
100
AcDbSymbolTableRecord
100
AcDbDimStyleTableRecord
  2
Standard
 70
     0
178
     0
340
11
  0
ENDTAB
  0
TABLE
  2
BLOCK_RECORD
  5
1
330
0
100
AcDbSymbolTable
 70
     8
  0
BLOCK_RECORD
  5
1F
330
1
100
AcDbSymbolTableRecord
100
AcDbBlockTableRecord
  2
*Model_Space
340
22
 70
     0
280
     1
281
     0
  0
BLOCK_RECORD
  5
1B
330
1
100
AcDbSymbolTableRecord
100
AcDbBlockTableRecord
  2
*Paper_Space
340
1E
 70
     0
280
     1
281
     0
  0
BLOCK_RECORD
  5
23
330
1
100
AcDbSymbolTableRecord
100
AcDbBlockTableRecord
  2
*Paper_Space0
340
26
 70
     0
280
     1
281
     0
  0
BLOCK_RECORD
  5
6E
330
1
100
AcDbSymbolTableRecord
100
AcDbBlockTableRecord
  2
1_069421_4
340
0
102
{BLKREFS
331
6F
102
}
 70
     0
280
     1
281
     0
  0
BLOCK_RECORD
  5
8E
330
1
100
AcDbSymbolTableRecord
100
AcDbBlockTableRecord
  2
2_ASME_B18_3_1_4_1_0_in_069421_4
340
0
102
{BLKREFS
331
8F
102
}
 70
     0
280
     1
281
     0
  0
BLOCK_RECORD
  5
A1
330
1
100
AcDbSymbolTableRecord
100
AcDbBlockTableRecord
  2
3_ASME_B18_3_1_4_2_0_in_069421_4
340
0
102
{BLKREFS
331
A2
102
}
 70
     0
280
     1
281
     0
  0
BLOCK_RECORD
  5
C6
330
1
100
AcDbSymbolTableRecord
100
AcDbBlockTableRecord
  2
4_070901LW_0_in_069421_4
340
0
102
{BLKREFS
331
C7
102
}
 70
     0
280
     1
281
     0
  0
BLOCK_RECORD
  5
FC
330
1
100
AcDbSymbolTableRecord
100
AcDbBlockTableRecord
  2
5_070901I_0_in_069421_4
340
0
102
{BLKREFS
331
FD
102
}
 70
     0
280
     1
281
     0
  0
BLOCK_RECORD
  5
17A
330
1
100
AcDbSymbolTableRecord
100
AcDbBlockTableRecord
  2
6_405015E_Inch_0_in_069421_4
340
0
102
{BLKREFS
331
17B
102
}
 70
     0
280
     1
281
     0
  0
BLOCK_RECORD
  5
1C5
330
1
100
AcDbSymbolTableRecord
100
AcDbBlockTableRecord
  2
7_069421H_0_in_069421_4
340
0
102
{BLKREFS
331
1C6
102
}
 70
     0
280
     1
281
     0
  0
ENDTAB
  0
ENDSEC
  0
SECTION
  2
BLOCKS
  0
BLOCK
  5
20
330
1F
100
AcDbEntity
  8
0
100
AcDbBlockBegin
  2
*Model_Space
 70
     0
 10
0.0
 20
0.0
 30
0.0
  3
*Model_Space
  1

  0
ENDBLK
  5
21
330
1F
100
AcDbEntity
  8
0
100
AcDbBlockEnd
  0
BLOCK
  5
1C
330
1B
100
AcDbEntity
 67
     1
  8
0
100
AcDbBlockBegin
  2
*Paper_Space
 70
     0
 10
0.0
 20
0.0
 30
0.0
  3
*Paper_Space
  1

  0
ENDBLK
  5
1D
330
1B
100
AcDbEntity
 67
     1
  8
0
100
AcDbBlockEnd
  0
BLOCK
  5
24
330
23
100
AcDbEntity
  8
0
100
AcDbBlockBegin
  2
*Paper_Space0
 70
     0
 10
0.0
 20
0.0
 30
0.0
  3
*Paper_Space0
  1

  0
ENDBLK
  5
25
330
23
100
AcDbEntity
  8
0
100
AcDbBlockEnd
  0
BLOCK
  5
70
330
6E
100
AcDbEntity
  8
0
100
AcDbBlockBegin
  2
1_069421_4
 70
     2
 10
0.0
 20
0.0
 30
0.0
  3
1_069421_4
  1

  0
ATTDEF
  5
73
330
6E
100
AcDbEntity
  8
AM_6
100
AcDbText
 10
11.5
 20
1.88203125
 30
0.0
 40
0.5
  1
Imperial -IP Pillow Block 1-1/8 thru 2-1/4  2-Bolt Inch Bore (Contact Seal)
100
AcDbAttributeDefinition
  3

  2
NN
 70
     8
280
     0
  0
ATTDEF
  5
74
330
6E
100
AcDbEntity
  8
AM_6
100
AcDbText
 10
11.5
 20
1.38203125
 30
0.0
 40
0.5
  1
Imperial 2 Bolt Piliow Block Bearings
100
AcDbAttributeDefinition
  3

  2
NT
 70
     8
280
     0
  0
ATTDEF
  5
75
330
6E
100
AcDbEntity
  8
AM_6
100
AcDbText
 10
11.5
 20
0.88203125
 30
0.0
 40
0.5
  1
069421
100
AcDbAttributeDefinition
  3

  2
NB
 70
     8
280
     0
  0
ATTDEF
  5
76
330
6E
100
AcDbEntity
  8
AM_6
100
AcDbText
 10
11.5
 20
0.38203125
 30
0.0
 40
0.5
  1
$PN.
100
AcDbAttributeDefinition
  3

  2
NBSYN
 70
     8
280
     0
  0
ATTDEF
  5
77
330
6E
100
AcDbEntity
  8
AM_6
100
AcDbText
 10
11.5
 20
-0.11796875
 30
0.0
 40
0.5
  1
069421
100
AcDbAttributeDefinition
  3

  2
LINA
 70
     8
280
     0
  0
ATTDEF
  5
78
330
6E
100
AcDbEntity
  8
AM_6
100
AcDbText
 10
11.5
 20
-0.61796875
 30
0.0
 40
0.5
  1
3-3/16
100
AcDbAttributeDefinition
  3

  2
SS
 70
     8
280
     0
  0
ATTDEF
  5
79
330
6E
100
AcDbEntity
  8
AM_6
100
AcDbText
 10
11.5
 20
-1.11796875
 30
0.0
 40
0.5
  1
069421
100
AcDbAttributeDefinition
  3

  2
PN
 70
     8
280
     0
  0
ATTDEF
  5
7A
330
6E
100
AcDbEntity
  8
AM_6
100
AcDbText
 10
11.5
 20
-1.61796875
 30
0.0
 40
0.5
  1
P2B-IP-303R
100
AcDbAttributeDefinition
  3

  2
DESCRIPTION
 70
     8
280
     0
  0
ATTDEF
  5
7B
330
6E
100
AcDbEntity
  8
AM_6
100
AcDbText
 10
11.5
 20
-2.11796875
 30
0.0
 40
0.5
  1
Non-Expansion Type
100
AcDbAttributeDefinition
  3

  2
EF
 70
     8
280
     0
  0
ATTDEF
  5
7C
330
6E
100
AcDbEntity
  8
AM_6
100
AcDbText
 10
11.5
 20
-2.61796875
 30
0.0
 40
0.5
  1
Contact  Seal
100
AcDbAttributeDefinition
  3

  2
ST
 70
     8
280
     0
  0
ATTDEF
  5
7D
330
6E
100
AcDbEntity
  8
AM_6
100
AcDbText
 10
11.5
 20
-3.11796875
 30
0.0
 40
0.5
  1
4-11/64
100
AcDbAttributeDefinition
  3

  2
A
 70
     8
280
     0
  0
ATTDEF
  5
7E
330
6E
100
AcDbEntity
  8
AM_6
100
AcDbText
 10
11.5
 20
-3.61796875
 30
0.0
 40
0.5
  1
13
100
AcDbAttributeDefinition
  3

  2
B
 70
     8
280
     0
  0
ATTDEF
  5
7F
330
6E
100
AcDbEntity
  8
AM_6
100
AcDbText
 10
11.5
 20
-4.11796875
 30
0.0
 40
0.5
  1
3-27/64
100
AcDbAttributeDefinition
  3

  2
C
 70
     8
280
     0
  0
ATTDEF
  5
80
330
6E
100
AcDbEntity
  8
AM_6
100
AcDbText
 10
11.5
 20
-4.61796875
 30
0.0
 40
0.5
  1
9-3/8
100
AcDbAttributeDefinition
  3

  2
DMIN
 70
     8
280
     0
  0
ATTDEF
  5
81
330
6E
100
AcDbEntity
  8
AM_6
100
AcDbText
 10
11.5
 20
-5.11796875
 30
0.0
 40
0.5
  1
10-5/8
100
AcDbAttributeDefinition
  3

  2
DMAX
 70
     8
280
     0
  0
ATTDEF
  5
82
330
6E
100
AcDbEntity
  8
AM_6
100
AcDbText
 10
11.5
 20
-5.61796875
 30
0.0
 40
0.5
  1
7/8
100
AcDbAttributeDefinition
  3

  2
F
 70
     8
280
     0
  0
ATTDEF
  5
83
330
6E
100
AcDbEntity
  8
AM_6
100
AcDbText
 10
11.5
 20
-6.11796875
 30
0.0
 40
0.5
  1
1-5/8
100
AcDbAttributeDefinition
  3

  2
G
 70
     8
280
     0
  0
ATTDEF
  5
84
330
6E
100
AcDbEntity
  8
AM_6
100
AcDbText
 10
11.5
 20
-6.61796875
 30
0.0
 40
0.5
  1
2-1/4
100
AcDbAttributeDefinition
  3

  2
H
 70
     8
280
     0
  0
ATTDEF
  5
85
330
6E
100
AcDbEntity
  8
AM_6
100
AcDbText
 10
11.5
 20
-7.11796875
 30
0.0
 40
0.5
  1
7-1/2
100
AcDbAttributeDefinition
  3

  2
J
 70
     8
280
     0
  0
ATTDEF
  5
86
330
6E
100
AcDbEntity
  8
AM_6
100
AcDbText
 10
11.5
 20
-7.61796875
 30
0.0
 40
0.5
  1
5
100
AcDbAttributeDefinition
  3

  2
L
 70
     8
280
     0
  0
ATTDEF
  5
87
330
6E
100
AcDbEntity
  8
AM_6
100
AcDbText
 10
11.5
 20
-8.11796875
 30
0.0
 40
0.5
  1
3-3/4
100
AcDbAttributeDefinition
  3

  2
M
 70
     8
280
     0
  0
ATTDEF
  5
88
330
6E
100
AcDbEntity
  8
AM_6
100
AcDbText
 10
11.5
 20
-8.61796875
 30
0.0
 40
0.5
  1
1-31/64
100
AcDbAttributeDefinition
  3

  2
R
 70
     8
280
     0
  0
ATTDEF
  5
89
330
6E
100
AcDbEntity
  8
AM_6
100
AcDbText
 10
11.5
 20
-9.11796875
 30
0.0
 40
0.5
  1
2-11/16
100
AcDbAttributeDefinition
  3

  2
S
 70
     8
280
     0
  0
ATTDEF
  5
8A
330
6E
100
AcDbEntity
  8
AM_6
100
AcDbText
 10
11.5
 20
-9.61796875
 30
0.0
 40
0.5
  1
1/4
100
AcDbAttributeDefinition
  3

  2
X
 70
     8
280
     0
  0
ATTDEF
  5
8B
330
6E
100
AcDbEntity
  8
AM_6
100
AcDbText
 10
11.5
 20
-10.11796875
 30
0.0
 40
0.5
  1
0.025
100
AcDbAttributeDefinition
  3

  2
Y
 70
     8
280
     0
  0
ATTDEF
  5
8C
330
6E
100
AcDbEntity
  8
AM_6
100
AcDbText
 10
11.5
 20
-10.61796875
 30
0.0
 40
0.5
  1
4-3/64
100
AcDbAttributeDefinition
  3

  2
Z
 70
     8
280
     0
  0
ATTDEF
  5
8D
330
6E
100
AcDbEntity
  8
AM_6
100
AcDbText
 10
11.5
 20
-11.11796875
 30
0.0
 40
0.5
  1
baldor
100
AcDbAttributeDefinition
  3

  2
COMPANY
 70
     8
280
     0
  0
INSERT
  5
8F
330
6E
100
AcDbEntity
  8
0
100
AcDbBlockReference
  2
2_ASME_B18_3_1_4_1_0_in_069421_4
 10
0.0
 20
0.0
 30
0.0
  0
INSERT
  5
A2
330
6E
100
AcDbEntity
  8
0
100
AcDbBlockReference
  2
3_ASME_B18_3_1_4_2_0_in_069421_4
 10
0.0
 20
0.0
 30
0.0
  0
INSERT
  5
C7
330
6E
100
AcDbEntity
  8
0
100
AcDbBlockReference
  2
4_070901LW_0_in_069421_4
 10
0.0
 20
0.0
 30
0.0
  0
INSERT
  5
FD
330
6E
100
AcDbEntity
  8
0
100
AcDbBlockReference
  2
5_070901I_0_in_069421_4
 10
0.0
 20
0.0
 30
0.0
  0
INSERT
  5
17B
330
6E
100
AcDbEntity
  8
0
100
AcDbBlockReference
  2
6_405015E_Inch_0_in_069421_4
 10
0.0
 20
0.0
 30
0.0
  0
INSERT
  5
1C6
330
6E
100
AcDbEntity
  8
0
100
AcDbBlockReference
  2
7_069421H_0_in_069421_4
 10
0.0
 20
0.0
 30
0.0
  0
ENDBLK
  5
71
330
6E
100
AcDbEntity
  8
0
100
AcDbBlockEnd
  0
BLOCK
  5
90
330
8E
100
AcDbEntity
  8
0
100
AcDbBlockBegin
  2
2_ASME_B18_3_1_4_1_0_in_069421_4
 70
     2
 10
0.0
 20
0.0
 30
0.0
  3
2_ASME_B18_3_1_4_1_0_in_069421_4
  1

  0
ATTDEF
  5
92
330
8E
100
AcDbEntity
  8
AM_6
100
AcDbText
 10
5.125
 20
-2.360333333333333
 30
0.0
 40
0.5
  1
ANSI/ASME B18.3-1998
100
AcDbAttributeDefinition
  3

  2
NN
 70
     8
280
     0
  0
ATTDEF
  5
93
330
8E
100
AcDbEntity
  8
AM_6
100
AcDbText
 10
5.125
 20
-2.860333333333333
 30
0.0
 40
0.5
  1
Socket Button Head Cap Screws
100
AcDbAttributeDefinition
  3

  2
NT
 70
     8
280
     0
  0
ATTDEF
  5
94
330
8E
100
AcDbEntity
  8
AM_6
100
AcDbText
 10
5.125
 20
-3.360333333333333
 30
0.0
 40
0.5
  1
ASME B18.3-1/4
100
AcDbAttributeDefinition
  3

  2
NB
 70
     8
280
     0
  0
ATTDEF
  5
95
330
8E
100
AcDbEntity
  8
AM_6
100
AcDbText
 10
5.125
 20
-3.860333333333333
 30
0.0
 40
0.5
  1
ASME B18.3-$NS.
100
AcDbAttributeDefinition
  3

  2
NBSYN
 70
     8
280
     0
  0
ATTDEF
  5
96
330
8E
100
AcDbEntity
  8
AM_6
100
AcDbText
 10
5.125
 20
-4.360333333333333
 30
0.0
 40
0.5
  1
ASME B18.3-1/4
100
AcDbAttributeDefinition
  3

  2
LINA
 70
     8
280
     0
  0
ATTDEF
  5
97
330
8E
100
AcDbEntity
  8
AM_6
100
AcDbText
 10
5.125
 20
-4.860333333333333
 30
0.0
 40
0.5
  1
1/4
100
AcDbAttributeDefinition
  3

  2
NS
 70
     8
280
     0
  0
ATTDEF
  5
98
330
8E
100
AcDbEntity
  8
AM_6
100
AcDbText
 10
5.125
 20
-5.360333333333333
 30
0.0
 40
0.5
  1
0.437
100
AcDbAttributeDefinition
  3

  2
A
 70
     8
280
     0
  0
ATTDEF
  5
99
330
8E
100
AcDbEntity
  8
AM_6
100
AcDbText
 10
5.125
 20
-5.860333333333333
 30
0.0
 40
0.5
  1
0.132
100
AcDbAttributeDefinition
  3

  2
H
 70
     8
280
     0
  0
ATTDEF
  5
9A
330
8E
100
AcDbEntity
  8
AM_6
100
AcDbText
 10
5.125
 20
-6.360333333333333
 30
0.0
 40
0.5
  1
0.800
100
AcDbAttributeDefinition
  3

  2
L
 70
     8
280
     0
  0
ATTDEF
  5
9B
330
8E
100
AcDbEntity
  8
AM_6
100
AcDbText
 10
5.125
 20
-6.860333333333333
 30
0.0
 40
0.5
  1
0.031
100
AcDbAttributeDefinition
  3

  2
S
 70
     8
280
     0
  0
ATTDEF
  5
9C
330
8E
100
AcDbEntity
  8
AM_6
100
AcDbText
 10
5.125
 20
-7.360333333333333
 30
0.0
 40
0.5
  1
0.156250
100
AcDbAttributeDefinition
  3

  2
J
 70
     8
280
     0
  0
ATTDEF
  5
9D
330
8E
100
AcDbEntity
  8
AM_6
100
AcDbText
 10
5.125
 20
-7.860333333333333
 30
0.0
 40
0.5
  1
baldor
100
AcDbAttributeDefinition
  3

  2
COMPANY
 70
     8
280
     0
  0
LINE
  5
9F
330
8E
100
AcDbEntity
  8
AM_5
100
AcDbLine
 10
0.125
 20
-2.360333333333333
 30
0.0
 11
-0.125
 21
-2.360333333333333
 31
0.0
  0
LINE
  5
A0
330
8E
100
AcDbEntity
  8
AM_5
100
AcDbLine
 10
0.1064
 20
-2.360333333333333
 30
0.0
 11
0.1250000000000001
 21
-2.392549478354114
 31
0.0
  0
ENDBLK
  5
91
330
8E
100
AcDbEntity
  8
0
100
AcDbBlockEnd
  0
BLOCK
  5
A3
330
A1
100
AcDbEntity
  8
0
100
AcDbBlockBegin
  2
3_ASME_B18_3_1_4_2_0_in_069421_4
 70
     2
 10
0.0
 20
0.0
 30
0.0
  3
3_ASME_B18_3_1_4_2_0_in_069421_4
  1

  0
ATTDEF
  5
A5
330
A1
100
AcDbEntity
  8
AM_6
100
AcDbText
 10
5.218500000000001
 20
-1.640333333333333
 30
0.0
 40
0.5
  1
ANSI/ASME B18.3-1998
100
AcDbAttributeDefinition
  3

  2
NN
 70
     8
280
     0
  0
ATTDEF
  5
A6
330
A1
100
AcDbEntity
  8
AM_6
100
AcDbText
 10
5.218500000000001
 20
-2.140333333333333
 30
0.0
 40
0.5
  1
Socket Button Head Cap Screws
100
AcDbAttributeDefinition
  3

  2
NT
 70
     8
280
     0
  0
ATTDEF
  5
A7
330
A1
100
AcDbEntity
  8
AM_6
100
AcDbText
 10
5.218500000000001
 20
-2.640333333333333
 30
0.0
 40
0.5
  1
ASME B18.3-1/4
100
AcDbAttributeDefinition
  3

  2
NB
 70
     8
280
     0
  0
ATTDEF
  5
A8
330
A1
100
AcDbEntity
  8
AM_6
100
AcDbText
 10
5.218500000000001
 20
-3.140333333333333
 30
0.0
 40
0.5
  1
ASME B18.3-$NS.
100
AcDbAttributeDefinition
  3

  2
NBSYN
 70
     8
280
     0
  0
ATTDEF
  5
A9
330
A1
100
AcDbEntity
  8
AM_6
100
AcDbText
 10
5.218500000000001
 20
-3.640333333333333
 30
0.0
 40
0.5
  1
ASME B18.3-1/4
100
AcDbAttributeDefinition
  3

  2
LINA
 70
     8
280
     0
  0
ATTDEF
  5
AA
330
A1
100
AcDbEntity
  8
AM_6
100
AcDbText
 10
5.218500000000001
 20
-4.140333333333333
 30
0.0
 40
0.5
  1
1/4
100
AcDbAttributeDefinition
  3

  2
NS
 70
     8
280
     0
  0
ATTDEF
  5
AB
330
A1
100
AcDbEntity
  8
AM_6
100
AcDbText
 10
5.218500000000001
 20
-4.640333333333333
 30
0.0
 40
0.5
  1
0.437
100
AcDbAttributeDefinition
  3

  2
A
 70
     8
280
     0
  0
ATTDEF
  5
AC
330
A1
100
AcDbEntity
  8
AM_6
100
AcDbText
 10
5.218500000000001
 20
-5.140333333333333
 30
0.0
 40
0.5
  1
0.132
100
AcDbAttributeDefinition
  3

  2
H
 70
     8
280
     0
  0
ATTDEF
  5
AD
330
A1
100
AcDbEntity
  8
AM_6
100
AcDbText
 10
5.218500000000001
 20
-5.640333333333333
 30
0.0
 40
0.5
  1
0.800
100
AcDbAttributeDefinition
  3

  2
L
 70
     8
280
     0
  0
ATTDEF
  5
AE
330
A1
100
AcDbEntity
  8
AM_6
100
AcDbText
 10
5.218500000000001
 20
-6.140333333333333
 30
0.0
 40
0.5
  1
0.031
100
AcDbAttributeDefinition
  3

  2
S
 70
     8
280
     0
  0
ATTDEF
  5
AF
330
A1
100
AcDbEntity
  8
AM_6
100
AcDbText
 10
5.218500000000001
 20
-6.640333333333333
 30
0.0
 40
0.5
  1
0.156250
100
AcDbAttributeDefinition
  3

  2
J
 70
     8
280
     0
  0
ATTDEF
  5
B0
330
A1
100
AcDbEntity
  8
AM_6
100
AcDbText
 10
5.218500000000001
 20
-7.140333333333333
 30
0.0
 40
0.5
  1
baldor
100
AcDbAttributeDefinition
  3

  2
COMPANY
 70
     8
280
     0
  0
LINE
  5
B3
330
A1
100
AcDbEntity
  8
AM_9
100
AcDbLine
 10
-0.078125
 20
-2.502333333333333
 30
0.0
 11
-0.078125
 21
-2.572333333333333
 31
0.0
  0
LINE
  5
B4
330
A1
100
AcDbEntity
  8
AM_9
100
AcDbLine
 10
0.078125
 20
-2.502333333333333
 30
0.0
 11
0.078125
 21
-2.572333333333333
 31
0.0
  0
LINE
  5
B5
330
A1
100
AcDbEntity
  8
AM_9
100
AcDbLine
 10
-0.078125
 20
-2.502333333333333
 30
0.0
 11
0.078125
 21
-2.502333333333333
 31
0.0
  0
LINE
  5
B6
330
A1
100
AcDbEntity
  8
AM_9
100
AcDbLine
 10
0.0
 20
-2.502333333333333
 30
0.0
 11
0.0
 21
-2.572333333333333
 31
0.0
  0
LINE
  5
B7
330
A1
100
AcDbEntity
  8
AM_9
100
AcDbLine
 10
-0.1064
 20
-1.640333333333333
 30
0.0
 11
-0.125
 21
-1.658933333333333
 31
0.0
  0
LINE
  5
B8
330
A1
100
AcDbEntity
  8
AM_9
100
AcDbLine
 10
0.125
 20
-1.658933333333333
 30
0.0
 11
0.1064
 21
-1.640333333333333
 31
0.0
  0
LINE
  5
B9
330
A1
100
AcDbEntity
  8
AM_9
100
AcDbLine
 10
-0.1064
 20
-1.640333333333333
 30
0.0
 11
0.1064
 21
-1.640333333333333
 31
0.0
  0
LINE
  5
BA
330
A1
100
AcDbEntity
  8
AM_9
100
AcDbLine
 10
0.125
 20
-2.440333333333333
 30
0.0
 11
0.125
 21
-1.658933333333333
 31
0.0
  0
LINE
  5
BB
330
A1
100
AcDbEntity
  8
AM_9
100
AcDbLine
 10
-0.125
 20
-1.658933333333333
 30
0.0
 11
-0.125
 21
-2.440333333333333
 31
0.0
  0
LINE
  5
BC
330
A1
100
AcDbEntity
  8
AM_9
100
AcDbLine
 10
-0.125
 20
-1.658933333333333
 30
0.0
 11
0.125
 21
-1.658933333333333
 31
0.0
  0
LINE
  5
BD
330
A1
100
AcDbEntity
  8
AM_5
100
AcDbLine
 10
-0.1250000001400762
 20
-2.360333333333333
 30
0.0
 11
0.125000000140076
 21
-2.360333333333333
 31
0.0
  0
LINE
  5
BE
330
A1
100
AcDbEntity
  8
AM_5
100
AcDbLine
 10
-0.1064
 20
-2.360333333333333
 30
0.0
 11
-0.1250000114954799
 21
-2.39254949826487
 31
0.0
  0
LINE
  5
C0
330
A1
100
AcDbEntity
  8
AM_4
100
AcDbLine
 10
-0.1174999979820767
 20
-2.572333333333333
 30
0.0
 11
0.1175
 21
-2.572333333333333
 31
0.0
  0
ARC
  5
C1
330
A1
100
AcDbEntity
  8
AM_4
100
AcDbCircle
 10
0.1175000000000002
 20
-2.471333333333333
 30
0.0
 40
0.101
100
AcDbArc
 50
270.0
 51
0.0000008537736463
  0
ARC
  5
C2
330
A1
100
AcDbEntity
  8
AM_4
100
AcDbCircle
 10
-0.1175000000000002
 20
-2.471333333333333
 30
0.0
 40
0.1009999999999998
100
AcDbArc
 50
179.9999991462263
 51
270.0
  0
LINE
  5
C3
330
A1
100
AcDbEntity
  8
AM_4
100
AcDbLine
 10
0.2185
 20
-2.471333333333333
 30
0.0
 11
0.2185
 21
-2.440333333333333
 31
0.0
  0
LINE
  5
C4
330
A1
100
AcDbEntity
  8
AM_4
100
AcDbLine
 10
-0.2185
 20
-2.440333333333333
 30
0.0
 11
-0.2185
 21
-2.471333333333333
 31
0.0
  0
LINE
  5
C5
330
A1
100
AcDbEntity
  8
AM_4
100
AcDbLine
 10
-0.2185
 20
-2.471333333333333
 30
0.0
 11
0.2185
 21
-2.471333333333333
 31
0.0
  0
ENDBLK
  5
A4
330
A1
100
AcDbEntity
  8
0
100
AcDbBlockEnd
  0
BLOCK
  5
C8
330
C6
100
AcDbEntity
  8
0
100
AcDbBlockBegin
  2
4_070901LW_0_in_069421_4
 70
     2
 10
0.0
 20
0.0
 30
0.0
  3
4_070901LW_0_in_069421_4
  1

  0
ATTDEF
  5
CA
330
C6
100
AcDbEntity
  8
AM_6
100
AcDbText
 10
7.5
 20
-2.000333333333333
 30
0.0
 40
0.5
  1
Imperial Insert Lockwasher -Inch
100
AcDbAttributeDefinition
  3

  2
NN
 70
     8
280
     0
  0
ATTDEF
  5
CB
330
C6
100
AcDbEntity
  8
AM_6
100
AcDbText
 10
7.5
 20
-2.500333333333333
 30
0.0
 40
0.5
  1
Imperial Bearings
100
AcDbAttributeDefinition
  3

  2
NT
 70
     8
280
     0
  0
ATTDEF
  5
CC
330
C6
100
AcDbEntity
  8
AM_6
100
AcDbText
 10
7.5
 20
-3.000333333333333
 30
0.0
 40
0.5
  1
070901LW
100
AcDbAttributeDefinition
  3

  2
NB
 70
     8
280
     0
  0
ATTDEF
  5
CD
330
C6
100
AcDbEntity
  8
AM_6
100
AcDbText
 10
7.5
 20
-3.500333333333333
 30
0.0
 40
0.5
  1
$PN.LW
100
AcDbAttributeDefinition
  3

  2
NBSYN
 70
     8
280
     0
  0
ATTDEF
  5
CE
330
C6
100
AcDbEntity
  8
AM_6
100
AcDbText
 10
7.5
 20
-4.000333333333334
 30
0.0
 40
0.5
  1
070901
100
AcDbAttributeDefinition
  3

  2
LINA
 70
     8
280
     0
  0
ATTDEF
  5
CF
330
C6
100
AcDbEntity
  8
AM_6
100
AcDbText
 10
7.5
 20
-4.500333333333334
 30
0.0
 40
0.5
  1
3-3/16
100
AcDbAttributeDefinition
  3

  2
SS
 70
     8
280
     0
  0
ATTDEF
  5
D0
330
C6
100
AcDbEntity
  8
AM_6
100
AcDbText
 10
7.5
 20
-5.000333333333334
 30
0.0
 40
0.5
  1
3.187500
100
AcDbAttributeDefinition
  3

  2
SS1
 70
     8
280
     0
  0
ATTDEF
  5
D1
330
C6
100
AcDbEntity
  8
AM_6
100
AcDbText
 10
7.5
 20
-5.500333333333334
 30
0.0
 40
0.5
  1
070901
100
AcDbAttributeDefinition
  3

  2
PN
 70
     8
280
     0
  0
ATTDEF
  5
D2
330
C6
100
AcDbEntity
  8
AM_6
100
AcDbText
 10
7.5
 20
-6.000333333333334
 30
0.0
 40
0.5
  1
INS-IP-303R
100
AcDbAttributeDefinition
  3

  2
DESCRIPTION
 70
     8
280
     0
  0
ATTDEF
  5
D3
330
C6
100
AcDbEntity
  8
AM_6
100
AcDbText
 10
7.5
 20
-6.500333333333334
 30
0.0
 40
0.5
  1
6.2992
100
AcDbAttributeDefinition
  3

  2
A
 70
     8
280
     0
  0
ATTDEF
  5
D4
330
C6
100
AcDbEntity
  8
AM_6
100
AcDbText
 10
7.5
 20
-7.000333333333334
 30
0.0
 40
0.5
  1
1-5/8
100
AcDbAttributeDefinition
  3

  2
B
 70
     8
280
     0
  0
ATTDEF
  5
D5
330
C6
100
AcDbEntity
  8
AM_6
100
AcDbText
 10
7.5
 20
-7.500333333333334
 30
0.0
 40
0.5
  1
4-11/64
100
AcDbAttributeDefinition
  3

  2
C
 70
     8
280
     0
  0
ATTDEF
  5
D6
330
C6
100
AcDbEntity
  8
AM_6
100
AcDbText
 10
7.5
 20
-8.000333333333334
 30
0.0
 40
0.5
  1
1.483
100
AcDbAttributeDefinition
  3

  2
D
 70
     8
280
     0
  0
ATTDEF
  5
D7
330
C6
100
AcDbEntity
  8
AM_6
100
AcDbText
 10
7.5
 20
-8.500333333333334
 30
0.0
 40
0.5
  1
5
100
AcDbAttributeDefinition
  3

  2
E
 70
     8
280
     0
  0
ATTDEF
  5
D8
330
C6
100
AcDbEntity
  8
AM_6
100
AcDbText
 10
7.5
 20
-9.000333333333334
 30
0.0
 40
0.5
  1
0.2500
100
AcDbAttributeDefinition
  3

  2
NDM
 70
     8
280
     0
  0
ATTDEF
  5
D9
330
C6
100
AcDbEntity
  8
AM_6
100
AcDbText
 10
7.5
 20
-9.500333333333334
 30
0.0
 40
0.5
  1
0.1960
100
AcDbAttributeDefinition
  3

  2
KDM
 70
     8
280
     0
  0
ATTDEF
  5
DA
330
C6
100
AcDbEntity
  8
AM_6
100
AcDbText
 10
7.5
 20
-10.00033333333333
 30
0.0
 40
0.5
  1
4.28
100
AcDbAttributeDefinition
  3

  2
AL
 70
     8
280
     0
  0
ATTDEF
  5
DB
330
C6
100
AcDbEntity
  8
AM_6
100
AcDbText
 10
7.5
 20
-10.50033333333333
 30
0.0
 40
0.5
  1
0.50
100
AcDbAttributeDefinition
  3

  2
BL
 70
     8
280
     0
  0
ATTDEF
  5
DC
330
C6
100
AcDbEntity
  8
AM_6
100
AcDbText
 10
7.5
 20
-11.00033333333333
 30
0.0
 40
0.5
  1
0.07
100
AcDbAttributeDefinition
  3

  2
CL
 70
     8
280
     0
  0
ATTDEF
  5
DD
330
C6
100
AcDbEntity
  8
AM_6
100
AcDbText
 10
7.5
 20
-11.50033333333333
 30
0.0
 40
0.5
  1
0.44
100
AcDbAttributeDefinition
  3

  2
DL
 70
     8
280
     0
  0
ATTDEF
  5
DE
330
C6
100
AcDbEntity
  8
AM_6
100
AcDbText
 10
7.5
 20
-12.00033333333333
 30
0.0
 40
0.5
  1
baldor
100
AcDbAttributeDefinition
  3

  2
COMPANY
 70
     8
280
     0
  0
LINE
  5
DF
330
C6
100
AcDbEntity
  8
AM_9
100
AcDbLine
 10
-2.135416666666667
 20
-2.370333333333333
 30
0.0
 11
-2.135416666666667
 21
-2.440333333333333
 31
0.0
  0
LINE
  5
E0
330
C6
100
AcDbEntity
  8
AM_9
100
AcDbLine
 10
-2.260470286650459
 20
-2.370333333333333
 30
0.0
 11
-2.260470286650459
 21
-2.440333333333333
 31
0.0
  0
LINE
  5
E1
330
C6
100
AcDbEntity
  8
AM_9
100
AcDbLine
 10
2.135416666666667
 20
-2.370333333333333
 30
0.0
 11
2.135416666666667
 21
-2.440333333333333
 31
0.0
  0
LINE
  5
E2
330
C6
100
AcDbEntity
  8
AM_9
100
AcDbLine
 10
2.260470286650459
 20
-2.440333333333333
 30
0.0
 11
2.260470286650459
 21
-2.370333333333333
 31
0.0
  0
LINE
  5
E3
330
C6
100
AcDbEntity
  8
AM_9
100
AcDbLine
 10
-1.718432677062248
 20
-2.370333333333333
 30
0.0
 11
-1.718432677062248
 21
-2.440333333333333
 31
0.0
  0
LINE
  5
E4
330
C6
100
AcDbEntity
  8
AM_9
100
AcDbLine
 10
1.718432677062248
 20
-2.370333333333333
 30
0.0
 11
1.718432677062248
 21
-2.440333333333333
 31
0.0
  0
LINE
  5
E5
330
C6
100
AcDbEntity
  8
AM_9
100
AcDbLine
 10
-1.303503746611587
 20
-2.370333333333333
 30
0.0
 11
-1.303503746611587
 21
-2.440333333333333
 31
0.0
  0
LINE
  5
E6
330
C6
100
AcDbEntity
  8
AM_9
100
AcDbLine
 10
1.303503746611586
 20
-2.370333333333333
 30
0.0
 11
1.303503746611586
 21
-2.440333333333333
 31
0.0
  0
LINE
  5
E7
330
C6
100
AcDbEntity
  8
AM_9
100
AcDbLine
 10
-0.7731006567104224
 20
-2.370333333333333
 30
0.0
 11
-0.7731006567104224
 21
-2.440333333333333
 31
0.0
  0
LINE
  5
E8
330
C6
100
AcDbEntity
  8
AM_9
100
AcDbLine
 10
-0.7235078689209182
 20
-2.000333333333333
 30
0.0
 11
-0.7235078689209182
 21
-2.440333333333333
 31
0.0
  0
LINE
  5
E9
330
C6
100
AcDbEntity
  8
AM_9
100
AcDbLine
 10
1.126727051314949
 20
-2.370333333333333
 30
0.0
 11
1.126727051314947
 21
-2.440333333333333
 31
0.0
  0
LINE
  5
EA
330
C6
100
AcDbEntity
  8
AM_9
100
AcDbLine
 10
-1.126727051314949
 20
-2.370333333333333
 30
0.0
 11
-1.126727051314949
 21
-2.440333333333333
 31
0.0
  0
LINE
  5
EB
330
C6
100
AcDbEntity
  8
AM_9
100
AcDbLine
 10
-0.5421307735826004
 20
-2.370333333333333
 30
0.0
 11
-0.5421307735826004
 21
-2.440333333333333
 31
0.0
  0
LINE
  5
EC
330
C6
100
AcDbEntity
  8
AM_9
100
AcDbLine
 10
-0.4925379857930969
 20
-2.000333333333333
 30
0.0
 11
-0.7557021678985564
 21
-2.000333333333333
 31
0.0
  0
LINE
  5
ED
330
C6
100
AcDbEntity
  8
AM_9
100
AcDbLine
 10
-0.4925379857930969
 20
-2.000333333333333
 30
0.0
 11
-0.4925379857930969
 21
-2.440333333333333
 31
0.0
  0
LINE
  5
EE
330
C6
100
AcDbEntity
  8
AM_9
100
AcDbLine
 10
-0.5247322847707347
 20
-2.370333333333333
 30
0.0
 11
-0.5247322847707345
 21
-2.000333333333333
 31
0.0
  0
LINE
  5
EF
330
C6
100
AcDbEntity
  8
AM_9
100
AcDbLine
 10
-0.7557021678985564
 20
-2.000333333333333
 30
0.0
 11
-0.7557021678985565
 21
-2.370333333333333
 31
0.0
  0
LINE
  5
F0
330
C6
100
AcDbEntity
  8
AM_9
100
AcDbLine
 10
-1.598355953307092
 20
-2.370333333333333
 30
0.0
 11
-1.598355953307092
 21
-2.440333333333333
 31
0.0
  0
LINE
  5
F1
330
C6
100
AcDbEntity
  8
AM_9
100
AcDbLine
 10
-1.421579258010486
 20
-2.370333333333333
 30
0.0
 11
-1.421579258010486
 21
-2.440333333333333
 31
0.0
  0
LINE
  5
F2
330
C6
100
AcDbEntity
  8
AM_9
100
AcDbLine
 10
-1.635005524079868
 20
-2.370333333333333
 30
0.0
 11
-1.635005524079868
 21
-2.440333333333333
 31
0.0
  0
LINE
  5
F3
330
C6
100
AcDbEntity
  8
AM_9
100
AcDbLine
 10
1.421579258010454
 20
-2.370333333333333
 30
0.0
 11
1.421579258010454
 21
-2.440333333333333
 31
0.0
  0
LINE
  5
F4
330
C6
100
AcDbEntity
  8
AM_9
100
AcDbLine
 10
1.598355953307092
 20
-2.370333333333333
 30
0.0
 11
1.598355953307092
 21
-2.440333333333333
 31
0.0
  0
LINE
  5
F5
330
C6
100
AcDbEntity
  8
AM_9
100
AcDbLine
 10
1.635005524079868
 20
-2.440333333333333
 30
0.0
 11
1.635005524079868
 21
-2.370333333333333
 31
0.0
  0
LINE
  5
F6
330
C6
100
AcDbEntity
  8
AM_9
100
AcDbLine
 10
-0.1250000000000003
 20
-2.370333333333333
 30
0.0
 11
-0.1250000000000003
 21
-2.440333333333333
 31
0.0
  0
LINE
  5
F7
330
C6
100
AcDbEntity
  8
AM_9
100
AcDbLine
 10
0.1249999999999998
 20
-2.370333333333333
 30
0.0
 11
0.1249999999999998
 21
-2.440333333333333
 31
0.0
  0
LINE
  5
F8
330
C6
100
AcDbEntity
  8
AM_4
100
AcDbLine
 10
-2.5
 20
-2.370333333333333
 30
0.0
 11
-2.5
 21
-2.440333333333333
 31
0.0
  0
LINE
  5
F9
330
C6
100
AcDbEntity
  8
AM_4
100
AcDbLine
 10
2.5
 20
-2.440333333333333
 30
0.0
 11
2.5
 21
-2.370333333333333
 31
0.0
  0
LINE
  5
FA
330
C6
100
AcDbEntity
  8
AM_4
100
AcDbLine
 10
-2.5
 20
-2.440333333333333
 30
0.0
 11
2.5
 21
-2.440333333333333
 31
0.0
  0
LINE
  5
FB
330
C6
100
AcDbEntity
  8
AM_4
100
AcDbLine
 10
-2.5
 20
-2.370333333333333
 30
0.0
 11
2.5
 21
-2.370333333333333
 31
0.0
  0
ENDBLK
  5
C9
330
C6
100
AcDbEntity
  8
0
100
AcDbBlockEnd
  0
BLOCK
  5
FE
330
FC
100
AcDbEntity
  8
0
100
AcDbBlockBegin
  2
5_070901I_0_in_069421_4
 70
     2
 10
0.0
 20
0.0
 30
0.0
  3
5_070901I_0_in_069421_4
  1

  0
ATTDEF
  5
100
330
FC
100
AcDbEntity
  8
AM_6
100
AcDbText
 10
8.1496
 20
1.509375
 30
0.0
 40
0.5
  1
Imperial Insert -Inch
100
AcDbAttributeDefinition
  3

  2
NN
 70
     8
280
     0
  0
ATTDEF
  5
101
330
FC
100
AcDbEntity
  8
AM_6
100
AcDbText
 10
8.1496
 20
1.009375
 30
0.0
 40
0.5
  1
Imperial Bearings
100
AcDbAttributeDefinition
  3

  2
NT
 70
     8
280
     0
  0
ATTDEF
  5
102
330
FC
100
AcDbEntity
  8
AM_6
100
AcDbText
 10
8.1496
 20
0.5093749999999997
 30
0.0
 40
0.5
  1
070901I
100
AcDbAttributeDefinition
  3

  2
NB
 70
     8
280
     0
  0
ATTDEF
  5
103
330
FC
100
AcDbEntity
  8
AM_6
100
AcDbText
 10
8.1496
 20
0.0093749999999997
 30
0.0
 40
0.5
  1
$PN.I
100
AcDbAttributeDefinition
  3

  2
NBSYN
 70
     8
280
     0
  0
ATTDEF
  5
104
330
FC
100
AcDbEntity
  8
AM_6
100
AcDbText
 10
8.1496
 20
-0.4906250000000003
 30
0.0
 40
0.5
  1
070901
100
AcDbAttributeDefinition
  3

  2
LINA
 70
     8
280
     0
  0
ATTDEF
  5
105
330
FC
100
AcDbEntity
  8
AM_6
100
AcDbText
 10
8.1496
 20
-0.9906250000000003
 30
0.0
 40
0.5
  1
3-3/16
100
AcDbAttributeDefinition
  3

  2
SS
 70
     8
280
     0
  0
ATTDEF
  5
106
330
FC
100
AcDbEntity
  8
AM_6
100
AcDbText
 10
8.1496
 20
-1.490625
 30
0.0
 40
0.5
  1
3.187500
100
AcDbAttributeDefinition
  3

  2
SS1
 70
     8
280
     0
  0
ATTDEF
  5
107
330
FC
100
AcDbEntity
  8
AM_6
100
AcDbText
 10
8.1496
 20
-1.990625
 30
0.0
 40
0.5
  1
070901
100
AcDbAttributeDefinition
  3

  2
PN
 70
     8
280
     0
  0
ATTDEF
  5
108
330
FC
100
AcDbEntity
  8
AM_6
100
AcDbText
 10
8.1496
 20
-2.490625000000001
 30
0.0
 40
0.5
  1
INS-IP-303R
100
AcDbAttributeDefinition
  3

  2
DESCRIPTION
 70
     8
280
     0
  0
ATTDEF
  5
109
330
FC
100
AcDbEntity
  8
AM_6
100
AcDbText
 10
8.1496
 20
-2.990625000000001
 30
0.0
 40
0.5
  1
Contact Seal
100
AcDbAttributeDefinition
  3

  2
ST
 70
     8
280
     0
  0
ATTDEF
  5
10A
330
FC
100
AcDbEntity
  8
AM_6
100
AcDbText
 10
8.1496
 20
-3.490625000000001
 30
0.0
 40
0.5
  1
6.2992
100
AcDbAttributeDefinition
  3

  2
A
 70
     8
280
     0
  0
ATTDEF
  5
10B
330
FC
100
AcDbEntity
  8
AM_6
100
AcDbText
 10
8.1496
 20
-3.990625000000001
 30
0.0
 40
0.5
  1
1-5/8
100
AcDbAttributeDefinition
  3

  2
B
 70
     8
280
     0
  0
ATTDEF
  5
10C
330
FC
100
AcDbEntity
  8
AM_6
100
AcDbText
 10
8.1496
 20
-4.490625000000001
 30
0.0
 40
0.5
  1
4-11/64
100
AcDbAttributeDefinition
  3

  2
C
 70
     8
280
     0
  0
ATTDEF
  5
10D
330
FC
100
AcDbEntity
  8
AM_6
100
AcDbText
 10
8.1496
 20
-4.990625000000001
 30
0.0
 40
0.5
  1
1.483
100
AcDbAttributeDefinition
  3

  2
D
 70
     8
280
     0
  0
ATTDEF
  5
10E
330
FC
100
AcDbEntity
  8
AM_6
100
AcDbText
 10
8.1496
 20
-5.490625000000001
 30
0.0
 40
0.5
  1
5
100
AcDbAttributeDefinition
  3

  2
E
 70
     8
280
     0
  0
ATTDEF
  5
10F
330
FC
100
AcDbEntity
  8
AM_6
100
AcDbText
 10
8.1496
 20
-5.990625000000001
 30
0.0
 40
0.5
  1
0.2500
100
AcDbAttributeDefinition
  3

  2
NDM
 70
     8
280
     0
  0
ATTDEF
  5
110
330
FC
100
AcDbEntity
  8
AM_6
100
AcDbText
 10
8.1496
 20
-6.490625000000001
 30
0.0
 40
0.5
  1
0.132
100
AcDbAttributeDefinition
  3

  2
H
 70
     8
280
     0
  0
ATTDEF
  5
111
330
FC
100
AcDbEntity
  8
AM_6
100
AcDbText
 10
8.1496
 20
-6.990625000000001
 30
0.0
 40
0.5
  1
0.1960
100
AcDbAttributeDefinition
  3

  2
KDM
 70
     8
280
     0
  0
ATTDEF
  5
112
330
FC
100
AcDbEntity
  8
AM_6
100
AcDbText
 10
8.1496
 20
-7.490625000000001
 30
0.0
 40
0.5
  1
4.28
100
AcDbAttributeDefinition
  3

  2
AL
 70
     8
280
     0
  0
ATTDEF
  5
113
330
FC
100
AcDbEntity
  8
AM_6
100
AcDbText
 10
8.1496
 20
-7.990625000000001
 30
0.0
 40
0.5
  1
0.50
100
AcDbAttributeDefinition
  3

  2
BL
 70
     8
280
     0
  0
ATTDEF
  5
114
330
FC
100
AcDbEntity
  8
AM_6
100
AcDbText
 10
8.1496
 20
-8.490625000000001
 30
0.0
 40
0.5
  1
0.07
100
AcDbAttributeDefinition
  3

  2
CL
 70
     8
280
     0
  0
ATTDEF
  5
115
330
FC
100
AcDbEntity
  8
AM_6
100
AcDbText
 10
8.1496
 20
-8.990625000000001
 30
0.0
 40
0.5
  1
0.44
100
AcDbAttributeDefinition
  3

  2
DL
 70
     8
280
     0
  0
ATTDEF
  5
116
330
FC
100
AcDbEntity
  8
AM_6
100
AcDbText
 10
8.1496
 20
-9.490625000000001
 30
0.0
 40
0.5
  1
0.8000
100
AcDbAttributeDefinition
  3

  2
LL
 70
     8
280
     0
  0
ATTDEF
  5
117
330
FC
100
AcDbEntity
  8
AM_6
100
AcDbText
 10
8.1496
 20
-9.990625000000001
 30
0.0
 40
0.5
  1
0.025
100
AcDbAttributeDefinition
  3

  2
Y
 70
     8
280
     0
  0
ATTDEF
  5
118
330
FC
100
AcDbEntity
  8
AM_6
100
AcDbText
 10
8.1496
 20
-10.490625
 30
0.0
 40
0.5
  1
0.025000
100
AcDbAttributeDefinition
  3

  2
Y1
 70
     8
280
     0
  0
ATTDEF
  5
119
330
FC
100
AcDbEntity
  8
AM_6
100
AcDbText
 10
8.1496
 20
-10.990625
 30
0.0
 40
0.5
  1
4-3/64
100
AcDbAttributeDefinition
  3

  2
Z
 70
     8
280
     0
  0
ATTDEF
  5
11A
330
FC
100
AcDbEntity
  8
AM_6
100
AcDbText
 10
8.1496
 20
-11.490625
 30
0.0
 40
0.5
  1
4.046875
100
AcDbAttributeDefinition
  3

  2
Z1
 70
     8
280
     0
  0
ATTDEF
  5
11B
330
FC
100
AcDbEntity
  8
AM_6
100
AcDbText
 10
8.1496
 20
-11.990625
 30
0.0
 40
0.5
  1
baldor
100
AcDbAttributeDefinition
  3

  2
COMPANY
 70
     8
280
     0
  0
LINE
  5
11C
330
FC
100
AcDbEntity
  8
AM_9
100
AcDbLine
 10
-0.7574008133890099
 20
0.8138750000000002
 30
0.0
 11
-0.7574008133890099
 21
-2.370333333333333
 31
0.0
  0
LINE
  5
11D
330
FC
100
AcDbEntity
  8
AM_9
100
AcDbLine
 10
-0.4925379857930963
 20
0.8138750000000002
 30
0.0
 11
-0.4925379857930965
 21
-2.6875
 31
0.0
  0
LINE
  5
11E
330
FC
100
AcDbEntity
  8
AM_9
100
AcDbLine
 10
-0.7235078689209178
 20
-2.440333333333333
 30
0.0
 11
-0.7235078689209177
 21
0.8138750000000002
 31
0.0
  0
LINE
  5
11F
330
FC
100
AcDbEntity
  8
AM_9
100
AcDbLine
 10
-1.593749999999999
 20
0.8138750000000001
 30
0.0
 11
-1.593749999999999
 21
-2.6875
 31
0.0
  0
LINE
  5
120
330
FC
100
AcDbEntity
  8
AM_9
100
AcDbLine
 10
1.593749999999999
 20
-2.6875
 30
0.0
 11
1.593749999999999
 21
0.8138750000000001
 31
0.0
  0
LINE
  5
121
330
FC
100
AcDbEntity
  8
AM_9
100
AcDbLine
 10
-0.5264309302611883
 20
0.8138750000000002
 30
0.0
 11
-0.5264309302611883
 21
-2.370333333333333
 31
0.0
  0
LINE
  5
122
330
FC
100
AcDbEntity
  8
AM_9
100
AcDbLine
 10
-1.677631578947369
 20
1.484375
 30
0.0
 11
-1.677631578947369
 21
0.8138750000000001
 31
0.0
  0
LINE
  5
123
330
FC
100
AcDbEntity
  8
AM_9
100
AcDbLine
 10
1.677631578947369
 20
0.8138750000000001
 30
0.0
 11
1.677631578947369
 21
1.484375
 31
0.0
  0
LINE
  5
124
330
FC
100
AcDbEntity
  8
AM_9
100
AcDbLine
 10
-0.5247322847707344
 20
-2.440333333333333
 30
0.0
 11
-0.5247322847707344
 21
-2.370333333333333
 31
0.0
  0
LINE
  5
125
330
FC
100
AcDbEntity
  8
AM_9
100
AcDbLine
 10
-0.7557021678985563
 20
-2.370333333333333
 30
0.0
 11
-0.7557021678985559
 21
-2.440333333333333
 31
0.0
  0
LINE
  5
126
330
FC
100
AcDbEntity
  8
AM_9
100
AcDbLine
 10
-1.677631578947369
 20
-2.370333333333333
 30
0.0
 11
-1.677631578947369
 21
-2.440333333333333
 31
0.0
  0
LINE
  5
127
330
FC
100
AcDbEntity
  8
AM_9
100
AcDbLine
 10
1.677631578947369
 20
-2.440333333333333
 30
0.0
 11
1.677631578947369
 21
-2.370333333333333
 31
0.0
  0
LINE
  5
128
330
FC
100
AcDbEntity
  8
AM_9
100
AcDbLine
 10
1.336431816442575
 20
-1.930333333333333
 30
0.0
 11
1.336431816442575
 21
-2.370333333333333
 31
0.0
  0
LINE
  5
129
330
FC
100
AcDbEntity
  8
AM_9
100
AcDbLine
 10
-1.336431816442575
 20
-1.930333333333333
 30
0.0
 11
-1.336431816442575
 21
-2.370333333333333
 31
0.0
  0
LINE
  5
12A
330
FC
100
AcDbEntity
  8
AM_9
100
AcDbLine
 10
1.336431816442575
 20
-1.930333333333333
 30
0.0
 11
1.593048406283363
 21
-1.930333333333333
 31
0.0
  0
LINE
  5
12B
330
FC
100
AcDbEntity
  8
AM_9
100
AcDbLine
 10
-1.593048406283363
 20
-1.930333333333333
 30
0.0
 11
-1.336431816442575
 21
-1.930333333333333
 31
0.0
  0
LINE
  5
12C
330
FC
100
AcDbEntity
  8
AM_9
100
AcDbLine
 10
2.0234375
 20
1.484375
 30
0.0
 11
-2.0234375
 21
1.484375
 31
0.0
  0
LINE
  5
12D
330
FC
100
AcDbEntity
  8
AM_9
100
AcDbLine
 10
-2.0234375
 20
1.509374999999999
 30
0.0
 11
-2.0234375
 21
1.484375
 31
0.0
  0
LINE
  5
12E
330
FC
100
AcDbEntity
  8
AM_9
100
AcDbLine
 10
2.0234375
 20
1.484375
 30
0.0
 11
2.0234375
 21
1.509374999999999
 31
0.0
  0
LINE
  5
12F
330
FC
100
AcDbEntity
  8
AM_9
100
AcDbLine
 10
0.0
 20
-1.530333333333333
 30
0.0
 11
-0.09795
 21
-1.576008168449616
 31
0.0
  0
LINE
  5
130
330
FC
100
AcDbEntity
  8
AM_9
100
AcDbLine
 10
0.09795
 20
-1.576008168449616
 30
0.0
 11
0.0
 21
-1.530333333333333
 31
0.0
  0
LINE
  5
131
330
FC
100
AcDbEntity
  8
AM_9
100
AcDbLine
 10
0.09795
 20
-1.576008168449616
 30
0.0
 11
-0.09795
 21
-1.576008168449616
 31
0.0
  0
LINE
  5
132
330
FC
100
AcDbEntity
  8
AM_9
100
AcDbLine
 10
-0.09795
 20
-1.576008168449616
 30
0.0
 11
-0.09795
 21
-2.343283333333333
 31
0.0
  0
LINE
  5
133
330
FC
100
AcDbEntity
  8
AM_9
100
AcDbLine
 10
0.09795
 20
-2.343283333333333
 30
0.0
 11
0.09795
 21
-1.576008168449616
 31
0.0
  0
LINE
  5
134
330
FC
100
AcDbEntity
  8
AM_9
100
AcDbLine
 10
2.196380876068376
 20
1.509375
 30
0.0
 11
-2.196380876050379
 21
1.509375
 31
0.0
  0
ARC
  5
135
330
FC
100
AcDbEntity
  8
AM_9
100
AcDbCircle
 10
-2.196380876068375
 20
1.457491987179486
 30
0.0
 40
0.0518830128205137
100
AcDbArc
 50
90.0
 51
180.0
  0
ARC
  5
136
330
FC
100
AcDbEntity
  8
AM_9
100
AcDbCircle
 10
2.196380876068375
 20
1.457491987179486
 30
0.0
 40
0.0518830128205137
100
AcDbArc
 50
0.0
 51
90.0
  0
LINE
  5
137
330
FC
100
AcDbEntity
  8
AM_9
100
AcDbLine
 10
2.248263888888889
 20
1.457491987179484
 30
0.0
 11
-2.248263888888889
 21
1.457491987179484
 31
0.0
  0
LINE
  5
138
330
FC
100
AcDbEntity
  8
AM_9
100
AcDbLine
 10
-2.248263888888889
 20
1.457491987179484
 30
0.0
 11
-2.248263888888889
 21
1.138874999999999
 31
0.0
  0
LINE
  5
139
330
FC
100
AcDbEntity
  8
AM_9
100
AcDbLine
 10
2.248263888888889
 20
1.138874999999999
 30
0.0
 11
2.248263888888889
 21
1.457491987179484
 31
0.0
  0
LINE
  5
13A
330
FC
100
AcDbEntity
  8
AM_9
100
AcDbLine
 10
0.09795
 20
-2.343283333333333
 30
0.0
 11
-0.09795
 21
-2.343283333333333
 31
0.0
  0
LINE
  5
13B
330
FC
100
AcDbEntity
  8
AM_9
100
AcDbLine
 10
-0.09795
 20
-2.343283333333333
 30
0.0
 11
-0.1249999999999999
 21
-2.370333333333333
 31
0.0
  0
LINE
  5
13C
330
FC
100
AcDbEntity
  8
AM_9
100
AcDbLine
 10
0.1249999999999999
 20
-2.370333333333333
 30
0.0
 11
0.09795
 21
-2.343283333333333
 31
0.0
  0
LINE
  5
13D
330
FC
100
AcDbEntity
  8
AM_9
100
AcDbLine
 10
2.529001335304881
 20
-1.53984375
 30
0.0
 11
2.554448754797947
 21
-0.811125
 31
0.0
  0
LINE
  5
13E
330
FC
100
AcDbEntity
  8
AM_9
100
AcDbLine
 10
-2.554448754797947
 20
-0.811125
 30
0.0
 11
-2.529001335304881
 21
-1.53984375
 31
0.0
  0
LINE
  5
13F
330
FC
100
AcDbEntity
  8
AM_9
100
AcDbLine
 10
2.704226135594408
 20
1.138875
 30
0.0
 11
-2.70422613559379
 21
1.138875
 31
0.0
  0
ARC
  5
140
330
FC
100
AcDbEntity
  8
AM_9
100
AcDbCircle
 10
-2.704226135594408
 20
1.038874999999998
 30
0.0
 40
0.1000000000000019
100
AcDbArc
 50
90.0
 51
149.9999999999995
  0
ARC
  5
141
330
FC
100
AcDbEntity
  8
AM_9
100
AcDbCircle
 10
2.704226135594408
 20
1.038874999999998
 30
0.0
 40
0.1000000000000015
100
AcDbArc
 50
30.00000000000055
 51
90.0
  0
LINE
  5
142
330
FC
100
AcDbEntity
  8
AM_9
100
AcDbLine
 10
2.790828675972853
 20
1.088875
 30
0.0
 11
-2.790828675972853
 21
1.088875
 31
0.0
  0
LINE
  5
143
330
FC
100
AcDbEntity
  8
AM_9
100
AcDbLine
 10
-2.790828675972853
 20
1.088875
 30
0.0
 11
-2.9496
 21
0.8138750000000001
 31
0.0
  0
LINE
  5
144
330
FC
100
AcDbEntity
  8
AM_9
100
AcDbLine
 10
2.9496
 20
0.8138750000000001
 30
0.0
 11
2.790828675972853
 21
1.088875
 31
0.0
  0
LINE
  5
145
330
FC
100
AcDbEntity
  8
AM_9
100
AcDbLine
 10
-3.06835
 20
0.0482847093716568
 30
0.0
 11
-3.06835
 21
-0.045534709371657
 31
0.0
  0
LINE
  5
146
330
FC
100
AcDbEntity
  8
AM_9
100
AcDbLine
 10
3.06835
 20
-0.045534709371657
 30
0.0
 11
3.06835
 21
0.0482847093716568
 31
0.0
  0
LINE
  5
147
330
FC
100
AcDbEntity
  8
AM_9
100
AcDbLine
 10
-3.1496
 20
-0.092444418743314
 30
0.0
 11
-3.1496
 21
-0.7611250000000005
 31
0.0
  0
LINE
  5
148
330
FC
100
AcDbEntity
  8
AM_9
100
AcDbLine
 10
3.1496
 20
-0.7611250000000005
 30
0.0
 11
3.1496
 21
-0.092444418743314
 31
0.0
  0
LINE
  5
149
330
FC
100
AcDbEntity
  8
AM_9
100
AcDbLine
 10
3.06835
 20
-0.045534709371657
 30
0.0
 11
-3.06835
 21
-0.045534709371657
 31
0.0
  0
LINE
  5
14A
330
FC
100
AcDbEntity
  8
AM_9
100
AcDbLine
 10
2.157844477774747
 20
-0.0924444187433138
 30
0.0
 11
-3.1496
 21
-0.092444418743314
 31
0.0
  0
LINE
  5
14B
330
FC
100
AcDbEntity
  8
AM_9
100
AcDbLine
 10
3.1496
 20
-0.092444418743314
 30
0.0
 11
2.162573679530459
 21
-0.0924444187433138
 31
0.0
  0
LINE
  5
14C
330
FC
100
AcDbEntity
  8
AM_9
100
AcDbLine
 10
-3.06835
 20
-0.045534709371657
 30
0.0
 11
-3.1496
 21
-0.092444418743314
 31
0.0
  0
LINE
  5
14D
330
FC
100
AcDbEntity
  8
AM_9
100
AcDbLine
 10
3.1496
 20
-0.092444418743314
 30
0.0
 11
3.06835
 21
-0.045534709371657
 31
0.0
  0
LINE
  5
14E
330
FC
100
AcDbEntity
  8
AM_9
100
AcDbLine
 10
-3.1496
 20
0.7638749999999997
 30
0.0
 11
-3.1496
 21
0.0951944187433143
 31
0.0
  0
LINE
  5
14F
330
FC
100
AcDbEntity
  8
AM_9
100
AcDbLine
 10
3.1496
 20
0.0951944187433143
 30
0.0
 11
3.1496
 21
0.7638749999999997
 31
0.0
  0
LINE
  5
150
330
FC
100
AcDbEntity
  8
AM_9
100
AcDbLine
 10
2.155413387976791
 20
0.0951944187433145
 30
0.0
 11
-3.1496
 21
0.0951944187433143
 31
0.0
  0
LINE
  5
151
330
FC
100
AcDbEntity
  8
AM_9
100
AcDbLine
 10
3.1496
 20
0.0951944187433143
 30
0.0
 11
2.162248103637198
 21
0.0951944187433145
 31
0.0
  0
LINE
  5
152
330
FC
100
AcDbEntity
  8
AM_9
100
AcDbLine
 10
3.06835
 20
0.0482847093716568
 30
0.0
 11
-3.06835
 21
0.0482847093716568
 31
0.0
  0
LINE
  5
153
330
FC
100
AcDbEntity
  8
AM_9
100
AcDbLine
 10
3.06835
 20
0.0482847093716568
 30
0.0
 11
3.1496
 21
0.0951944187433143
 31
0.0
  0
LINE
  5
154
330
FC
100
AcDbEntity
  8
AM_9
100
AcDbLine
 10
-3.1496
 20
0.0951944187433143
 30
0.0
 11
-3.06835
 21
0.0482847093716568
 31
0.0
  0
LINE
  5
155
330
FC
100
AcDbEntity
  8
AM_9
100
AcDbLine
 10
3.0996
 20
0.8138750000000001
 30
0.0
 11
-3.099599999996849
 21
0.8138750000000001
 31
0.0
  0
LINE
  5
156
330
FC
100
AcDbEntity
  8
AM_9
100
AcDbLine
 10
3.1496
 20
0.7638749999999997
 30
0.0
 11
-3.1496
 21
0.7638749999999997
 31
0.0
  0
ARC
  5
157
330
FC
100
AcDbEntity
  8
AM_9
100
AcDbCircle
 10
-3.0996
 20
0.7638750000000009
 30
0.0
 40
0.0499999999999993
100
AcDbArc
 50
90.0
 51
180.0
  0
ARC
  5
158
330
FC
100
AcDbEntity
  8
AM_9
100
AcDbCircle
 10
3.0996
 20
0.7638750000000009
 30
0.0
 40
0.0499999999999994
100
AcDbArc
 50
0.0
 51
90.0
  0
LINE
  5
159
330
FC
100
AcDbEntity
  8
AM_9
100
AcDbLine
 10
3.1496
 20
-0.7611250000000005
 30
0.0
 11
-3.1496
 21
-0.7611250000000005
 31
0.0
  0
LINE
  5
15A
330
FC
100
AcDbEntity
  8
AM_9
100
AcDbLine
 10
3.0996
 20
-0.8111250000000002
 30
0.0
 11
-3.099599999996849
 21
-0.8111250000000002
 31
0.0
  0
ARC
  5
15B
330
FC
100
AcDbEntity
  8
AM_9
100
AcDbCircle
 10
-3.0996
 20
-0.7611250000000007
 30
0.0
 40
0.0499999999999994
100
AcDbArc
 50
180.0
 51
270.0
  0
ARC
  5
15C
330
FC
100
AcDbEntity
  8
AM_9
100
AcDbCircle
 10
3.0996
 20
-0.7611250000000007
 30
0.0
 40
0.0499999999999995
100
AcDbArc
 50
270.0
 51
0.0
  0
LINE
  5
15D
330
FC
100
AcDbEntity
  8
AM_5
100
AcDbLine
 10
0.1249999999999999
 20
-1.610333333333333
 30
0.0
 11
0.09795
 21
-1.594716008551754
 31
0.0
  0
LINE
  5
15E
330
FC
100
AcDbEntity
  8
AM_5
100
AcDbLine
 10
0.09795
 20
-1.610333333333346
 30
0.0
 11
0.1249999999999999
 21
-1.610333333333346
 31
0.0
  0
LINE
  5
15F
330
FC
100
AcDbEntity
  8
AM_5
100
AcDbLine
 10
-0.09795
 20
-1.610333333333346
 30
0.0
 11
-0.1249999999999999
 21
-1.610333333333346
 31
0.0
  0
LINE
  5
160
330
FC
100
AcDbEntity
  8
AM_5
100
AcDbLine
 10
-0.1249999999999999
 20
-1.610333333333346
 30
0.0
 11
-0.09795
 21
-1.594716008551766
 31
0.0
  0
ARC
  5
161
330
FC
100
AcDbEntity
  8
AM_4
100
AcDbCircle
 10
2.451715561259646
 20
-2.320333333333333
 30
0.0
 40
0.0500000000000007
100
AcDbArc
 50
270.0
 51
357.9999999999991
  0
ARC
  5
162
330
FC
100
AcDbEntity
  8
AM_4
100
AcDbCircle
 10
-2.451715561259646
 20
-2.320333333333333
 30
0.0
 40
0.0500000000000003
100
AcDbArc
 50
182.0000000000008
 51
270.0
  0
LWPOLYLINE
  5
163
330
FC
100
AcDbEntity
  8
AM_4
100
AcDbPolyline
 90
        6
 70
     0
 43
0.0
 10
1.936880151435482
 20
-2.322078308168459
 10
1.934486066876636
 20
-2.338454277847101
 10
1.928394861241001
 20
-2.352794505113438
 10
1.919278208205407
 20
-2.363517061431032
 10
1.908118701042668
 20
-2.369422213756794
 10
1.90136493504007
 20
-2.370333333333333
  0
LWPOLYLINE
  5
164
330
FC
100
AcDbEntity
  8
AM_4
100
AcDbPolyline
 90
        6
 70
     0
 43
0.0
 10
-1.901364935040069
 20
-2.370333333333333
 10
-1.906574535217859
 20
-2.36979324476616
 10
-1.917978192677443
 20
-2.364533839127761
 10
-1.927485891094621
 20
-2.354235702644239
 10
-1.934003513616657
 20
-2.340111909572901
 10
-1.936880151435481
 20
-2.322078308168459
  0
LINE
  5
165
330
FC
100
AcDbEntity
  8
AM_4
100
AcDbLine
 10
-0.7235078689209181
 20
-2.6875
 30
0.0
 11
-0.7235078689209178
 21
-2.440333333333333
 31
0.0
  0
LINE
  5
166
330
FC
100
AcDbEntity
  8
AM_4
100
AcDbLine
 10
-0.5247322847707345
 20
-2.6875
 30
0.0
 11
-0.5247322847707344
 21
-2.440333333333333
 31
0.0
  0
LINE
  5
167
330
FC
100
AcDbEntity
  8
AM_4
100
AcDbLine
 10
-0.7557021678985559
 20
-2.440333333333333
 30
0.0
 11
-0.7557021678985558
 21
-2.6875
 31
0.0
  0
LINE
  5
168
330
FC
100
AcDbEntity
  8
AM_4
100
AcDbLine
 10
-1.677631578947369
 20
-2.440333333333333
 30
0.0
 11
-1.677631578947369
 21
-2.6875
 31
0.0
  0
LINE
  5
169
330
FC
100
AcDbEntity
  8
AM_4
100
AcDbLine
 10
1.677631578947369
 20
-2.6875
 30
0.0
 11
1.677631578947369
 21
-2.440333333333333
 31
0.0
  0
LINE
  5
16A
330
FC
100
AcDbEntity
  8
AM_4
100
AcDbLine
 10
1.677631578947369
 20
-2.6875
 30
0.0
 11
-1.677631578947369
 21
-2.6875
 31
0.0
  0
LINE
  5
16B
330
FC
100
AcDbEntity
  8
AM_4
100
AcDbLine
 10
1.689985207035849
 20
-1.930333333333333
 30
0.0
 11
1.689985207035849
 21
-2.370333333333333
 31
0.0
  0
LINE
  5
16C
330
FC
100
AcDbEntity
  8
AM_4
100
AcDbLine
 10
-1.689985207035848
 20
-1.930333333333333
 30
0.0
 11
-1.689985207035848
 21
-2.370333333333333
 31
0.0
  0
LWPOLYLINE
  5
16D
330
FC
100
AcDbEntity
  8
AM_4
100
AcDbPolyline
 90
        6
 70
     0
 43
0.0
 10
1.547811544446796
 20
-2.370333333333333
 10
1.553021144624585
 20
-2.36979324476616
 10
1.56442480208417
 20
-2.364533839127761
 10
1.573932500501348
 20
-2.35423570264424
 10
1.580450123023384
 20
-2.340111909572901
 10
1.583326760842208
 20
-2.322078308168459
  0
LWPOLYLINE
  5
16E
330
FC
100
AcDbEntity
  8
AM_4
100
AcDbPolyline
 90
        6
 70
     0
 43
0.0
 10
-1.583326760842207
 20
-2.322078308168459
 10
-1.580932676283362
 20
-2.338454277847101
 10
-1.574841470647727
 20
-2.352794505113438
 10
-1.565724817612132
 20
-2.363517061431032
 10
-1.554565310449393
 20
-2.369422213756794
 10
-1.547811544446795
 20
-2.370333333333333
  0
LINE
  5
16F
330
FC
100
AcDbEntity
  8
AM_4
100
AcDbLine
 10
-1.936880151435481
 20
-2.322078308168459
 30
0.0
 11
-2.501685102610601
 21
-2.322078308168459
 31
0.0
  0
LINE
  5
170
330
FC
100
AcDbEntity
  8
AM_4
100
AcDbLine
 10
-1.936880151435481
 20
-2.322078308168459
 30
0.0
 11
-1.946601796876636
 21
-1.930333333333333
 31
0.0
  0
LINE
  5
171
330
FC
100
AcDbEntity
  8
AM_4
100
AcDbLine
 10
-1.946601796876636
 20
-1.930333333333333
 30
0.0
 11
-1.593048406283363
 21
-1.930333333333333
 31
0.0
  0
LINE
  5
172
330
FC
100
AcDbEntity
  8
AM_4
100
AcDbLine
 10
-1.593048406283363
 20
-1.930333333333333
 30
0.0
 11
-1.583326760842207
 21
-2.322078308168459
 31
0.0
  0
LINE
  5
173
330
FC
100
AcDbEntity
  8
AM_4
100
AcDbLine
 10
1.583326760842208
 20
-2.322078308168459
 30
0.0
 11
-1.583326760842207
 21
-2.322078308168459
 31
0.0
  0
LINE
  5
174
330
FC
100
AcDbEntity
  8
AM_4
100
AcDbLine
 10
1.583326760842208
 20
-2.322078308168459
 30
0.0
 11
1.593048406283363
 21
-1.930333333333333
 31
0.0
  0
LINE
  5
175
330
FC
100
AcDbEntity
  8
AM_4
100
AcDbLine
 10
1.593048406283363
 20
-1.930333333333333
 30
0.0
 11
1.946601796876637
 21
-1.930333333333333
 31
0.0
  0
LINE
  5
176
330
FC
100
AcDbEntity
  8
AM_4
100
AcDbLine
 10
1.946601796876637
 20
-1.930333333333333
 30
0.0
 11
1.936880151435482
 21
-2.322078308168459
 31
0.0
  0
LINE
  5
177
330
FC
100
AcDbEntity
  8
AM_4
100
AcDbLine
 10
2.501685102610601
 20
-2.322078308168459
 30
0.0
 11
2.529001335304881
 21
-1.53984375
 31
0.0
  0
LINE
  5
178
330
FC
100
AcDbEntity
  8
AM_4
100
AcDbLine
 10
-2.529001335304881
 20
-1.53984375
 30
0.0
 11
-2.501685102610601
 21
-2.322078308168459
 31
0.0
  0
LINE
  5
179
330
FC
100
AcDbEntity
  8
AM_4
100
AcDbLine
 10
2.501685102610601
 20
-2.322078308168459
 30
0.0
 11
1.936880151435482
 21
-2.322078308168459
 31
0.0
  0
ENDBLK
  5
FF
330
FC
100
AcDbEntity
  8
0
100
AcDbBlockEnd
  0
BLOCK
  5
17C
330
17A
100
AcDbEntity
  8
0
100
AcDbBlockBegin
  2
6_405015E_Inch_0_in_069421_4
 70
     2
 10
0.0
 20
0.0
 30
0.0
  3
6_405015E_Inch_0_in_069421_4
  1

  0
ATTDEF
  5
17E
330
17A
100
AcDbEntity
  8
AM_6
100
AcDbText
 10
7.201421671481427
 20
0.2525907427704614
 30
0.0
 40
0.5
  1
405015E -Inch
100
AcDbAttributeDefinition
  3

  2
NN
 70
     8
280
     0
  0
ATTDEF
  5
17F
330
17A
100
AcDbEntity
  8
AM_6
100
AcDbText
 10
7.201421671481427
 20
-0.2474092572295386
 30
0.0
 40
0.5
  1
Grease Fitting
100
AcDbAttributeDefinition
  3

  2
NT
 70
     8
280
     0
  0
ATTDEF
  5
180
330
17A
100
AcDbEntity
  8
AM_6
100
AcDbText
 10
7.201421671481427
 20
-0.7474092572295385
 30
0.0
 40
0.5
  1
405015E-Inch
100
AcDbAttributeDefinition
  3

  2
NB
 70
     8
280
     0
  0
ATTDEF
  5
181
330
17A
100
AcDbEntity
  8
AM_6
100
AcDbText
 10
7.201421671481427
 20
-1.247409257229539
 30
0.0
 40
0.5
  1
$MN.-Inch
100
AcDbAttributeDefinition
  3

  2
NBSYN
 70
     8
280
     0
  0
ATTDEF
  5
182
330
17A
100
AcDbEntity
  8
AM_6
100
AcDbText
 10
7.201421671481427
 20
-1.747409257229539
 30
0.0
 40
0.5
  1
405015E
100
AcDbAttributeDefinition
  3

  2
LINA
 70
     8
280
     0
  0
ATTDEF
  5
183
330
17A
100
AcDbEntity
  8
AM_6
100
AcDbText
 10
7.201421671481427
 20
-2.247409257229538
 30
0.0
 40
0.5
  1
405015E
100
AcDbAttributeDefinition
  3

  2
MN
 70
     8
280
     0
  0
ATTDEF
  5
184
330
17A
100
AcDbEntity
  8
AM_6
100
AcDbText
 10
7.201421671481427
 20
-2.747409257229538
 30
0.0
 40
0.5
  1
1/8 x 27PTF
100
AcDbAttributeDefinition
  3

  2
T
 70
     8
280
     0
  0
ATTDEF
  5
185
330
17A
100
AcDbEntity
  8
AM_6
100
AcDbText
 10
7.201421671481427
 20
-3.247409257229538
 30
0.0
 40
0.5
  1
baldor
100
AcDbAttributeDefinition
  3

  2
COMPANY
 70
     8
280
     0
  0
ELLIPSE
  5
186
330
17A
100
AcDbEntity
  8
AM_9
100
AcDbEllipse
 10
1.7925
 20
0.0000000000000002
 30
0.0
 11
9.913691727296317E-18
 21
0.161902872472269
 31
0.0
210
0.0
220
0.0
230
1.0
 40
0.8660254037844383
 41
0.0
 42
6.283185307179586
  0
LWPOLYLINE
  5
187
330
17A
100
AcDbEntity
  8
AM_9
100
AcDbPolyline
 90
        4
 70
     0
 43
0.0
 10
2.118976856926153
 20
-0.1262953713852304
 10
2.06850250203231
 20
-0.1577272497321274
 10
2.043848837232497
 20
-0.1735630385535386
 10
2.019721528538923
 20
-0.1894430570778458
  0
LWPOLYLINE
  5
188
330
17A
100
AcDbEntity
  8
AM_9
100
AcDbPolyline
 90
        4
 70
     0
 43
0.0
 10
2.114638344222457
 20
-0.0252951294900392
 10
2.115151837436414
 20
-0.0483998160558987
 10
2.117184263336767
 20
-0.0967996321117976
 10
2.118976856926153
 20
-0.1262953713852304
  0
LINE
  5
189
330
17A
100
AcDbEntity
  8
AM_9
100
AcDbLine
 10
2.114443057077846
 20
0.0000000000000002
 30
0.0
 11
2.114638344222457
 21
-0.0252951294900392
 31
0.0
  0
LWPOLYLINE
  5
18A
330
17A
100
AcDbEntity
  8
AM_9
100
AcDbPolyline
 90
        4
 70
     0
 43
0.0
 10
2.019721528538923
 20
0.1894430570778462
 10
2.043705617675653
 20
0.1736561356546923
 10
2.068278983200901
 20
0.1578692142315385
 10
2.118976856926153
 20
0.1262953713852308
  0
LINE
  5
18B
330
17A
100
AcDbEntity
  8
AM_9
100
AcDbLine
 10
2.114604891286133
 20
0.0230203374792831
 30
0.0
 11
2.114443057077846
 21
0.0000000000000002
 31
0.0
  0
LWPOLYLINE
  5
18C
330
17A
100
AcDbEntity
  8
AM_9
100
AcDbPolyline
 90
        4
 70
     0
 43
0.0
 10
2.118976856926153
 20
0.1262953713852308
 10
2.115650319552656
 20
0.0634316146914369
 10
2.114750337984959
 20
0.0317600370486145
 10
2.114604891286133
 20
0.0230203374792831
  0
LINE
  5
18D
330
17A
100
AcDbEntity
  8
AM_9
100
AcDbLine
 10
2.159909257229538
 20
-0.1262953713852304
 30
0.0
 11
2.118976856926153
 21
-0.1262953713852304
 31
0.0
  0
LINE
  5
18E
330
17A
100
AcDbEntity
  8
AM_9
100
AcDbLine
 10
2.159909257229538
 20
0.1262953713852308
 30
0.0
 11
2.118976856926153
 21
0.1262953713852308
 31
0.0
  0
LWPOLYLINE
  5
18F
330
17A
100
AcDbEntity
  8
AM_9
100
AcDbPolyline
 90
        3
 70
     0
 43
0.0
 10
2.162177294546634
 20
-0.0876639037391226
 10
2.16373014295631
 20
-0.0485424412477542
 10
2.164443057077846
 20
0.0000000000000002
  0
LWPOLYLINE
  5
190
330
17A
100
AcDbEntity
  8
AM_9
100
AcDbPolyline
 90
        4
 70
     0
 43
0.0
 10
2.164443057077846
 20
0.0000000000000002
 10
2.164139350075846
 20
0.0315738428463079
 10
2.163246366685329
 20
0.0631476856926155
 10
2.162167864371098
 20
0.0878529476487882
  0
LWPOLYLINE
  5
191
330
17A
100
AcDbEntity
  8
AM_9
100
AcDbPolyline
 90
        4
 70
     0
 43
0.0
 10
2.019721528538923
 20
-0.1894430570778458
 10
1.996344853406192
 20
-0.2052299785009996
 10
1.973557454661979
 20
-0.2210168999241534
 10
1.929533799848307
 20
-0.252590742770461
  0
LWPOLYLINE
  5
192
330
17A
100
AcDbEntity
  8
AM_9
100
AcDbPolyline
 90
        4
 70
     0
 43
0.0
 10
1.929533799848307
 20
0.2525907427704614
 10
1.973355079995155
 20
0.2211588644235645
 10
1.996208781659576
 20
0.2053230756021533
 10
2.019721528538923
 20
0.1894430570778462
  0
LINE
  5
193
330
17A
100
AcDbEntity
  8
AM_9
100
AcDbLine
 10
1.801546710626154
 20
-0.1983264404626877
 30
0.0
 11
1.91535489783229
 21
-0.2054502516015133
 31
0.0
  0
LINE
  5
194
330
17A
100
AcDbEntity
  8
AM_9
100
AcDbLine
 10
1.91535489783229
 20
0.2054502516015137
 30
0.0
 11
1.801546710626154
 21
0.1983264404626882
 31
0.0
  0
ELLIPSE
  5
195
330
17A
100
AcDbEntity
  8
AM_9
100
AcDbEllipse
 10
1.975000000000006
 20
-0.0000000000000011
 30
0.0
 11
-4.018372309702144E-17
 21
-0.2187499999999941
 31
0.0
210
0.0
220
0.0
230
1.0
 40
0.866025403784433
 41
1.032970329615029
 42
2.108622323974775
  0
ELLIPSE
  5
196
330
17A
100
AcDbEntity
  8
AM_9
100
AcDbEllipse
 10
1.974999999999999
 20
0.0000000000000002
 30
0.0
 11
-3.926523799766202E-17
 21
-0.2137500000000001
 31
0.0
210
0.0
220
0.0
230
1.0
 40
0.8660254037844397
 41
0.9862868522354082
 42
2.155305801354385
  0
ELLIPSE
  5
197
330
17A
100
AcDbEntity
  8
AM_9
100
AcDbEllipse
 10
1.984159099270441
 20
0.0000000000000002
 30
0.0
 11
-3.169399141454455E-17
 21
-0.1725340532830154
 31
0.0
210
0.0
220
0.0
230
1.0
 40
0.866025403784439
 41
0.6732704101475075
 42
2.468322243442286
  0
LINE
  5
198
330
17A
100
AcDbEntity
  8
AM_9
100
AcDbLine
 10
2.095
 20
0.0703562363973518
 30
0.0
 11
2.087760904853149
 21
0.0796165180238023
 31
0.0
  0
LINE
  5
199
330
17A
100
AcDbEntity
  8
AM_9
100
AcDbLine
 10
2.087760904853149
 20
-0.0796165180238018
 30
0.0
 11
2.095
 21
-0.0703562363973514
 31
0.0
  0
ELLIPSE
  5
19A
330
17A
100
AcDbEntity
  8
AM_9
100
AcDbEllipse
 10
2.011376560809286
 20
-0.0000000000000006
 30
0.0
 11
-2.182689656893370E-17
 21
-0.1188200907348984
 31
0.0
210
0.0
220
0.0
230
1.0
 40
0.8660254037844377
 41
0.0521714424106987
 42
3.089421211179096
  0
ELLIPSE
  5
19B
330
17A
100
AcDbEntity
  8
AM_9
100
AcDbEllipse
 10
2.02749999999999
 20
-0.0000000000000001
 30
0.0
 11
-1.928818708657075E-17
 21
-0.1049999999999997
 31
0.0
210
0.0
220
0.0
230
1.0
 40
0.8660254037844178
 41
5.858105981271792
 42
9.84985728667717
  0
LINE
  5
19C
330
17A
100
AcDbEntity
  8
AM_9
100
AcDbLine
 10
2.0275
 20
-0.1049999999999998
 30
0.0
 11
2.0425
 21
-0.1049999999999998
 31
0.0
  0
LINE
  5
19D
330
17A
100
AcDbEntity
  8
AM_9
100
AcDbLine
 10
2.0425
 20
0.1050000000000002
 30
0.0
 11
2.0275
 21
0.1050000000000002
 31
0.0
  0
ELLIPSE
  5
19E
330
17A
100
AcDbEntity
  8
AM_9
100
AcDbEllipse
 10
2.0425
 20
0.0000000000000002
 30
0.0
 11
-1.928818708657087E-17
 21
-0.1050000000000003
 31
0.0
210
0.0
220
0.0
230
1.0
 40
0.8660254037844384
 41
5.235987755982991
 42
10.47197551196597
  0
ELLIPSE
  5
19F
330
17A
100
AcDbEntity
  8
AM_9
100
AcDbEllipse
 10
2.072499999999999
 20
0.0000000000000002
 30
0.0
 11
-2.479909768273402E-17
 21
-0.1350000000000006
 31
0.0
210
0.0
220
0.0
230
1.0
 40
0.8660254037844404
 41
0.7751090107151262
 42
2.366483642874667
  0
ELLIPSE
  5
1A0
330
17A
100
AcDbEntity
  8
AM_9
100
AcDbEllipse
 10
1.925
 20
0.0
 30
0.0
 11
-4.018372309702261E-17
 21
-0.2187500000000004
 31
0.0
210
0.0
220
0.0
230
1.0
 40
0.8660254037844394
 41
0.0
 42
6.283185307179586
  0
ELLIPSE
  5
1A1
330
17A
100
AcDbEntity
  8
AM_9
100
AcDbEllipse
 10
1.924999999999645
 20
-0.0000000000000208
 30
0.0
 11
-3.779601035291297E-17
 21
-0.2057518972230906
 31
0.0
210
0.0
220
0.0
230
1.0
 40
0.8660254037843782
 41
0.0
 42
6.283185307179586
  0
ELLIPSE
  5
1A2
330
17A
100
AcDbEntity
  8
AM_9
100
AcDbEllipse
 10
1.810857377154286
 20
0.0000000000000433
 30
0.0
 11
-3.648546613377094E-17
 21
-0.1986176267811723
 31
0.0
210
0.0
220
0.0
230
1.0
 40
0.8660254037844164
 41
0.0
 42
6.283185307179586
  0
LWPOLYLINE
  5
1A3
330
17A
100
AcDbEntity
  8
AM_4
100
AcDbPolyline
 90
        4
 70
     0
 43
0.0
 10
2.069721528538923
 20
-0.1894430570778458
 10
2.093098203671654
 20
-0.1736561356546919
 10
2.115885602415867
 20
-0.1578692142315381
 10
2.159909257229538
 20
-0.1262953713852304
  0
LINE
  5
1A4
330
17A
100
AcDbEntity
  8
AM_4
100
AcDbLine
 10
2.159909257229538
 20
-0.1262953713852304
 30
0.0
 11
2.162177294546634
 21
-0.0876639037391226
 31
0.0
  0
LWPOLYLINE
  5
1A5
330
17A
100
AcDbEntity
  8
AM_4
100
AcDbPolyline
 90
        4
 70
     0
 43
0.0
 10
2.159909257229538
 20
0.1262953713852308
 10
2.11608797708269
 20
0.1577272497321278
 10
2.09323427541827
 20
0.173563038553539
 10
2.069721528538923
 20
0.1894430570778462
  0
LINE
  5
1A6
330
17A
100
AcDbEntity
  8
AM_4
100
AcDbLine
 10
2.162167864371098
 20
0.0878529476487882
 30
0.0
 11
2.159909257229538
 21
0.1262953713852308
 31
0.0
  0
LWPOLYLINE
  5
1A7
330
17A
100
AcDbEntity
  8
AM_4
100
AcDbPolyline
 90
        4
 70
     0
 43
0.0
 10
2.069721528538923
 20
0.1894430570778462
 10
2.045737439402192
 20
0.2052299785009999
 10
2.021164073876944
 20
0.2210168999241537
 10
1.970466200151693
 20
0.2525907427704614
  0
LWPOLYLINE
  5
1A8
330
17A
100
AcDbEntity
  8
AM_4
100
AcDbPolyline
 90
        4
 70
     0
 43
0.0
 10
1.970466200151693
 20
-0.252590742770461
 10
2.020940555045535
 20
-0.2211588644235641
 10
2.045594219845349
 20
-0.2053230756021529
 10
2.069721528538923
 20
-0.1894430570778458
  0
LWPOLYLINE
  5
1A9
330
17A
100
AcDbEntity
  8
AM_4
100
AcDbPolyline
 90
        4
 70
     0
 43
0.0
 10
1.970466200151693
 20
0.2525907427704614
 10
1.926644920004844
 20
0.2211588644235645
 10
1.903791218340424
 20
0.2053230756021533
 10
1.880278471461077
 20
0.1894430570778462
  0
LINE
  5
1AA
330
17A
100
AcDbEntity
  8
AM_4
100
AcDbLine
 10
1.970466200151693
 20
0.2525907427704614
 30
0.0
 11
1.929533799848307
 21
0.2525907427704614
 31
0.0
  0
LWPOLYLINE
  5
1AB
330
17A
100
AcDbEntity
  8
AM_4
100
AcDbPolyline
 90
        4
 70
     0
 43
0.0
 10
1.830278471461077
 20
0.1894430570778462
 10
1.854262560597807
 20
0.205229978501
 10
1.878835926123056
 20
0.2210168999241538
 10
1.929533799848307
 20
0.2525907427704614
  0
LWPOLYLINE
  5
1AC
330
17A
100
AcDbEntity
  8
AM_4
100
AcDbPolyline
 90
        4
 70
     0
 43
0.0
 10
1.740090742770461
 20
0.1262953713852309
 10
1.783912022917309
 20
0.1577272497321278
 10
1.80676572458173
 20
0.173563038553539
 10
1.830278471461077
 20
0.1894430570778462
  0
LINE
  5
1AD
330
17A
100
AcDbEntity
  8
AM_4
100
AcDbLine
 10
1.970466200151693
 20
-0.252590742770461
 30
0.0
 11
1.929533799848307
 21
-0.252590742770461
 31
0.0
  0
LWPOLYLINE
  5
1AE
330
17A
100
AcDbEntity
  8
AM_4
100
AcDbPolyline
 90
        4
 70
     0
 43
0.0
 10
1.880278471461077
 20
-0.1894430570778458
 10
1.903655146593808
 20
-0.2052299785009996
 10
1.926442545338021
 20
-0.2210168999241534
 10
1.970466200151693
 20
-0.252590742770461
  0
LWPOLYLINE
  5
1AF
330
17A
100
AcDbEntity
  8
AM_4
100
AcDbPolyline
 90
        4
 70
     0
 43
0.0
 10
1.830278471461077
 20
-0.1894430570778458
 10
1.806901796328346
 20
-0.1736561356546919
 10
1.784114397584133
 20
-0.1578692142315381
 10
1.740090742770461
 20
-0.1262953713852304
  0
LWPOLYLINE
  5
1B0
330
17A
100
AcDbEntity
  8
AM_4
100
AcDbPolyline
 90
        4
 70
     0
 43
0.0
 10
1.929533799848307
 20
-0.252590742770461
 10
1.879059444954464
 20
-0.2211588644235641
 10
1.854405780154651
 20
-0.2053230756021528
 10
1.830278471461077
 20
-0.1894430570778458
  0
LINE
  5
1B1
330
17A
100
AcDbEntity
  8
AM_4
100
AcDbLine
 10
1.781023143073847
 20
-0.1262953713852304
 30
0.0
 11
1.740090742770461
 21
-0.1262953713852304
 31
0.0
  0
LINE
  5
1B2
330
17A
100
AcDbEntity
  8
AM_4
100
AcDbLine
 10
1.781023143073847
 20
0.1262953713852309
 30
0.0
 11
1.740090742770461
 21
0.1262953713852309
 31
0.0
  0
LWPOLYLINE
  5
1B3
330
17A
100
AcDbEntity
  8
AM_4
100
AcDbPolyline
 90
        4
 70
     0
 43
0.0
 10
1.735556942922154
 20
0.0000000000000002
 10
1.735860649924153
 20
0.0315738428463079
 10
1.736753633314671
 20
0.0631476856926155
 10
1.740090742770461
 20
0.1262953713852309
  0
LWPOLYLINE
  5
1B4
330
17A
100
AcDbEntity
  8
AM_4
100
AcDbPolyline
 90
        4
 70
     0
 43
0.0
 10
1.740090742770461
 20
-0.1262953713852304
 10
1.738298149181076
 20
-0.0967996321117976
 10
1.73626985704369
 20
-0.0485424412477541
 10
1.735556942922154
 20
0.0000000000000002
  0
LWPOLYLINE
  5
1B5
330
17A
100
AcDbEntity
  8
AM_4
100
AcDbPolyline
 90
        4
 70
     0
 43
0.0
 10
1.785556942922154
 20
0.0000000000000002
 10
1.784848162563585
 20
-0.0483998160558987
 10
1.782815736663232
 20
-0.0967996321117976
 10
1.781023143073847
 20
-0.1262953713852304
  0
LWPOLYLINE
  5
1B6
330
17A
100
AcDbEntity
  8
AM_4
100
AcDbPolyline
 90
        4
 70
     0
 43
0.0
 10
1.781023143073847
 20
-0.1262953713852304
 10
1.831497497967689
 20
-0.1577272497321274
 10
1.856151162767503
 20
-0.1735630385535386
 10
1.880278471461077
 20
-0.1894430570778458
  0
ELLIPSE
  5
1B7
330
17A
100
AcDbEntity
  8
AM_4
100
AcDbEllipse
 10
1.975000000000001
 20
0.0000000000000005
 30
0.0
 11
-4.018372309702262E-17
 21
-0.2187500000000005
 31
0.0
210
0.0
220
0.0
230
1.0
 40
0.86602540378444
 41
2.108622323974758
 42
7.316155636794622
  0
LWPOLYLINE
  5
1B8
330
17A
100
AcDbEntity
  8
AM_4
100
AcDbPolyline
 90
        4
 70
     0
 43
0.0
 10
1.880278471461077
 20
0.1894430570778462
 10
1.856294382324347
 20
0.1736561356546924
 10
1.831721016799098
 20
0.1578692142315385
 10
1.781023143073847
 20
0.1262953713852309
  0
LWPOLYLINE
  5
1B9
330
17A
100
AcDbEntity
  8
AM_4
100
AcDbPolyline
 90
        4
 70
     0
 43
0.0
 10
1.781023143073847
 20
0.1262953713852309
 10
1.784349680447344
 20
0.0634316146914369
 10
1.78524966201504
 20
0.0317600370486145
 10
1.785556942922154
 20
0.0000000000000002
  0
ELLIPSE
  5
1BA
330
17A
100
AcDbEntity
  8
AM_4
100
AcDbEllipse
 10
1.975000000000001
 20
0.0000000000000022
 30
0.0
 11
-3.926523799766165E-17
 21
-0.2137499999999981
 31
0.0
210
0.0
220
0.0
230
1.0
 40
0.8660254037844385
 41
2.155305801354379
 42
7.269472159414985
  0
ELLIPSE
  5
1BB
330
17A
100
AcDbEntity
  8
AM_4
100
AcDbEllipse
 10
1.984159099270442
 20
0.0000000000000009
 30
0.0
 11
-3.169399141454443E-17
 21
-0.1725340532830147
 31
0.0
210
0.0
220
0.0
230
1.0
 40
0.8660254037844385
 41
2.468322243442289
 42
6.956455717327085
  0
ELLIPSE
  5
1BC
330
17A
100
AcDbEntity
  8
AM_4
100
AcDbEllipse
 10
2.011376560809286
 20
0.0000000000000002
 30
0.0
 11
-2.182689656893355E-17
 21
-0.1188200907348975
 31
0.0
210
0.0
220
0.0
230
1.0
 40
0.8660254037844325
 41
3.089421211179106
 42
6.335356749590279
  0
ELLIPSE
  5
1BD
330
17A
100
AcDbEntity
  8
AM_4
100
AcDbEllipse
 10
2.027499999999999
 20
0.0000000000000002
 30
0.0
 11
-1.928818708657076E-17
 21
-0.1049999999999997
 31
0.0
210
0.0
220
0.0
230
1.0
 40
0.8660254037844388
 41
3.566671979497668
 42
5.858105981271711
  0
LINE
  5
1BE
330
17A
100
AcDbEntity
  8
AM_4
100
AcDbLine
 10
1.96375
 20
-0.0524999999999999
 30
0.0
 11
1.97125
 21
-0.0675
 31
0.0
  0
LINE
  5
1BF
330
17A
100
AcDbEntity
  8
AM_4
100
AcDbLine
 10
1.97125
 20
0.0675000000000004
 30
0.0
 11
1.96375
 21
0.0525000000000003
 31
0.0
  0
ELLIPSE
  5
1C0
330
17A
100
AcDbEntity
  8
AM_4
100
AcDbEllipse
 10
2.042500000000001
 20
0.0000000000000002
 30
0.0
 11
-1.928818708657075E-17
 21
-0.1049999999999997
 31
0.0
210
0.0
220
0.0
230
1.0
 40
0.8660254037844561
 41
4.188790204786388
 42
5.235987755982991
  0
LINE
  5
1C1
330
17A
100
AcDbEntity
  8
AM_4
100
AcDbLine
 10
2.174726847792107
 20
0.073347420521869
 30
0.0
 11
2.154315310731619
 21
0.0964365416902994
 31
0.0
  0
LINE
  5
1C2
330
17A
100
AcDbEntity
  8
AM_4
100
AcDbLine
 10
2.154315310731619
 20
-0.0964365416902989
 30
0.0
 11
2.174726847792107
 21
-0.0733474205218685
 31
0.0
  0
ELLIPSE
  5
1C3
330
17A
100
AcDbEntity
  8
AM_4
100
AcDbEllipse
 10
2.0725
 20
-0.0000000000000004
 30
0.0
 11
-2.479909768273399E-17
 21
-0.1350000000000005
 31
0.0
210
0.0
220
0.0
230
1.0
 40
0.8660254037844348
 41
2.366483642874675
 42
7.05829431789471
  0
ELLIPSE
  5
1C4
330
17A
100
AcDbEntity
  8
AM_4
100
AcDbEllipse
 10
2.1125
 20
0.0000000000000003
 30
0.0
 11
-1.886162459184657E-17
 21
-0.1026779019331874
 31
0.0
210
0.0
220
0.0
230
1.0
 40
0.8660254037844362
 41
0.0
 42
6.283185307179586
  0
ENDBLK
  5
17D
330
17A
100
AcDbEntity
  8
0
100
AcDbBlockEnd
  0
BLOCK
  5
1C7
330
1C5
100
AcDbEntity
  8
0
100
AcDbBlockBegin
  2
7_069421H_0_in_069421_4
 70
     2
 10
0.0
 20
0.0
 30
0.0
  3
7_069421H_0_in_069421_4
  1

  0
ATTDEF
  5
1C9
330
1C5
100
AcDbEntity
  8
AM_6
100
AcDbText
 10
11.5
 20
1.88203125
 30
0.0
 40
0.5
  1
P2B-IP -(Contact Seal)-Housing -Inch
100
AcDbAttributeDefinition
  3

  2
NN
 70
     8
280
     0
  0
ATTDEF
  5
1CA
330
1C5
100
AcDbEntity
  8
AM_6
100
AcDbText
 10
11.5
 20
1.38203125
 30
0.0
 40
0.5
  1
Imperial 2 Bolt Piliow Block Bearings
100
AcDbAttributeDefinition
  3

  2
NT
 70
     8
280
     0
  0
ATTDEF
  5
1CB
330
1C5
100
AcDbEntity
  8
AM_6
100
AcDbText
 10
11.5
 20
0.88203125
 30
0.0
 40
0.5
  1
069421H
100
AcDbAttributeDefinition
  3

  2
NB
 70
     8
280
     0
  0
ATTDEF
  5
1CC
330
1C5
100
AcDbEntity
  8
AM_6
100
AcDbText
 10
11.5
 20
0.38203125
 30
0.0
 40
0.5
  1
$PN.H
100
AcDbAttributeDefinition
  3

  2
NBSYN
 70
     8
280
     0
  0
ATTDEF
  5
1CD
330
1C5
100
AcDbEntity
  8
AM_6
100
AcDbText
 10
11.5
 20
-0.11796875
 30
0.0
 40
0.5
  1
069421
100
AcDbAttributeDefinition
  3

  2
LINA
 70
     8
280
     0
  0
ATTDEF
  5
1CE
330
1C5
100
AcDbEntity
  8
AM_6
100
AcDbText
 10
11.5
 20
-0.61796875
 30
0.0
 40
0.5
  1
3-3/16
100
AcDbAttributeDefinition
  3

  2
SS
 70
     8
280
     0
  0
ATTDEF
  5
1CF
330
1C5
100
AcDbEntity
  8
AM_6
100
AcDbText
 10
11.5
 20
-1.11796875
 30
0.0
 40
0.5
  1
069421
100
AcDbAttributeDefinition
  3

  2
PN
 70
     8
280
     0
  0
ATTDEF
  5
1D0
330
1C5
100
AcDbEntity
  8
AM_6
100
AcDbText
 10
11.5
 20
-1.61796875
 30
0.0
 40
0.5
  1
P2B-IP-303R
100
AcDbAttributeDefinition
  3

  2
DESCRIPTION
 70
     8
280
     0
  0
ATTDEF
  5
1D1
330
1C5
100
AcDbEntity
  8
AM_6
100
AcDbText
 10
11.5
 20
-2.11796875
 30
0.0
 40
0.5
  1
Non-Expansion Type
100
AcDbAttributeDefinition
  3

  2
EF
 70
     8
280
     0
  0
ATTDEF
  5
1D2
330
1C5
100
AcDbEntity
  8
AM_6
100
AcDbText
 10
11.5
 20
-2.61796875
 30
0.0
 40
0.5
  1
Contact  Seal
100
AcDbAttributeDefinition
  3

  2
ST
 70
     8
280
     0
  0
ATTDEF
  5
1D3
330
1C5
100
AcDbEntity
  8
AM_6
100
AcDbText
 10
11.5
 20
-3.11796875
 30
0.0
 40
0.5
  1
4-11/64
100
AcDbAttributeDefinition
  3

  2
A
 70
     8
280
     0
  0
ATTDEF
  5
1D4
330
1C5
100
AcDbEntity
  8
AM_6
100
AcDbText
 10
11.5
 20
-3.61796875
 30
0.0
 40
0.5
  1
13
100
AcDbAttributeDefinition
  3

  2
B
 70
     8
280
     0
  0
ATTDEF
  5
1D5
330
1C5
100
AcDbEntity
  8
AM_6
100
AcDbText
 10
11.5
 20
-4.11796875
 30
0.0
 40
0.5
  1
3-27/64
100
AcDbAttributeDefinition
  3

  2
C
 70
     8
280
     0
  0
ATTDEF
  5
1D6
330
1C5
100
AcDbEntity
  8
AM_6
100
AcDbText
 10
11.5
 20
-4.61796875
 30
0.0
 40
0.5
  1
9-3/8
100
AcDbAttributeDefinition
  3

  2
DMIN
 70
     8
280
     0
  0
ATTDEF
  5
1D7
330
1C5
100
AcDbEntity
  8
AM_6
100
AcDbText
 10
11.5
 20
-5.11796875
 30
0.0
 40
0.5
  1
10-5/8
100
AcDbAttributeDefinition
  3

  2
DMAX
 70
     8
280
     0
  0
ATTDEF
  5
1D8
330
1C5
100
AcDbEntity
  8
AM_6
100
AcDbText
 10
11.5
 20
-5.61796875
 30
0.0
 40
0.5
  1
7/8
100
AcDbAttributeDefinition
  3

  2
F
 70
     8
280
     0
  0
ATTDEF
  5
1D9
330
1C5
100
AcDbEntity
  8
AM_6
100
AcDbText
 10
11.5
 20
-6.11796875
 30
0.0
 40
0.5
  1
1-5/8
100
AcDbAttributeDefinition
  3

  2
G
 70
     8
280
     0
  0
ATTDEF
  5
1DA
330
1C5
100
AcDbEntity
  8
AM_6
100
AcDbText
 10
11.5
 20
-6.61796875
 30
0.0
 40
0.5
  1
2-1/4
100
AcDbAttributeDefinition
  3

  2
H
 70
     8
280
     0
  0
ATTDEF
  5
1DB
330
1C5
100
AcDbEntity
  8
AM_6
100
AcDbText
 10
11.5
 20
-7.11796875
 30
0.0
 40
0.5
  1
7-1/2
100
AcDbAttributeDefinition
  3

  2
J
 70
     8
280
     0
  0
ATTDEF
  5
1DC
330
1C5
100
AcDbEntity
  8
AM_6
100
AcDbText
 10
11.5
 20
-7.61796875
 30
0.0
 40
0.5
  1
5
100
AcDbAttributeDefinition
  3

  2
L
 70
     8
280
     0
  0
ATTDEF
  5
1DD
330
1C5
100
AcDbEntity
  8
AM_6
100
AcDbText
 10
11.5
 20
-8.11796875
 30
0.0
 40
0.5
  1
3-3/4
100
AcDbAttributeDefinition
  3

  2
M
 70
     8
280
     0
  0
ATTDEF
  5
1DE
330
1C5
100
AcDbEntity
  8
AM_6
100
AcDbText
 10
11.5
 20
-8.61796875
 30
0.0
 40
0.5
  1
1-31/64
100
AcDbAttributeDefinition
  3

  2
R
 70
     8
280
     0
  0
ATTDEF
  5
1DF
330
1C5
100
AcDbEntity
  8
AM_6
100
AcDbText
 10
11.5
 20
-9.11796875
 30
0.0
 40
0.5
  1
2-11/16
100
AcDbAttributeDefinition
  3

  2
S
 70
     8
280
     0
  0
ATTDEF
  5
1E0
330
1C5
100
AcDbEntity
  8
AM_6
100
AcDbText
 10
11.5
 20
-9.61796875
 30
0.0
 40
0.5
  1
1/4
100
AcDbAttributeDefinition
  3

  2
X
 70
     8
280
     0
  0
ATTDEF
  5
1E1
330
1C5
100
AcDbEntity
  8
AM_6
100
AcDbText
 10
11.5
 20
-10.11796875
 30
0.0
 40
0.5
  1
0.025
100
AcDbAttributeDefinition
  3

  2
Y
 70
     8
280
     0
  0
ATTDEF
  5
1E2
330
1C5
100
AcDbEntity
  8
AM_6
100
AcDbText
 10
11.5
 20
-10.61796875
 30
0.0
 40
0.5
  1
4-3/64
100
AcDbAttributeDefinition
  3

  2
Z
 70
     8
280
     0
  0
ATTDEF
  5
1E3
330
1C5
100
AcDbEntity
  8
AM_6
100
AcDbText
 10
11.5
 20
-11.11796875
 30
0.0
 40
0.5
  1
baldor
100
AcDbAttributeDefinition
  3

  2
COMPANY
 70
     8
280
     0
  0
LINE
  5
1E4
330
1C5
100
AcDbEntity
  8
AM_9
100
AcDbLine
 10
3.1496
 20
-1.53984375
 30
0.0
 11
3.1496
 21
1.53984375
 31
0.0
  0
LINE
  5
1E5
330
1C5
100
AcDbEntity
  8
AM_9
100
AcDbLine
 10
-3.1496
 20
1.53984375
 30
0.0
 11
-3.1496
 21
-1.53984375
 31
0.0
  0
ELLIPSE
  5
1E6
330
1C5
100
AcDbEntity
  8
AM_9
100
AcDbEllipse
 10
1.874999999961104
 20
-0.0000000000226111
 30
0.0
 11
-9.184850994020511E-17
 21
-0.5000000000226112
 31
0.0
210
0.0
220
0.0
230
1.0
 40
0.8660254037844664
 41
3.136524017639751
 42
3.141592653589793
  0
ELLIPSE
  5
1E7
330
1C5
100
AcDbEntity
  8
AM_9
100
AcDbEllipse
 10
1.875
 20
0.0
 30
0.0
 11
-9.184850993605148E-17
 21
-0.5
 31
0.0
210
0.0
220
0.0
230
1.0
 40
0.8660254037844402
 41
0.0
 42
3.018037269968967
  0
LINE
  5
1E8
330
1C5
100
AcDbEntity
  8
AM_9
100
AcDbLine
 10
1.878141878970216
 20
0.499986830598498
 30
0.0
 11
1.875000000000001
 21
0.5000000000000001
 31
0.0
  0
LWPOLYLINE
  5
1E9
330
1C5
100
AcDbEntity
  8
AM_9
100
AcDbPolyline
 90
       27
 70
     0
 43
0.0
 10
1.925157799041813
 20
-0.4966038089795073
 10
1.969995830476296
 20
-0.4875652369707059
 10
2.015481334102753
 20
-0.4721939258987552
 10
2.058732206922897
 20
-0.4510604659883565
 10
2.099477352971078
 20
-0.4242015635676031
 10
2.137306657274895
 20
-0.3920041326619295
 10
2.171591950102034
 20
-0.3550642109680168
 10
2.202259469071627
 20
-0.3133209950692641
 10
2.228864961241233
 20
-0.2674902417003729
 10
2.250975463346785
 20
-0.2184236127284125
 10
2.268386223861138
 20
-0.1665096901985107
 10
2.281024828704192
 20
-0.1123006212734702
 10
2.288682741786774
 20
-0.0568271617803539
 10
2.291240818541788
 20
-0.0010450219956541
 10
2.288823687156923
 20
0.0549269415526866
 10
2.281471021018271
 20
0.1100285998640005
 10
2.269228491930526
 20
0.1635136894656412
 10
2.252222514445004
 20
0.2151207497125944
 10
2.230725495646533
 20
0.2638986974491533
 10
2.204657263541445
 20
0.3096212873799818
 10
2.174368274213028
 20
0.3516140596136631
 10
2.140348663324138
 20
0.3891053812035884
 10
2.102534776159692
 20
0.4218798792562427
 10
2.061470505616062
 20
0.4494347539867474
 10
2.01786548297723
 20
0.4712447618669874
 10
1.97218498014218
 20
0.4869723040234339
 10
1.92489079086423
 20
0.4966401552717719
  0
LINE
  5
1EC
330
1C5
100
AcDbEntity
  8
AM_7
100
AcDbLine
 10
0.0
 20
1.88203125
 30
0.0
 11
0.0
 21
-2.897343750000001
 31
0.0
  0
LINE
  5
1ED
330
1C5
100
AcDbEntity
  8
AM_7
100
AcDbLine
 10
-5.771874999999998
 20
0.0000000000000007
 30
0.0
 11
-4.228125
 21
0.0000000000000005
 31
0.0
  0
LINE
  5
1EE
330
1C5
100
AcDbEntity
  8
AM_7
100
AcDbLine
 10
-4.6875
 20
-0.4593749999999995
 30
0.0
 11
-4.6875
 21
0.4593750000000005
 31
0.0
  0
LINE
  5
1EF
330
1C5
100
AcDbEntity
  8
AM_7
100
AcDbLine
 10
4.228125
 20
-0.0000000000000001
 30
0.0
 11
5.771874999999998
 21
-0.0000000000000002
 31
0.0
  0
LINE
  5
1F0
330
1C5
100
AcDbEntity
  8
AM_7
100
AcDbLine
 10
4.6875
 20
-0.4593750000000002
 30
0.0
 11
4.6875
 21
0.4593749999999999
 31
0.0
  0
LINE
  5
1F1
330
1C5
100
AcDbEntity
  8
AM_7
100
AcDbLine
 10
-5.312499999999998
 20
-0.4593749999999994
 30
0.0
 11
-5.312499999999998
 21
0.4593750000000007
 31
0.0
  0
LINE
  5
1F2
330
1C5
100
AcDbEntity
  8
AM_7
100
AcDbLine
 10
5.312499999999998
 20
-0.4593750000000002
 30
0.0
 11
5.312499999999998
 21
0.4593749999999999
 31
0.0
  0
LINE
  5
1F3
330
1C5
100
AcDbEntity
  8
AM_4
100
AcDbLine
 10
6.5
 20
1.36875
 30
0.0
 11
6.1578125
 21
1.7109375
 31
0.0
  0
LINE
  5
1F4
330
1C5
100
AcDbEntity
  8
AM_4
100
AcDbLine
 10
6.5
 20
-1.36875
 30
0.0
 11
6.5
 21
1.36875
 31
0.0
  0
LINE
  5
1F5
330
1C5
100
AcDbEntity
  8
AM_4
100
AcDbLine
 10
6.1578125
 20
-1.7109375
 30
0.0
 11
6.5
 21
-1.36875
 31
0.0
  0
LINE
  5
1F6
330
1C5
100
AcDbEntity
  8
AM_4
100
AcDbLine
 10
6.1578125
 20
1.7109375
 30
0.0
 11
4.146093749999999
 21
1.7109375
 31
0.0
  0
LINE
  5
1F7
330
1C5
100
AcDbEntity
  8
AM_4
100
AcDbLine
 10
6.1578125
 20
-1.7109375
 30
0.0
 11
4.14609375
 21
-1.7109375
 31
0.0
  0
LINE
  5
1F8
330
1C5
100
AcDbEntity
  8
AM_4
100
AcDbLine
 10
5.312499999999998
 20
0.4374999999999998
 30
0.0
 11
4.6875
 21
0.4374999999999998
 31
0.0
  0
ARC
  5
1F9
330
1C5
100
AcDbEntity
  8
AM_4
100
AcDbCircle
 10
5.312499999999998
 20
-0.0000000000000003
 30
0.0
 40
0.4374999999999998
100
AcDbArc
 50
270.0
 51
90.0
  0
LINE
  5
1FA
330
1C5
100
AcDbEntity
  8
AM_4
100
AcDbLine
 10
4.6875
 20
-0.4375
 30
0.0
 11
5.3125
 21
-0.4375000000000001
 31
0.0
  0
ARC
  5
1FB
330
1C5
100
AcDbEntity
  8
AM_4
100
AcDbCircle
 10
4.6875
 20
-0.0000000000000001
 30
0.0
 40
0.4374999999999999
100
AcDbArc
 50
90.0
 51
270.0
  0
LINE
  5
1FC
330
1C5
100
AcDbEntity
  8
AM_4
100
AcDbLine
 10
6.275
 20
-1.59375
 30
0.0
 11
6.275
 21
1.59375
 31
0.0
  0
LINE
  5
1FD
330
1C5
100
AcDbEntity
  8
AM_4
100
AcDbLine
 10
-6.1578125
 20
1.7109375
 30
0.0
 11
-6.5
 21
1.36875
 31
0.0
  0
LINE
  5
1FE
330
1C5
100
AcDbEntity
  8
AM_4
100
AcDbLine
 10
-6.5
 20
-1.36875
 30
0.0
 11
-6.5
 21
1.36875
 31
0.0
  0
LINE
  5
1FF
330
1C5
100
AcDbEntity
  8
AM_4
100
AcDbLine
 10
-6.5
 20
-1.36875
 30
0.0
 11
-6.1578125
 21
-1.7109375
 31
0.0
  0
LINE
  5
200
330
1C5
100
AcDbEntity
  8
AM_4
100
AcDbLine
 10
-4.14609375
 20
-1.7109375
 30
0.0
 11
-6.1578125
 21
-1.7109375
 31
0.0
  0
LINE
  5
201
330
1C5
100
AcDbEntity
  8
AM_4
100
AcDbLine
 10
-4.14609375
 20
1.7109375
 30
0.0
 11
-6.1578125
 21
1.7109375
 31
0.0
  0
LINE
  5
202
330
1C5
100
AcDbEntity
  8
AM_4
100
AcDbLine
 10
-4.6875
 20
0.4375000000000004
 30
0.0
 11
-5.312499999999998
 21
0.4375000000000006
 31
0.0
  0
ARC
  5
203
330
1C5
100
AcDbEntity
  8
AM_4
100
AcDbCircle
 10
-4.6875
 20
0.0000000000000004
 30
0.0
 40
0.4374999999999999
100
AcDbArc
 50
270.0
 51
90.0
  0
LINE
  5
204
330
1C5
100
AcDbEntity
  8
AM_4
100
AcDbLine
 10
-5.312499999999998
 20
-0.4374999999999994
 30
0.0
 11
-4.6875
 21
-0.4374999999999994
 31
0.0
  0
ARC
  5
205
330
1C5
100
AcDbEntity
  8
AM_4
100
AcDbCircle
 10
-5.312499999999998
 20
0.0000000000000007
 30
0.0
 40
0.4374999999999999
100
AcDbArc
 50
90.0
 51
270.0
  0
LINE
  5
206
330
1C5
100
AcDbEntity
  8
AM_4
100
AcDbLine
 10
-6.275
 20
-1.59375
 30
0.0
 11
-6.275
 21
1.593749999999999
 31
0.0
  0
LINE
  5
207
330
1C5
100
AcDbEntity
  8
AM_4
100
AcDbLine
 10
-3.8175
 20
-1.222098214285715
 30
0.0
 11
-3.8175
 21
1.222098214285714
 31
0.0
  0
LINE
  5
208
330
1C5
100
AcDbEntity
  8
AM_4
100
AcDbLine
 10
3.8175
 20
-1.222098214285715
 30
0.0
 11
3.8175
 21
1.222098214285714
 31
0.0
  0
LINE
  5
209
330
1C5
100
AcDbEntity
  8
AM_4
100
AcDbLine
 10
-4.14609375
 20
1.7109375
 30
0.0
 11
-3.975000000000001
 21
1.539843750000001
 31
0.0
  0
LINE
  5
20A
330
1C5
100
AcDbEntity
  8
AM_4
100
AcDbLine
 10
-4.172797095664583
 20
1.222098214285714
 30
0.0
 11
-4.172797095664583
 21
1.7109375
 31
0.0
  0
LINE
  5
20B
330
1C5
100
AcDbEntity
  8
AM_4
100
AcDbLine
 10
4.172797095664586
 20
1.222098214285715
 30
0.0
 11
4.172797095664586
 21
1.7109375
 31
0.0
  0
LINE
  5
20C
330
1C5
100
AcDbEntity
  8
AM_4
100
AcDbLine
 10
3.975000000000001
 20
1.53984375
 30
0.0
 11
4.146093749999999
 21
1.710937499999999
 31
0.0
  0
LINE
  5
20D
330
1C5
100
AcDbEntity
  8
AM_4
100
AcDbLine
 10
4.14609375
 20
-1.7109375
 30
0.0
 11
3.975000000000001
 21
-1.53984375
 31
0.0
  0
LINE
  5
20E
330
1C5
100
AcDbEntity
  8
AM_4
100
AcDbLine
 10
4.172797095664586
 20
-1.7109375
 30
0.0
 11
4.172797095664586
 21
-1.222098214285715
 31
0.0
  0
LINE
  5
20F
330
1C5
100
AcDbEntity
  8
AM_4
100
AcDbLine
 10
-4.172797095664583
 20
-1.7109375
 30
0.0
 11
-4.172797095664583
 21
-1.222098214285715
 31
0.0
  0
LINE
  5
210
330
1C5
100
AcDbEntity
  8
AM_4
100
AcDbLine
 10
-3.975
 20
-1.53984375
 30
0.0
 11
-4.14609375
 21
-1.7109375
 31
0.0
  0
LINE
  5
211
330
1C5
100
AcDbEntity
  8
AM_4
100
AcDbLine
 10
3.949652270921285
 20
1.222098214285715
 30
0.0
 11
3.949652270921285
 21
1.53984375
 31
0.0
  0
LINE
  5
212
330
1C5
100
AcDbEntity
  8
AM_4
100
AcDbLine
 10
3.949652270921285
 20
-1.53984375
 30
0.0
 11
3.949652270921285
 21
-1.222098214285715
 31
0.0
  0
LINE
  5
213
330
1C5
100
AcDbEntity
  8
AM_4
100
AcDbLine
 10
-3.949652270921284
 20
1.222098214285715
 30
0.0
 11
-3.949652270921284
 21
1.53984375
 31
0.0
  0
LINE
  5
214
330
1C5
100
AcDbEntity
  8
AM_4
100
AcDbLine
 10
-3.949652270921284
 20
-1.53984375
 30
0.0
 11
-3.949652270921284
 21
-1.222098214285715
 31
0.0
  0
ELLIPSE
  5
215
330
1C5
100
AcDbEntity
  8
AM_4
100
AcDbEllipse
 10
1.875
 20
0.0000000000000002
 30
0.0
 11
-9.184850993605148E-17
 21
-0.5
 31
0.0
210
0.0
220
0.0
230
1.0
 40
0.8660254037844397
 41
3.141592653589793
 42
6.283185307179586
  0
ELLIPSE
  5
216
330
1C5
100
AcDbEntity
  8
AM_4
100
AcDbEllipse
 10
1.925
 20
0.0000000000000002
 30
0.0
 11
2.449293598294708E-17
 21
0.4000000000000002
 31
0.0
210
0.0
220
0.0
230
1.0
 40
0.866025403784439
 41
0.0
 42
6.283185307179586
  0
LWPOLYLINE
  5
217
330
1C5
100
AcDbEntity
  8
AM_4
100
AcDbPolyline
 90
       42
 70
     0
 43
0.0
 10
1.875211066881076
 20
-0.4999999443134611
 10
1.876239023089364
 20
-0.4999980810234897
 10
1.911845711641982
 20
-0.4983000571376714
 10
1.947180426417534
 20
-0.4934438379377621
 10
1.982025895099491
 20
-0.4854674378766704
 10
2.016173686853511
 20
-0.4744237193445482
 10
2.049419375909352
 20
-0.4603803027539836
 10
2.081562325574739
 20
-0.4434199975750816
 10
2.112405867019413
 20
-0.4236415953223343
 10
2.141757999197575
 20
-0.4011607806790052
 10
2.169432636443188
 20
-0.3761108884456666
 10
2.195251322168517
 20
-0.3486432595910329
 10
2.219045236589928
 20
-0.3189270266521866
 10
2.240657276247469
 20
-0.2871482688995918
 10
2.259943984905756
 20
-0.2535085918205869
 10
2.276777164454163
 20
-0.2182232739666905
 10
2.291045071790459
 20
-0.1815191682858363
 10
2.302653188966715
 20
-0.1436325424486739
 10
2.311524618923398
 20
-0.1048070052782428
 10
2.317600197895548
 20
-0.0652916125655356
 10
2.32083842836273
 20
-0.0253391919965887
 10
2.321215330110257
 20
0.0147951161434493
 10
2.318724290215918
 20
0.0548551353073607
 10
2.313376217596921
 20
0.094583367058217
 10
2.305199458515563
 20
0.1337246306572104
 10
2.29423985489464
 20
0.1720261269450294
 10
2.280561036513317
 20
0.2092384229873466
 10
2.26424477389755
 20
0.2451168288156225
 10
2.245391328361865
 20
0.2794230190554363
 10
2.224119694861863
 20
0.3119269505382608
 10
2.200567601383274
 20
0.3424090899382013
 10
2.174891111237763
 20
0.3706629070194941
 10
2.147263685386843
 20
0.3964975146020185
 10
2.117874611139908
 20
0.419740261092959
 10
2.086926791391523
 20
0.4402390288832043
 10
2.054633999904867
 20
0.4578639861938381
 10
2.021217814442848
 20
0.4725085944351943
 10
1.986904508624053
 20
0.4840897812937971
 10
1.951922193354415
 20
0.4925473250565565
 10
1.916498447635544
 20
0.4978426219184877
 10
1.880858583866519
 20
0.499957094374195
 10
1.874307850917693
 20
0.4999994011616957
  0
LINE
  5
218
330
1C5
100
AcDbEntity
  8
AM_4
100
AcDbLine
 10
-3.719080412388331
 20
1.222098214285715
 30
0.0
 11
-3.719080412388331
 21
1.53984375
 31
0.0
  0
LINE
  5
219
330
1C5
100
AcDbEntity
  8
AM_4
100
AcDbLine
 10
-3.705
 20
1.222098214285715
 30
0.0
 11
-4.172797095664583
 21
1.222098214285714
 31
0.0
  0
LINE
  5
21A
330
1C5
100
AcDbEntity
  8
AM_4
100
AcDbLine
 10
-3.705
 20
-1.222098214285714
 30
0.0
 11
-3.705
 21
1.222098214285715
 31
0.0
  0
LINE
  5
21B
330
1C5
100
AcDbEntity
  8
AM_4
100
AcDbLine
 10
-3.705
 20
-1.222098214285714
 30
0.0
 11
-4.172797095664583
 21
-1.222098214285715
 31
0.0
  0
LINE
  5
21C
330
1C5
100
AcDbEntity
  8
AM_4
100
AcDbLine
 10
-3.719080412388331
 20
-1.53984375
 30
0.0
 11
-3.719080412388331
 21
-1.222098214285714
 31
0.0
  0
LINE
  5
21D
330
1C5
100
AcDbEntity
  8
AM_4
100
AcDbLine
 10
3.719080412388331
 20
1.222098214285715
 30
0.0
 11
3.719080412388331
 21
1.53984375
 31
0.0
  0
LINE
  5
21E
330
1C5
100
AcDbEntity
  8
AM_4
100
AcDbLine
 10
3.719080412388331
 20
-1.53984375
 30
0.0
 11
3.719080412388331
 21
-1.222098214285714
 31
0.0
  0
LINE
  5
21F
330
1C5
100
AcDbEntity
  8
AM_4
100
AcDbLine
 10
4.172797095664586
 20
-1.222098214285715
 30
0.0
 11
3.705
 21
-1.222098214285714
 31
0.0
  0
LINE
  5
220
330
1C5
100
AcDbEntity
  8
AM_4
100
AcDbLine
 10
3.705
 20
1.222098214285715
 30
0.0
 11
3.705
 21
-1.222098214285714
 31
0.0
  0
LINE
  5
221
330
1C5
100
AcDbEntity
  8
AM_4
100
AcDbLine
 10
4.172797095664586
 20
1.222098214285715
 30
0.0
 11
3.705
 21
1.222098214285715
 31
0.0
  0
LWPOLYLINE
  5
222
330
1C5
100
AcDbEntity
  8
AM_4
100
AcDbPolyline
 90
       29
 70
     0
 43
0.0
 10
1.875000000000001
 20
0.5000000000000001
 10
1.827047879692441
 20
0.4969128457931017
 10
1.779146139474348
 20
0.4877671546213251
 10
1.732198920557527
 20
0.4727365836580482
 10
1.686276278729393
 20
0.4516695280503003
 10
1.642269357452462
 20
0.4249599726427978
 10
1.601041895112596
 20
0.3931063625274694
 10
1.562800134060658
 20
0.3560426204370302
 10
1.528243786009903
 20
0.314399669022267
 10
1.498082724480943
 20
0.2689469783245761
 10
1.47264361339816
 20
0.219853540062274
 10
1.45229241861332
 20
0.1677981903125484
 10
1.437473546380891
 20
0.1137640548136604
 10
1.428326833671754
 20
0.0572637063999635
 10
1.425245891522594
 20
0.0000000000000002
 10
1.428196726817868
 20
-0.0557663586364926
 10
1.436920778518576
 20
-0.1110025946144848
 10
1.451225365347044
 20
-0.1646674131397032
 10
1.471006864216574
 20
-0.2162139928358451
 10
1.495947156201989
 20
-0.2652114527117826
 10
1.525520767139511
 20
-0.3107583268387063
 10
1.559649707127751
 20
-0.3526093073301456
 10
1.597735436399339
 20
-0.3901677304798052
 10
1.639004927635757
 20
-0.4227368791418999
 10
1.683219885419343
 20
-0.4500303681430338
 10
1.729722594956282
 20
-0.4717254917483039
 10
1.777584556000852
 20
-0.4874028301163981
 10
1.826184550205427
 20
-0.4968298347344643
 10
1.875
 20
-0.4999999999999997
  0
LINE
  5
223
330
1C5
100
AcDbEntity
  8
AM_4
100
AcDbLine
 10
1.049866666666667
 20
-1.53984375
 30
0.0
 11
1.049866666666667
 21
1.53984375
 31
0.0
  0
LINE
  5
224
330
1C5
100
AcDbEntity
  8
AM_4
100
AcDbLine
 10
3.975000000000001
 20
1.53984375
 30
0.0
 11
-3.975000000000002
 21
1.53984375
 31
0.0
  0
LINE
  5
225
330
1C5
100
AcDbEntity
  8
AM_4
100
AcDbLine
 10
-1.049866666666667
 20
-1.53984375
 30
0.0
 11
-1.049866666666667
 21
1.53984375
 31
0.0
  0
LINE
  5
226
330
1C5
100
AcDbEntity
  8
AM_4
100
AcDbLine
 10
-3.975
 20
-1.53984375
 30
0.0
 11
3.975
 21
-1.53984375
 31
0.0
  0
LINE
  5
227
330
1C5
100
AcDbEntity
  8
AM_4
100
AcDbLine
 10
0.9373666666666653
 20
-1.53984375
 30
0.0
 11
0.9373666666666665
 21
1.53984375
 31
0.0
  0
LINE
  5
228
330
1C5
100
AcDbEntity
  8
AM_4
100
AcDbLine
 10
-0.9373666666666675
 20
-1.53984375
 30
0.0
 11
-0.9373666666666665
 21
1.53984375
 31
0.0
  0
ENDBLK
  5
1C8
330
1C5
100
AcDbEntity
  8
0
100
AcDbBlockEnd
  0
ENDSEC
  0
SECTION
  2
ENTITIES
  0
INSERT
  5
6F
330
1F
100
AcDbEntity
  8
0
100
AcDbBlockReference
  2
1_069421_4
 10
0.0
 20
0.0
 30
0.0
  0
POINT
  5
22A
330
1F
100
AcDbEntity
  8
ConnectionPoints
100
AcDbPoint
 10
0.0
 20
-2.440333333333333
 30
2.135416666666667
  0
POINT
  5
22B
330
1F
100
AcDbEntity
  8
ConnectionPoints
100
AcDbPoint
 10
0.0
 20
-2.370333333333333
 30
0.0000000000000002
  0
POINT
  5
22C
330
1F
100
AcDbEntity
  8
ConnectionPoints
100
AcDbPoint
 10
0.0
 20
-2.6875
 30
0.0000000000000002
  0
POINT
  5
22D
330
1F
100
AcDbEntity
  8
ConnectionPoints
100
AcDbPoint
 10
0.0
 20
-2.569333333333333
 30
0.0000000000000002
  0
POINT
  5
22E
330
1F
100
AcDbEntity
  8
ConnectionPoints
100
AcDbPoint
 10
0.0
 20
-2.370333333333333
 30
2.135416666666667
  0
POINT
  5
22F
330
1F
100
AcDbEntity
  8
ConnectionPoints
100
AcDbPoint
 10
0.0
 20
-2.5555
 30
2.135416666666667
  0
POINT
  5
230
330
1F
100
AcDbEntity
  8
ConnectionPoints
100
AcDbPoint
 10
0.0
 20
-2.370333333333333
 30
-2.135416666666667
  0
POINT
  5
231
330
1F
100
AcDbEntity
  8
ConnectionPoints
100
AcDbPoint
 10
0.0
 20
-2.5555
 30
-2.135416666666667
  0
POINT
  5
232
330
1F
100
AcDbEntity
  8
ConnectionPoints
100
AcDbPoint
 10
0.0
 20
-2.370333333333333
 30
0.0000000000000001
  0
POINT
  5
233
330
1F
100
AcDbEntity
  8
ConnectionPoints
100
AcDbPoint
 10
1.925
 20
0.0000000000000002
 30
3.334197804570089
  0
POINT
  5
234
330
1F
100
AcDbEntity
  8
ConnectionPoints
100
AcDbPoint
 10
1.925
 20
0.0000000000000002
 30
3.334197804570089
  0
POINT
  5
235
330
1F
100
AcDbEntity
  8
ConnectionPoints
100
AcDbPoint
 10
0.0
 20
-2.4375
 30
0.0000000000000001
  0
POINT
  5
236
330
1F
100
AcDbEntity
  8
ConnectionPoints
100
AcDbPoint
 10
0.0
 20
-2.6875
 30
0.0000000000000002
  0
ENDSEC
  0
SECTION
  2
OBJECTS
  0
DICTIONARY
  5
C
330
0
100
AcDbDictionary
281
     1
  3
ACAD_DETAILVIEWSTYLE
350
23E
  3
ACAD_GROUP
350
D
  3
ACAD_LAYOUT
350
1A
  3
ACAD_MATERIAL
350
43
  3
ACAD_MLEADERSTYLE
350
6B
  3
ACAD_MLINESTYLE
350
17
  3
ACAD_PLOTSETTINGS
350
19
  3
ACAD_PLOTSTYLENAME
350
E
  3
ACAD_SCALELIST
350
47
  3
ACAD_SECTIONVIEWSTYLE
350
23F
  3
ACAD_TABLESTYLE
350
69
  3
ACAD_VISUALSTYLE
350
2A
  3
ACDB_RECOMPOSE_DATA
350
23B
  3
AcDbVariableDictionary
350
237
  0
SUN
  5
6D
330
29
100
AcDbSun
 90
        1
290
     0
 63
     7
421
 16777215
 40
1.0
291
     1
 91
  2455826
 92
 54000000
292
     0
 70
     2
 71
   256
280
     1
  0
DICTIONARY
  5
23E
102
{ACAD_REACTORS
330
C
102
}
330
C
100
AcDbDictionary
281
     1
  0
DICTIONARY
  5
D
102
{ACAD_REACTORS
330
C
102
}
330
C
100
AcDbDictionary
281
     1
  0
DICTIONARY
  5
1A
102
{ACAD_REACTORS
330
C
102
}
330
C
100
AcDbDictionary
281
     1
  3
Layout1
350
1E
  3
Layout2
350
26
  3
Model
350
22
  0
DICTIONARY
  5
43
102
{ACAD_REACTORS
330
C
102
}
330
C
100
AcDbDictionary
281
     1
  3
ByBlock
350
45
  3
ByLayer
350
44
  3
Global
350
46
  0
DICTIONARY
  5
6B
102
{ACAD_REACTORS
330
C
102
}
330
C
100
AcDbDictionary
281
     1
  3
Standard
350
6C
  0
DICTIONARY
  5
17
102
{ACAD_REACTORS
330
C
102
}
330
C
100
AcDbDictionary
281
     1
  3
Standard
350
18
  0
DICTIONARY
  5
19
102
{ACAD_REACTORS
330
C
102
}
330
C
100
AcDbDictionary
281
     1
  0
ACDBDICTIONARYWDFLT
  5
E
102
{ACAD_REACTORS
330
C
102
}
330
C
100
AcDbDictionary
281
     1
  3
Normal
350
F
100
AcDbDictionaryWithDefault
340
F
  0
DICTIONARY
  5
47
102
{ACAD_REACTORS
330
C
102
}
330
C
100
AcDbDictionary
281
     1
  3
A0
350
48
  3
A1
350
49
  3
A2
350
4A
  3
A3
350
4B
  3
A4
350
4C
  3
A5
350
4D
  3
A6
350
4E
  3
A7
350
4F
  3
A8
350
50
  3
A9
350
51
  3
B0
350
52
  3
B1
350
53
  3
B2
350
54
  3
B3
350
55
  3
B4
350
56
  3
B5
350
57
  3
B6
350
58
  3
B7
350
59
  3
B8
350
5A
  3
B9
350
5B
  3
C0
350
5C
  3
C1
350
5D
  3
C2
350
5E
  3
C3
350
5F
  3
C4
350
60
  3
C5
350
61
  3
C6
350
62
  3
C7
350
63
  3
C8
350
64
  3
C9
350
65
  3
D0
350
66
  3
D1
350
67
  3
D2
350
68
  0
DICTIONARY
  5
23F
102
{ACAD_REACTORS
330
C
102
}
330
C
100
AcDbDictionary
281
     1
  0
DICTIONARY
  5
69
102
{ACAD_REACTORS
330
C
102
}
330
C
100
AcDbDictionary
281
     1
  3
Standard
350
6A
  0
DICTIONARY
  5
2A
102
{ACAD_REACTORS
330
C
102
}
330
C
100
AcDbDictionary
281
     1
  3
2dWireframe
350
2F
  3
Basic
350
32
  3
Brighten
350
36
  3
ColorChange
350
3A
  3
Conceptual
350
34
  3
Dim
350
35
  3
EdgeColorOff
350
3D
  3
Facepattern
350
39
  3
Flat
350
2B
  3
FlatWithEdges
350
2C
  3
Gouraud
350
2D
  3
GouraudWithEdges
350
2E
  3
Hidden
350
31
  3
JitterOff
350
3B
  3
Linepattern
350
38
  3
OverhangOff
350
3C
  3
Realistic
350
33
  3
Shaded
350
42
  3
Shaded with edges
350
41
  3
Shades of Gray
350
3E
  3
Sketchy
350
3F
  3
Thicken
350
37
  3
Wireframe
350
30
  3
X-Ray
350
40
  0
XRECORD
  5
23B
102
{ACAD_REACTORS
330
C
102
}
330
C
100
AcDbXrecord
280
     1
 90
        1
330
6A
  0
DICTIONARY
  5
237
102
{ACAD_REACTORS
330
C
102
}
330
C
100
AcDbDictionary
281
     1
  3
CANNOSCALE
350
238
  3
CMLEADERSTYLE
350
23D
  3
CTABLESTYLE
350
23C
  0
LAYOUT
  5
1E
102
{ACAD_REACTORS
330
1A
102
}
330
1A
100
AcDbPlotSettings
  1

  2
none_device
  4

  6

 40
0.0
 41
0.0
 42
0.0
 43
0.0
 44
0.0
 45
0.0
 46
0.0
 47
0.0
 48
0.0
 49
0.0
140
0.0
141
0.0
142
1.0
143
1.0
 70
   688
 72
     0
 73
     0
 74
     5
  7

 75
    16
 76
     0
 77
     2
 78
   300
147
1.0
148
0.0
149
0.0
100
AcDbLayout
  1
Layout1
 70
     1
 71
     1
 10
0.0
 20
0.0
 11
12.0
 21
9.0
 12
0.0
 22
0.0
 32
0.0
 14
1.000000000000000E+20
 24
1.000000000000000E+20
 34
1.000000000000000E+20
 15
-1.000000000000000E+20
 25
-1.000000000000000E+20
 35
-1.000000000000000E+20
146
0.0
 13
0.0
 23
0.0
 33
0.0
 16
1.0
 26
0.0
 36
0.0
 17
0.0
 27
1.0
 37
0.0
 76
     0
330
1B
  0
LAYOUT
  5
26
102
{ACAD_REACTORS
330
1A
102
}
330
1A
100
AcDbPlotSettings
  1

  2
none_device
  4

  6

 40
0.0
 41
0.0
 42
0.0
 43
0.0
 44
0.0
 45
0.0
 46
0.0
 47
0.0
 48
0.0
 49
0.0
140
0.0
141
0.0
142
1.0
143
1.0
 70
   688
 72
     0
 73
     0
 74
     5
  7

 75
    16
 76
     0
 77
     2
 78
   300
147
1.0
148
0.0
149
0.0
100
AcDbLayout
  1
Layout2
 70
     1
 71
     2
 10
0.0
 20
0.0
 11
0.0
 21
0.0
 12
0.0
 22
0.0
 32
0.0
 14
0.0
 24
0.0
 34
0.0
 15
0.0
 25
0.0
 35
0.0
146
0.0
 13
0.0
 23
0.0
 33
0.0
 16
1.0
 26
0.0
 36
0.0
 17
0.0
 27
1.0
 37
0.0
 76
     0
330
23
  0
LAYOUT
  5
22
102
{ACAD_REACTORS
330
1A
102
}
330
1A
100
AcDbPlotSettings
  1

  2
none_device
  4
Letter_(8.50_x_11.00_Inches)
  6

 40
6.35
 41
6.35
 42
6.35000508
 43
6.35000508
 44
215.9
 45
279.4
 46
0.0
 47
0.0
 48
0.0
 49
0.0
140
0.0
141
0.0
142
1.0
143
1.0
 70
  1712
 72
     0
 73
     0
 74
     0
  7

 75
     0
 76
     0
 77
     2
 78
   300
147
1.0
148
0.0
149
0.0
100
AcDbLayout
  1
Model
 70
     1
 71
     0
 10
0.0
 20
0.0
 11
12.0
 21
9.0
 12
0.0
 22
0.0
 32
0.0
 14
1.000000000000000E+20
 24
1.000000000000000E+20
 34
1.000000000000000E+20
 15
-1.000000000000000E+20
 25
-1.000000000000000E+20
 35
-1.000000000000000E+20
146
0.0
 13
0.0
 23
0.0
 33
0.0
 16
1.0
 26
0.0
 36
0.0
 17
0.0
 27
1.0
 37
0.0
 76
     0
330
1F
331
29
  0
MATERIAL
  5
45
102
{ACAD_REACTORS
330
43
102
}
330
43
100
AcDbMaterial
  1
ByBlock
 72
     1
 94
      127
  0
MATERIAL
  5
44
102
{ACAD_REACTORS
330
43
102
}
330
43
100
AcDbMaterial
  1
ByLayer
 72
     1
 94
      127
  0
MATERIAL
  5
46
102
{ACAD_REACTORS
330
43
102
}
330
43
100
AcDbMaterial
  1
Global
 72
     1
 94
      127
  0
MLEADERSTYLE
  5
6C
102
{ACAD_REACTORS
330
6B
102
}
330
6B
100
AcDbMLeaderStyle
179
     2
170
     2
171
     1
172
     0
 90
        2
 40
0.0
 41
0.0
173
     1
 91
-1056964608
340
14
 92
       -2
290
     1
 42
0.09
291
     1
 43
0.36
  3
Standard
341
0
 44
0.18
300

342
11
174
     1
178
     6
175
     1
176
     0
 93
-1056964608
 45
0.18
292
     0
297
     0
 46
0.18
343
0
 94
-1056964608
 47
1.0
 49
1.0
140
1.0
293
     1
141
0.0
294
     1
177
     0
142
1.0
295
     0
296
     0
143
0.125
271
     0
272
     9
273
     9
298
     0
  0
MLINESTYLE
  5
18
102
{ACAD_REACTORS
330
17
102
}
330
17
100
AcDbMlineStyle
  2
Standard
 70
     0
  3

 62
   256
 51
90.0
 52
90.0
 71
     2
 49
0.5
 62
   256
  6
BYLAYER
 49
-0.5
 62
   256
  6
BYLAYER
  0
ACDBPLACEHOLDER
  5
F
102
{ACAD_REACTORS
330
E
102
}
330
E
  0
SCALE
  5
48
102
{ACAD_REACTORS
330
47
102
}
330
47
100
AcDbScale
 70
     0
300
1:1
140
1.0
141
1.0
290
     1
  0
SCALE
  5
49
102
{ACAD_REACTORS
330
47
102
}
330
47
100
AcDbScale
 70
     0
300
1:2
140
1.0
141
2.0
290
     0
  0
SCALE
  5
4A
102
{ACAD_REACTORS
330
47
102
}
330
47
100
AcDbScale
 70
     0
300
1:4
140
1.0
141
4.0
290
     0
  0
SCALE
  5
4B
102
{ACAD_REACTORS
330
47
102
}
330
47
100
AcDbScale
 70
     0
300
1:5
140
1.0
141
5.0
290
     0
  0
SCALE
  5
4C
102
{ACAD_REACTORS
330
47
102
}
330
47
100
AcDbScale
 70
     0
300
1:8
140
1.0
141
8.0
290
     0
  0
SCALE
  5
4D
102
{ACAD_REACTORS
330
47
102
}
330
47
100
AcDbScale
 70
     0
300
1:10
140
1.0
141
10.0
290
     0
  0
SCALE
  5
4E
102
{ACAD_REACTORS
330
47
102
}
330
47
100
AcDbScale
 70
     0
300
1:16
140
1.0
141
16.0
290
     0
  0
SCALE
  5
4F
102
{ACAD_REACTORS
330
47
102
}
330
47
100
AcDbScale
 70
     0
300
1:20
140
1.0
141
20.0
290
     0
  0
SCALE
  5
50
102
{ACAD_REACTORS
330
47
102
}
330
47
100
AcDbScale
 70
     0
300
1:30
140
1.0
141
30.0
290
     0
  0
SCALE
  5
51
102
{ACAD_REACTORS
330
47
102
}
330
47
100
AcDbScale
 70
     0
300
1:40
140
1.0
141
40.0
290
     0
  0
SCALE
  5
52
102
{ACAD_REACTORS
330
47
102
}
330
47
100
AcDbScale
 70
     0
300
1:50
140
1.0
141
50.0
290
     0
  0
SCALE
  5
53
102
{ACAD_REACTORS
330
47
102
}
330
47
100
AcDbScale
 70
     0
300
1:100
140
1.0
141
100.0
290
     0
  0
SCALE
  5
54
102
{ACAD_REACTORS
330
47
102
}
330
47
100
AcDbScale
 70
     0
300
2:1
140
2.0
141
1.0
290
     0
  0
SCALE
  5
55
102
{ACAD_REACTORS
330
47
102
}
330
47
100
AcDbScale
 70
     0
300
4:1
140
4.0
141
1.0
290
     0
  0
SCALE
  5
56
102
{ACAD_REACTORS
330
47
102
}
330
47
100
AcDbScale
 70
     0
300
8:1
140
8.0
141
1.0
290
     0
  0
SCALE
  5
57
102
{ACAD_REACTORS
330
47
102
}
330
47
100
AcDbScale
 70
     0
300
10:1
140
10.0
141
1.0
290
     0
  0
SCALE
  5
58
102
{ACAD_REACTORS
330
47
102
}
330
47
100
AcDbScale
 70
     0
300
100:1
140
100.0
141
1.0
290
     0
  0
SCALE
  5
59
102
{ACAD_REACTORS
330
47
102
}
330
47
100
AcDbScale
 70
     0
300
1/128" = 1'-0"
140
0.0078125
141
12.0
290
     0
  0
SCALE
  5
5A
102
{ACAD_REACTORS
330
47
102
}
330
47
100
AcDbScale
 70
     0
300
1/64" = 1'-0"
140
0.015625
141
12.0
290
     0
  0
SCALE
  5
5B
102
{ACAD_REACTORS
330
47
102
}
330
47
100
AcDbScale
 70
     0
300
1/32" = 1'-0"
140
0.03125
141
12.0
290
     0
  0
SCALE
  5
5C
102
{ACAD_REACTORS
330
47
102
}
330
47
100
AcDbScale
 70
     0
300
1/16" = 1'-0"
140
0.0625
141
12.0
290
     0
  0
SCALE
  5
5D
102
{ACAD_REACTORS
330
47
102
}
330
47
100
AcDbScale
 70
     0
300
3/32" = 1'-0"
140
0.09375
141
12.0
290
     0
  0
SCALE
  5
5E
102
{ACAD_REACTORS
330
47
102
}
330
47
100
AcDbScale
 70
     0
300
1/8" = 1'-0"
140
0.125
141
12.0
290
     0
  0
SCALE
  5
5F
102
{ACAD_REACTORS
330
47
102
}
330
47
100
AcDbScale
 70
     0
300
3/16" = 1'-0"
140
0.1875
141
12.0
290
     0
  0
SCALE
  5
60
102
{ACAD_REACTORS
330
47
102
}
330
47
100
AcDbScale
 70
     0
300
1/4" = 1'-0"
140
0.25
141
12.0
290
     0
  0
SCALE
  5
61
102
{ACAD_REACTORS
330
47
102
}
330
47
100
AcDbScale
 70
     0
300
3/8" = 1'-0"
140
0.375
141
12.0
290
     0
  0
SCALE
  5
62
102
{ACAD_REACTORS
330
47
102
}
330
47
100
AcDbScale
 70
     0
300
1/2" = 1'-0"
140
0.5
141
12.0
290
     0
  0
SCALE
  5
63
102
{ACAD_REACTORS
330
47
102
}
330
47
100
AcDbScale
 70
     0
300
3/4" = 1'-0"
140
0.75
141
12.0
290
     0
  0
SCALE
  5
64
102
{ACAD_REACTORS
330
47
102
}
330
47
100
AcDbScale
 70
     0
300
1" = 1'-0"
140
1.0
141
12.0
290
     0
  0
SCALE
  5
65
102
{ACAD_REACTORS
330
47
102
}
330
47
100
AcDbScale
 70
     0
300
1-1/2" = 1'-0"
140
1.5
141
12.0
290
     0
  0
SCALE
  5
66
102
{ACAD_REACTORS
330
47
102
}
330
47
100
AcDbScale
 70
     0
300
3" = 1'-0"
140
3.0
141
12.0
290
     0
  0
SCALE
  5
67
102
{ACAD_REACTORS
330
47
102
}
330
47
100
AcDbScale
 70
     0
300
6" = 1'-0"
140
6.0
141
12.0
290
     0
  0
SCALE
  5
68
102
{ACAD_REACTORS
330
47
102
}
330
47
100
AcDbScale
 70
     0
300
1'-0" = 1'-0"
140
12.0
141
12.0
290
     0
  0
TABLESTYLE
  5
6A
102
{ACAD_REACTORS
330
69
102
}
102
{ACAD_XDICTIONARY
360
239
102
}
330
69
100
AcDbTableStyle
  3
Standard
 70
     0
 71
     0
 40
0.06
 41
0.06
280
     0
281
     0
  7
Standard
140
0.18
170
     2
 62
     0
 63
   257
283
     0
 90
        4
 91
        0
  1

274
    -2
284
     1
 64
     0
275
    -2
285
     1
 65
     0
276
    -2
286
     1
 66
     0
277
    -2
287
     1
 67
     0
278
    -2
288
     1
 68
     0
279
    -2
289
     1
 69
     0
  7
Standard
140
0.25
170
     5
 62
     0
 63
   257
283
     0
 90
        4
 91
        0
  1

274
    -2
284
     1
 64
     0
275
    -2
285
     1
 65
     0
276
    -2
286
     1
 66
     0
277
    -2
287
     1
 67
     0
278
    -2
288
     1
 68
     0
279
    -2
289
     1
 69
     0
  7
Standard
140
0.18
170
     5
 62
     0
 63
   257
283
     0
 90
        4
 91
        0
  1

274
    -2
284
     1
 64
     0
275
    -2
285
     1
 65
     0
276
    -2
286
     1
 66
     0
277
    -2
287
     1
 67
     0
278
    -2
288
     1
 68
     0
279
    -2
289
     1
 69
     0
  0
VISUALSTYLE
  5
2F
102
{ACAD_REACTORS
330
2A
102
}
330
2A
100
AcDbVisualStyle
  2
2dWireframe
 70
     4
177
     3
291
     0
 70
    58
 90
        0
176
     1
 90
        2
176
     1
 90
        0
176
     1
 90
        0
176
     1
 40
0.6
176
     1
 40
30.0
176
     1
 62
     7
420
 16777215
176
     1
 90
        1
176
     1
 90
        4
176
     1
 62
     7
176
     1
 62
   257
176
     1
 90
        1
176
     1
 90
        1
176
     1
 40
1.0
176
     1
 90
        0
176
     1
 62
   257
176
     1
 40
1.0
176
     1
 90
        1
176
     1
 90
        6
176
     1
 90
        2
176
     1
 62
     7
176
     1
 90
        5
176
     1
 90
        0
176
     1
 90
        0
176
     1
290
     0
176
     1
 90
        1
176
     1
 40
0.0
176
     1
 90
        0
176
     1
290
     1
176
     1
290
     1
176
     1
290
     0
176
     1
290
     0
176
     1
290
     0
176
     1
290
     0
176
     1
290
     0
176
     1
290
     0
176
     1
290
     0
176
     1
 90
       50
176
     1
 40
0.0
176
     1
 40
1.0
176
     1
 90
        0
176
     1
 62
    18
420
        0
176
     1
 90
       50
176
     1
 90
        3
176
     1
 62
     5
420
      255
176
     1
290
     0
176
     1
 90
       50
176
     1
 90
       50
176
     1
 90
       50
176
     1
290
     0
176
     1
 90
       50
176
     1
 62
   256
176
     0
 40
1.0
176
     0
 90
        2
176
     1
  1
strokes_ogs.tif
176
     1
290
     0
176
     1
 40
1.0
176
     1
 40
1.0
176
     1
  0
VISUALSTYLE
  5
32
102
{ACAD_REACTORS
330
2A
102
}
330
2A
100
AcDbVisualStyle
  2
Basic
 70
     7
177
     3
291
     1
 70
    58
 90
        1
176
     1
 90
        0
176
     1
 90
        1
176
     1
 90
        0
176
     1
 40
0.6
176
     1
 40
30.0
176
     1
 62
     7
420
 16777215
176
     1
 90
        0
176
     1
 90
        4
176
     1
 62
     7
176
     1
 62
   257
176
     1
 90
        1
176
     1
 90
        1
176
     1
 40
1.0
176
     1
 90
        8
176
     1
 62
     7
176
     1
 40
1.0
176
     1
 90
        1
176
     1
 90
        6
176
     1
 90
        2
176
     1
 62
     7
176
     1
 90
        5
176
     1
 90
        0
176
     1
 90
        0
176
     1
290
     0
176
     1
 90
        1
176
     1
 40
0.0
176
     1
 90
        0
176
     1
290
     0
176
     1
290
     1
176
     1
290
     1
176
     1
290
     0
176
     1
290
     0
176
     1
290
     0
176
     1
290
     0
176
     1
290
     0
176
     1
290
     0
176
     1
 90
       50
176
     1
 40
0.0
176
     1
 40
1.0
176
     1
 90
        0
176
     1
 62
    18
420
        0
176
     1
 90
       50
176
     1
 90
        3
176
     1
 62
     5
420
      255
176
     1
290
     0
176
     1
 90
       50
176
     1
 90
       50
176
     1
 90
       50
176
     1
290
     0
176
     1
 90
       50
176
     1
 62
   256
176
     0
 40
1.0
176
     0
 90
        2
176
     1
  1
strokes_ogs.tif
176
     1
290
     0
176
     1
 40
1.0
176
     1
 40
1.0
176
     1
  0
VISUALSTYLE
  5
36
102
{ACAD_REACTORS
330
2A
102
}
330
2A
100
AcDbVisualStyle
  2
Brighten
 70
    12
177
     3
291
     1
 70
    58
 90
        2
176
     1
 90
        2
176
     1
 90
        0
176
     1
 90
        0
176
     1
 40
0.6
176
     1
 40
30.0
176
     1
 62
     7
420
 16777215
176
     1
 90
        1
176
     1
 90
        4
176
     1
 62
     7
176
     1
 62
   257
176
     1
 90
        1
176
     1
 90
        1
176
     1
 40
1.0
176
     1
 90
        8
176
     1
 62
     7
176
     1
 40
1.0
176
     1
 90
        1
176
     1
 90
        6
176
     1
 90
        2
176
     1
 62
     7
176
     1
 90
        5
176
     1
 90
        0
176
     1
 90
        0
176
     1
290
     0
176
     1
 90
        1
176
     1
 40
50.0
176
     1
 90
        0
176
     1
290
     0
176
     1
290
     1
176
     1
290
     1
176
     1
290
     0
176
     1
290
     0
176
     1
290
     0
176
     1
290
     0
176
     1
290
     0
176
     1
290
     0
176
     1
 90
       50
176
     1
 40
0.0
176
     1
 40
1.0
176
     1
 90
        0
176
     1
 62
    18
420
        0
176
     1
 90
       50
176
     1
 90
        3
176
     1
 62
     5
420
      255
176
     1
290
     0
176
     1
 90
       50
176
     1
 90
       50
176
     1
 90
       50
176
     1
290
     0
176
     1
 90
       50
176
     1
 62
   256
176
     0
 40
1.0
176
     0
 90
        2
176
     1
  1
strokes_ogs.tif
176
     1
290
     0
176
     1
 40
1.0
176
     1
 40
1.0
176
     1
  0
VISUALSTYLE
  5
3A
102
{ACAD_REACTORS
330
2A
102
}
330
2A
100
AcDbVisualStyle
  2
ColorChange
 70
    16
177
     3
291
     1
 70
    58
 90
        2
176
     1
 90
        2
176
     1
 90
        3
176
     1
 90
        0
176
     1
 40
0.6
176
     1
 40
30.0
176
     1
 62
     8
420
  8421504
176
     1
 90
        1
176
     1
 90
        4
176
     1
 62
     7
176
     1
 62
   257
176
     1
 90
        1
176
     1
 90
        1
176
     1
 40
1.0
176
     1
 90
        8
176
     1
 62
     8
420
  8421504
176
     1
 40
1.0
176
     1
 90
        1
176
     1
 90
        6
176
     1
 90
        2
176
     1
 62
     7
176
     1
 90
        5
176
     1
 90
        0
176
     1
 90
        0
176
     1
290
     0
176
     1
 90
        1
176
     1
 40
0.0
176
     1
 90
        0
176
     1
290
     0
176
     1
290
     1
176
     1
290
     1
176
     1
290
     0
176
     1
290
     0
176
     1
290
     0
176
     1
290
     0
176
     1
290
     0
176
     1
290
     0
176
     1
 90
       50
176
     1
 40
0.0
176
     1
 40
1.0
176
     1
 90
        0
176
     1
 62
    18
420
        0
176
     1
 90
       50
176
     1
 90
        3
176
     1
 62
     5
420
      255
176
     1
290
     0
176
     1
 90
       50
176
     1
 90
       50
176
     1
 90
       50
176
     1
290
     0
176
     1
 90
       50
176
     1
 62
   256
176
     0
 40
1.0
176
     0
 90
        2
176
     1
  1
strokes_ogs.tif
176
     1
290
     0
176
     1
 40
1.0
176
     1
 40
1.0
176
     1
  0
VISUALSTYLE
  5
34
102
{ACAD_REACTORS
330
2A
102
}
330
2A
100
AcDbVisualStyle
  2
Conceptual
 70
     9
177
     3
291
     0
 70
    58
 90
        3
176
     1
 90
        2
176
     1
 90
        0
176
     1
 90
        0
176
     1
 40
0.6
176
     1
 40
30.0
176
     1
 62
     7
420
 16777215
176
     1
 90
        2
176
     1
 90
        2
176
     1
 62
     7
176
     1
 62
   257
176
     1
 90
        1
176
     1
 90
        1
176
     1
 40
179.0
176
     1
 90
        8
176
     1
 62
     7
176
     1
 40
1.0
176
     1
 90
        1
176
     1
 90
        6
176
     1
 90
        2
176
     1
 62
     7
176
     1
 90
        3
176
     1
 90
        0
176
     1
 90
        0
176
     1
290
     0
176
     1
 90
        1
176
     1
 40
0.0
176
     1
 90
        0
176
     1
290
     0
176
     1
290
     1
176
     1
290
     1
176
     1
290
     0
176
     1
290
     0
176
     1
290
     0
176
     1
290
     0
176
     1
290
     0
176
     1
290
     0
176
     1
 90
       50
176
     1
 40
0.0
176
     1
 40
1.0
176
     1
 90
        0
176
     1
 62
    18
420
        0
176
     1
 90
       50
176
     1
 90
        3
176
     1
 62
     5
420
      255
176
     1
290
     0
176
     1
 90
       50
176
     1
 90
       50
176
     1
 90
       50
176
     1
290
     0
176
     1
 90
       50
176
     1
 62
   256
176
     0
 40
1.0
176
     0
 90
        2
176
     1
  1
strokes_ogs.tif
176
     1
290
     0
176
     1
 40
1.0
176
     1
 40
1.0
176
     1
  0
VISUALSTYLE
  5
35
102
{ACAD_REACTORS
330
2A
102
}
330
2A
100
AcDbVisualStyle
  2
Dim
 70
    11
177
     3
291
     1
 70
    58
 90
        2
176
     1
 90
        2
176
     1
 90
        0
176
     1
 90
        0
176
     1
 40
0.6
176
     1
 40
30.0
176
     1
 62
     7
420
 16777215
176
     1
 90
        1
176
     1
 90
        4
176
     1
 62
     7
176
     1
 62
   257
176
     1
 90
        1
176
     1
 90
        1
176
     1
 40
1.0
176
     1
 90
        8
176
     1
 62
     7
176
     1
 40
1.0
176
     1
 90
        1
176
     1
 90
        6
176
     1
 90
        2
176
     1
 62
     7
176
     1
 90
        5
176
     1
 90
        0
176
     1
 90
        0
176
     1
290
     0
176
     1
 90
        1
176
     1
 40
-50.0
176
     1
 90
        0
176
     1
290
     0
176
     1
290
     1
176
     1
290
     1
176
     1
290
     0
176
     1
290
     0
176
     1
290
     0
176
     1
290
     0
176
     1
290
     0
176
     1
290
     0
176
     1
 90
       50
176
     1
 40
0.0
176
     1
 40
1.0
176
     1
 90
        0
176
     1
 62
    18
420
        0
176
     1
 90
       50
176
     1
 90
        3
176
     1
 62
     5
420
      255
176
     1
290
     0
176
     1
 90
       50
176
     1
 90
       50
176
     1
 90
       50
176
     1
290
     0
176
     1
 90
       50
176
     1
 62
   256
176
     0
 40
1.0
176
     0
 90
        2
176
     1
  1
strokes_ogs.tif
176
     1
290
     0
176
     1
 40
1.0
176
     1
 40
1.0
176
     1
  0
VISUALSTYLE
  5
3D
102
{ACAD_REACTORS
330
2A
102
}
330
2A
100
AcDbVisualStyle
  2
EdgeColorOff
 70
    22
177
     3
291
     1
 70
    58
 90
        2
176
     0
 90
        2
176
     0
 90
        0
176
     0
 90
        0
176
     0
 40
0.6
176
     0
 40
30.0
176
     0
 62
     7
420
 16777215
176
     0
 90
        1
176
     0
 90
        4
176
     0
 62
     7
176
     0
 62
   257
176
     0
 90
        1
176
     0
 90
        1
176
     0
 40
1.0
176
     0
 90
        8
176
     2
 62
     7
176
     0
 40
1.0
176
     0
 90
        1
176
     0
 90
        6
176
     0
 90
        2
176
     0
 62
     7
176
     0
 90
        5
176
     0
 90
        0
176
     0
 90
        0
176
     0
290
     0
176
     0
 90
        1
176
     0
 40
0.0
176
     0
 90
        0
176
     0
290
     0
176
     0
290
     1
176
     0
290
     1
176
     0
290
     0
176
     0
290
     0
176
     0
290
     0
176
     0
290
     0
176
     0
290
     0
176
     0
290
     0
176
     0
 90
       50
176
     0
 40
0.0
176
     0
 40
1.0
176
     0
 90
        0
176
     0
 62
    18
420
        0
176
     0
 90
       50
176
     0
 90
        3
176
     0
 62
     5
420
      255
176
     0
290
     0
176
     0
 90
       50
176
     0
 90
       50
176
     0
 90
       50
176
     0
290
     0
176
     0
 90
       50
176
     0
 62
   256
176
     0
 40
1.0
176
     0
 90
        2
176
     0
  1
strokes_ogs.tif
176
     0
290
     0
176
     0
 40
1.0
176
     0
 40
1.0
176
     0
  0
VISUALSTYLE
  5
39
102
{ACAD_REACTORS
330
2A
102
}
330
2A
100
AcDbVisualStyle
  2
Facepattern
 70
    15
177
     3
291
     1
 70
    58
 90
        2
176
     1
 90
        2
176
     1
 90
        0
176
     1
 90
        0
176
     1
 40
0.6
176
     1
 40
30.0
176
     1
 62
     7
420
 16777215
176
     1
 90
        1
176
     1
 90
        4
176
     1
 62
     7
176
     1
 62
   257
176
     1
 90
        1
176
     1
 90
        1
176
     1
 40
1.0
176
     1
 90
        8
176
     1
 62
     7
176
     1
 40
1.0
176
     1
 90
        1
176
     1
 90
        6
176
     1
 90
        2
176
     1
 62
     7
176
     1
 90
        5
176
     1
 90
        0
176
     1
 90
        0
176
     1
290
     0
176
     1
 90
        1
176
     1
 40
0.0
176
     1
 90
        0
176
     1
290
     0
176
     1
290
     1
176
     1
290
     1
176
     1
290
     0
176
     1
290
     0
176
     1
290
     0
176
     1
290
     0
176
     1
290
     0
176
     1
290
     0
176
     1
 90
       50
176
     1
 40
0.0
176
     1
 40
1.0
176
     1
 90
        0
176
     1
 62
    18
420
        0
176
     1
 90
       50
176
     1
 90
        3
176
     1
 62
     5
420
      255
176
     1
290
     0
176
     1
 90
       50
176
     1
 90
       50
176
     1
 90
       50
176
     1
290
     0
176
     1
 90
       50
176
     1
 62
   256
176
     0
 40
1.0
176
     0
 90
        2
176
     1
  1
strokes_ogs.tif
176
     1
290
     0
176
     1
 40
1.0
176
     1
 40
1.0
176
     1
  0
VISUALSTYLE
  5
2B
102
{ACAD_REACTORS
330
2A
102
}
330
2A
100
AcDbVisualStyle
  2
Flat
 70
     0
177
     3
291
     1
 70
    58
 90
        2
176
     1
 90
        1
176
     1
 90
        1
176
     1
 90
        2
176
     1
 40
0.6
176
     1
 40
30.0
176
     1
 62
     7
420
 16777215
176
     1
 90
        0
176
     1
 90
        0
176
     1
 62
     7
176
     1
 62
   257
176
     1
 90
        1
176
     1
 90
        1
176
     1
 40
1.0
176
     1
 90
        8
176
     1
 62
     7
176
     1
 40
1.0
176
     1
 90
        1
176
     1
 90
        6
176
     1
 90
        2
176
     1
 62
     7
176
     1
 90
        5
176
     1
 90
        0
176
     1
 90
        0
176
     1
290
     0
176
     1
 90
       13
176
     1
 40
0.0
176
     1
 90
        0
176
     1
290
     0
176
     1
290
     1
176
     1
290
     1
176
     1
290
     0
176
     1
290
     0
176
     1
290
     0
176
     1
290
     0
176
     1
290
     0
176
     1
290
     0
176
     1
 90
       50
176
     1
 40
0.0
176
     1
 40
1.0
176
     1
 90
        0
176
     1
 62
    18
420
        0
176
     1
 90
       50
176
     1
 90
        3
176
     1
 62
     5
420
      255
176
     1
290
     0
176
     1
 90
       50
176
     1
 90
       50
176
     1
 90
       50
176
     1
290
     0
176
     1
 90
       50
176
     1
 62
   256
176
     0
 40
1.0
176
     0
 90
        2
176
     1
  1
strokes_ogs.tif
176
     1
290
     0
176
     1
 40
1.0
176
     1
 40
1.0
176
     1
  0
VISUALSTYLE
  5
2C
102
{ACAD_REACTORS
330
2A
102
}
330
2A
100
AcDbVisualStyle
  2
FlatWithEdges
 70
     1
177
     3
291
     1
 70
    58
 90
        2
176
     1
 90
        1
176
     1
 90
        1
176
     1
 90
        2
176
     1
 40
0.6
176
     1
 40
30.0
176
     1
 62
     7
420
 16777215
176
     1
 90
        1
176
     1
 90
        0
176
     1
 62
     7
176
     1
 62
   257
176
     1
 90
        1
176
     1
 90
        1
176
     1
 40
1.0
176
     1
 90
        0
176
     1
 62
   257
176
     1
 40
1.0
176
     1
 90
        1
176
     1
 90
        6
176
     1
 90
        2
176
     1
 62
     7
176
     1
 90
        5
176
     1
 90
        0
176
     1
 90
        0
176
     1
290
     0
176
     1
 90
       13
176
     1
 40
0.0
176
     1
 90
        0
176
     1
290
     0
176
     1
290
     1
176
     1
290
     1
176
     1
290
     0
176
     1
290
     0
176
     1
290
     0
176
     1
290
     0
176
     1
290
     0
176
     1
290
     0
176
     1
 90
       50
176
     1
 40
0.0
176
     1
 40
1.0
176
     1
 90
        0
176
     1
 62
    18
420
        0
176
     1
 90
       50
176
     1
 90
        3
176
     1
 62
     5
420
      255
176
     1
290
     0
176
     1
 90
       50
176
     1
 90
       50
176
     1
 90
       50
176
     1
290
     0
176
     1
 90
       50
176
     1
 62
   256
176
     0
 40
1.0
176
     0
 90
        2
176
     1
  1
strokes_ogs.tif
176
     1
290
     0
176
     1
 40
1.0
176
     1
 40
1.0
176
     1
  0
VISUALSTYLE
  5
2D
102
{ACAD_REACTORS
330
2A
102
}
330
2A
100
AcDbVisualStyle
  2
Gouraud
 70
     2
177
     3
291
     1
 70
    58
 90
        2
176
     1
 90
        2
176
     1
 90
        1
176
     1
 90
        2
176
     1
 40
0.6
176
     1
 40
30.0
176
     1
 62
     7
420
 16777215
176
     1
 90
        0
176
     1
 90
        0
176
     1
 62
     7
176
     1
 62
   257
176
     1
 90
        1
176
     1
 90
        1
176
     1
 40
1.0
176
     1
 90
        0
176
     1
 62
     7
176
     1
 40
1.0
176
     1
 90
        1
176
     1
 90
        6
176
     1
 90
        2
176
     1
 62
     7
176
     1
 90
        5
176
     1
 90
        0
176
     1
 90
        0
176
     1
290
     0
176
     1
 90
       13
176
     1
 40
0.0
176
     1
 90
        0
176
     1
290
     0
176
     1
290
     1
176
     1
290
     1
176
     1
290
     0
176
     1
290
     0
176
     1
290
     0
176
     1
290
     0
176
     1
290
     0
176
     1
290
     0
176
     1
 90
       50
176
     1
 40
0.0
176
     1
 40
1.0
176
     1
 90
        0
176
     1
 62
    18
420
        0
176
     1
 90
       50
176
     1
 90
        3
176
     1
 62
     5
420
      255
176
     1
290
     0
176
     1
 90
       50
176
     1
 90
       50
176
     1
 90
       50
176
     1
290
     0
176
     1
 90
       50
176
     1
 62
   256
176
     0
 40
1.0
176
     0
 90
        2
176
     1
  1
strokes_ogs.tif
176
     1
290
     0
176
     1
 40
1.0
176
     1
 40
1.0
176
     1
  0
VISUALSTYLE
  5
2E
102
{ACAD_REACTORS
330
2A
102
}
330
2A
100
AcDbVisualStyle
  2
GouraudWithEdges
 70
     3
177
     3
291
     1
 70
    58
 90
        2
176
     1
 90
        2
176
     1
 90
        1
176
     1
 90
        2
176
     1
 40
0.6
176
     1
 40
30.0
176
     1
 62
     7
420
 16777215
176
     1
 90
        1
176
     1
 90
        0
176
     1
 62
     7
176
     1
 62
   257
176
     1
 90
        1
176
     1
 90
        1
176
     1
 40
1.0
176
     1
 90
        0
176
     1
 62
   257
176
     1
 40
1.0
176
     1
 90
        1
176
     1
 90
        6
176
     1
 90
        2
176
     1
 62
     7
176
     1
 90
        5
176
     1
 90
        0
176
     1
 90
        0
176
     1
290
     0
176
     1
 90
       13
176
     1
 40
0.0
176
     1
 90
        0
176
     1
290
     0
176
     1
290
     1
176
     1
290
     1
176
     1
290
     0
176
     1
290
     0
176
     1
290
     0
176
     1
290
     0
176
     1
290
     0
176
     1
290
     0
176
     1
 90
       50
176
     1
 40
0.0
176
     1
 40
1.0
176
     1
 90
        0
176
     1
 62
    18
420
        0
176
     1
 90
       50
176
     1
 90
        3
176
     1
 62
     5
420
      255
176
     1
290
     0
176
     1
 90
       50
176
     1
 90
       50
176
     1
 90
       50
176
     1
290
     0
176
     1
 90
       50
176
     1
 62
   256
176
     0
 40
1.0
176
     0
 90
        2
176
     1
  1
strokes_ogs.tif
176
     1
290
     0
176
     1
 40
1.0
176
     1
 40
1.0
176
     1
  0
VISUALSTYLE
  5
31
102
{ACAD_REACTORS
330
2A
102
}
330
2A
100
AcDbVisualStyle
  2
Hidden
 70
     6
177
     3
291
     0
 70
    58
 90
        1
176
     1
 90
        2
176
     1
 90
        2
176
     1
 90
        0
176
     1
 40
0.6
176
     1
 40
30.0
176
     1
 62
     7
420
 16777215
176
     1
 90
        2
176
     1
 90
        2
176
     1
 62
     7
176
     1
 62
   257
176
     1
 90
        2
176
     1
 90
        1
176
     1
 40
40.0
176
     1
 90
        0
176
     1
 62
   257
176
     1
 40
1.0
176
     1
 90
        1
176
     1
 90
        6
176
     1
 90
        2
176
     1
 62
     7
176
     1
 90
        3
176
     1
 90
        0
176
     1
 90
        0
176
     1
290
     0
176
     1
 90
        1
176
     1
 40
0.0
176
     1
 90
        0
176
     1
290
     0
176
     1
290
     1
176
     1
290
     1
176
     1
290
     0
176
     1
290
     0
176
     1
290
     0
176
     1
290
     0
176
     1
290
     0
176
     1
290
     0
176
     1
 90
       50
176
     1
 40
0.0
176
     1
 40
1.0
176
     1
 90
        0
176
     1
 62
    18
420
        0
176
     1
 90
       50
176
     1
 90
        3
176
     1
 62
     5
420
      255
176
     1
290
     0
176
     1
 90
       50
176
     1
 90
       50
176
     1
 90
       50
176
     1
290
     0
176
     1
 90
       50
176
     1
 62
   256
176
     0
 40
1.0
176
     0
 90
        2
176
     1
  1
strokes_ogs.tif
176
     1
290
     0
176
     1
 40
1.0
176
     1
 40
1.0
176
     1
  0
VISUALSTYLE
  5
3B
102
{ACAD_REACTORS
330
2A
102
}
330
2A
100
AcDbVisualStyle
  2
JitterOff
 70
    20
177
     3
291
     1
 70
    58
 90
        2
176
     0
 90
        2
176
     0
 90
        0
176
     0
 90
        0
176
     0
 40
0.6
176
     0
 40
30.0
176
     0
 62
     7
420
 16777215
176
     0
 90
        1
176
     0
 90
        4
176
     0
 62
     7
176
     0
 62
   257
176
     0
 90
        1
176
     0
 90
        1
176
     0
 40
1.0
176
     0
 90
       10
176
     2
 62
     7
176
     0
 40
1.0
176
     0
 90
        1
176
     0
 90
        6
176
     0
 90
        2
176
     0
 62
     7
176
     0
 90
        5
176
     0
 90
        0
176
     0
 90
        0
176
     0
290
     0
176
     0
 90
        1
176
     0
 40
0.0
176
     0
 90
        0
176
     0
290
     0
176
     0
290
     1
176
     0
290
     1
176
     0
290
     0
176
     0
290
     0
176
     0
290
     0
176
     0
290
     0
176
     0
290
     0
176
     0
290
     0
176
     0
 90
       50
176
     0
 40
0.0
176
     0
 40
1.0
176
     0
 90
        0
176
     0
 62
    18
420
        0
176
     0
 90
       50
176
     0
 90
        3
176
     0
 62
     5
420
      255
176
     0
290
     0
176
     0
 90
       50
176
     0
 90
       50
176
     0
 90
       50
176
     0
290
     0
176
     0
 90
       50
176
     0
 62
   256
176
     0
 40
1.0
176
     0
 90
        2
176
     0
  1
strokes_ogs.tif
176
     0
290
     0
176
     0
 40
1.0
176
     0
 40
1.0
176
     0
  0
VISUALSTYLE
  5
38
102
{ACAD_REACTORS
330
2A
102
}
330
2A
100
AcDbVisualStyle
  2
Linepattern
 70
    14
177
     3
291
     1
 70
    58
 90
        2
176
     1
 90
        2
176
     1
 90
        0
176
     1
 90
        0
176
     1
 40
0.6
176
     1
 40
30.0
176
     1
 62
     7
420
 16777215
176
     1
 90
        1
176
     1
 90
        4
176
     1
 62
     7
176
     1
 62
   257
176
     1
 90
        7
176
     1
 90
        7
176
     1
 40
1.0
176
     1
 90
        8
176
     1
 62
     7
176
     1
 40
1.0
176
     1
 90
        1
176
     1
 90
        6
176
     1
 90
        2
176
     1
 62
     7
176
     1
 90
        5
176
     1
 90
        0
176
     1
 90
        0
176
     1
290
     0
176
     1
 90
        1
176
     1
 40
0.0
176
     1
 90
        0
176
     1
290
     0
176
     1
290
     1
176
     1
290
     1
176
     1
290
     0
176
     1
290
     0
176
     1
290
     0
176
     1
290
     0
176
     1
290
     0
176
     1
290
     0
176
     1
 90
       50
176
     1
 40
0.0
176
     1
 40
1.0
176
     1
 90
        0
176
     1
 62
    18
420
        0
176
     1
 90
       50
176
     1
 90
        3
176
     1
 62
     5
420
      255
176
     1
290
     0
176
     1
 90
       50
176
     1
 90
       50
176
     1
 90
       50
176
     1
290
     0
176
     1
 90
       50
176
     1
 62
   256
176
     0
 40
1.0
176
     0
 90
        2
176
     1
  1
strokes_ogs.tif
176
     1
290
     0
176
     1
 40
1.0
176
     1
 40
1.0
176
     1
  0
VISUALSTYLE
  5
3C
102
{ACAD_REACTORS
330
2A
102
}
330
2A
100
AcDbVisualStyle
  2
OverhangOff
 70
    21
177
     3
291
     1
 70
    58
 90
        2
176
     0
 90
        2
176
     0
 90
        0
176
     0
 90
        0
176
     0
 40
0.6
176
     0
 40
30.0
176
     0
 62
     7
420
 16777215
176
     0
 90
        1
176
     0
 90
        4
176
     0
 62
     7
176
     0
 62
   257
176
     0
 90
        1
176
     0
 90
        1
176
     0
 40
1.0
176
     0
 90
        9
176
     2
 62
     7
176
     0
 40
1.0
176
     0
 90
        1
176
     0
 90
        6
176
     0
 90
        2
176
     0
 62
     7
176
     0
 90
        5
176
     0
 90
        0
176
     0
 90
        0
176
     0
290
     0
176
     0
 90
        1
176
     0
 40
0.0
176
     0
 90
        0
176
     0
290
     0
176
     0
290
     1
176
     0
290
     1
176
     0
290
     0
176
     0
290
     0
176
     0
290
     0
176
     0
290
     0
176
     0
290
     0
176
     0
290
     0
176
     0
 90
       50
176
     0
 40
0.0
176
     0
 40
1.0
176
     0
 90
        0
176
     0
 62
    18
420
        0
176
     0
 90
       50
176
     0
 90
        3
176
     0
 62
     5
420
      255
176
     0
290
     0
176
     0
 90
       50
176
     0
 90
       50
176
     0
 90
       50
176
     0
290
     0
176
     0
 90
       50
176
     0
 62
   256
176
     0
 40
1.0
176
     0
 90
        2
176
     0
  1
strokes_ogs.tif
176
     0
290
     0
176
     0
 40
1.0
176
     0
 40
1.0
176
     0
  0
VISUALSTYLE
  5
33
102
{ACAD_REACTORS
330
2A
102
}
330
2A
100
AcDbVisualStyle
  2
Realistic
 70
     8
177
     3
291
     0
 70
    58
 90
        2
176
     1
 90
        3
176
     1
 90
        0
176
     1
 90
        2
176
     1
 40
0.6
176
     1
 40
30.0
176
     1
 62
     7
420
 16777215
176
     1
 90
        0
176
     1
 90
        0
176
     1
 62
     7
176
     1
 62
   257
176
     1
 90
        1
176
     1
 90
        1
176
     1
 40
1.0
176
     1
 90
        8
176
     1
 62
   257
176
     1
 40
1.0
176
     1
 90
        1
176
     1
 90
        6
176
     1
 90
        2
176
     1
 62
     7
176
     1
 90
        3
176
     1
 90
        0
176
     1
 90
        0
176
     1
290
     0
176
     1
 90
       13
176
     1
 40
0.0
176
     1
 90
        0
176
     1
290
     0
176
     1
290
     1
176
     1
290
     1
176
     1
290
     0
176
     1
290
     0
176
     1
290
     0
176
     1
290
     0
176
     1
290
     0
176
     1
290
     0
176
     1
 90
       50
176
     1
 40
0.0
176
     1
 40
1.0
176
     1
 90
        0
176
     1
 62
    18
420
        0
176
     1
 90
       50
176
     1
 90
        3
176
     1
 62
     5
420
      255
176
     1
290
     0
176
     1
 90
       50
176
     1
 90
       50
176
     1
 90
       50
176
     1
290
     0
176
     1
 90
       50
176
     1
 62
   256
176
     0
 40
1.0
176
     0
 90
        2
176
     1
  1
strokes_ogs.tif
176
     1
290
     0
176
     1
 40
1.0
176
     1
 40
1.0
176
     1
  0
VISUALSTYLE
  5
42
102
{ACAD_REACTORS
330
2A
102
}
330
2A
100
AcDbVisualStyle
  2
Shaded
 70
    27
177
     3
291
     0
 70
    58
 90
        2
176
     1
 90
        2
176
     1
 90
        1
176
     1
 90
        2
176
     1
 40
0.6
176
     1
 40
30.0
176
     1
 62
     7
420
 16777215
176
     1
 90
        0
176
     1
 90
        4
176
     1
 62
     7
176
     1
 62
   257
176
     1
 90
        1
176
     1
 90
        1
176
     1
 40
1.0
176
     1
 90
        8
176
     1
 62
   257
176
     1
 40
1.0
176
     1
 90
        1
176
     1
 90
        6
176
     1
 90
        2
176
     1
 62
     8
420
  7895160
176
     1
 90
        3
176
     1
 90
        0
176
     1
 90
        0
176
     1
290
     0
176
     1
 90
        5
176
     1
 40
0.0
176
     1
 90
        0
176
     1
290
     0
176
     1
290
     1
176
     1
290
     1
176
     1
290
     0
176
     1
290
     0
176
     1
290
     0
176
     1
290
     0
176
     1
290
     0
176
     1
290
     0
176
     1
 90
       50
176
     1
 40
0.0
176
     1
 40
1.0
176
     1
 90
        0
176
     1
 62
    18
420
        0
176
     1
 90
       50
176
     1
 90
        3
176
     1
 62
     5
420
      255
176
     1
290
     0
176
     1
 90
       50
176
     1
 90
       50
176
     1
 90
       50
176
     1
290
     0
176
     1
 90
       50
176
     1
 62
   256
176
     0
 40
1.0
176
     0
 90
        2
176
     1
  1
strokes_ogs.tif
176
     1
290
     0
176
     1
 40
1.0
176
     1
 40
1.0
176
     1
  0
VISUALSTYLE
  5
41
102
{ACAD_REACTORS
330
2A
102
}
330
2A
100
AcDbVisualStyle
  2
Shaded with edges
 70
    26
177
     3
291
     0
 70
    58
 90
        2
176
     1
 90
        2
176
     1
 90
        1
176
     1
 90
        2
176
     1
 40
0.6
176
     1
 40
30.0
176
     1
 62
     7
420
 16777215
176
     1
 90
        1
176
     1
 90
       10
176
     1
 62
     7
176
     1
 62
   257
176
     1
 90
        2
176
     1
 90
        1
176
     1
 40
1.0
176
     1
 90
        8
176
     1
 62
   257
176
     1
 40
1.0
176
     1
 90
        1
176
     1
 90
        6
176
     1
 90
        2
176
     1
 62
     7
176
     1
 90
        3
176
     1
 90
        0
176
     1
 90
        0
176
     1
290
     0
176
     1
 90
        5
176
     1
 40
0.0
176
     1
 90
        0
176
     1
290
     0
176
     1
290
     1
176
     1
290
     1
176
     1
290
     0
176
     1
290
     0
176
     1
290
     0
176
     1
290
     0
176
     1
290
     0
176
     1
290
     0
176
     1
 90
       50
176
     1
 40
0.0
176
     1
 40
1.0
176
     1
 90
        0
176
     1
 62
    18
420
        0
176
     1
 90
       50
176
     1
 90
        3
176
     1
 62
     5
420
      255
176
     1
290
     0
176
     1
 90
       50
176
     1
 90
       50
176
     1
 90
       50
176
     1
290
     0
176
     1
 90
       50
176
     1
 62
   256
176
     0
 40
1.0
176
     0
 90
        2
176
     1
  1
strokes_ogs.tif
176
     1
290
     0
176
     1
 40
1.0
176
     1
 40
1.0
176
     1
  0
VISUALSTYLE
  5
3E
102
{ACAD_REACTORS
330
2A
102
}
330
2A
100
AcDbVisualStyle
  2
Shades of Gray
 70
    23
177
     3
291
     0
 70
    58
 90
        2
176
     1
 90
        2
176
     1
 90
        3
176
     1
 90
        0
176
     1
 40
0.6
176
     1
 40
30.0
176
     1
 62
     7
420
 16777215
176
     1
 90
        2
176
     1
 90
        2
176
     1
 62
     7
176
     1
 62
     7
176
     1
 90
        1
176
     1
 90
        1
176
     1
 40
40.0
176
     1
 90
        8
176
     1
 62
     7
176
     1
 40
1.0
176
     1
 90
        1
176
     1
 90
        6
176
     1
 90
        2
176
     1
 62
     7
176
     1
 90
        3
176
     1
 90
        0
176
     1
 90
        0
176
     1
290
     0
176
     1
 90
        1
176
     1
 40
0.0
176
     1
 90
        0
176
     1
290
     0
176
     1
290
     1
176
     1
290
     1
176
     1
290
     0
176
     1
290
     0
176
     1
290
     0
176
     1
290
     0
176
     1
290
     0
176
     1
290
     0
176
     1
 90
       50
176
     1
 40
0.0
176
     1
 40
1.0
176
     1
 90
        0
176
     1
 62
    18
420
        0
176
     1
 90
       50
176
     1
 90
        3
176
     1
 62
     5
420
      255
176
     1
290
     0
176
     1
 90
       50
176
     1
 90
       50
176
     1
 90
       50
176
     1
290
     0
176
     1
 90
       50
176
     1
 62
   256
176
     0
 40
1.0
176
     0
 90
        2
176
     1
  1
strokes_ogs.tif
176
     1
290
     0
176
     1
 40
1.0
176
     1
 40
1.0
176
     1
  0
VISUALSTYLE
  5
3F
102
{ACAD_REACTORS
330
2A
102
}
330
2A
100
AcDbVisualStyle
  2
Sketchy
 70
    24
177
     3
291
     0
 70
    58
 90
        1
176
     1
 90
        2
176
     1
 90
        2
176
     1
 90
        0
176
     1
 40
0.6
176
     1
 40
30.0
176
     1
 62
     7
420
 16777215
176
     1
 90
        2
176
     1
 90
        2
176
     1
 62
     7
176
     1
 62
     7
176
     1
 90
        1
176
     1
 90
        1
176
     1
 40
40.0
176
     1
 90
       11
176
     1
 62
     7
176
     1
 40
1.0
176
     1
 90
        1
176
     1
 90
        6
176
     1
 90
        2
176
     1
 62
     7
176
     1
 90
        6
176
     1
 90
        0
176
     1
 90
        0
176
     1
290
     0
176
     1
 90
        1
176
     1
 40
0.0
176
     1
 90
        0
176
     1
290
     0
176
     1
290
     1
176
     1
290
     1
176
     1
290
     0
176
     1
290
     0
176
     1
290
     0
176
     1
290
     0
176
     1
290
     0
176
     1
290
     0
176
     1
 90
       50
176
     1
 40
0.0
176
     1
 40
1.0
176
     1
 90
        0
176
     1
 62
    18
420
        0
176
     1
 90
       50
176
     1
 90
        3
176
     1
 62
     5
420
      255
176
     1
290
     0
176
     1
 90
       50
176
     1
 90
       50
176
     1
 90
       50
176
     1
290
     0
176
     1
 90
       50
176
     1
 62
   256
176
     0
 40
1.0
176
     0
 90
        2
176
     1
  1
strokes_ogs.tif
176
     1
290
     0
176
     1
 40
1.0
176
     1
 40
1.0
176
     1
  0
VISUALSTYLE
  5
37
102
{ACAD_REACTORS
330
2A
102
}
330
2A
100
AcDbVisualStyle
  2
Thicken
 70
    13
177
     3
291
     1
 70
    58
 90
        2
176
     1
 90
        2
176
     1
 90
        0
176
     1
 90
        0
176
     1
 40
0.6
176
     1
 40
30.0
176
     1
 62
     7
420
 16777215
176
     1
 90
        1
176
     1
 90
        4
176
     1
 62
     7
176
     1
 62
   257
176
     1
 90
        1
176
     1
 90
        1
176
     1
 40
1.0
176
     1
 90
       12
176
     1
 62
     7
176
     1
 40
1.0
176
     1
 90
        1
176
     1
 90
        6
176
     1
 90
        2
176
     1
 62
     7
176
     1
 90
        5
176
     1
 90
        0
176
     1
 90
        0
176
     1
290
     0
176
     1
 90
        1
176
     1
 40
0.0
176
     1
 90
        0
176
     1
290
     0
176
     1
290
     1
176
     1
290
     1
176
     1
290
     0
176
     1
290
     0
176
     1
290
     0
176
     1
290
     0
176
     1
290
     0
176
     1
290
     0
176
     1
 90
       50
176
     1
 40
0.0
176
     1
 40
1.0
176
     1
 90
        0
176
     1
 62
    18
420
        0
176
     1
 90
       50
176
     1
 90
        3
176
     1
 62
     5
420
      255
176
     1
290
     0
176
     1
 90
       50
176
     1
 90
       50
176
     1
 90
       50
176
     1
290
     0
176
     1
 90
       50
176
     1
 62
   256
176
     0
 40
1.0
176
     0
 90
        2
176
     1
  1
strokes_ogs.tif
176
     1
290
     0
176
     1
 40
1.0
176
     1
 40
1.0
176
     1
  0
VISUALSTYLE
  5
30
102
{ACAD_REACTORS
330
2A
102
}
330
2A
100
AcDbVisualStyle
  2
Wireframe
 70
     5
177
     3
291
     0
 70
    58
 90
        0
176
     1
 90
        2
176
     1
 90
        0
176
     1
 90
        0
176
     1
 40
0.6
176
     1
 40
30.0
176
     1
 62
     7
420
 16777215
176
     1
 90
        1
176
     1
 90
        4
176
     1
 62
     7
176
     1
 62
   257
176
     1
 90
        1
176
     1
 90
        1
176
     1
 40
1.0
176
     1
 90
        0
176
     1
 62
   257
176
     1
 40
1.0
176
     1
 90
        1
176
     1
 90
        6
176
     1
 90
        2
176
     1
 62
     7
176
     1
 90
        3
176
     1
 90
        0
176
     1
 90
        0
176
     1
290
     0
176
     1
 90
        1
176
     1
 40
0.0
176
     1
 90
        0
176
     1
290
     0
176
     1
290
     1
176
     1
290
     1
176
     1
290
     0
176
     1
290
     0
176
     1
290
     0
176
     1
290
     0
176
     1
290
     0
176
     1
290
     0
176
     1
 90
       50
176
     1
 40
0.0
176
     1
 40
1.0
176
     1
 90
        0
176
     1
 62
    18
420
        0
176
     1
 90
       50
176
     1
 90
        3
176
     1
 62
     5
420
      255
176
     1
290
     0
176
     1
 90
       50
176
     1
 90
       50
176
     1
 90
       50
176
     1
290
     0
176
     1
 90
       50
176
     1
 62
   256
176
     0
 40
1.0
176
     0
 90
        2
176
     1
  1
strokes_ogs.tif
176
     1
290
     0
176
     1
 40
1.0
176
     1
 40
1.0
176
     1
  0
VISUALSTYLE
  5
40
102
{ACAD_REACTORS
330
2A
102
}
330
2A
100
AcDbVisualStyle
  2
X-Ray
 70
    25
177
     3
291
     0
 70
    58
 90
        2
176
     1
 90
        2
176
     1
 90
        1
176
     1
 90
        1
176
     1
 40
0.5
176
     1
 40
30.0
176
     1
 62
     7
420
 16777215
176
     1
 90
        1
176
     1
 90
        0
176
     1
 62
     7
176
     1
 62
   257
176
     1
 90
        1
176
     1
 90
        1
176
     1
 40
1.0
176
     1
 90
        8
176
     1
 62
     7
176
     1
 40
1.0
176
     1
 90
        1
176
     1
 90
        6
176
     1
 90
        2
176
     1
 62
     7
176
     1
 90
        3
176
     1
 90
        0
176
     1
 90
        0
176
     1
290
     0
176
     1
 90
       13
176
     1
 40
0.0
176
     1
 90
        0
176
     1
290
     0
176
     1
290
     1
176
     1
290
     1
176
     1
290
     0
176
     1
290
     0
176
     1
290
     0
176
     1
290
     0
176
     1
290
     0
176
     1
290
     0
176
     1
 90
       50
176
     1
 40
0.0
176
     1
 40
1.0
176
     1
 90
        0
176
     1
 62
    18
420
        0
176
     1
 90
       50
176
     1
 90
        3
176
     1
 62
     5
420
      255
176
     1
290
     0
176
     1
 90
       50
176
     1
 90
       50
176
     1
 90
       50
176
     1
290
     0
176
     1
 90
       50
176
     1
 62
   256
176
     0
 40
1.0
176
     0
 90
        2
176
     1
  1
strokes_ogs.tif
176
     1
290
     0
176
     1
 40
1.0
176
     1
 40
1.0
176
     1
  0
DICTIONARYVAR
  5
238
102
{ACAD_REACTORS
330
237
102
}
330
237
100
DictionaryVariables
280
     0
  1
1:1
  0
DICTIONARYVAR
  5
23D
102
{ACAD_REACTORS
330
237
102
}
330
237
100
DictionaryVariables
280
     0
  1
Standard
  0
DICTIONARYVAR
  5
23C
102
{ACAD_REACTORS
330
237
102
}
330
237
100
DictionaryVariables
280
     0
  1
Standard
  0
DICTIONARY
  5
239
330
6A
100
AcDbDictionary
280
     1
281
     1
  3
ACAD_ROUNDTRIP_2008_TABLESTYLE_CELLSTYLEMAP
360
23A
  0
CELLSTYLEMAP
  5
23A
102
{ACAD_REACTORS
330
239
102
}
330
239
100
AcDbCellStyleMap
 90
        3
300
CELLSTYLE
  1
TABLEFORMAT_BEGIN
 90
        5
170
     1
 91
        0
 92
    32768
 62
   257
 93
        1
300
CONTENTFORMAT
  1
CONTENTFORMAT_BEGIN
 90
        0
 91
        0
 92
        4
 93
        0
300

 40
0.0
140
1.0
 94
        5
 62
     0
340
11
144
0.25
309
CONTENTFORMAT_END
171
     1
301
MARGIN
  1
CELLMARGIN_BEGIN
 40
0.06
 40
0.06
 40
0.06
 40
0.06
 40
0.06
 40
0.06
309
CELLMARGIN_END
 94
        6
 95
        1
302
GRIDFORMAT
  1
GRIDFORMAT_BEGIN
 90
        0
 91
        1
 62
     0
 92
       -2
340
14
 93
        0
 40
0.045
309
GRIDFORMAT_END
 95
        2
302
GRIDFORMAT
  1
GRIDFORMAT_BEGIN
 90
        0
 91
        1
 62
     0
 92
       -2
340
14
 93
        0
 40
0.045
309
GRIDFORMAT_END
 95
        4
302
GRIDFORMAT
  1
GRIDFORMAT_BEGIN
 90
        0
 91
        1
 62
     0
 92
       -2
340
14
 93
        0
 40
0.045
309
GRIDFORMAT_END
 95
        8
302
GRIDFORMAT
  1
GRIDFORMAT_BEGIN
 90
        0
 91
        1
 62
     0
 92
       -2
340
14
 93
        0
 40
0.045
309
GRIDFORMAT_END
 95
       16
302
GRIDFORMAT
  1
GRIDFORMAT_BEGIN
 90
        0
 91
        1
 62
     0
 92
       -2
340
14
 93
        0
 40
0.045
309
GRIDFORMAT_END
 95
       32
302
GRIDFORMAT
  1
GRIDFORMAT_BEGIN
 90
        0
 91
        1
 62
     0
 92
       -2
340
14
 93
        0
 40
0.045
309
GRIDFORMAT_END
309
TABLEFORMAT_END
  1
CELLSTYLE_BEGIN
 90
        1
 91
        1
300
_TITLE
309
CELLSTYLE_END
300
CELLSTYLE
  1
TABLEFORMAT_BEGIN
 90
        5
170
     1
 91
        0
 92
        0
 62
   257
 93
        1
300
CONTENTFORMAT
  1
CONTENTFORMAT_BEGIN
 90
        0
 91
        0
 92
        4
 93
        0
300

 40
0.0
140
1.0
 94
        5
 62
     0
340
11
144
0.18
309
CONTENTFORMAT_END
171
     1
301
MARGIN
  1
CELLMARGIN_BEGIN
 40
0.06
 40
0.06
 40
0.06
 40
0.06
 40
0.06
 40
0.06
309
CELLMARGIN_END
 94
        6
 95
        1
302
GRIDFORMAT
  1
GRIDFORMAT_BEGIN
 90
        0
 91
        1
 62
     0
 92
       -2
340
14
 93
        0
 40
0.045
309
GRIDFORMAT_END
 95
        2
302
GRIDFORMAT
  1
GRIDFORMAT_BEGIN
 90
        0
 91
        1
 62
     0
 92
       -2
340
14
 93
        0
 40
0.045
309
GRIDFORMAT_END
 95
        4
302
GRIDFORMAT
  1
GRIDFORMAT_BEGIN
 90
        0
 91
        1
 62
     0
 92
       -2
340
14
 93
        0
 40
0.045
309
GRIDFORMAT_END
 95
        8
302
GRIDFORMAT
  1
GRIDFORMAT_BEGIN
 90
        0
 91
        1
 62
     0
 92
       -2
340
14
 93
        0
 40
0.045
309
GRIDFORMAT_END
 95
       16
302
GRIDFORMAT
  1
GRIDFORMAT_BEGIN
 90
        0
 91
        1
 62
     0
 92
       -2
340
14
 93
        0
 40
0.045
309
GRIDFORMAT_END
 95
       32
302
GRIDFORMAT
  1
GRIDFORMAT_BEGIN
 90
        0
 91
        1
 62
     0
 92
       -2
340
14
 93
        0
 40
0.045
309
GRIDFORMAT_END
309
TABLEFORMAT_END
  1
CELLSTYLE_BEGIN
 90
        2
 91
        1
300
_HEADER
309
CELLSTYLE_END
300
CELLSTYLE
  1
TABLEFORMAT_BEGIN
 90
        5
170
     1
 91
        0
 92
        0
 62
   257
 93
        1
300
CONTENTFORMAT
  1
CONTENTFORMAT_BEGIN
 90
        0
 91
        0
 92
        4
 93
        0
300

 40
0.0
140
1.0
 94
        2
 62
     0
340
11
144
0.18
309
CONTENTFORMAT_END
171
     1
301
MARGIN
  1
CELLMARGIN_BEGIN
 40
0.06
 40
0.06
 40
0.06
 40
0.06
 40
0.06
 40
0.06
309
CELLMARGIN_END
 94
        6
 95
        1
302
GRIDFORMAT
  1
GRIDFORMAT_BEGIN
 90
        0
 91
        1
 62
     0
 92
       -2
340
14
 93
        0
 40
0.045
309
GRIDFORMAT_END
 95
        2
302
GRIDFORMAT
  1
GRIDFORMAT_BEGIN
 90
        0
 91
        1
 62
     0
 92
       -2
340
14
 93
        0
 40
0.045
309
GRIDFORMAT_END
 95
        4
302
GRIDFORMAT
  1
GRIDFORMAT_BEGIN
 90
        0
 91
        1
 62
     0
 92
       -2
340
14
 93
        0
 40
0.045
309
GRIDFORMAT_END
 95
        8
302
GRIDFORMAT
  1
GRIDFORMAT_BEGIN
 90
        0
 91
        1
 62
     0
 92
       -2
340
14
 93
        0
 40
0.045
309
GRIDFORMAT_END
 95
       16
302
GRIDFORMAT
  1
GRIDFORMAT_BEGIN
 90
        0
 91
        1
 62
     0
 92
       -2
340
14
 93
        0
 40
0.045
309
GRIDFORMAT_END
 95
       32
302
GRIDFORMAT
  1
GRIDFORMAT_BEGIN
 90
        0
 91
        1
 62
     0
 92
       -2
340
14
 93
        0
 40
0.045
309
GRIDFORMAT_END
309
TABLEFORMAT_END
  1
CELLSTYLE_BEGIN
 90
        3
 91
        2
300
_DATA
309
CELLSTYLE_END
  0
ENDSEC
  0
EOF