0
SECTION
  2
HEADER
  9
$ACADVER
  1
AC1027
  9
$ACADMAINTVER
 70
     8
  9
$DWGCODEPAGE
  3
ANSI_1252
  9
$REQUIREDVERSIONS
160
                 0
  9
$COMMENTS
  1
File was created by Cadenas
  9
$CUSTOMPROPERTYTAG
  1
NN
  9
$CUSTOMPROPERTY
  1
Imperial -IP Pillow Block 1-1/8 thru 2-1/4  2-Bolt Inch Bore (Contact Seal)
  9
$CUSTOMPROPERTYTAG
  1
NT
  9
$CUSTOMPROPERTY
  1
Imperial 2 Bolt Piliow Block Bearings
  9
$CUSTOMPROPERTYTAG
  1
NB
  9
$CUSTOMPROPERTY
  1
069421
  9
$CUSTOMPROPERTYTAG
  1
NBSYN
  9
$CUSTOMPROPERTY
  1
$PN.
  9
$CUSTOMPROPERTYTAG
  1
LINA
  9
$CUSTOMPROPERTY
  1
069421
  9
$CUSTOMPROPERTYTAG
  1
SS
  9
$CUSTOMPROPERTY
  1
3-3/16
  9
$CUSTOMPROPERTYTAG
  1
PN
  9
$CUSTOMPROPERTY
  1
069421
  9
$CUSTOMPROPERTYTAG
  1
DESCRIPTION
  9
$CUSTOMPROPERTY
  1
P2B-IP-303R
  9
$CUSTOMPROPERTYTAG
  1
EF
  9
$CUSTOMPROPERTY
  1
Non-Expansion Type
  9
$CUSTOMPROPERTYTAG
  1
ST
  9
$CUSTOMPROPERTY
  1
Contact  Seal
  9
$CUSTOMPROPERTYTAG
  1
A
  9
$CUSTOMPROPERTY
  1
4-11/64
  9
$CUSTOMPROPERTYTAG
  1
B
  9
$CUSTOMPROPERTY
  1
13
  9
$CUSTOMPROPERTYTAG
  1
C
  9
$CUSTOMPROPERTY
  1
3-27/64
  9
$CUSTOMPROPERTYTAG
  1
DMIN
  9
$CUSTOMPROPERTY
  1
9-3/8
  9
$CUSTOMPROPERTYTAG
  1
DMAX
  9
$CUSTOMPROPERTY
  1
10-5/8
  9
$CUSTOMPROPERTYTAG
  1
F
  9
$CUSTOMPROPERTY
  1
7/8
  9
$CUSTOMPROPERTYTAG
  1
G
  9
$CUSTOMPROPERTY
  1
1-5/8
  9
$CUSTOMPROPERTYTAG
  1
H
  9
$CUSTOMPROPERTY
  1
2-1/4
  9
$CUSTOMPROPERTYTAG
  1
J
  9
$CUSTOMPROPERTY
  1
7-1/2
  9
$CUSTOMPROPERTYTAG
  1
L
  9
$CUSTOMPROPERTY
  1
5
  9
$CUSTOMPROPERTYTAG
  1
M
  9
$CUSTOMPROPERTY
  1
3-3/4
  9
$CUSTOMPROPERTYTAG
  1
R
  9
$CUSTOMPROPERTY
  1
1-31/64
  9
$CUSTOMPROPERTYTAG
  1
S
  9
$CUSTOMPROPERTY
  1
2-11/16
  9
$CUSTOMPROPERTYTAG
  1
X
  9
$CUSTOMPROPERTY
  1
1/4
  9
$CUSTOMPROPERTYTAG
  1
Y
  9
$CUSTOMPROPERTY
  1
0.025
  9
$CUSTOMPROPERTYTAG
  1
Z
  9
$CUSTOMPROPERTY
  1
4-3/64
  9
$CUSTOMPROPERTYTAG
  1
COMPANY
  9
$CUSTOMPROPERTY
  1
baldor
  9
$INSBASE
 10
0.0
 20
0.0
 30
0.0
  9
$EXTMIN
 10
1.000000000000000E+20
 20
1.000000000000000E+20
 30
1.000000000000000E+20
  9
$EXTMAX
 10
-1.000000000000000E+20
 20
-1.000000000000000E+20
 30
-1.000000000000000E+20
  9
$LIMMIN
 10
0.0
 20
0.0
  9
$LIMMAX
 10
12.0
 20
9.0
  9
$ORTHOMODE
 70
     0
  9
$REGENMODE
 70
     1
  9
$FILLMODE
 70
     1
  9
$QTEXTMODE
 70
     0
  9
$MIRRTEXT
 70
     1
  9
$LTSCALE
 40
1.0
  9
$ATTMODE
 70
     1
  9
$TEXTSIZE
 40
0.2
  9
$TRACEWID
 40
0.05
  9
$TEXTSTYLE
  7
Standard
  9
$CLAYER
  8
0
  9
$CELTYPE
  6
ByLayer
  9
$CECOLOR
 62
   256
  9
$CELTSCALE
 40
1.0
  9
$DISPSILH
 70
     0
  9
$DIMSCALE
 40
1.0
  9
$DIMASZ
 40
0.18
  9
$DIMEXO
 40
0.0625
  9
$DIMDLI
 40
0.38
  9
$DIMRND
 40
0.0
  9
$DIMDLE
 40
0.0
  9
$DIMEXE
 40
0.18
  9
$DIMTP
 40
0.0
  9
$DIMTM
 40
0.0
  9
$DIMTXT
 40
0.18
  9
$DIMCEN
 40
0.09
  9
$DIMTSZ
 40
0.0
  9
$DIMTOL
 70
     0
  9
$DIMLIM
 70
     0
  9
$DIMTIH
 70
     1
  9
$DIMTOH
 70
     1
  9
$DIMSE1
 70
     0
  9
$DIMSE2
 70
     0
  9
$DIMTAD
 70
     0
  9
$DIMZIN
 70
     0
  9
$DIMBLK
  1

  9
$DIMASO
 70
     1
  9
$DIMSHO
 70
     1
  9
$DIMPOST
  1

  9
$DIMAPOST
  1

  9
$DIMALT
 70
     0
  9
$DIMALTD
 70
     2
  9
$DIMALTF
 40
25.4
  9
$DIMLFAC
 40
1.0
  9
$DIMTOFL
 70
     0
  9
$DIMTVP
 40
0.0
  9
$DIMTIX
 70
     0
  9
$DIMSOXD
 70
     0
  9
$DIMSAH
 70
     0
  9
$DIMBLK1
  1

  9
$DIMBLK2
  1

  9
$DIMSTYLE
  2
Standard
  9
$DIMCLRD
 70
     0
  9
$DIMCLRE
 70
     0
  9
$DIMCLRT
 70
     0
  9
$DIMTFAC
 40
1.0
  9
$DIMGAP
 40
0.09
  9
$DIMJUST
 70
     0
  9
$DIMSD1
 70
     0
  9
$DIMSD2
 70
     0
  9
$DIMTOLJ
 70
     1
  9
$DIMTZIN
 70
     0
  9
$DIMALTZ
 70
     0
  9
$DIMALTTZ
 70
     0
  9
$DIMUPT
 70
     0
  9
$DIMDEC
 70
     4
  9
$DIMTDEC
 70
     4
  9
$DIMALTU
 70
     2
  9
$DIMALTTD
 70
     2
  9
$DIMTXSTY
  7
Standard
  9
$DIMAUNIT
 70
     0
  9
$DIMADEC
 70
     0
  9
$DIMALTRND
 40
0.0
  9
$DIMAZIN
 70
     0
  9
$DIMDSEP
 70
    46
  9
$DIMATFIT
 70
     3
  9
$DIMFRAC
 70
     0
  9
$DIMLDRBLK
  1

  9
$DIMLUNIT
 70
     2
  9
$DIMLWD
 70
    -2
  9
$DIMLWE
 70
    -2
  9
$DIMTMOVE
 70
     0
  9
$DIMFXL
 40
1.0
  9
$DIMFXLON
 70
     0
  9
$DIMJOGANG
 40
0.7853981633974483
  9
$DIMTFILL
 70
     0
  9
$DIMTFILLCLR
 70
     0
  9
$DIMARCSYM
 70
     0
  9
$DIMLTYPE
  6

  9
$DIMLTEX1
  6

  9
$DIMLTEX2
  6

  9
$DIMTXTDIRECTION
 70
     0
  9
$LUNITS
 70
     2
  9
$LUPREC
 70
     4
  9
$SKETCHINC
 40
0.1
  9
$FILLETRAD
 40
0.5
  9
$AUNITS
 70
     0
  9
$AUPREC
 70
     0
  9
$MENU
  1
.
  9
$ELEVATION
 40
0.0
  9
$PELEVATION
 40
0.0
  9
$THICKNESS
 40
0.0
  9
$LIMCHECK
 70
     0
  9
$CHAMFERA
 40
0.0
  9
$CHAMFERB
 40
0.0
  9
$CHAMFERC
 40
0.0
  9
$CHAMFERD
 40
0.0
  9
$SKPOLY
 70
     0
  9
$TDCREATE
 40
2458168.988857975
  9
$TDUCREATE
 40
2458168.947191308
  9
$TDUPDATE
 40
2458168.988858148
  9
$TDUUPDATE
 40
2458168.947191481
  9
$TDINDWG
 40
0.0000000116
  9
$TDUSRTIMER
 40
0.0000000116
  9
$USRTIMER
 70
     1
  9
$ANGBASE
 50
0.0
  9
$ANGDIR
 70
     0
  9
$PDMODE
 70
     0
  9
$PDSIZE
 40
0.0
  9
$PLINEWID
 40
0.0
  9
$SPLFRAME
 70
     0
  9
$SPLINETYPE
 70
     6
  9
$SPLINESEGS
 70
     8
  9
$HANDSEED
  5
264
  9
$SURFTAB1
 70
     6
  9
$SURFTAB2
 70
     6
  9
$SURFTYPE
 70
     6
  9
$SURFU
 70
     6
  9
$SURFV
 70
     6
  9
$UCSBASE
  2

  9
$UCSNAME
  2

  9
$UCSORG
 10
0.0
 20
0.0
 30
0.0
  9
$UCSXDIR
 10
1.0
 20
0.0
 30
0.0
  9
$UCSYDIR
 10
0.0
 20
1.0
 30
0.0
  9
$UCSORTHOREF
  2

  9
$UCSORTHOVIEW
 70
     0
  9
$UCSORGTOP
 10
0.0
 20
0.0
 30
0.0
  9
$UCSORGBOTTOM
 10
0.0
 20
0.0
 30
0.0
  9
$UCSORGLEFT
 10
0.0
 20
0.0
 30
0.0
  9
$UCSORGRIGHT
 10
0.0
 20
0.0
 30
0.0
  9
$UCSORGFRONT
 10
0.0
 20
0.0
 30
0.0
  9
$UCSORGBACK
 10
0.0
 20
0.0
 30
0.0
  9
$PUCSBASE
  2

  9
$PUCSNAME
  2

  9
$PUCSORG
 10
0.0
 20
0.0
 30
0.0
  9
$PUCSXDIR
 10
1.0
 20
0.0
 30
0.0
  9
$PUCSYDIR
 10
0.0
 20
1.0
 30
0.0
  9
$PUCSORTHOREF
  2

  9
$PUCSORTHOVIEW
 70
     0
  9
$PUCSORGTOP
 10
0.0
 20
0.0
 30
0.0
  9
$PUCSORGBOTTOM
 10
0.0
 20
0.0
 30
0.0
  9
$PUCSORGLEFT
 10
0.0
 20
0.0
 30
0.0
  9
$PUCSORGRIGHT
 10
0.0
 20
0.0
 30
0.0
  9
$PUCSORGFRONT
 10
0.0
 20
0.0
 30
0.0
  9
$PUCSORGBACK
 10
0.0
 20
0.0
 30
0.0
  9
$USERI1
 70
     0
  9
$USERI2
 70
     0
  9
$USERI3
 70
     0
  9
$USERI4
 70
     0
  9
$USERI5
 70
     0
  9
$USERR1
 40
0.0
  9
$USERR2
 40
0.0
  9
$USERR3
 40
0.0
  9
$USERR4
 40
0.0
  9
$USERR5
 40
0.0
  9
$WORLDVIEW
 70
     1
  9
$SHADEDGE
 70
     3
  9
$SHADEDIF
 70
    70
  9
$TILEMODE
 70
     1
  9
$MAXACTVP
 70
    64
  9
$PINSBASE
 10
0.0
 20
0.0
 30
0.0
  9
$PLIMCHECK
 70
     0
  9
$PEXTMIN
 10
1.000000000000000E+20
 20
1.000000000000000E+20
 30
1.000000000000000E+20
  9
$PEXTMAX
 10
-1.000000000000000E+20
 20
-1.000000000000000E+20
 30
-1.000000000000000E+20
  9
$PLIMMIN
 10
0.0
 20
0.0
  9
$PLIMMAX
 10
12.0
 20
9.0
  9
$UNITMODE
 70
     0
  9
$VISRETAIN
 70
     1
  9
$PLINEGEN
 70
     0
  9
$PSLTSCALE
 70
     1
  9
$TREEDEPTH
 70
  3020
  9
$CMLSTYLE
  2
Standard
  9
$CMLJUST
 70
     0
  9
$CMLSCALE
 40
1.0
  9
$PROXYGRAPHICS
 70
     1
  9
$MEASUREMENT
 70
     0
  9
$CELWEIGHT
370
    -1
  9
$ENDCAPS
280
     0
  9
$JOINSTYLE
280
     0
  9
$LWDISPLAY
290
     0
  9
$INSUNITS
 70
     1
  9
$HYPERLINKBASE
  1

  9
$STYLESHEET
  1

  9
$XEDIT
290
     1
  9
$CEPSNTYPE
380
     0
  9
$PSTYLEMODE
290
     1
  9
$FINGERPRINTGUID
  2
{C8929304-F135-428E-A942-FBD96818626B}
  9
$VERSIONGUID
  2
{FAEB1C32-E019-11D5-929B-00C0DF256EC4}
  9
$EXTNAMES
290
     1
  9
$PSVPSCALE
 40
0.0
  9
$OLESTARTUP
290
     0
  9
$SORTENTS
280
   127
  9
$INDEXCTL
280
     0
  9
$HIDETEXT
280
     1
  9
$XCLIPFRAME
280
     2
  9
$HALOGAP
280
     0
  9
$OBSCOLOR
 70
   257
  9
$OBSLTYPE
280
     0
  9
$INTERSECTIONDISPLAY
280
     0
  9
$INTERSECTIONCOLOR
 70
   257
  9
$DIMASSOC
280
     2
  9
$PROJECTNAME
  1

  9
$CAMERADISPLAY
290
     0
  9
$LENSLENGTH
 40
50.0
  9
$CAMERAHEIGHT
 40
0.0
  9
$STEPSPERSEC
 40
2.0
  9
$STEPSIZE
 40
6.0
  9
$3DDWFPREC
 40
2.0
  9
$PSOLWIDTH
 40
0.25
  9
$PSOLHEIGHT
 40
4.0
  9
$LOFTANG1
 40
1.570796326794897
  9
$LOFTANG2
 40
1.570796326794897
  9
$LOFTMAG1
 40
0.0
  9
$LOFTMAG2
 40
0.0
  9
$LOFTPARAM
 70
     7
  9
$LOFTNORMALS
280
     1
  9
$LATITUDE
 40
37.795
  9
$LONGITUDE
 40
-122.394
  9
$NORTHDIRECTION
 40
0.0
  9
$TIMEZONE
 70
 -8000
  9
$LIGHTGLYPHDISPLAY
280
     1
  9
$TILEMODELIGHTSYNCH
280
     1
  9
$CMATERIAL
347
44
  9
$SOLIDHIST
280
     0
  9
$SHOWHIST
280
     1
  9
$DWFFRAME
280
     2
  9
$DGNFRAME
280
     2
  9
$REALWORLDSCALE
290
     1
  9
$INTERFERECOLOR
 62
   256
  9
$CSHADOW
280
     0
  9
$SHADOWPLANELOCATION
 40
0.0
  0
ENDSEC
  0
SECTION
  2
CLASSES
  0
CLASS
  1
ACDBDICTIONARYWDFLT
  2
AcDbDictionaryWithDefault
  3
ObjectDBX Classes
 90
        0
 91
        4
280
     0
281
     0
  0
CLASS
  1
VISUALSTYLE
  2
AcDbVisualStyle
  3
ObjectDBX Classes
 90
     4095
 91
        4
280
     0
281
     0
  0
CLASS
  1
MATERIAL
  2
AcDbMaterial
  3
ObjectDBX Classes
 90
     1153
 91
        4
280
     0
281
     0
  0
CLASS
  1
SCALE
  2
AcDbScale
  3
ObjectDBX Classes
 90
     1153
 91
        4
280
     0
281
     0
  0
CLASS
  1
TABLESTYLE
  2
AcDbTableStyle
  3
ObjectDBX Classes
 90
     4095
 91
        4
280
     0
281
     0
  0
CLASS
  1
MLEADERSTYLE
  2
AcDbMLeaderStyle
  3
ACDB_MLEADERSTYLE_CLASS
 90
     4095
 91
        4
280
     0
281
     0
  0
CLASS
  1
SUN
  2
AcDbSun
  3
SCENEOE
 90
     1153
 91
        4
280
     0
281
     0
  0
CLASS
  1
DICTIONARYVAR
  2
AcDbDictionaryVar
  3
ObjectDBX Classes
 90
        0
 91
        4
280
     0
281
     0
  0
CLASS
  1
CELLSTYLEMAP
  2
AcDbCellStyleMap
  3
ObjectDBX Classes
 90
     1152
 91
        4
280
     0
281
     0
  0
ENDSEC
  0
SECTION
  2
TABLES
  0
TABLE
  2
VPORT
  5
8
330
0
100
AcDbSymbolTable
 70
     1
  0
VPORT
  5
29
330
8
100
AcDbSymbolTableRecord
100
AcDbViewportTableRecord
  2
*Active
 70
     0
 10
0.0
 20
0.0
 11
1.0
 21
1.0
 12
-0.5076562500000001
 22
0.0
 13
0.0
 23
0.0
 14
0.5
 24
0.5
 15
0.5
 25
0.5
 16
0.0
 26
0.0
 36
1.0
 17
0.0
 27
0.0
 37
0.0
 40
7.65
 41
0.6372500000000002
 42
50.0
 43
0.0
 44
0.0
 50
0.0
 51
0.0
 71
     0
 72
   100
 73
     1
 74
     3
 75
     0
 76
     0
 77
     0
 78
     0
281
     0
 65
     1
110
0.0
120
0.0
130
0.0
111
1.0
121
0.0
131
0.0
112
0.0
122
1.0
132
0.0
 79
     0
146
0.0
348
2F
 60
     3
 61
     5
292
     1
282
     1
141
0.0
142
0.0
 63
   250
361
6D
  0
ENDTAB
  0
TABLE
  2
LTYPE
  5
5
330
0
100
AcDbSymbolTable
 70
     3
  0
LTYPE
  5
14
330
5
100
AcDbSymbolTableRecord
100
AcDbLinetypeTableRecord
  2
ByBlock
 70
     0
  3

 72
    65
 73
     0
 40
0.0
  0
LTYPE
  5
15
330
5
100
AcDbSymbolTableRecord
100
AcDbLinetypeTableRecord
  2
ByLayer
 70
     0
  3

 72
    65
 73
     0
 40
0.0
  0
LTYPE
  5
16
330
5
100
AcDbSymbolTableRecord
100
AcDbLinetypeTableRecord
  2
Continuous
 70
     0
  3
Solid line
 72
    65
 73
     0
 40
0.0
  0
LTYPE
  5
9E
330
5
100
AcDbSymbolTableRecord
100
AcDbLinetypeTableRecord
  2
Dashed
 70
     0
  3

 72
    65
 73
     2
 40
2.0
 49
1.0
 74
     0
 49
-1.0
 74
     0
  0
LTYPE
  5
17F
330
5
100
AcDbSymbolTableRecord
100
AcDbLinetypeTableRecord
  2
Center
 70
     0
  3

 72
    65
 73
     4
 40
1.5
 49
0.45
 74
     0
 49
-0.5
 74
     0
 49
0.05
 74
     0
 49
-0.5
 74
     0
  0
ENDTAB
  0
TABLE
  2
LAYER
  5
2
330
0
100
AcDbSymbolTable
 70
     7
  0
LAYER
  5
10
330
2
100
AcDbSymbolTableRecord
100
AcDbLayerTableRecord
  2
0
 70
     0
 62
     7
  6
Continuous
370
    -3
390
F
347
46
348
0
  0
LAYER
  5
72
330
2
100
AcDbSymbolTableRecord
100
AcDbLayerTableRecord
  2
AM_6
 70
     0
 62
    -2
  6
Continuous
370
    35
390
F
347
46
348
0
  0
LAYER
  5
9F
330
2
100
AcDbSymbolTableRecord
100
AcDbLayerTableRecord
  2
AM_9
 70
     0
 62
     6
  6
Dashed
370
    25
390
F
347
46
348
0
  0
LAYER
  5
AB
330
2
100
AcDbSymbolTableRecord
100
AcDbLayerTableRecord
  2
AM_5
 70
     0
 62
     3
  6
Continuous
370
    25
390
F
347
46
348
0
  0
LAYER
  5
AF
330
2
100
AcDbSymbolTableRecord
100
AcDbLayerTableRecord
  2
AM_4
 70
     0
 62
     7
  6
Continuous
370
    50
390
F
347
46
348
0
  0
LAYER
  5
180
330
2
100
AcDbSymbolTableRecord
100
AcDbLayerTableRecord
  2
AM_7
 70
     0
 62
     7
  6
Center
370
    25
390
F
347
46
348
0
  0
LAYER
  5
24D
330
2
100
AcDbSymbolTableRecord
100
AcDbLayerTableRecord
  2
ConnectionPoints
 70
     0
 62
     7
  6
Continuous
370
    50
390
F
347
46
348
0
  0
ENDTAB
  0
TABLE
  2
STYLE
  5
3
330
0
100
AcDbSymbolTable
 70
     1
  0
STYLE
  5
11
330
3
100
AcDbSymbolTableRecord
100
AcDbTextStyleTableRecord
  2
Standard
 70
     0
 40
0.0
 41
1.0
 50
0.0
 71
     0
 42
0.2
  3
txt
  4

  0
ENDTAB
  0
TABLE
  2
VIEW
  5
6
330
0
100
AcDbSymbolTable
 70
     0
  0
ENDTAB
  0
TABLE
  2
UCS
  5
7
330
0
100
AcDbSymbolTable
 70
     0
  0
ENDTAB
  0
TABLE
  2
APPID
  5
9
330
0
100
AcDbSymbolTable
 70
     1
  0
APPID
  5
12
330
9
100
AcDbSymbolTableRecord
100
AcDbRegAppTableRecord
  2
ACAD
 70
     0
  0
ENDTAB
  0
TABLE
  2
DIMSTYLE
  5
A
330
0
100
AcDbSymbolTable
 70
     1
100
AcDbDimStyleTable
  0
DIMSTYLE
105
27
330
A
100
AcDbSymbolTableRecord
100
AcDbDimStyleTableRecord
  2
Standard
 70
     0
178
     0
340
11
  0
ENDTAB
  0
TABLE
  2
BLOCK_RECORD
  5
1
330
0
100
AcDbSymbolTable
 70
     8
  0
BLOCK_RECORD
  5
1F
330
1
100
AcDbSymbolTableRecord
100
AcDbBlockTableRecord
  2
*Model_Space
340
22
 70
     0
280
     1
281
     0
  0
BLOCK_RECORD
  5
1B
330
1
100
AcDbSymbolTableRecord
100
AcDbBlockTableRecord
  2
*Paper_Space
340
1E
 70
     0
280
     1
281
     0
  0
BLOCK_RECORD
  5
23
330
1
100
AcDbSymbolTableRecord
100
AcDbBlockTableRecord
  2
*Paper_Space0
340
26
 70
     0
280
     1
281
     0
  0
BLOCK_RECORD
  5
6E
330
1
100
AcDbSymbolTableRecord
100
AcDbBlockTableRecord
  2
1_069421_2
340
0
102
{BLKREFS
331
6F
102
}
 70
     0
280
     1
281
     0
  0
BLOCK_RECORD
  5
8E
330
1
100
AcDbSymbolTableRecord
100
AcDbBlockTableRecord
  2
2_ASME_B18_3_1_4_1_0_in_069421_2
340
0
102
{BLKREFS
331
8F
102
}
 70
     0
280
     1
281
     0
  0
BLOCK_RECORD
  5
B6
330
1
100
AcDbSymbolTableRecord
100
AcDbBlockTableRecord
  2
3_ASME_B18_3_1_4_2_0_in_069421_2
340
0
102
{BLKREFS
331
B7
102
}
 70
     0
280
     1
281
     0
  0
BLOCK_RECORD
  5
DA
330
1
100
AcDbSymbolTableRecord
100
AcDbBlockTableRecord
  2
4_070901LW_0_in_069421_2
340
0
102
{BLKREFS
331
DB
102
}
 70
     0
280
     1
281
     0
  0
BLOCK_RECORD
  5
110
330
1
100
AcDbSymbolTableRecord
100
AcDbBlockTableRecord
  2
5_070901I_0_in_069421_2
340
0
102
{BLKREFS
331
111
102
}
 70
     0
280
     1
281
     0
  0
BLOCK_RECORD
  5
199
330
1
100
AcDbSymbolTableRecord
100
AcDbBlockTableRecord
  2
6_405015E_Inch_0_in_069421_2
340
0
102
{BLKREFS
331
19A
102
}
 70
     0
280
     1
281
     0
  0
BLOCK_RECORD
  5
1FB
330
1
100
AcDbSymbolTableRecord
100
AcDbBlockTableRecord
  2
7_069421H_0_in_069421_2
340
0
102
{BLKREFS
331
1FC
102
}
 70
     0
280
     1
281
     0
  0
ENDTAB
  0
ENDSEC
  0
SECTION
  2
BLOCKS
  0
BLOCK
  5
20
330
1F
100
AcDbEntity
  8
0
100
AcDbBlockBegin
  2
*Model_Space
 70
     0
 10
0.0
 20
0.0
 30
0.0
  3
*Model_Space
  1

  0
ENDBLK
  5
21
330
1F
100
AcDbEntity
  8
0
100
AcDbBlockEnd
  0
BLOCK
  5
1C
330
1B
100
AcDbEntity
 67
     1
  8
0
100
AcDbBlockBegin
  2
*Paper_Space
 70
     0
 10
0.0
 20
0.0
 30
0.0
  3
*Paper_Space
  1

  0
ENDBLK
  5
1D
330
1B
100
AcDbEntity
 67
     1
  8
0
100
AcDbBlockEnd
  0
BLOCK
  5
24
330
23
100
AcDbEntity
  8
0
100
AcDbBlockBegin
  2
*Paper_Space0
 70
     0
 10
0.0
 20
0.0
 30
0.0
  3
*Paper_Space0
  1

  0
ENDBLK
  5
25
330
23
100
AcDbEntity
  8
0
100
AcDbBlockEnd
  0
BLOCK
  5
70
330
6E
100
AcDbEntity
  8
0
100
AcDbBlockBegin
  2
1_069421_2
 70
     2
 10
0.0
 20
0.0
 30
0.0
  3
1_069421_2
  1

  0
ATTDEF
  5
73
330
6E
100
AcDbEntity
  8
AM_6
100
AcDbText
 10
6.88203125
 20
3.75
 30
0.0
 40
0.5
  1
Imperial -IP Pillow Block 1-1/8 thru 2-1/4  2-Bolt Inch Bore (Contact Seal)
100
AcDbAttributeDefinition
  3

  2
NN
 70
     8
280
     0
  0
ATTDEF
  5
74
330
6E
100
AcDbEntity
  8
AM_6
100
AcDbText
 10
6.88203125
 20
3.25
 30
0.0
 40
0.5
  1
Imperial 2 Bolt Piliow Block Bearings
100
AcDbAttributeDefinition
  3

  2
NT
 70
     8
280
     0
  0
ATTDEF
  5
75
330
6E
100
AcDbEntity
  8
AM_6
100
AcDbText
 10
6.88203125
 20
2.75
 30
0.0
 40
0.5
  1
069421
100
AcDbAttributeDefinition
  3

  2
NB
 70
     8
280
     0
  0
ATTDEF
  5
76
330
6E
100
AcDbEntity
  8
AM_6
100
AcDbText
 10
6.88203125
 20
2.25
 30
0.0
 40
0.5
  1
$PN.
100
AcDbAttributeDefinition
  3

  2
NBSYN
 70
     8
280
     0
  0
ATTDEF
  5
77
330
6E
100
AcDbEntity
  8
AM_6
100
AcDbText
 10
6.88203125
 20
1.75
 30
0.0
 40
0.5
  1
069421
100
AcDbAttributeDefinition
  3

  2
LINA
 70
     8
280
     0
  0
ATTDEF
  5
78
330
6E
100
AcDbEntity
  8
AM_6
100
AcDbText
 10
6.88203125
 20
1.25
 30
0.0
 40
0.5
  1
3-3/16
100
AcDbAttributeDefinition
  3

  2
SS
 70
     8
280
     0
  0
ATTDEF
  5
79
330
6E
100
AcDbEntity
  8
AM_6
100
AcDbText
 10
6.88203125
 20
0.75
 30
0.0
 40
0.5
  1
069421
100
AcDbAttributeDefinition
  3

  2
PN
 70
     8
280
     0
  0
ATTDEF
  5
7A
330
6E
100
AcDbEntity
  8
AM_6
100
AcDbText
 10
6.88203125
 20
0.25
 30
0.0
 40
0.5
  1
P2B-IP-303R
100
AcDbAttributeDefinition
  3

  2
DESCRIPTION
 70
     8
280
     0
  0
ATTDEF
  5
7B
330
6E
100
AcDbEntity
  8
AM_6
100
AcDbText
 10
6.88203125
 20
-0.25
 30
0.0
 40
0.5
  1
Non-Expansion Type
100
AcDbAttributeDefinition
  3

  2
EF
 70
     8
280
     0
  0
ATTDEF
  5
7C
330
6E
100
AcDbEntity
  8
AM_6
100
AcDbText
 10
6.88203125
 20
-0.75
 30
0.0
 40
0.5
  1
Contact  Seal
100
AcDbAttributeDefinition
  3

  2
ST
 70
     8
280
     0
  0
ATTDEF
  5
7D
330
6E
100
AcDbEntity
  8
AM_6
100
AcDbText
 10
6.88203125
 20
-1.25
 30
0.0
 40
0.5
  1
4-11/64
100
AcDbAttributeDefinition
  3

  2
A
 70
     8
280
     0
  0
ATTDEF
  5
7E
330
6E
100
AcDbEntity
  8
AM_6
100
AcDbText
 10
6.88203125
 20
-1.75
 30
0.0
 40
0.5
  1
13
100
AcDbAttributeDefinition
  3

  2
B
 70
     8
280
     0
  0
ATTDEF
  5
7F
330
6E
100
AcDbEntity
  8
AM_6
100
AcDbText
 10
6.88203125
 20
-2.25
 30
0.0
 40
0.5
  1
3-27/64
100
AcDbAttributeDefinition
  3

  2
C
 70
     8
280
     0
  0
ATTDEF
  5
80
330
6E
100
AcDbEntity
  8
AM_6
100
AcDbText
 10
6.88203125
 20
-2.75
 30
0.0
 40
0.5
  1
9-3/8
100
AcDbAttributeDefinition
  3

  2
DMIN
 70
     8
280
     0
  0
ATTDEF
  5
81
330
6E
100
AcDbEntity
  8
AM_6
100
AcDbText
 10
6.88203125
 20
-3.25
 30
0.0
 40
0.5
  1
10-5/8
100
AcDbAttributeDefinition
  3

  2
DMAX
 70
     8
280
     0
  0
ATTDEF
  5
82
330
6E
100
AcDbEntity
  8
AM_6
100
AcDbText
 10
6.88203125
 20
-3.75
 30
0.0
 40
0.5
  1
7/8
100
AcDbAttributeDefinition
  3

  2
F
 70
     8
280
     0
  0
ATTDEF
  5
83
330
6E
100
AcDbEntity
  8
AM_6
100
AcDbText
 10
6.88203125
 20
-4.25
 30
0.0
 40
0.5
  1
1-5/8
100
AcDbAttributeDefinition
  3

  2
G
 70
     8
280
     0
  0
ATTDEF
  5
84
330
6E
100
AcDbEntity
  8
AM_6
100
AcDbText
 10
6.88203125
 20
-4.75
 30
0.0
 40
0.5
  1
2-1/4
100
AcDbAttributeDefinition
  3

  2
H
 70
     8
280
     0
  0
ATTDEF
  5
85
330
6E
100
AcDbEntity
  8
AM_6
100
AcDbText
 10
6.88203125
 20
-5.25
 30
0.0
 40
0.5
  1
7-1/2
100
AcDbAttributeDefinition
  3

  2
J
 70
     8
280
     0
  0
ATTDEF
  5
86
330
6E
100
AcDbEntity
  8
AM_6
100
AcDbText
 10
6.88203125
 20
-5.75
 30
0.0
 40
0.5
  1
5
100
AcDbAttributeDefinition
  3

  2
L
 70
     8
280
     0
  0
ATTDEF
  5
87
330
6E
100
AcDbEntity
  8
AM_6
100
AcDbText
 10
6.88203125
 20
-6.25
 30
0.0
 40
0.5
  1
3-3/4
100
AcDbAttributeDefinition
  3

  2
M
 70
     8
280
     0
  0
ATTDEF
  5
88
330
6E
100
AcDbEntity
  8
AM_6
100
AcDbText
 10
6.88203125
 20
-6.75
 30
0.0
 40
0.5
  1
1-31/64
100
AcDbAttributeDefinition
  3

  2
R
 70
     8
280
     0
  0
ATTDEF
  5
89
330
6E
100
AcDbEntity
  8
AM_6
100
AcDbText
 10
6.88203125
 20
-7.25
 30
0.0
 40
0.5
  1
2-11/16
100
AcDbAttributeDefinition
  3

  2
S
 70
     8
280
     0
  0
ATTDEF
  5
8A
330
6E
100
AcDbEntity
  8
AM_6
100
AcDbText
 10
6.88203125
 20
-7.75
 30
0.0
 40
0.5
  1
1/4
100
AcDbAttributeDefinition
  3

  2
X
 70
     8
280
     0
  0
ATTDEF
  5
8B
330
6E
100
AcDbEntity
  8
AM_6
100
AcDbText
 10
6.88203125
 20
-8.25
 30
0.0
 40
0.5
  1
0.025
100
AcDbAttributeDefinition
  3

  2
Y
 70
     8
280
     0
  0
ATTDEF
  5
8C
330
6E
100
AcDbEntity
  8
AM_6
100
AcDbText
 10
6.88203125
 20
-8.75
 30
0.0
 40
0.5
  1
4-3/64
100
AcDbAttributeDefinition
  3

  2
Z
 70
     8
280
     0
  0
ATTDEF
  5
8D
330
6E
100
AcDbEntity
  8
AM_6
100
AcDbText
 10
6.88203125
 20
-9.25
 30
0.0
 40
0.5
  1
baldor
100
AcDbAttributeDefinition
  3

  2
COMPANY
 70
     8
280
     0
  0
INSERT
  5
8F
330
6E
100
AcDbEntity
  8
0
100
AcDbBlockReference
  2
2_ASME_B18_3_1_4_1_0_in_069421_2
 10
0.0
 20
0.0
 30
0.0
  0
INSERT
  5
B7
330
6E
100
AcDbEntity
  8
0
100
AcDbBlockReference
  2
3_ASME_B18_3_1_4_2_0_in_069421_2
 10
0.0
 20
0.0
 30
0.0
  0
INSERT
  5
DB
330
6E
100
AcDbEntity
  8
0
100
AcDbBlockReference
  2
4_070901LW_0_in_069421_2
 10
0.0
 20
0.0
 30
0.0
  0
INSERT
  5
111
330
6E
100
AcDbEntity
  8
0
100
AcDbBlockReference
  2
5_070901I_0_in_069421_2
 10
0.0
 20
0.0
 30
0.0
  0
INSERT
  5
19A
330
6E
100
AcDbEntity
  8
0
100
AcDbBlockReference
  2
6_405015E_Inch_0_in_069421_2
 10
0.0
 20
0.0
 30
0.0
  0
INSERT
  5
1FC
330
6E
100
AcDbEntity
  8
0
100
AcDbBlockReference
  2
7_069421H_0_in_069421_2
 10
0.0
 20
0.0
 30
0.0
  0
ENDBLK
  5
71
330
6E
100
AcDbEntity
  8
0
100
AcDbBlockEnd
  0
BLOCK
  5
90
330
8E
100
AcDbEntity
  8
0
100
AcDbBlockBegin
  2
2_ASME_B18_3_1_4_1_0_in_069421_2
 70
     2
 10
0.0
 20
0.0
 30
0.0
  3
2_ASME_B18_3_1_4_1_0_in_069421_2
  1

  0
ATTDEF
  5
92
330
8E
100
AcDbEntity
  8
AM_6
100
AcDbText
 10
3.359666666666667
 20
-1.916916666666666
 30
0.0
 40
0.5
  1
ANSI/ASME B18.3-1998
100
AcDbAttributeDefinition
  3

  2
NN
 70
     8
280
     0
  0
ATTDEF
  5
93
330
8E
100
AcDbEntity
  8
AM_6
100
AcDbText
 10
3.359666666666667
 20
-2.416916666666666
 30
0.0
 40
0.5
  1
Socket Button Head Cap Screws
100
AcDbAttributeDefinition
  3

  2
NT
 70
     8
280
     0
  0
ATTDEF
  5
94
330
8E
100
AcDbEntity
  8
AM_6
100
AcDbText
 10
3.359666666666667
 20
-2.916916666666666
 30
0.0
 40
0.5
  1
ASME B18.3-1/4
100
AcDbAttributeDefinition
  3

  2
NB
 70
     8
280
     0
  0
ATTDEF
  5
95
330
8E
100
AcDbEntity
  8
AM_6
100
AcDbText
 10
3.359666666666667
 20
-3.416916666666666
 30
0.0
 40
0.5
  1
ASME B18.3-$NS.
100
AcDbAttributeDefinition
  3

  2
NBSYN
 70
     8
280
     0
  0
ATTDEF
  5
96
330
8E
100
AcDbEntity
  8
AM_6
100
AcDbText
 10
3.359666666666667
 20
-3.916916666666666
 30
0.0
 40
0.5
  1
ASME B18.3-1/4
100
AcDbAttributeDefinition
  3

  2
LINA
 70
     8
280
     0
  0
ATTDEF
  5
97
330
8E
100
AcDbEntity
  8
AM_6
100
AcDbText
 10
3.359666666666667
 20
-4.416916666666666
 30
0.0
 40
0.5
  1
1/4
100
AcDbAttributeDefinition
  3

  2
NS
 70
     8
280
     0
  0
ATTDEF
  5
98
330
8E
100
AcDbEntity
  8
AM_6
100
AcDbText
 10
3.359666666666667
 20
-4.916916666666666
 30
0.0
 40
0.5
  1
0.437
100
AcDbAttributeDefinition
  3

  2
A
 70
     8
280
     0
  0
ATTDEF
  5
99
330
8E
100
AcDbEntity
  8
AM_6
100
AcDbText
 10
3.359666666666667
 20
-5.416916666666666
 30
0.0
 40
0.5
  1
0.132
100
AcDbAttributeDefinition
  3

  2
H
 70
     8
280
     0
  0
ATTDEF
  5
9A
330
8E
100
AcDbEntity
  8
AM_6
100
AcDbText
 10
3.359666666666667
 20
-5.916916666666666
 30
0.0
 40
0.5
  1
0.800
100
AcDbAttributeDefinition
  3

  2
L
 70
     8
280
     0
  0
ATTDEF
  5
9B
330
8E
100
AcDbEntity
  8
AM_6
100
AcDbText
 10
3.359666666666667
 20
-6.416916666666666
 30
0.0
 40
0.5
  1
0.031
100
AcDbAttributeDefinition
  3

  2
S
 70
     8
280
     0
  0
ATTDEF
  5
9C
330
8E
100
AcDbEntity
  8
AM_6
100
AcDbText
 10
3.359666666666667
 20
-6.916916666666666
 30
0.0
 40
0.5
  1
0.156250
100
AcDbAttributeDefinition
  3

  2
J
 70
     8
280
     0
  0
ATTDEF
  5
9D
330
8E
100
AcDbEntity
  8
AM_6
100
AcDbText
 10
3.359666666666667
 20
-7.416916666666666
 30
0.0
 40
0.5
  1
baldor
100
AcDbAttributeDefinition
  3

  2
COMPANY
 70
     8
280
     0
  0
LINE
  5
A0
330
8E
100
AcDbEntity
  8
AM_9
100
AcDbLine
 10
-2.502333333333333
 20
-2.225627646227545
 30
0.0
 11
-2.572333333333333
 21
-2.225627646227545
 31
0.0
  0
LINE
  5
A1
330
8E
100
AcDbEntity
  8
AM_9
100
AcDbLine
 10
-2.502333333333333
 20
-2.045205687105788
 30
0.0
 11
-2.572333333333333
 21
-2.045205687105788
 31
0.0
  0
LINE
  5
A2
330
8E
100
AcDbEntity
  8
AM_9
100
AcDbLine
 10
-2.502333333333333
 20
-2.045205687105788
 30
0.0
 11
-2.502333333333333
 21
-2.225627646227545
 31
0.0
  0
LINE
  5
A3
330
8E
100
AcDbEntity
  8
AM_9
100
AcDbLine
 10
-2.502333333333333
 20
-2.090311176886227
 30
0.0
 11
-2.572333333333333
 21
-2.090311176886227
 31
0.0
  0
LINE
  5
A4
330
8E
100
AcDbEntity
  8
AM_9
100
AcDbLine
 10
-2.502333333333333
 20
-2.180522156447106
 30
0.0
 11
-2.572333333333333
 21
-2.180522156447106
 31
0.0
  0
LINE
  5
A5
330
8E
100
AcDbEntity
  8
AM_9
100
AcDbLine
 10
-1.640333333333333
 20
-2.029016666666667
 30
0.0
 11
-1.640333333333333
 21
-2.241816666666666
 31
0.0
  0
LINE
  5
A6
330
8E
100
AcDbEntity
  8
AM_9
100
AcDbLine
 10
-1.640333333333333
 20
-2.029016666666667
 30
0.0
 11
-1.658933333333333
 21
-2.010416666666667
 31
0.0
  0
LINE
  5
A7
330
8E
100
AcDbEntity
  8
AM_9
100
AcDbLine
 10
-1.658933333333333
 20
-2.260416666666667
 30
0.0
 11
-1.640333333333333
 21
-2.241816666666666
 31
0.0
  0
LINE
  5
A8
330
8E
100
AcDbEntity
  8
AM_9
100
AcDbLine
 10
-1.658933333333333
 20
-2.010416666666667
 30
0.0
 11
-1.658933333333333
 21
-2.260416666666667
 31
0.0
  0
LINE
  5
A9
330
8E
100
AcDbEntity
  8
AM_9
100
AcDbLine
 10
-2.440333333333333
 20
-2.260416666666667
 30
0.0
 11
-1.658933333333333
 21
-2.260416666666667
 31
0.0
  0
LINE
  5
AA
330
8E
100
AcDbEntity
  8
AM_9
100
AcDbLine
 10
-1.658933333333333
 20
-2.010416666666667
 30
0.0
 11
-2.440333333333333
 21
-2.010416666666667
 31
0.0
  0
LINE
  5
AC
330
8E
100
AcDbEntity
  8
AM_5
100
AcDbLine
 10
-2.360333333333333
 20
-2.241816666666666
 30
0.0
 11
-2.392549478354114
 21
-2.260416666666667
 31
0.0
  0
LINE
  5
AD
330
8E
100
AcDbEntity
  8
AM_5
100
AcDbLine
 10
-2.360333333333333
 20
-2.010416685969678
 30
0.0
 11
-2.360333333333333
 21
-2.260416749489543
 31
0.0
  0
LINE
  5
AE
330
8E
100
AcDbEntity
  8
AM_5
100
AcDbLine
 10
-2.360333333333333
 20
-2.029016666666667
 30
0.0
 11
-2.392549478354114
 21
-2.010416666666667
 31
0.0
  0
LINE
  5
B0
330
8E
100
AcDbEntity
  8
AM_4
100
AcDbLine
 10
-2.572333333333333
 20
-2.017916666666666
 30
0.0
 11
-2.572333333333333
 21
-2.252916666666667
 31
0.0
  0
ARC
  5
B1
330
8E
100
AcDbEntity
  8
AM_4
100
AcDbCircle
 10
-2.471333333333333
 20
-2.252916666666667
 30
0.0
 40
0.101
100
AcDbArc
 50
180.0
 51
270.0
  0
ARC
  5
B2
330
8E
100
AcDbEntity
  8
AM_4
100
AcDbCircle
 10
-2.471333333333333
 20
-2.017916666666666
 30
0.0
 40
0.101
100
AcDbArc
 50
90.0
 51
180.0
  0
LINE
  5
B3
330
8E
100
AcDbEntity
  8
AM_4
100
AcDbLine
 10
-2.471333333333333
 20
-1.916916666666667
 30
0.0
 11
-2.471333333333333
 21
-2.353916666666666
 31
0.0
  0
LINE
  5
B4
330
8E
100
AcDbEntity
  8
AM_4
100
AcDbLine
 10
-2.471333333333333
 20
-2.353916666666666
 30
0.0
 11
-2.440333333333333
 21
-2.353916666666666
 31
0.0
  0
LINE
  5
B5
330
8E
100
AcDbEntity
  8
AM_4
100
AcDbLine
 10
-2.440333333333333
 20
-1.916916666666667
 30
0.0
 11
-2.471333333333333
 21
-1.916916666666667
 31
0.0
  0
ENDBLK
  5
91
330
8E
100
AcDbEntity
  8
0
100
AcDbBlockEnd
  0
BLOCK
  5
B8
330
B6
100
AcDbEntity
  8
0
100
AcDbBlockBegin
  2
3_ASME_B18_3_1_4_2_0_in_069421_2
 70
     2
 10
0.0
 20
0.0
 30
0.0
  3
3_ASME_B18_3_1_4_2_0_in_069421_2
  1

  0
ATTDEF
  5
BA
330
B6
100
AcDbEntity
  8
AM_6
100
AcDbText
 10
3.359666666666667
 20
2.353916666666667
 30
0.0
 40
0.5
  1
ANSI/ASME B18.3-1998
100
AcDbAttributeDefinition
  3

  2
NN
 70
     8
280
     0
  0
ATTDEF
  5
BB
330
B6
100
AcDbEntity
  8
AM_6
100
AcDbText
 10
3.359666666666667
 20
1.853916666666667
 30
0.0
 40
0.5
  1
Socket Button Head Cap Screws
100
AcDbAttributeDefinition
  3

  2
NT
 70
     8
280
     0
  0
ATTDEF
  5
BC
330
B6
100
AcDbEntity
  8
AM_6
100
AcDbText
 10
3.359666666666667
 20
1.353916666666667
 30
0.0
 40
0.5
  1
ASME B18.3-1/4
100
AcDbAttributeDefinition
  3

  2
NB
 70
     8
280
     0
  0
ATTDEF
  5
BD
330
B6
100
AcDbEntity
  8
AM_6
100
AcDbText
 10
3.359666666666667
 20
0.8539166666666667
 30
0.0
 40
0.5
  1
ASME B18.3-$NS.
100
AcDbAttributeDefinition
  3

  2
NBSYN
 70
     8
280
     0
  0
ATTDEF
  5
BE
330
B6
100
AcDbEntity
  8
AM_6
100
AcDbText
 10
3.359666666666667
 20
0.3539166666666667
 30
0.0
 40
0.5
  1
ASME B18.3-1/4
100
AcDbAttributeDefinition
  3

  2
LINA
 70
     8
280
     0
  0
ATTDEF
  5
BF
330
B6
100
AcDbEntity
  8
AM_6
100
AcDbText
 10
3.359666666666667
 20
-0.1460833333333333
 30
0.0
 40
0.5
  1
1/4
100
AcDbAttributeDefinition
  3

  2
NS
 70
     8
280
     0
  0
ATTDEF
  5
C0
330
B6
100
AcDbEntity
  8
AM_6
100
AcDbText
 10
3.359666666666667
 20
-0.6460833333333333
 30
0.0
 40
0.5
  1
0.437
100
AcDbAttributeDefinition
  3

  2
A
 70
     8
280
     0
  0
ATTDEF
  5
C1
330
B6
100
AcDbEntity
  8
AM_6
100
AcDbText
 10
3.359666666666667
 20
-1.146083333333333
 30
0.0
 40
0.5
  1
0.132
100
AcDbAttributeDefinition
  3

  2
H
 70
     8
280
     0
  0
ATTDEF
  5
C2
330
B6
100
AcDbEntity
  8
AM_6
100
AcDbText
 10
3.359666666666667
 20
-1.646083333333333
 30
0.0
 40
0.5
  1
0.800
100
AcDbAttributeDefinition
  3

  2
L
 70
     8
280
     0
  0
ATTDEF
  5
C3
330
B6
100
AcDbEntity
  8
AM_6
100
AcDbText
 10
3.359666666666667
 20
-2.146083333333333
 30
0.0
 40
0.5
  1
0.031
100
AcDbAttributeDefinition
  3

  2
S
 70
     8
280
     0
  0
ATTDEF
  5
C4
330
B6
100
AcDbEntity
  8
AM_6
100
AcDbText
 10
3.359666666666667
 20
-2.646083333333333
 30
0.0
 40
0.5
  1
0.156250
100
AcDbAttributeDefinition
  3

  2
J
 70
     8
280
     0
  0
ATTDEF
  5
C5
330
B6
100
AcDbEntity
  8
AM_6
100
AcDbText
 10
3.359666666666667
 20
-3.146083333333333
 30
0.0
 40
0.5
  1
baldor
100
AcDbAttributeDefinition
  3

  2
COMPANY
 70
     8
280
     0
  0
LINE
  5
C6
330
B6
100
AcDbEntity
  8
AM_9
100
AcDbLine
 10
-2.502333333333333
 20
2.225627646227545
 30
0.0
 11
-2.572333333333333
 21
2.225627646227545
 31
0.0
  0
LINE
  5
C7
330
B6
100
AcDbEntity
  8
AM_9
100
AcDbLine
 10
-2.502333333333333
 20
2.045205687105788
 30
0.0
 11
-2.572333333333333
 21
2.045205687105788
 31
0.0
  0
LINE
  5
C8
330
B6
100
AcDbEntity
  8
AM_9
100
AcDbLine
 10
-2.502333333333333
 20
2.180522156447106
 30
0.0
 11
-2.572333333333333
 21
2.180522156447106
 31
0.0
  0
LINE
  5
C9
330
B6
100
AcDbEntity
  8
AM_9
100
AcDbLine
 10
-2.502333333333333
 20
2.090311176886227
 30
0.0
 11
-2.572333333333333
 21
2.090311176886227
 31
0.0
  0
LINE
  5
CA
330
B6
100
AcDbEntity
  8
AM_9
100
AcDbLine
 10
-2.502333333333333
 20
2.225627646227545
 30
0.0
 11
-2.502333333333333
 21
2.045205687105788
 31
0.0
  0
LINE
  5
CB
330
B6
100
AcDbEntity
  8
AM_9
100
AcDbLine
 10
-1.640333333333333
 20
2.241816666666666
 30
0.0
 11
-1.640333333333333
 21
2.029016666666667
 31
0.0
  0
LINE
  5
CC
330
B6
100
AcDbEntity
  8
AM_9
100
AcDbLine
 10
-1.640333333333333
 20
2.241816666666666
 30
0.0
 11
-1.658933333333333
 21
2.260416666666667
 31
0.0
  0
LINE
  5
CD
330
B6
100
AcDbEntity
  8
AM_9
100
AcDbLine
 10
-1.658933333333333
 20
2.010416666666667
 30
0.0
 11
-1.640333333333333
 21
2.029016666666667
 31
0.0
  0
LINE
  5
CE
330
B6
100
AcDbEntity
  8
AM_9
100
AcDbLine
 10
-1.658933333333333
 20
2.260416666666667
 30
0.0
 11
-1.658933333333333
 21
2.010416666666667
 31
0.0
  0
LINE
  5
CF
330
B6
100
AcDbEntity
  8
AM_9
100
AcDbLine
 10
-2.440333333333333
 20
2.010416666666667
 30
0.0
 11
-1.658933333333333
 21
2.010416666666667
 31
0.0
  0
LINE
  5
D0
330
B6
100
AcDbEntity
  8
AM_9
100
AcDbLine
 10
-1.658933333333333
 20
2.260416666666667
 30
0.0
 11
-2.440333333333333
 21
2.260416666666667
 31
0.0
  0
LINE
  5
D1
330
B6
100
AcDbEntity
  8
AM_5
100
AcDbLine
 10
-2.360333333333333
 20
2.029016666666667
 30
0.0
 11
-2.392549478354114
 21
2.010416666666667
 31
0.0
  0
LINE
  5
D2
330
B6
100
AcDbEntity
  8
AM_5
100
AcDbLine
 10
-2.360333333333333
 20
2.260416749489543
 30
0.0
 11
-2.360333333333333
 21
2.010416685969643
 31
0.0
  0
LINE
  5
D3
330
B6
100
AcDbEntity
  8
AM_5
100
AcDbLine
 10
-2.360333333333333
 20
2.241816666666666
 30
0.0
 11
-2.392549478354114
 21
2.260416666666667
 31
0.0
  0
LINE
  5
D4
330
B6
100
AcDbEntity
  8
AM_4
100
AcDbLine
 10
-2.471333333333333
 20
1.916916666666667
 30
0.0
 11
-2.440333333333333
 21
1.916916666666667
 31
0.0
  0
LINE
  5
D5
330
B6
100
AcDbEntity
  8
AM_4
100
AcDbLine
 10
-2.440333333333333
 20
2.353916666666666
 30
0.0
 11
-2.471333333333333
 21
2.353916666666666
 31
0.0
  0
LINE
  5
D6
330
B6
100
AcDbEntity
  8
AM_4
100
AcDbLine
 10
-2.572333333333333
 20
2.252916666666667
 30
0.0
 11
-2.572333333333333
 21
2.017916666666666
 31
0.0
  0
LINE
  5
D7
330
B6
100
AcDbEntity
  8
AM_4
100
AcDbLine
 10
-2.471333333333333
 20
2.353916666666667
 30
0.0
 11
-2.471333333333333
 21
1.916916666666666
 31
0.0
  0
ARC
  5
D8
330
B6
100
AcDbEntity
  8
AM_4
100
AcDbCircle
 10
-2.471333333333333
 20
2.017916666666666
 30
0.0
 40
0.101
100
AcDbArc
 50
180.0
 51
270.0
  0
ARC
  5
D9
330
B6
100
AcDbEntity
  8
AM_4
100
AcDbCircle
 10
-2.471333333333333
 20
2.252916666666667
 30
0.0
 40
0.1009999999999995
100
AcDbArc
 50
90.0
 51
180.0
  0
ENDBLK
  5
B9
330
B6
100
AcDbEntity
  8
0
100
AcDbBlockEnd
  0
BLOCK
  5
DC
330
DA
100
AcDbEntity
  8
0
100
AcDbBlockBegin
  2
4_070901LW_0_in_069421_2
 70
     2
 10
0.0
 20
0.0
 30
0.0
  3
4_070901LW_0_in_069421_2
  1

  0
ATTDEF
  5
DE
330
DA
100
AcDbEntity
  8
AM_6
100
AcDbText
 10
2.999666666666667
 20
2.5
 30
0.0
 40
0.5
  1
Imperial Insert Lockwasher -Inch
100
AcDbAttributeDefinition
  3

  2
NN
 70
     8
280
     0
  0
ATTDEF
  5
DF
330
DA
100
AcDbEntity
  8
AM_6
100
AcDbText
 10
2.999666666666667
 20
2.0
 30
0.0
 40
0.5
  1
Imperial Bearings
100
AcDbAttributeDefinition
  3

  2
NT
 70
     8
280
     0
  0
ATTDEF
  5
E0
330
DA
100
AcDbEntity
  8
AM_6
100
AcDbText
 10
2.999666666666667
 20
1.5
 30
0.0
 40
0.5
  1
070901LW
100
AcDbAttributeDefinition
  3

  2
NB
 70
     8
280
     0
  0
ATTDEF
  5
E1
330
DA
100
AcDbEntity
  8
AM_6
100
AcDbText
 10
2.999666666666667
 20
1.0
 30
0.0
 40
0.5
  1
$PN.LW
100
AcDbAttributeDefinition
  3

  2
NBSYN
 70
     8
280
     0
  0
ATTDEF
  5
E2
330
DA
100
AcDbEntity
  8
AM_6
100
AcDbText
 10
2.999666666666667
 20
0.5
 30
0.0
 40
0.5
  1
070901
100
AcDbAttributeDefinition
  3

  2
LINA
 70
     8
280
     0
  0
ATTDEF
  5
E3
330
DA
100
AcDbEntity
  8
AM_6
100
AcDbText
 10
2.999666666666667
 20
0.0
 30
0.0
 40
0.5
  1
3-3/16
100
AcDbAttributeDefinition
  3

  2
SS
 70
     8
280
     0
  0
ATTDEF
  5
E4
330
DA
100
AcDbEntity
  8
AM_6
100
AcDbText
 10
2.999666666666667
 20
-0.5
 30
0.0
 40
0.5
  1
3.187500
100
AcDbAttributeDefinition
  3

  2
SS1
 70
     8
280
     0
  0
ATTDEF
  5
E5
330
DA
100
AcDbEntity
  8
AM_6
100
AcDbText
 10
2.999666666666667
 20
-1.0
 30
0.0
 40
0.5
  1
070901
100
AcDbAttributeDefinition
  3

  2
PN
 70
     8
280
     0
  0
ATTDEF
  5
E6
330
DA
100
AcDbEntity
  8
AM_6
100
AcDbText
 10
2.999666666666667
 20
-1.5
 30
0.0
 40
0.5
  1
INS-IP-303R
100
AcDbAttributeDefinition
  3

  2
DESCRIPTION
 70
     8
280
     0
  0
ATTDEF
  5
E7
330
DA
100
AcDbEntity
  8
AM_6
100
AcDbText
 10
2.999666666666667
 20
-2.0
 30
0.0
 40
0.5
  1
6.2992
100
AcDbAttributeDefinition
  3

  2
A
 70
     8
280
     0
  0
ATTDEF
  5
E8
330
DA
100
AcDbEntity
  8
AM_6
100
AcDbText
 10
2.999666666666667
 20
-2.5
 30
0.0
 40
0.5
  1
1-5/8
100
AcDbAttributeDefinition
  3

  2
B
 70
     8
280
     0
  0
ATTDEF
  5
E9
330
DA
100
AcDbEntity
  8
AM_6
100
AcDbText
 10
2.999666666666667
 20
-3.0
 30
0.0
 40
0.5
  1
4-11/64
100
AcDbAttributeDefinition
  3

  2
C
 70
     8
280
     0
  0
ATTDEF
  5
EA
330
DA
100
AcDbEntity
  8
AM_6
100
AcDbText
 10
2.999666666666667
 20
-3.5
 30
0.0
 40
0.5
  1
1.483
100
AcDbAttributeDefinition
  3

  2
D
 70
     8
280
     0
  0
ATTDEF
  5
EB
330
DA
100
AcDbEntity
  8
AM_6
100
AcDbText
 10
2.999666666666667
 20
-4.0
 30
0.0
 40
0.5
  1
5
100
AcDbAttributeDefinition
  3

  2
E
 70
     8
280
     0
  0
ATTDEF
  5
EC
330
DA
100
AcDbEntity
  8
AM_6
100
AcDbText
 10
2.999666666666667
 20
-4.5
 30
0.0
 40
0.5
  1
0.2500
100
AcDbAttributeDefinition
  3

  2
NDM
 70
     8
280
     0
  0
ATTDEF
  5
ED
330
DA
100
AcDbEntity
  8
AM_6
100
AcDbText
 10
2.999666666666667
 20
-5.0
 30
0.0
 40
0.5
  1
0.1960
100
AcDbAttributeDefinition
  3

  2
KDM
 70
     8
280
     0
  0
ATTDEF
  5
EE
330
DA
100
AcDbEntity
  8
AM_6
100
AcDbText
 10
2.999666666666667
 20
-5.5
 30
0.0
 40
0.5
  1
4.28
100
AcDbAttributeDefinition
  3

  2
AL
 70
     8
280
     0
  0
ATTDEF
  5
EF
330
DA
100
AcDbEntity
  8
AM_6
100
AcDbText
 10
2.999666666666667
 20
-6.0
 30
0.0
 40
0.5
  1
0.50
100
AcDbAttributeDefinition
  3

  2
BL
 70
     8
280
     0
  0
ATTDEF
  5
F0
330
DA
100
AcDbEntity
  8
AM_6
100
AcDbText
 10
2.999666666666667
 20
-6.5
 30
0.0
 40
0.5
  1
0.07
100
AcDbAttributeDefinition
  3

  2
CL
 70
     8
280
     0
  0
ATTDEF
  5
F1
330
DA
100
AcDbEntity
  8
AM_6
100
AcDbText
 10
2.999666666666667
 20
-7.0
 30
0.0
 40
0.5
  1
0.44
100
AcDbAttributeDefinition
  3

  2
DL
 70
     8
280
     0
  0
ATTDEF
  5
F2
330
DA
100
AcDbEntity
  8
AM_6
100
AcDbText
 10
2.999666666666667
 20
-7.5
 30
0.0
 40
0.5
  1
baldor
100
AcDbAttributeDefinition
  3

  2
COMPANY
 70
     8
280
     0
  0
LINE
  5
F3
330
DA
100
AcDbEntity
  8
AM_9
100
AcDbLine
 10
-2.370333333333333
 20
1.539789349290752
 30
0.0
 11
-2.440333333333333
 21
1.539789349290752
 31
0.0
  0
LINE
  5
F4
330
DA
100
AcDbEntity
  8
AM_9
100
AcDbLine
 10
-2.000333333333333
 20
1.49778568163635
 30
0.0
 11
-2.370333333333333
 21
1.49778568163635
 31
0.0
  0
LINE
  5
F5
330
DA
100
AcDbEntity
  8
AM_9
100
AcDbLine
 10
-2.000333333333333
 20
1.420061768413441
 30
0.0
 11
-2.000333333333333
 21
1.593456539727622
 31
0.0
  0
LINE
  5
F6
330
DA
100
AcDbEntity
  8
AM_9
100
AcDbLine
 10
-2.000333333333333
 20
1.420061768413441
 30
0.0
 11
-2.440333333333333
 21
1.420061768413441
 31
0.0
  0
LINE
  5
F7
330
DA
100
AcDbEntity
  8
AM_9
100
AcDbLine
 10
-2.370333333333333
 20
1.593456539727622
 30
0.0
 11
-2.000333333333333
 21
1.593456539727622
 31
0.0
  0
LINE
  5
F8
330
DA
100
AcDbEntity
  8
AM_9
100
AcDbLine
 10
-2.000333333333333
 20
1.515732626504714
 30
0.0
 11
-2.440333333333333
 21
1.515732626504714
 31
0.0
  0
LINE
  5
F9
330
DA
100
AcDbEntity
  8
AM_9
100
AcDbLine
 10
-2.370333333333333
 20
1.635460207382025
 30
0.0
 11
-2.440333333333333
 21
1.635460207382025
 31
0.0
  0
LINE
  5
FA
330
DA
100
AcDbEntity
  8
AM_9
100
AcDbLine
 10
-2.370333333333333
 20
2.135416666666667
 30
0.0
 11
-2.440333333333333
 21
2.135416666666667
 31
0.0
  0
LINE
  5
FB
330
DA
100
AcDbEntity
  8
AM_9
100
AcDbLine
 10
-2.370333333333333
 20
2.26047028665046
 30
0.0
 11
-2.440333333333333
 21
2.26047028665046
 31
0.0
  0
LINE
  5
FC
330
DA
100
AcDbEntity
  8
AM_9
100
AcDbLine
 10
-2.370333333333333
 20
-2.135416666666667
 30
0.0
 11
-2.440333333333333
 21
-2.135416666666667
 31
0.0
  0
LINE
  5
FD
330
DA
100
AcDbEntity
  8
AM_9
100
AcDbLine
 10
-2.440333333333333
 20
-2.260470286650458
 30
0.0
 11
-2.370333333333333
 21
-2.260470286650458
 31
0.0
  0
LINE
  5
FE
330
DA
100
AcDbEntity
  8
AM_9
100
AcDbLine
 10
-2.370333333333333
 20
1.718432677062248
 30
0.0
 11
-2.440333333333333
 21
1.718432677062248
 31
0.0
  0
LINE
  5
FF
330
DA
100
AcDbEntity
  8
AM_9
100
AcDbLine
 10
-2.370333333333333
 20
-1.718432677062248
 30
0.0
 11
-2.440333333333333
 21
-1.718432677062248
 31
0.0
  0
LINE
  5
100
330
DA
100
AcDbEntity
  8
AM_9
100
AcDbLine
 10
-2.370333333333333
 20
1.303503746611587
 30
0.0
 11
-2.440333333333333
 21
1.303503746611589
 31
0.0
  0
LINE
  5
101
330
DA
100
AcDbEntity
  8
AM_9
100
AcDbLine
 10
-2.370333333333333
 20
-1.303503746611586
 30
0.0
 11
-2.440333333333333
 21
-1.303503746611586
 31
0.0
  0
LINE
  5
102
330
DA
100
AcDbEntity
  8
AM_9
100
AcDbLine
 10
-2.370333333333333
 20
1.12672705131495
 30
0.0
 11
-2.440333333333333
 21
1.12672705131495
 31
0.0
  0
LINE
  5
103
330
DA
100
AcDbEntity
  8
AM_9
100
AcDbLine
 10
-2.370333333333333
 20
-1.126727051314949
 30
0.0
 11
-2.440333333333333
 21
-1.126727051314949
 31
0.0
  0
LINE
  5
104
330
DA
100
AcDbEntity
  8
AM_9
100
AcDbLine
 10
-2.370333333333333
 20
1.598355953307092
 30
0.0
 11
-2.440333333333333
 21
1.598355953307092
 31
0.0
  0
LINE
  5
105
330
DA
100
AcDbEntity
  8
AM_9
100
AcDbLine
 10
-2.370333333333333
 20
1.421579258010455
 30
0.0
 11
-2.440333333333333
 21
1.421579258010455
 31
0.0
  0
LINE
  5
106
330
DA
100
AcDbEntity
  8
AM_9
100
AcDbLine
 10
-2.370333333333333
 20
1.635005524079868
 30
0.0
 11
-2.440333333333333
 21
1.635005524079868
 31
0.0
  0
LINE
  5
107
330
DA
100
AcDbEntity
  8
AM_9
100
AcDbLine
 10
-2.370333333333333
 20
-1.421579258010454
 30
0.0
 11
-2.440333333333333
 21
-1.421579258010454
 31
0.0
  0
LINE
  5
108
330
DA
100
AcDbEntity
  8
AM_9
100
AcDbLine
 10
-2.370333333333333
 20
-1.598355953307122
 30
0.0
 11
-2.440333333333333
 21
-1.598355953307122
 31
0.0
  0
LINE
  5
109
330
DA
100
AcDbEntity
  8
AM_9
100
AcDbLine
 10
-2.440333333333333
 20
-1.635005524079867
 30
0.0
 11
-2.370333333333333
 21
-1.635005524079867
 31
0.0
  0
LINE
  5
10A
330
DA
100
AcDbEntity
  8
AM_9
100
AcDbLine
 10
-2.370333333333333
 20
0.1250000000000007
 30
0.0
 11
-2.440333333333333
 21
0.1250000000000007
 31
0.0
  0
LINE
  5
10B
330
DA
100
AcDbEntity
  8
AM_9
100
AcDbLine
 10
-2.370333333333333
 20
-0.1249999999999996
 30
0.0
 11
-2.440333333333333
 21
-0.1249999999999996
 31
0.0
  0
LINE
  5
10C
330
DA
100
AcDbEntity
  8
AM_4
100
AcDbLine
 10
-2.370333333333333
 20
2.5
 30
0.0
 11
-2.440333333333333
 21
2.5
 31
0.0
  0
LINE
  5
10D
330
DA
100
AcDbEntity
  8
AM_4
100
AcDbLine
 10
-2.440333333333333
 20
-2.5
 30
0.0
 11
-2.370333333333333
 21
-2.5
 31
0.0
  0
LINE
  5
10E
330
DA
100
AcDbEntity
  8
AM_4
100
AcDbLine
 10
-2.440333333333333
 20
2.5
 30
0.0
 11
-2.440333333333333
 21
-2.5
 31
0.0
  0
LINE
  5
10F
330
DA
100
AcDbEntity
  8
AM_4
100
AcDbLine
 10
-2.370333333333333
 20
2.5
 30
0.0
 11
-2.370333333333333
 21
-2.5
 31
0.0
  0
ENDBLK
  5
DD
330
DA
100
AcDbEntity
  8
0
100
AcDbBlockEnd
  0
BLOCK
  5
112
330
110
100
AcDbEntity
  8
0
100
AcDbBlockBegin
  2
5_070901I_0_in_069421_2
 70
     2
 10
0.0
 20
0.0
 30
0.0
  3
5_070901I_0_in_069421_2
  1

  0
ATTDEF
  5
114
330
110
100
AcDbEntity
  8
AM_6
100
AcDbText
 10
6.509374999999999
 20
3.1496
 30
0.0
 40
0.5
  1
Imperial Insert -Inch
100
AcDbAttributeDefinition
  3

  2
NN
 70
     8
280
     0
  0
ATTDEF
  5
115
330
110
100
AcDbEntity
  8
AM_6
100
AcDbText
 10
6.509374999999999
 20
2.6496
 30
0.0
 40
0.5
  1
Imperial Bearings
100
AcDbAttributeDefinition
  3

  2
NT
 70
     8
280
     0
  0
ATTDEF
  5
116
330
110
100
AcDbEntity
  8
AM_6
100
AcDbText
 10
6.509374999999999
 20
2.1496
 30
0.0
 40
0.5
  1
070901I
100
AcDbAttributeDefinition
  3

  2
NB
 70
     8
280
     0
  0
ATTDEF
  5
117
330
110
100
AcDbEntity
  8
AM_6
100
AcDbText
 10
6.509374999999999
 20
1.6496
 30
0.0
 40
0.5
  1
$PN.I
100
AcDbAttributeDefinition
  3

  2
NBSYN
 70
     8
280
     0
  0
ATTDEF
  5
118
330
110
100
AcDbEntity
  8
AM_6
100
AcDbText
 10
6.509374999999999
 20
1.1496
 30
0.0
 40
0.5
  1
070901
100
AcDbAttributeDefinition
  3

  2
LINA
 70
     8
280
     0
  0
ATTDEF
  5
119
330
110
100
AcDbEntity
  8
AM_6
100
AcDbText
 10
6.509374999999999
 20
0.6495999999999995
 30
0.0
 40
0.5
  1
3-3/16
100
AcDbAttributeDefinition
  3

  2
SS
 70
     8
280
     0
  0
ATTDEF
  5
11A
330
110
100
AcDbEntity
  8
AM_6
100
AcDbText
 10
6.509374999999999
 20
0.1495999999999995
 30
0.0
 40
0.5
  1
3.187500
100
AcDbAttributeDefinition
  3

  2
SS1
 70
     8
280
     0
  0
ATTDEF
  5
11B
330
110
100
AcDbEntity
  8
AM_6
100
AcDbText
 10
6.509374999999999
 20
-0.3504000000000005
 30
0.0
 40
0.5
  1
070901
100
AcDbAttributeDefinition
  3

  2
PN
 70
     8
280
     0
  0
ATTDEF
  5
11C
330
110
100
AcDbEntity
  8
AM_6
100
AcDbText
 10
6.509374999999999
 20
-0.8504000000000005
 30
0.0
 40
0.5
  1
INS-IP-303R
100
AcDbAttributeDefinition
  3

  2
DESCRIPTION
 70
     8
280
     0
  0
ATTDEF
  5
11D
330
110
100
AcDbEntity
  8
AM_6
100
AcDbText
 10
6.509374999999999
 20
-1.3504
 30
0.0
 40
0.5
  1
Contact Seal
100
AcDbAttributeDefinition
  3

  2
ST
 70
     8
280
     0
  0
ATTDEF
  5
11E
330
110
100
AcDbEntity
  8
AM_6
100
AcDbText
 10
6.509374999999999
 20
-1.8504
 30
0.0
 40
0.5
  1
6.2992
100
AcDbAttributeDefinition
  3

  2
A
 70
     8
280
     0
  0
ATTDEF
  5
11F
330
110
100
AcDbEntity
  8
AM_6
100
AcDbText
 10
6.509374999999999
 20
-2.3504
 30
0.0
 40
0.5
  1
1-5/8
100
AcDbAttributeDefinition
  3

  2
B
 70
     8
280
     0
  0
ATTDEF
  5
120
330
110
100
AcDbEntity
  8
AM_6
100
AcDbText
 10
6.509374999999999
 20
-2.8504
 30
0.0
 40
0.5
  1
4-11/64
100
AcDbAttributeDefinition
  3

  2
C
 70
     8
280
     0
  0
ATTDEF
  5
121
330
110
100
AcDbEntity
  8
AM_6
100
AcDbText
 10
6.509374999999999
 20
-3.3504
 30
0.0
 40
0.5
  1
1.483
100
AcDbAttributeDefinition
  3

  2
D
 70
     8
280
     0
  0
ATTDEF
  5
122
330
110
100
AcDbEntity
  8
AM_6
100
AcDbText
 10
6.509374999999999
 20
-3.8504
 30
0.0
 40
0.5
  1
5
100
AcDbAttributeDefinition
  3

  2
E
 70
     8
280
     0
  0
ATTDEF
  5
123
330
110
100
AcDbEntity
  8
AM_6
100
AcDbText
 10
6.509374999999999
 20
-4.3504
 30
0.0
 40
0.5
  1
0.2500
100
AcDbAttributeDefinition
  3

  2
NDM
 70
     8
280
     0
  0
ATTDEF
  5
124
330
110
100
AcDbEntity
  8
AM_6
100
AcDbText
 10
6.509374999999999
 20
-4.8504
 30
0.0
 40
0.5
  1
0.132
100
AcDbAttributeDefinition
  3

  2
H
 70
     8
280
     0
  0
ATTDEF
  5
125
330
110
100
AcDbEntity
  8
AM_6
100
AcDbText
 10
6.509374999999999
 20
-5.3504
 30
0.0
 40
0.5
  1
0.1960
100
AcDbAttributeDefinition
  3

  2
KDM
 70
     8
280
     0
  0
ATTDEF
  5
126
330
110
100
AcDbEntity
  8
AM_6
100
AcDbText
 10
6.509374999999999
 20
-5.8504
 30
0.0
 40
0.5
  1
4.28
100
AcDbAttributeDefinition
  3

  2
AL
 70
     8
280
     0
  0
ATTDEF
  5
127
330
110
100
AcDbEntity
  8
AM_6
100
AcDbText
 10
6.509374999999999
 20
-6.3504
 30
0.0
 40
0.5
  1
0.50
100
AcDbAttributeDefinition
  3

  2
BL
 70
     8
280
     0
  0
ATTDEF
  5
128
330
110
100
AcDbEntity
  8
AM_6
100
AcDbText
 10
6.509374999999999
 20
-6.8504
 30
0.0
 40
0.5
  1
0.07
100
AcDbAttributeDefinition
  3

  2
CL
 70
     8
280
     0
  0
ATTDEF
  5
129
330
110
100
AcDbEntity
  8
AM_6
100
AcDbText
 10
6.509374999999999
 20
-7.3504
 30
0.0
 40
0.5
  1
0.44
100
AcDbAttributeDefinition
  3

  2
DL
 70
     8
280
     0
  0
ATTDEF
  5
12A
330
110
100
AcDbEntity
  8
AM_6
100
AcDbText
 10
6.509374999999999
 20
-7.8504
 30
0.0
 40
0.5
  1
0.8000
100
AcDbAttributeDefinition
  3

  2
LL
 70
     8
280
     0
  0
ATTDEF
  5
12B
330
110
100
AcDbEntity
  8
AM_6
100
AcDbText
 10
6.509374999999999
 20
-8.3504
 30
0.0
 40
0.5
  1
0.025
100
AcDbAttributeDefinition
  3

  2
Y
 70
     8
280
     0
  0
ATTDEF
  5
12C
330
110
100
AcDbEntity
  8
AM_6
100
AcDbText
 10
6.509374999999999
 20
-8.8504
 30
0.0
 40
0.5
  1
0.025000
100
AcDbAttributeDefinition
  3

  2
Y1
 70
     8
280
     0
  0
ATTDEF
  5
12D
330
110
100
AcDbEntity
  8
AM_6
100
AcDbText
 10
6.509374999999999
 20
-9.3504
 30
0.0
 40
0.5
  1
4-3/64
100
AcDbAttributeDefinition
  3

  2
Z
 70
     8
280
     0
  0
ATTDEF
  5
12E
330
110
100
AcDbEntity
  8
AM_6
100
AcDbText
 10
6.509374999999999
 20
-9.8504
 30
0.0
 40
0.5
  1
4.046875
100
AcDbAttributeDefinition
  3

  2
Z1
 70
     8
280
     0
  0
ATTDEF
  5
12F
330
110
100
AcDbEntity
  8
AM_6
100
AcDbText
 10
6.509374999999999
 20
-10.3504
 30
0.0
 40
0.5
  1
baldor
100
AcDbAttributeDefinition
  3

  2
COMPANY
 70
     8
280
     0
  0
LINE
  5
130
330
110
100
AcDbEntity
  8
AM_9
100
AcDbLine
 10
0.8138750000000001
 20
1.59755743270834
 30
0.0
 11
-2.370333333333333
 21
1.59755743270834
 31
0.0
  0
LINE
  5
131
330
110
100
AcDbEntity
  8
AM_9
100
AcDbLine
 10
0.8138750000000001
 20
1.501886574617067
 30
0.0
 11
-2.370333333333333
 21
1.501886574617067
 31
0.0
  0
LINE
  5
132
330
110
100
AcDbEntity
  8
AM_9
100
AcDbLine
 10
-1.530333333333336
 20
-2.135416666666667
 30
0.0
 11
-1.576008168449613
 21
-2.037466666666667
 31
0.0
  0
LINE
  5
133
330
110
100
AcDbEntity
  8
AM_9
100
AcDbLine
 10
-1.576008168449613
 20
-2.233366666666667
 30
0.0
 11
-1.530333333333336
 21
-2.135416666666667
 31
0.0
  0
LINE
  5
134
330
110
100
AcDbEntity
  8
AM_9
100
AcDbLine
 10
-1.530333333333333
 20
2.135416666666667
 30
0.0
 11
-1.576008168449616
 21
2.233366666666667
 31
0.0
  0
LINE
  5
135
330
110
100
AcDbEntity
  8
AM_9
100
AcDbLine
 10
-1.576008168449616
 20
2.037466666666667
 30
0.0
 11
-1.530333333333333
 21
2.135416666666667
 31
0.0
  0
LINE
  5
136
330
110
100
AcDbEntity
  8
AM_9
100
AcDbLine
 10
-1.576008168449616
 20
2.037466666666667
 30
0.0
 11
-1.576008168449616
 21
2.233366666666667
 31
0.0
  0
LINE
  5
137
330
110
100
AcDbEntity
  8
AM_9
100
AcDbLine
 10
-1.576008168449616
 20
2.233366666666667
 30
0.0
 11
-2.343283333333333
 21
2.233366666666667
 31
0.0
  0
LINE
  5
138
330
110
100
AcDbEntity
  8
AM_9
100
AcDbLine
 10
-2.343283333333333
 20
2.037466666666667
 30
0.0
 11
-1.576008168449616
 21
2.037466666666667
 31
0.0
  0
LINE
  5
139
330
110
100
AcDbEntity
  8
AM_9
100
AcDbLine
 10
-2.343283333333337
 20
-2.233366666666667
 30
0.0
 11
-1.576008168449613
 21
-2.233366666666667
 31
0.0
  0
LINE
  5
13A
330
110
100
AcDbEntity
  8
AM_9
100
AcDbLine
 10
-1.576008168449613
 20
-2.037466666666667
 30
0.0
 11
-2.343283333333337
 21
-2.037466666666667
 31
0.0
  0
LINE
  5
13B
330
110
100
AcDbEntity
  8
AM_9
100
AcDbLine
 10
-1.576008168449613
 20
-2.037466666666667
 30
0.0
 11
-1.576008168449613
 21
-2.233366666666667
 31
0.0
  0
LINE
  5
13C
330
110
100
AcDbEntity
  8
AM_9
100
AcDbLine
 10
-2.343283333333337
 20
-2.037466666666667
 30
0.0
 11
-2.370333333333314
 21
-2.010416666666667
 31
0.0
  0
LINE
  5
13D
330
110
100
AcDbEntity
  8
AM_9
100
AcDbLine
 10
-2.370333333333314
 20
-2.260416666666667
 30
0.0
 11
-2.343283333333337
 21
-2.233366666666667
 31
0.0
  0
LINE
  5
13E
330
110
100
AcDbEntity
  8
AM_9
100
AcDbLine
 10
-2.343283333333337
 20
-2.037466666666667
 30
0.0
 11
-2.343283333333337
 21
-2.233366666666667
 31
0.0
  0
LINE
  5
13F
330
110
100
AcDbEntity
  8
AM_9
100
AcDbLine
 10
-2.343283333333333
 20
2.037466666666667
 30
0.0
 11
-2.343283333333333
 21
2.233366666666667
 31
0.0
  0
LINE
  5
140
330
110
100
AcDbEntity
  8
AM_9
100
AcDbLine
 10
-2.343283333333333
 20
2.233366666666667
 30
0.0
 11
-2.370333333333333
 21
2.260416666666667
 31
0.0
  0
LINE
  5
141
330
110
100
AcDbEntity
  8
AM_9
100
AcDbLine
 10
-2.370333333333333
 20
2.010416666666667
 30
0.0
 11
-2.343283333333333
 21
2.037466666666667
 31
0.0
  0
LINE
  5
142
330
110
100
AcDbEntity
  8
AM_9
100
AcDbLine
 10
0.8138750000000001
 20
1.515732626504714
 30
0.0
 11
-2.6875
 21
1.515732626504714
 31
0.0
  0
LINE
  5
143
330
110
100
AcDbEntity
  8
AM_9
100
AcDbLine
 10
-2.6875
 20
1.420061768413442
 30
0.0
 11
0.8138750000000001
 21
1.420061768413441
 31
0.0
  0
LINE
  5
144
330
110
100
AcDbEntity
  8
AM_9
100
AcDbLine
 10
0.8138750000000001
 20
1.593749999999999
 30
0.0
 11
-2.6875
 21
1.593749999999999
 31
0.0
  0
LINE
  5
145
330
110
100
AcDbEntity
  8
AM_9
100
AcDbLine
 10
-2.6875
 20
-1.593749999999999
 30
0.0
 11
0.8138750000000001
 21
-1.593749999999999
 31
0.0
  0
LINE
  5
146
330
110
100
AcDbEntity
  8
AM_9
100
AcDbLine
 10
1.484375
 20
1.677631578947369
 30
0.0
 11
0.8138750000000001
 21
1.677631578947369
 31
0.0
  0
LINE
  5
147
330
110
100
AcDbEntity
  8
AM_9
100
AcDbLine
 10
0.8138750000000001
 20
-1.677631578947369
 30
0.0
 11
1.484375
 21
-1.677631578947369
 31
0.0
  0
LINE
  5
148
330
110
100
AcDbEntity
  8
AM_9
100
AcDbLine
 10
-2.6875
 20
1.593456539727622
 30
0.0
 11
-2.370333333333333
 21
1.593456539727622
 31
0.0
  0
LINE
  5
149
330
110
100
AcDbEntity
  8
AM_9
100
AcDbLine
 10
-2.370333333333333
 20
1.49778568163635
 30
0.0
 11
-2.6875
 21
1.49778568163635
 31
0.0
  0
LINE
  5
14A
330
110
100
AcDbEntity
  8
AM_9
100
AcDbLine
 10
-2.370333333333333
 20
1.677631578947369
 30
0.0
 11
-2.440333333333333
 21
1.677631578947369
 31
0.0
  0
LINE
  5
14B
330
110
100
AcDbEntity
  8
AM_9
100
AcDbLine
 10
-2.440333333333333
 20
-1.677631578947369
 30
0.0
 11
-2.370333333333333
 21
-1.677631578947369
 31
0.0
  0
LINE
  5
14C
330
110
100
AcDbEntity
  8
AM_9
100
AcDbLine
 10
-1.930333333333333
 20
-1.336431816442575
 30
0.0
 11
-2.370333333333333
 21
-1.336431816442575
 31
0.0
  0
LINE
  5
14D
330
110
100
AcDbEntity
  8
AM_9
100
AcDbLine
 10
-1.930333333333333
 20
1.336431816442574
 30
0.0
 11
-2.370333333333333
 21
1.336431816442574
 31
0.0
  0
LINE
  5
14E
330
110
100
AcDbEntity
  8
AM_9
100
AcDbLine
 10
-1.930333333333333
 20
-1.336431816442575
 30
0.0
 11
-1.930333333333333
 21
-1.593048406283363
 31
0.0
  0
LINE
  5
14F
330
110
100
AcDbEntity
  8
AM_9
100
AcDbLine
 10
-1.930333333333333
 20
1.593048406283362
 30
0.0
 11
-1.930333333333333
 21
1.336431816442574
 31
0.0
  0
LINE
  5
150
330
110
100
AcDbEntity
  8
AM_9
100
AcDbLine
 10
1.484375
 20
-2.0234375
 30
0.0
 11
1.484375
 21
2.0234375
 31
0.0
  0
LINE
  5
151
330
110
100
AcDbEntity
  8
AM_9
100
AcDbLine
 10
1.509374999999999
 20
2.0234375
 30
0.0
 11
1.484375
 21
2.0234375
 31
0.0
  0
LINE
  5
152
330
110
100
AcDbEntity
  8
AM_9
100
AcDbLine
 10
1.484375
 20
-2.0234375
 30
0.0
 11
1.509374999999999
 21
-2.0234375
 31
0.0
  0
LINE
  5
153
330
110
100
AcDbEntity
  8
AM_9
100
AcDbLine
 10
1.457491987179484
 20
2.248263888888889
 30
0.0
 11
1.138874999999999
 21
2.248263888888889
 31
0.0
  0
LINE
  5
154
330
110
100
AcDbEntity
  8
AM_9
100
AcDbLine
 10
1.138874999999999
 20
-2.248263888888889
 30
0.0
 11
1.457491987179484
 21
-2.248263888888889
 31
0.0
  0
LINE
  5
155
330
110
100
AcDbEntity
  8
AM_9
100
AcDbLine
 10
1.509375
 20
-2.196380876068376
 30
0.0
 11
1.509375
 21
2.196380876068376
 31
0.0
  0
ARC
  5
156
330
110
100
AcDbEntity
  8
AM_9
100
AcDbCircle
 10
1.457491987179486
 20
2.196380876068375
 30
0.0
 40
0.0518830128205137
100
AcDbArc
 50
0.0
 51
90.0
  0
ARC
  5
157
330
110
100
AcDbEntity
  8
AM_9
100
AcDbCircle
 10
1.457491987179486
 20
-2.196380876068375
 30
0.0
 40
0.0518830128205137
100
AcDbArc
 50
270.0
 51
0.0
  0
LINE
  5
158
330
110
100
AcDbEntity
  8
AM_9
100
AcDbLine
 10
1.457491987179484
 20
-2.248263888888889
 30
0.0
 11
1.457491987179484
 21
2.248263888888889
 31
0.0
  0
LINE
  5
159
330
110
100
AcDbEntity
  8
AM_9
100
AcDbLine
 10
-1.7109375
 20
-2.523026609899653
 30
0.0
 11
-0.811125
 21
-2.554448754797947
 31
0.0
  0
LINE
  5
15A
330
110
100
AcDbEntity
  8
AM_9
100
AcDbLine
 10
-0.811125
 20
2.554448754797947
 30
0.0
 11
-1.53984375
 21
2.529001335304881
 31
0.0
  0
LINE
  5
15B
330
110
100
AcDbEntity
  8
AM_9
100
AcDbLine
 10
1.138875
 20
-2.704226135594408
 30
0.0
 11
1.138875
 21
2.704226135594408
 31
0.0
  0
ARC
  5
15C
330
110
100
AcDbEntity
  8
AM_9
100
AcDbCircle
 10
1.038874999999998
 20
2.704226135594408
 30
0.0
 40
0.1000000000000019
100
AcDbArc
 50
0.0
 51
59.99999999999946
  0
ARC
  5
15D
330
110
100
AcDbEntity
  8
AM_9
100
AcDbCircle
 10
1.038874999999998
 20
-2.704226135594408
 30
0.0
 40
0.1000000000000015
100
AcDbArc
 50
300.0000000000005
 51
0.0
  0
LINE
  5
15E
330
110
100
AcDbEntity
  8
AM_9
100
AcDbLine
 10
1.088875
 20
2.790828675972853
 30
0.0
 11
0.8138750000000001
 21
2.9496
 31
0.0
  0
LINE
  5
15F
330
110
100
AcDbEntity
  8
AM_9
100
AcDbLine
 10
0.8138750000000001
 20
-2.9496
 30
0.0
 11
1.088875
 21
-2.790828675972853
 31
0.0
  0
LINE
  5
160
330
110
100
AcDbEntity
  8
AM_9
100
AcDbLine
 10
1.088875
 20
-2.790828675972853
 30
0.0
 11
1.088875
 21
2.790828675972853
 31
0.0
  0
LINE
  5
161
330
110
100
AcDbEntity
  8
AM_9
100
AcDbLine
 10
0.0482847093716568
 20
3.06835
 30
0.0
 11
-0.045534709371657
 21
3.06835
 31
0.0
  0
LINE
  5
162
330
110
100
AcDbEntity
  8
AM_9
100
AcDbLine
 10
-0.045534709371657
 20
-3.06835
 30
0.0
 11
0.0482847093716568
 21
-3.06835
 31
0.0
  0
LINE
  5
163
330
110
100
AcDbEntity
  8
AM_9
100
AcDbLine
 10
-0.092444418743314
 20
3.1496
 30
0.0
 11
-0.7611250000000005
 21
3.1496
 31
0.0
  0
LINE
  5
164
330
110
100
AcDbEntity
  8
AM_9
100
AcDbLine
 10
-0.7611250000000005
 20
-3.1496
 30
0.0
 11
-0.092444418743314
 21
-3.1496
 31
0.0
  0
LINE
  5
165
330
110
100
AcDbEntity
  8
AM_9
100
AcDbLine
 10
-0.8111250000000002
 20
-3.0996
 30
0.0
 11
-0.8111250000000002
 21
3.0996
 31
0.0
  0
ARC
  5
166
330
110
100
AcDbEntity
  8
AM_9
100
AcDbCircle
 10
-0.7611250000000007
 20
3.0996
 30
0.0
 40
0.0499999999999994
100
AcDbArc
 50
90.0
 51
180.0
  0
ARC
  5
167
330
110
100
AcDbEntity
  8
AM_9
100
AcDbCircle
 10
-0.7611250000000007
 20
-3.0996
 30
0.0
 40
0.0499999999999995
100
AcDbArc
 50
180.0
 51
270.0
  0
LINE
  5
168
330
110
100
AcDbEntity
  8
AM_9
100
AcDbLine
 10
-0.7611250000000005
 20
-3.1496
 30
0.0
 11
-0.7611250000000005
 21
3.1496
 31
0.0
  0
LINE
  5
169
330
110
100
AcDbEntity
  8
AM_9
100
AcDbLine
 10
0.7638749999999997
 20
3.1496
 30
0.0
 11
0.0951944187433143
 21
3.1496
 31
0.0
  0
LINE
  5
16A
330
110
100
AcDbEntity
  8
AM_9
100
AcDbLine
 10
0.0951944187433143
 20
-3.1496
 30
0.0
 11
0.7638749999999997
 21
-3.1496
 31
0.0
  0
LINE
  5
16B
330
110
100
AcDbEntity
  8
AM_9
100
AcDbLine
 10
-0.045534709371657
 20
3.06835
 30
0.0
 11
-0.092444418743314
 21
3.1496
 31
0.0
  0
LINE
  5
16C
330
110
100
AcDbEntity
  8
AM_9
100
AcDbLine
 10
-0.092444418743314
 20
-3.1496
 30
0.0
 11
-0.045534709371657
 21
-3.06835
 31
0.0
  0
LINE
  5
16D
330
110
100
AcDbEntity
  8
AM_9
100
AcDbLine
 10
-0.045534709371657
 20
-3.06835
 30
0.0
 11
-0.045534709371657
 21
3.06835
 31
0.0
  0
LINE
  5
16E
330
110
100
AcDbEntity
  8
AM_9
100
AcDbLine
 10
-0.092444418743314
 20
-3.1496
 30
0.0
 11
-0.092444418743314
 21
3.1496
 31
0.0
  0
LINE
  5
16F
330
110
100
AcDbEntity
  8
AM_9
100
AcDbLine
 10
0.8138750000000001
 20
-3.0996
 30
0.0
 11
0.8138750000000001
 21
3.0996
 31
0.0
  0
ARC
  5
170
330
110
100
AcDbEntity
  8
AM_9
100
AcDbCircle
 10
0.7638750000000009
 20
3.0996
 30
0.0
 40
0.0499999999999993
100
AcDbArc
 50
0.0
 51
90.0
  0
ARC
  5
171
330
110
100
AcDbEntity
  8
AM_9
100
AcDbCircle
 10
0.7638750000000009
 20
-3.0996
 30
0.0
 40
0.0499999999999994
100
AcDbArc
 50
270.0
 51
0.0
  0
LINE
  5
172
330
110
100
AcDbEntity
  8
AM_9
100
AcDbLine
 10
0.7638749999999997
 20
-3.1496
 30
0.0
 11
0.7638749999999997
 21
3.1496
 31
0.0
  0
LINE
  5
173
330
110
100
AcDbEntity
  8
AM_9
100
AcDbLine
 10
0.0482847093716568
 20
-3.06835
 30
0.0
 11
0.0951944187433143
 21
-3.1496
 31
0.0
  0
LINE
  5
174
330
110
100
AcDbEntity
  8
AM_9
100
AcDbLine
 10
0.0951944187433143
 20
3.1496
 30
0.0
 11
0.0482847093716568
 21
3.06835
 31
0.0
  0
LINE
  5
175
330
110
100
AcDbEntity
  8
AM_9
100
AcDbLine
 10
0.0951944187433143
 20
-3.1496
 30
0.0
 11
0.0951944187433143
 21
3.1496
 31
0.0
  0
LINE
  5
176
330
110
100
AcDbEntity
  8
AM_9
100
AcDbLine
 10
0.0482847093716568
 20
-3.06835
 30
0.0
 11
0.0482847093716568
 21
3.06835
 31
0.0
  0
LINE
  5
177
330
110
100
AcDbEntity
  8
AM_5
100
AcDbLine
 10
-1.610333333333333
 20
2.233366666666667
 30
0.0
 11
-1.610333333333333
 21
2.260416666666667
 31
0.0
  0
LINE
  5
178
330
110
100
AcDbEntity
  8
AM_5
100
AcDbLine
 10
-1.610333333333333
 20
2.260416666666667
 30
0.0
 11
-1.594716008551754
 21
2.233366666666667
 31
0.0
  0
LINE
  5
179
330
110
100
AcDbEntity
  8
AM_5
100
AcDbLine
 10
-1.610333333333333
 20
2.037466666666667
 30
0.0
 11
-1.610333333333333
 21
2.010416666666667
 31
0.0
  0
LINE
  5
17A
330
110
100
AcDbEntity
  8
AM_5
100
AcDbLine
 10
-1.610333333333333
 20
2.010416666666667
 30
0.0
 11
-1.594716008551754
 21
2.037466666666667
 31
0.0
  0
LINE
  5
17B
330
110
100
AcDbEntity
  8
AM_5
100
AcDbLine
 10
-1.610333333333346
 20
-2.233366666666667
 30
0.0
 11
-1.610333333333346
 21
-2.260416666666667
 31
0.0
  0
LINE
  5
17C
330
110
100
AcDbEntity
  8
AM_5
100
AcDbLine
 10
-1.610333333333346
 20
-2.260416666666667
 30
0.0
 11
-1.594716008551766
 21
-2.233366666666667
 31
0.0
  0
LINE
  5
17D
330
110
100
AcDbEntity
  8
AM_5
100
AcDbLine
 10
-1.610333333333346
 20
-2.037466666666667
 30
0.0
 11
-1.610333333333346
 21
-2.010416666666667
 31
0.0
  0
LINE
  5
17E
330
110
100
AcDbEntity
  8
AM_5
100
AcDbLine
 10
-1.610333333333346
 20
-2.010416666666667
 30
0.0
 11
-1.594716008551766
 21
-2.037466666666667
 31
0.0
  0
LINE
  5
181
330
110
100
AcDbEntity
  8
AM_7
100
AcDbLine
 10
-1.488333333333333
 20
2.135416666666667
 30
0.0
 11
-2.618933333333333
 21
2.135416666666667
 31
0.0
  0
LINE
  5
182
330
110
100
AcDbEntity
  8
AM_7
100
AcDbLine
 10
-1.488333333333337
 20
-2.135416666666667
 30
0.0
 11
-2.618933333333333
 21
-2.135416666666667
 31
0.0
  0
ARC
  5
183
330
110
100
AcDbEntity
  8
AM_4
100
AcDbCircle
 10
-2.320333333333333
 20
-2.451715561259646
 30
0.0
 40
0.0500000000000007
100
AcDbArc
 50
180.0
 51
267.999999999999
  0
ARC
  5
184
330
110
100
AcDbEntity
  8
AM_4
100
AcDbCircle
 10
-2.320333333333333
 20
2.451715561259646
 30
0.0
 40
0.0500000000000003
100
AcDbArc
 50
92.000000000001
 51
180.0
  0
LWPOLYLINE
  5
185
330
110
100
AcDbEntity
  8
AM_4
100
AcDbPolyline
 90
        6
 70
     0
 43
0.0
 10
-2.322078308168459
 20
-1.936880151435481
 10
-2.338454277847101
 20
-1.934486066876636
 10
-2.352794505113438
 20
-1.928394861241001
 10
-2.363517061431032
 20
-1.919278208205406
 10
-2.369422213756794
 20
-1.908118701042667
 10
-2.370333333333333
 20
-1.901364935040069
  0
LWPOLYLINE
  5
186
330
110
100
AcDbEntity
  8
AM_4
100
AcDbPolyline
 90
        6
 70
     0
 43
0.0
 10
-2.370333333333333
 20
1.901364935040069
 10
-2.36979324476616
 20
1.906574535217858
 10
-2.364533839127761
 20
1.917978192677443
 10
-2.35423570264424
 20
1.927485891094621
 10
-2.340111909572901
 20
1.934003513616657
 10
-2.322078308168459
 20
1.936880151435481
  0
LINE
  5
187
330
110
100
AcDbEntity
  8
AM_4
100
AcDbLine
 10
-2.440333333333333
 20
1.677631578947369
 30
0.0
 11
-2.6875
 21
1.677631578947369
 31
0.0
  0
LINE
  5
188
330
110
100
AcDbEntity
  8
AM_4
100
AcDbLine
 10
-2.6875
 20
-1.677631578947369
 30
0.0
 11
-2.440333333333333
 21
-1.677631578947369
 31
0.0
  0
LINE
  5
189
330
110
100
AcDbEntity
  8
AM_4
100
AcDbLine
 10
-2.6875
 20
-1.677631578947369
 30
0.0
 11
-2.6875
 21
1.677631578947369
 31
0.0
  0
LINE
  5
18A
330
110
100
AcDbEntity
  8
AM_4
100
AcDbLine
 10
-1.930333333333333
 20
-1.689985207035849
 30
0.0
 11
-2.370333333333333
 21
-1.689985207035849
 31
0.0
  0
LINE
  5
18B
330
110
100
AcDbEntity
  8
AM_4
100
AcDbLine
 10
-1.930333333333333
 20
1.689985207035848
 30
0.0
 11
-2.370333333333333
 21
1.689985207035848
 31
0.0
  0
LWPOLYLINE
  5
18C
330
110
100
AcDbEntity
  8
AM_4
100
AcDbPolyline
 90
        6
 70
     0
 43
0.0
 10
-2.322078308168459
 20
1.583326760842206
 10
-2.338454277847101
 20
1.58093267628336
 10
-2.352794505113438
 20
1.574841470647725
 10
-2.363517061431032
 20
1.565724817612131
 10
-2.369422213756794
 20
1.554565310449392
 10
-2.370333333333333
 20
1.547811544446794
  0
LWPOLYLINE
  5
18D
330
110
100
AcDbEntity
  8
AM_4
100
AcDbPolyline
 90
        6
 70
     0
 43
0.0
 10
-2.370333333333333
 20
-1.547811544446795
 10
-2.36979324476616
 20
-1.553021144624584
 10
-2.364533839127762
 20
-1.564424802084168
 10
-2.354235702644241
 20
-1.573932500501347
 10
-2.340111909572903
 20
-1.580450123023383
 10
-2.322078308168459
 20
-1.583326760842207
  0
LINE
  5
18E
330
110
100
AcDbEntity
  8
AM_4
100
AcDbLine
 10
-2.322078308168459
 20
-1.583326760842207
 30
0.0
 11
-2.322078308168459
 21
1.583326760842206
 31
0.0
  0
LINE
  5
18F
330
110
100
AcDbEntity
  8
AM_4
100
AcDbLine
 10
-2.322078308168459
 20
-1.583326760842207
 30
0.0
 11
-1.930333333333333
 21
-1.593048406283363
 31
0.0
  0
LINE
  5
190
330
110
100
AcDbEntity
  8
AM_4
100
AcDbLine
 10
-1.930333333333333
 20
-1.593048406283363
 30
0.0
 11
-1.930333333333333
 21
-1.946601796876637
 31
0.0
  0
LINE
  5
191
330
110
100
AcDbEntity
  8
AM_4
100
AcDbLine
 10
-1.930333333333333
 20
-1.946601796876637
 30
0.0
 11
-2.322078308168459
 21
-1.936880151435481
 31
0.0
  0
LINE
  5
192
330
110
100
AcDbEntity
  8
AM_4
100
AcDbLine
 10
-2.322078308168459
 20
1.936880151435481
 30
0.0
 11
-2.322078308168459
 21
2.501685102610601
 31
0.0
  0
LINE
  5
193
330
110
100
AcDbEntity
  8
AM_4
100
AcDbLine
 10
-2.322078308168459
 20
1.936880151435481
 30
0.0
 11
-1.930333333333333
 21
1.946601796876636
 31
0.0
  0
LINE
  5
194
330
110
100
AcDbEntity
  8
AM_4
100
AcDbLine
 10
-1.930333333333333
 20
1.946601796876636
 30
0.0
 11
-1.930333333333333
 21
1.593048406283362
 31
0.0
  0
LINE
  5
195
330
110
100
AcDbEntity
  8
AM_4
100
AcDbLine
 10
-1.930333333333333
 20
1.593048406283362
 30
0.0
 11
-2.322078308168459
 21
1.583326760842206
 31
0.0
  0
LINE
  5
196
330
110
100
AcDbEntity
  8
AM_4
100
AcDbLine
 10
-2.322078308168459
 20
-2.501685102610601
 30
0.0
 11
-1.7109375
 21
-2.523026609899653
 31
0.0
  0
LINE
  5
197
330
110
100
AcDbEntity
  8
AM_4
100
AcDbLine
 10
-1.53984375
 20
2.529001335304881
 30
0.0
 11
-2.322078308168459
 21
2.501685102610601
 31
0.0
  0
LINE
  5
198
330
110
100
AcDbEntity
  8
AM_4
100
AcDbLine
 10
-2.322078308168459
 20
-2.501685102610601
 30
0.0
 11
-2.322078308168459
 21
-1.936880151435481
 31
0.0
  0
ENDBLK
  5
113
330
110
100
AcDbEntity
  8
0
100
AcDbBlockEnd
  0
BLOCK
  5
19B
330
199
100
AcDbEntity
  8
0
100
AcDbBlockBegin
  2
6_405015E_Inch_0_in_069421_2
 70
     2
 10
0.0
 20
0.0
 30
0.0
  3
6_405015E_Inch_0_in_069421_2
  1

  0
ATTDEF
  5
19D
330
199
100
AcDbEntity
  8
AM_6
100
AcDbText
 10
5.252590742770462
 20
3.710296281955833
 30
0.0
 40
0.5
  1
405015E -Inch
100
AcDbAttributeDefinition
  3

  2
NN
 70
     8
280
     0
  0
ATTDEF
  5
19E
330
199
100
AcDbEntity
  8
AM_6
100
AcDbText
 10
5.252590742770462
 20
3.210296281955833
 30
0.0
 40
0.5
  1
Grease Fitting
100
AcDbAttributeDefinition
  3

  2
NT
 70
     8
280
     0
  0
ATTDEF
  5
19F
330
199
100
AcDbEntity
  8
AM_6
100
AcDbText
 10
5.252590742770462
 20
2.710296281955833
 30
0.0
 40
0.5
  1
405015E-Inch
100
AcDbAttributeDefinition
  3

  2
NB
 70
     8
280
     0
  0
ATTDEF
  5
1A0
330
199
100
AcDbEntity
  8
AM_6
100
AcDbText
 10
5.252590742770462
 20
2.210296281955833
 30
0.0
 40
0.5
  1
$MN.-Inch
100
AcDbAttributeDefinition
  3

  2
NBSYN
 70
     8
280
     0
  0
ATTDEF
  5
1A1
330
199
100
AcDbEntity
  8
AM_6
100
AcDbText
 10
5.252590742770462
 20
1.710296281955833
 30
0.0
 40
0.5
  1
405015E
100
AcDbAttributeDefinition
  3

  2
LINA
 70
     8
280
     0
  0
ATTDEF
  5
1A2
330
199
100
AcDbEntity
  8
AM_6
100
AcDbText
 10
5.252590742770462
 20
1.210296281955833
 30
0.0
 40
0.5
  1
405015E
100
AcDbAttributeDefinition
  3

  2
MN
 70
     8
280
     0
  0
ATTDEF
  5
1A3
330
199
100
AcDbEntity
  8
AM_6
100
AcDbText
 10
5.252590742770462
 20
0.7102962819558329
 30
0.0
 40
0.5
  1
1/8 x 27PTF
100
AcDbAttributeDefinition
  3

  2
T
 70
     8
280
     0
  0
ATTDEF
  5
1A4
330
199
100
AcDbEntity
  8
AM_6
100
AcDbText
 10
5.252590742770462
 20
0.2102962819558329
 30
0.0
 40
0.5
  1
baldor
100
AcDbAttributeDefinition
  3

  2
COMPANY
 70
     8
280
     0
  0
LINE
  5
1A5
330
199
100
AcDbEntity
  8
AM_9
100
AcDbLine
 10
0.1262953713852308
 20
3.522322573259917
 30
0.0
 11
0.1262953713852308
 21
3.451425576258706
 31
0.0
  0
LINE
  5
1A6
330
199
100
AcDbEntity
  8
AM_9
100
AcDbLine
 10
-0.1262953713852305
 20
3.522322573259917
 30
0.0
 11
-0.1262953713852305
 21
3.451425576258706
 31
0.0
  0
LWPOLYLINE
  5
1A7
330
199
100
AcDbEntity
  8
AM_9
100
AcDbPolyline
 90
        4
 70
     0
 43
0.0
 10
-0.1262953713852305
 20
3.451425576258706
 10
-0.0967996321117977
 20
3.448320713084568
 10
-0.0485424412477542
 20
3.444807608050023
 10
0.0000000000000001
 20
3.44357280457009
  0
LWPOLYLINE
  5
1A8
330
199
100
AcDbEntity
  8
AM_9
100
AcDbPolyline
 90
        4
 70
     0
 43
0.0
 10
0.0000000000000001
 20
3.44357280457009
 10
0.0315738428463078
 20
3.444098840528167
 10
0.0631476856926154
 20
3.445645533130859
 10
0.1262953713852308
 20
3.451425576258706
  0
LWPOLYLINE
  5
1A9
330
199
100
AcDbEntity
  8
AM_9
100
AcDbPolyline
 90
        4
 70
     0
 43
0.0
 10
0.1262953713852308
 20
3.451425576258706
 10
0.1577272497321277
 20
3.418443039377457
 10
0.1735630385535389
 20
3.403170030168023
 10
0.1894430570778461
 20
3.388885304570089
  0
LWPOLYLINE
  5
1AA
330
199
100
AcDbEntity
  8
AM_9
100
AcDbPolyline
 90
        4
 70
     0
 43
0.0
 10
-0.1894430570778459
 20
3.388885304570089
 10
-0.173656135654692
 20
3.403083215528167
 10
-0.1578692142315382
 20
3.418301783130859
 10
-0.1262953713852305
 20
3.451425576258706
  0
LINE
  5
1AB
330
199
100
AcDbEntity
  8
AM_9
100
AcDbLine
 10
-0.1019194696472809
 20
3.52493613200375
 30
0.0
 11
-0.1050087569988761
 21
3.524629627563262
 31
0.0
  0
LWPOLYLINE
  5
1AC
330
199
100
AcDbEntity
  8
AM_9
100
AcDbPolyline
 90
        4
 70
     0
 43
0.0
 10
0.0000000000000001
 20
3.530175344948533
 10
-0.0483998160558988
 20
3.528947701356085
 10
-0.0967996321117977
 20
3.525427436434055
 10
-0.1019194696472809
 20
3.52493613200375
  0
LWPOLYLINE
  5
1AD
330
199
100
AcDbEntity
  8
AM_9
100
AcDbPolyline
 90
        4
 70
     0
 43
0.0
 10
0.1018642058435937
 20
3.5249415467333
 10
0.0634316146914368
 20
3.528084305004091
 10
0.0317600370486144
 20
3.529643118805216
 10
0.0000000000000001
 20
3.530175344948533
  0
LINE
  5
1AE
330
199
100
AcDbEntity
  8
AM_9
100
AcDbLine
 10
0.1050470645306125
 20
3.524625780058753
 30
0.0
 11
0.1018642058435937
 21
3.5249415467333
 31
0.0
  0
LWPOLYLINE
  5
1AF
330
199
100
AcDbEntity
  8
AM_9
100
AcDbPolyline
 90
        4
 70
     0
 43
0.0
 10
-0.2525907427704611
 20
3.342050576258706
 10
-0.2211588644235642
 20
3.363509649651606
 10
-0.205323075602153
 20
3.375665031258789
 10
-0.1894430570778459
 20
3.388885304570089
  0
LWPOLYLINE
  5
1B0
330
199
100
AcDbEntity
  8
AM_9
100
AcDbPolyline
 90
        4
 70
     0
 43
0.0
 10
0.1894430570778461
 20
3.388885304570089
 10
0.2052299785009999
 20
3.375739465528167
 10
0.2210168999241537
 20
3.363614283130859
 10
0.2525907427704613
 20
3.342050576258706
  0
LINE
  5
1B1
330
199
100
AcDbEntity
  8
AM_9
100
AcDbLine
 10
0.1321931418159854
 20
3.057963739064994
 30
0.0
 11
0.1621706131788417
 21
3.079161012348495
 31
0.0
  0
LINE
  5
1B2
330
199
100
AcDbEntity
  8
AM_9
100
AcDbLine
 10
-0.1621706131788414
 20
3.079161012348495
 30
0.0
 11
-0.1321931418159852
 21
3.057963739064994
 31
0.0
  0
ELLIPSE
  5
1B3
330
199
100
AcDbEntity
  8
AM_9
100
AcDbEllipse
 10
-0.0000000000000001
 20
3.334197804570091
 30
0.0
 11
0.2187499999999998
 21
0.0
 31
0.0
210
0.0
220
0.0
230
1.0
 40
0.4999999999999983
 41
2.617993877991502
 42
3.6651914291881
  0
ELLIPSE
  5
1B4
330
199
100
AcDbEntity
  8
AM_9
100
AcDbEllipse
 10
0.0
 20
3.136496982492465
 30
0.0
 11
0.1986176267812153
 21
0.0
 31
0.0
210
0.0
220
0.0
230
1.0
 40
0.5000000000000037
 41
0.0
 42
3.159636730294248
  0
LINE
  5
1B5
330
199
100
AcDbEntity
  8
AM_9
100
AcDbLine
 10
0.1985852938306409
 20
3.134705143883645
 30
0.0
 11
0.2057184028850728
 21
3.33234160379246
 31
0.0
  0
LINE
  5
1B6
330
199
100
AcDbEntity
  8
AM_9
100
AcDbLine
 10
-0.2057184028850726
 20
3.33234160379246
 30
0.0
 11
-0.1985852938306407
 21
3.134705143883645
 31
0.0
  0
ELLIPSE
  5
1B7
330
199
100
AcDbEntity
  8
AM_9
100
AcDbEllipse
 10
0.0000000000000004
 20
3.136496982492466
 30
0.0
 11
0.1986176267812157
 21
0.0
 31
0.0
210
0.0
220
0.0
230
1.0
 40
0.5000000000000027
 41
3.15963673029426
 42
3.757072362260189
  0
ELLIPSE
  5
1B8
330
199
100
AcDbEntity
  8
AM_9
100
AcDbEllipse
 10
-0.0000000000010563
 20
3.136496982490872
 30
0.0
 11
0.1986176267822718
 21
0.0
 31
0.0
210
0.0
220
0.0
230
1.0
 40
0.4999999999999802
 41
3.757072362250177
 42
6.283185307179586
  0
ELLIPSE
  5
1B9
330
199
100
AcDbEntity
  8
AM_9
100
AcDbEllipse
 10
0.0000000000000004
 20
3.334197804570088
 30
0.0
 11
0.218749999999999
 21
0.0
 31
0.0
210
0.0
220
0.0
230
1.0
 40
0.4999999999999961
 41
3.665191429188077
 42
8.901179185171067
  0
LINE
  5
1BA
330
199
100
AcDbEntity
  8
AM_9
100
AcDbLine
 10
-0.1017810272422098
 20
3.524633178734376
 30
0.0
 11
-0.1049999999999999
 21
3.518330784094849
 31
0.0
  0
LINE
  5
1BB
330
199
100
AcDbEntity
  8
AM_9
100
AcDbLine
 10
0.1050000000000001
 20
3.518330784094849
 30
0.0
 11
0.1017810272422101
 21
3.524633178734376
 31
0.0
  0
ELLIPSE
  5
1BC
330
199
100
AcDbEntity
  8
AM_9
100
AcDbEllipse
 10
0.0000000000000001
 20
3.5117330123459
 30
0.0
 11
0.1049999999999998
 21
0.0
 31
0.0
210
0.0
220
0.0
230
1.0
 40
0.4999999999999861
 41
0.2500328930987994
 42
3.141592653589793
  0
ELLIPSE
  5
1BD
330
199
100
AcDbEntity
  8
AM_9
100
AcDbEllipse
 10
-0.0000000000000007
 20
3.483806396474831
 30
0.0
 11
0.1188200907348985
 21
0.0
 31
0.0
210
0.0
220
0.0
230
1.0
 40
0.5000000000000212
 41
0.2500328930988722
 42
2.535447513394651
  0
ELLIPSE
  5
1BE
330
199
100
AcDbEntity
  8
AM_9
100
AcDbEllipse
 10
-0.0000000000000012
 20
3.511733012345892
 30
0.0
 11
0.1050000000000014
 21
1.564621925354025E-9
 31
0.0
210
0.0
220
0.0
230
1.0
 40
0.5000000000000039
 41
0.0000017195196831
 42
0.2500328646650863
  0
LINE
  5
1BF
330
199
100
AcDbEntity
  8
AM_9
100
AcDbLine
 10
0.1050000000000001
 20
3.529971241158359
 30
0.0
 11
0.1050000000000001
 21
3.537713774459433
 31
0.0
  0
LINE
  5
1C0
330
199
100
AcDbEntity
  8
AM_9
100
AcDbLine
 10
-0.1049999999999999
 20
3.537713774459433
 30
0.0
 11
-0.1049999999999999
 21
3.529971241158358
 31
0.0
  0
ELLIPSE
  5
1C1
330
199
100
AcDbEntity
  8
AM_9
100
AcDbEllipse
 10
0.0000000000000056
 20
3.537713774459431
 30
0.0
 11
0.1050000000000055
 21
0.0
 31
0.0
210
0.0
220
0.0
230
1.0
 40
0.5000000000000011
 41
3.141592653589793
 42
3.434435425318323
  0
LINE
  5
1C2
330
199
100
AcDbEntity
  8
AM_9
100
AcDbLine
 10
-0.0976523208201056
 20
3.517652512207282
 30
0.0
 11
-0.1098343496897824
 21
3.508865659080432
 31
0.0
  0
LINE
  5
1C3
330
199
100
AcDbEntity
  8
AM_9
100
AcDbLine
 10
0.1098343496897826
 20
3.508865659080432
 30
0.0
 11
0.0976523208201059
 21
3.517652512207282
 31
0.0
  0
ELLIPSE
  5
1C4
330
199
100
AcDbEntity
  8
AM_9
100
AcDbEllipse
 10
0.0000000000000004
 20
3.483806396474832
 30
0.0
 11
0.1188200907348979
 21
1.770557325108318E-9
 31
0.0
210
0.0
220
0.0
230
1.0
 40
0.5000000000000199
 41
2.53544749084687
 42
2.891559732057078
  0
ELLIPSE
  5
1C5
330
199
100
AcDbEntity
  8
AM_9
100
AcDbEllipse
 10
0.0000000000000001
 20
3.436664370236504
 30
0.0
 11
0.1725340532830158
 21
0.0
 31
0.0
210
0.0
220
0.0
230
1.0
 40
0.5000000000000004
 41
0.6061451401950944
 42
2.5354475133947
  0
ELLIPSE
  5
1C6
330
199
100
AcDbEntity
  8
AM_9
100
AcDbEllipse
 10
-0.0000000000000008
 20
3.420800344948534
 30
0.0
 11
0.2187500000000054
 21
3.259629011154256E-9
 31
0.0
210
0.0
220
0.0
230
1.0
 40
0.4999999999999876
 41
1.065244625558347
 42
1.570796326794897
  0
ELLIPSE
  5
1C7
330
199
100
AcDbEntity
  8
AM_9
100
AcDbEllipse
 10
0.000000000000001
 20
3.420800344948533
 30
0.0
 11
0.2187500000000054
 21
3.259629011154256E-9
 31
0.0
210
0.0
220
0.0
230
1.0
 40
0.4999999999999876
 41
1.570796326794897
 42
2.076348002645663
  0
ELLIPSE
  5
1C8
330
199
100
AcDbEntity
  8
AM_9
100
AcDbEllipse
 10
0.0000000000045874
 20
3.420800344955346
 30
0.0
 11
0.2137500000091989
 21
0.0
 31
0.0
210
0.0
220
0.0
230
1.0
 40
0.4999999999561625
 41
-4.198889882940958
 42
-4.18456477774476
  0
ELLIPSE
  5
1C9
330
199
100
AcDbEntity
  8
AM_9
100
AcDbEllipse
 10
0.0000000000007016
 20
3.420800344944805
 30
0.0
 11
0.2137500000014492
 21
0.0
 31
0.0
210
0.0
220
0.0
230
1.0
 40
0.5000000000127327
 41
-4.217356306598823
 42
-4.198889882956832
  0
ELLIPSE
  5
1CA
330
199
100
AcDbEntity
  8
AM_9
100
AcDbEllipse
 10
-0.0000000000045162
 20
3.420800344955409
 30
0.0
 11
0.2137500000090538
 21
0.0
 31
0.0
210
0.0
220
0.0
230
1.0
 40
0.4999999999561676
 41
1.042972124154955
 42
2.065829000559124
  0
ELLIPSE
  5
1CB
330
199
100
AcDbEntity
  8
AM_9
100
AcDbEllipse
 10
0.0000000000000001
 20
3.537713774459433
 30
0.0
 11
0.1049999999999999
 21
1.564621925354003E-9
 31
0.0
210
0.0
220
0.0
230
1.0
 40
0.5000000000000024
 41
0.0000017195196831
 42
3.141592627780224
  0
ELLIPSE
  5
1CC
330
199
100
AcDbEntity
  8
AM_9
100
AcDbEllipse
 10
-0.0000000000000071
 20
3.537713774459431
 30
0.0
 11
0.1050000000000072
 21
1.564621925354112E-9
 31
0.0
210
0.0
220
0.0
230
1.0
 40
0.5000000000000014
 41
5.990342507511384
 42
6.283187026699269
  0
ELLIPSE
  5
1CD
330
199
100
AcDbEntity
  8
AM_9
100
AcDbEllipse
 10
0.0000000000000001
 20
3.589675298686499
 30
0.0
 11
0.135
 21
0.0
 31
0.0
210
0.0
220
0.0
230
1.0
 40
0.4999999999999959
 41
0.2354336045415613
 42
2.906159049048232
  0
ELLIPSE
  5
1CE
330
199
100
AcDbEntity
  8
AM_9
100
AcDbEllipse
 10
0.0000000000000002
 20
3.104701072567213
 30
0.0
 11
0.161902872472269
 21
0.0
 31
0.0
210
0.0
220
0.0
230
1.0
 40
0.5000000000000003
 41
0.0
 42
6.283185307179586
  0
ELLIPSE
  5
1CF
330
199
100
AcDbEntity
  8
AM_9
100
AcDbEllipse
 10
0.0000000000000001
 20
3.33419780457009
 30
0.0
 11
0.2057518972230697
 21
0.0
 31
0.0
210
0.0
220
0.0
230
1.0
 40
0.5000000000000231
 41
0.0
 42
6.283185307179586
  0
LWPOLYLINE
  5
1D0
330
199
100
AcDbEntity
  8
AM_4
100
AcDbPolyline
 90
        4
 70
     0
 43
0.0
 10
-0.1262953713852305
 20
3.522322573259917
 10
-0.1577272497321275
 20
3.500863499867017
 10
-0.1735630385535387
 20
3.488708118259834
 10
-0.1894430570778459
 20
3.475487844948534
  0
LINE
  5
1D1
330
199
100
AcDbEntity
  8
AM_4
100
AcDbLine
 10
-0.1050087569988761
 20
3.524629627563262
 30
0.0
 11
-0.1262953713852305
 21
3.522322573259917
 31
0.0
  0
LWPOLYLINE
  5
1D2
330
199
100
AcDbEntity
  8
AM_4
100
AcDbPolyline
 90
        4
 70
     0
 43
0.0
 10
0.1894430570778461
 20
3.475487844948534
 10
0.1736561356546923
 20
3.488633683990456
 10
0.1578692142315384
 20
3.500758866387764
 10
0.1262953713852308
 20
3.522322573259917
  0
LINE
  5
1D3
330
199
100
AcDbEntity
  8
AM_4
100
AcDbLine
 10
0.1262953713852308
 20
3.522322573259917
 30
0.0
 11
0.1050470645306125
 21
3.524625780058753
 31
0.0
  0
LWPOLYLINE
  5
1D4
330
199
100
AcDbEntity
  8
AM_4
100
AcDbPolyline
 90
        4
 70
     0
 43
0.0
 10
0.2525907427704613
 20
3.412947573259917
 10
0.2211588644235644
 20
3.445930110141166
 10
0.2053230756021532
 20
3.461203119350599
 10
0.1894430570778461
 20
3.475487844948534
  0
LWPOLYLINE
  5
1D5
330
199
100
AcDbEntity
  8
AM_4
100
AcDbPolyline
 90
        4
 70
     0
 43
0.0
 10
-0.1894430570778459
 20
3.475487844948534
 10
-0.2052299785009997
 20
3.461289933990455
 10
-0.2210168999241535
 20
3.446071366387764
 10
-0.2525907427704611
 20
3.412947573259917
  0
LINE
  5
1D6
330
199
100
AcDbEntity
  8
AM_4
100
AcDbLine
 10
-0.1049999999999999
 20
3.518330784094849
 30
0.0
 11
-0.1151252948555656
 21
3.498506570340035
 31
0.0
  0
LINE
  5
1D7
330
199
100
AcDbEntity
  8
AM_4
100
AcDbLine
 10
0.1151252948555659
 20
3.498506570340035
 30
0.0
 11
0.1050000000000001
 21
3.518330784094849
 31
0.0
  0
ELLIPSE
  5
1D8
330
199
100
AcDbEntity
  8
AM_4
100
AcDbEllipse
 10
0.0
 20
3.483806396474836
 30
0.0
 11
0.118820090734898
 21
0.0
 31
0.0
210
0.0
220
0.0
230
1.0
 40
0.500000000000001
 41
2.891559760490999
 42
6.283185307179586
  0
LINE
  5
1D9
330
199
100
AcDbEntity
  8
AM_4
100
AcDbLine
 10
0.1050000000000001
 20
3.511733012345899
 30
0.0
 11
0.1050000000000001
 21
3.529971241158359
 31
0.0
  0
LINE
  5
1DA
330
199
100
AcDbEntity
  8
AM_4
100
AcDbLine
 10
-0.1049999999999999
 20
3.529971241158358
 30
0.0
 11
-0.1049999999999999
 21
3.511733012345899
 31
0.0
  0
ELLIPSE
  5
1DB
330
199
100
AcDbEntity
  8
AM_4
100
AcDbEllipse
 10
0.0000000000000001
 20
3.511733012345899
 30
0.0
 11
0.1050000000000001
 21
0.0
 31
0.0
210
0.0
220
0.0
230
1.0
 40
0.4999999999999974
 41
3.141592653589793
 42
6.283185307179586
  0
ELLIPSE
  5
1DC
330
199
100
AcDbEntity
  8
AM_4
100
AcDbEllipse
 10
-0.0000000000000019
 20
3.483806396474835
 30
0.0
 11
0.1188200907348995
 21
0.0
 31
0.0
210
0.0
220
0.0
230
1.0
 40
0.4999999999999943
 41
0.0
 42
0.2500328930988244
  0
LINE
  5
1DD
330
199
100
AcDbEntity
  8
AM_4
100
AcDbLine
 10
-0.1098343496897824
 20
3.508865659080432
 30
0.0
 11
-0.1417971541629017
 21
3.485811004438575
 31
0.0
  0
LINE
  5
1DE
330
199
100
AcDbEntity
  8
AM_4
100
AcDbLine
 10
0.1417971541629019
 20
3.485811004438575
 30
0.0
 11
0.1098343496897826
 21
3.508865659080432
 31
0.0
  0
ELLIPSE
  5
1DF
330
199
100
AcDbEntity
  8
AM_4
100
AcDbEllipse
 10
0.0
 20
3.436664370236504
 30
0.0
 11
0.1725340532830152
 21
0.0
 31
0.0
210
0.0
220
0.0
230
1.0
 40
0.5000000000000021
 41
2.535447513394705
 42
6.889330447374675
  0
LINE
  5
1E0
330
199
100
AcDbEntity
  8
AM_4
100
AcDbLine
 10
0.2525907427704613
 20
3.412947573259917
 30
0.0
 11
0.2525907427704613
 21
3.342050576258706
 31
0.0
  0
LWPOLYLINE
  5
1E1
330
199
100
AcDbEntity
  8
AM_4
100
AcDbPolyline
 90
        4
 70
     0
 43
0.0
 10
0.1894430570778461
 20
3.366112844948533
 10
0.2052299785009998
 20
3.379258683990455
 10
0.2210168999241537
 20
3.391383866387764
 10
0.2525907427704613
 20
3.412947573259917
  0
LWPOLYLINE
  5
1E2
330
199
100
AcDbEntity
  8
AM_4
100
AcDbPolyline
 90
        4
 70
     0
 43
0.0
 10
0.1262953713852308
 20
3.303572573259917
 10
0.1577272497321277
 20
3.336555110141166
 10
0.1735630385535389
 20
3.351828119350599
 10
0.1894430570778461
 20
3.366112844948533
  0
LWPOLYLINE
  5
1E3
330
199
100
AcDbEntity
  8
AM_4
100
AcDbPolyline
 90
        4
 70
     0
 43
0.0
 10
0.1894430570778461
 20
3.27951030457009
 10
0.1736561356546922
 20
3.266364465528167
 10
0.1578692142315384
 20
3.254239283130859
 10
0.1262953713852308
 20
3.232675576258706
  0
LWPOLYLINE
  5
1E4
330
199
100
AcDbEntity
  8
AM_4
100
AcDbPolyline
 90
        4
 70
     0
 43
0.0
 10
0.2525907427704613
 20
3.342050576258706
 10
0.2211588644235644
 20
3.309068039377457
 10
0.2053230756021532
 20
3.293795030168024
 10
0.1894430570778461
 20
3.27951030457009
  0
ELLIPSE
  5
1E5
330
199
100
AcDbEntity
  8
AM_4
100
AcDbEllipse
 10
0.0000000000000001
 20
3.420800344948532
 30
0.0
 11
0.21875
 21
0.0
 31
0.0
210
0.0
220
0.0
230
1.0
 40
0.500000000000002
 41
5.759586531581296
 42
7.348429945430822
  0
ELLIPSE
  5
1E6
330
199
100
AcDbEntity
  8
AM_4
100
AcDbEllipse
 10
0.0000000000000004
 20
3.420800344948537
 30
0.0
 11
0.2187500000000004
 21
0.0
 31
0.0
210
0.0
220
0.0
230
1.0
 40
0.4999999999999849
 41
2.076348015338566
 42
2.61799387799151
  0
ELLIPSE
  5
1E7
330
199
100
AcDbEntity
  8
AM_4
100
AcDbEllipse
 10
0.0000000000000005
 20
3.420800344948532
 30
0.0
 11
0.2187500000000003
 21
3.259629011154180E-9
 31
0.0
210
0.0
220
0.0
230
1.0
 40
0.5000000000000013
 41
2.617993853777096
 42
5.759586507366911
  0
LINE
  5
1E8
330
199
100
AcDbEntity
  8
AM_4
100
AcDbLine
 10
0.1262953713852308
 20
3.303572573259917
 30
0.0
 11
0.1262953713852308
 21
3.232675576258706
 31
0.0
  0
LWPOLYLINE
  5
1E9
330
199
100
AcDbEntity
  8
AM_4
100
AcDbPolyline
 90
        4
 70
     0
 43
0.0
 10
0.0000000000000001
 20
3.311425344948534
 10
0.0315738428463078
 20
3.310899308990455
 10
0.0631476856926155
 20
3.309352616387764
 10
0.1262953713852308
 20
3.303572573259917
  0
LWPOLYLINE
  5
1EA
330
199
100
AcDbEntity
  8
AM_4
100
AcDbPolyline
 90
        4
 70
     0
 43
0.0
 10
-0.1262953713852305
 20
3.303572573259917
 10
-0.0967996321117977
 20
3.306677436434055
 10
-0.0485424412477542
 20
3.310190541468599
 10
0.0000000000000001
 20
3.311425344948534
  0
LWPOLYLINE
  5
1EB
330
199
100
AcDbEntity
  8
AM_4
100
AcDbPolyline
 90
        4
 70
     0
 43
0.0
 10
0.0000000000000001
 20
3.224822804570089
 10
-0.0483998160558988
 20
3.226050448162537
 10
-0.0967996321117976
 20
3.229570713084568
 10
-0.1262953713852305
 20
3.232675576258706
  0
LWPOLYLINE
  5
1EC
330
199
100
AcDbEntity
  8
AM_4
100
AcDbPolyline
 90
        4
 70
     0
 43
0.0
 10
0.1262953713852308
 20
3.232675576258706
 10
0.0634316146914368
 20
3.226913844514532
 10
0.0317600370486144
 20
3.225355030713406
 10
0.0000000000000001
 20
3.224822804570089
  0
LINE
  5
1ED
330
199
100
AcDbEntity
  8
AM_4
100
AcDbLine
 10
-0.1262953713852305
 20
3.303572573259917
 30
0.0
 11
-0.1262953713852305
 21
3.232675576258706
 31
0.0
  0
LWPOLYLINE
  5
1EE
330
199
100
AcDbEntity
  8
AM_4
100
AcDbPolyline
 90
        4
 70
     0
 43
0.0
 10
-0.1894430570778459
 20
3.366112844948533
 10
-0.173656135654692
 20
3.351914933990455
 10
-0.1578692142315382
 20
3.336696366387764
 10
-0.1262953713852305
 20
3.303572573259917
  0
LWPOLYLINE
  5
1EF
330
199
100
AcDbEntity
  8
AM_4
100
AcDbPolyline
 90
        4
 70
     0
 43
0.0
 10
-0.2525907427704611
 20
3.412947573259917
 10
-0.2211588644235642
 20
3.391488499867016
 10
-0.205323075602153
 20
3.379333118259834
 10
-0.1894430570778459
 20
3.366112844948533
  0
LINE
  5
1F0
330
199
100
AcDbEntity
  8
AM_4
100
AcDbLine
 10
-0.2525907427704611
 20
3.412947573259917
 30
0.0
 11
-0.2525907427704611
 21
3.342050576258706
 31
0.0
  0
LWPOLYLINE
  5
1F1
330
199
100
AcDbEntity
  8
AM_4
100
AcDbPolyline
 90
        4
 70
     0
 43
0.0
 10
-0.1894430570778459
 20
3.27951030457009
 10
-0.2052299785009997
 20
3.293708215528167
 10
-0.2210168999241535
 20
3.308926783130859
 10
-0.2525907427704611
 20
3.342050576258706
  0
LWPOLYLINE
  5
1F2
330
199
100
AcDbEntity
  8
AM_4
100
AcDbPolyline
 90
        4
 70
     0
 43
0.0
 10
-0.1262953713852305
 20
3.232675576258706
 10
-0.1577272497321275
 20
3.254134649651607
 10
-0.1735630385535387
 20
3.266290031258789
 10
-0.1894430570778459
 20
3.27951030457009
  0
ELLIPSE
  5
1F3
330
199
100
AcDbEntity
  8
AM_4
100
AcDbEllipse
 10
0.0000000000000002
 20
3.420800344948533
 30
0.0
 11
0.2137500000000001
 21
3.185123205184938E-9
 31
0.0
210
0.0
220
0.0
230
1.0
 40
0.5000000000000001
 41
2.098620516301823
 42
7.326157418226546
  0
LINE
  5
1F4
330
199
100
AcDbEntity
  8
AM_4
100
AcDbLine
 10
0.1005298463144156
 20
3.522558329893205
 30
0.0
 11
0.1292526595471058
 21
3.570189727101349
 31
0.0
  0
LINE
  5
1F5
330
199
100
AcDbEntity
  8
AM_4
100
AcDbLine
 10
-0.1292526595471055
 20
3.570189727101349
 30
0.0
 11
-0.1005298463144154
 21
3.522558329893205
 31
0.0
  0
ELLIPSE
  5
1F6
330
199
100
AcDbEntity
  8
AM_4
100
AcDbEllipse
 10
0.0000000000000001
 20
3.537713774459433
 30
0.0
 11
0.1050000000000001
 21
1.564621925354006E-9
 31
0.0
210
0.0
220
0.0
230
1.0
 40
0.5000000000000013
 41
3.434435397378703
 42
5.990342507511323
  0
ELLIPSE
  5
1F7
330
199
100
AcDbEntity
  8
AM_4
100
AcDbEllipse
 10
0.000000000000004
 20
3.5896752986865
 30
0.0
 11
0.1349999999999962
 21
0.0
 31
0.0
210
0.0
220
0.0
230
1.0
 40
0.4999999999999872
 41
2.906159049048248
 42
6.518618911721145
  0
LINE
  5
1F8
330
199
100
AcDbEntity
  8
AM_4
100
AcDbLine
 10
-0.0998453562378796
 20
3.670932893430452
 30
0.0
 11
-0.1312757938985218
 21
3.605420662578076
 31
0.0
  0
LINE
  5
1F9
330
199
100
AcDbEntity
  8
AM_4
100
AcDbLine
 10
0.131275793898522
 20
3.605420662578076
 30
0.0
 11
0.0998453562378799
 21
3.670932893430452
 31
0.0
  0
ELLIPSE
  5
1FA
330
199
100
AcDbEntity
  8
AM_4
100
AcDbEllipse
 10
0.0000000000000096
 20
3.658957330989243
 30
0.0
 11
0.1026779019331781
 21
0.0
 31
0.0
210
0.0
220
0.0
230
1.0
 40
0.5000000000000119
 41
0.0
 42
6.283185307179586
  0
ENDBLK
  5
19C
330
199
100
AcDbEntity
  8
0
100
AcDbBlockEnd
  0
BLOCK
  5
1FD
330
1FB
100
AcDbEntity
  8
0
100
AcDbBlockBegin
  2
7_069421H_0_in_069421_2
 70
     2
 10
0.0
 20
0.0
 30
0.0
  3
7_069421H_0_in_069421_2
  1

  0
ATTDEF
  5
1FF
330
1FB
100
AcDbEntity
  8
AM_6
100
AcDbText
 10
6.88203125
 20
3.75
 30
0.0
 40
0.5
  1
P2B-IP -(Contact Seal)-Housing -Inch
100
AcDbAttributeDefinition
  3

  2
NN
 70
     8
280
     0
  0
ATTDEF
  5
200
330
1FB
100
AcDbEntity
  8
AM_6
100
AcDbText
 10
6.88203125
 20
3.25
 30
0.0
 40
0.5
  1
Imperial 2 Bolt Piliow Block Bearings
100
AcDbAttributeDefinition
  3

  2
NT
 70
     8
280
     0
  0
ATTDEF
  5
201
330
1FB
100
AcDbEntity
  8
AM_6
100
AcDbText
 10
6.88203125
 20
2.75
 30
0.0
 40
0.5
  1
069421H
100
AcDbAttributeDefinition
  3

  2
NB
 70
     8
280
     0
  0
ATTDEF
  5
202
330
1FB
100
AcDbEntity
  8
AM_6
100
AcDbText
 10
6.88203125
 20
2.25
 30
0.0
 40
0.5
  1
$PN.H
100
AcDbAttributeDefinition
  3

  2
NBSYN
 70
     8
280
     0
  0
ATTDEF
  5
203
330
1FB
100
AcDbEntity
  8
AM_6
100
AcDbText
 10
6.88203125
 20
1.75
 30
0.0
 40
0.5
  1
069421
100
AcDbAttributeDefinition
  3

  2
LINA
 70
     8
280
     0
  0
ATTDEF
  5
204
330
1FB
100
AcDbEntity
  8
AM_6
100
AcDbText
 10
6.88203125
 20
1.25
 30
0.0
 40
0.5
  1
3-3/16
100
AcDbAttributeDefinition
  3

  2
SS
 70
     8
280
     0
  0
ATTDEF
  5
205
330
1FB
100
AcDbEntity
  8
AM_6
100
AcDbText
 10
6.88203125
 20
0.75
 30
0.0
 40
0.5
  1
069421
100
AcDbAttributeDefinition
  3

  2
PN
 70
     8
280
     0
  0
ATTDEF
  5
206
330
1FB
100
AcDbEntity
  8
AM_6
100
AcDbText
 10
6.88203125
 20
0.25
 30
0.0
 40
0.5
  1
P2B-IP-303R
100
AcDbAttributeDefinition
  3

  2
DESCRIPTION
 70
     8
280
     0
  0
ATTDEF
  5
207
330
1FB
100
AcDbEntity
  8
AM_6
100
AcDbText
 10
6.88203125
 20
-0.25
 30
0.0
 40
0.5
  1
Non-Expansion Type
100
AcDbAttributeDefinition
  3

  2
EF
 70
     8
280
     0
  0
ATTDEF
  5
208
330
1FB
100
AcDbEntity
  8
AM_6
100
AcDbText
 10
6.88203125
 20
-0.75
 30
0.0
 40
0.5
  1
Contact  Seal
100
AcDbAttributeDefinition
  3

  2
ST
 70
     8
280
     0
  0
ATTDEF
  5
209
330
1FB
100
AcDbEntity
  8
AM_6
100
AcDbText
 10
6.88203125
 20
-1.25
 30
0.0
 40
0.5
  1
4-11/64
100
AcDbAttributeDefinition
  3

  2
A
 70
     8
280
     0
  0
ATTDEF
  5
20A
330
1FB
100
AcDbEntity
  8
AM_6
100
AcDbText
 10
6.88203125
 20
-1.75
 30
0.0
 40
0.5
  1
13
100
AcDbAttributeDefinition
  3

  2
B
 70
     8
280
     0
  0
ATTDEF
  5
20B
330
1FB
100
AcDbEntity
  8
AM_6
100
AcDbText
 10
6.88203125
 20
-2.25
 30
0.0
 40
0.5
  1
3-27/64
100
AcDbAttributeDefinition
  3

  2
C
 70
     8
280
     0
  0
ATTDEF
  5
20C
330
1FB
100
AcDbEntity
  8
AM_6
100
AcDbText
 10
6.88203125
 20
-2.75
 30
0.0
 40
0.5
  1
9-3/8
100
AcDbAttributeDefinition
  3

  2
DMIN
 70
     8
280
     0
  0
ATTDEF
  5
20D
330
1FB
100
AcDbEntity
  8
AM_6
100
AcDbText
 10
6.88203125
 20
-3.25
 30
0.0
 40
0.5
  1
10-5/8
100
AcDbAttributeDefinition
  3

  2
DMAX
 70
     8
280
     0
  0
ATTDEF
  5
20E
330
1FB
100
AcDbEntity
  8
AM_6
100
AcDbText
 10
6.88203125
 20
-3.75
 30
0.0
 40
0.5
  1
7/8
100
AcDbAttributeDefinition
  3

  2
F
 70
     8
280
     0
  0
ATTDEF
  5
20F
330
1FB
100
AcDbEntity
  8
AM_6
100
AcDbText
 10
6.88203125
 20
-4.25
 30
0.0
 40
0.5
  1
1-5/8
100
AcDbAttributeDefinition
  3

  2
G
 70
     8
280
     0
  0
ATTDEF
  5
210
330
1FB
100
AcDbEntity
  8
AM_6
100
AcDbText
 10
6.88203125
 20
-4.75
 30
0.0
 40
0.5
  1
2-1/4
100
AcDbAttributeDefinition
  3

  2
H
 70
     8
280
     0
  0
ATTDEF
  5
211
330
1FB
100
AcDbEntity
  8
AM_6
100
AcDbText
 10
6.88203125
 20
-5.25
 30
0.0
 40
0.5
  1
7-1/2
100
AcDbAttributeDefinition
  3

  2
J
 70
     8
280
     0
  0
ATTDEF
  5
212
330
1FB
100
AcDbEntity
  8
AM_6
100
AcDbText
 10
6.88203125
 20
-5.75
 30
0.0
 40
0.5
  1
5
100
AcDbAttributeDefinition
  3

  2
L
 70
     8
280
     0
  0
ATTDEF
  5
213
330
1FB
100
AcDbEntity
  8
AM_6
100
AcDbText
 10
6.88203125
 20
-6.25
 30
0.0
 40
0.5
  1
3-3/4
100
AcDbAttributeDefinition
  3

  2
M
 70
     8
280
     0
  0
ATTDEF
  5
214
330
1FB
100
AcDbEntity
  8
AM_6
100
AcDbText
 10
6.88203125
 20
-6.75
 30
0.0
 40
0.5
  1
1-31/64
100
AcDbAttributeDefinition
  3

  2
R
 70
     8
280
     0
  0
ATTDEF
  5
215
330
1FB
100
AcDbEntity
  8
AM_6
100
AcDbText
 10
6.88203125
 20
-7.25
 30
0.0
 40
0.5
  1
2-11/16
100
AcDbAttributeDefinition
  3

  2
S
 70
     8
280
     0
  0
ATTDEF
  5
216
330
1FB
100
AcDbEntity
  8
AM_6
100
AcDbText
 10
6.88203125
 20
-7.75
 30
0.0
 40
0.5
  1
1/4
100
AcDbAttributeDefinition
  3

  2
X
 70
     8
280
     0
  0
ATTDEF
  5
217
330
1FB
100
AcDbEntity
  8
AM_6
100
AcDbText
 10
6.88203125
 20
-8.25
 30
0.0
 40
0.5
  1
0.025
100
AcDbAttributeDefinition
  3

  2
Y
 70
     8
280
     0
  0
ATTDEF
  5
218
330
1FB
100
AcDbEntity
  8
AM_6
100
AcDbText
 10
6.88203125
 20
-8.75
 30
0.0
 40
0.5
  1
4-3/64
100
AcDbAttributeDefinition
  3

  2
Z
 70
     8
280
     0
  0
ATTDEF
  5
219
330
1FB
100
AcDbEntity
  8
AM_6
100
AcDbText
 10
6.88203125
 20
-9.25
 30
0.0
 40
0.5
  1
baldor
100
AcDbAttributeDefinition
  3

  2
COMPANY
 70
     8
280
     0
  0
LINE
  5
21A
330
1FB
100
AcDbEntity
  8
AM_9
100
AcDbLine
 10
-0.1158852690771872
 20
3.6375
 30
0.0
 11
0.1158852690771878
 21
3.6375
 31
0.0
  0
ELLIPSE
  5
21B
330
1FB
100
AcDbEntity
  8
AM_9
100
AcDbEllipse
 10
0.000000000005537
 20
3.247595264188756
 30
0.0
 11
0.5000000000055367
 21
0.0
 31
0.0
210
0.0
220
0.0
230
1.0
 40
0.5000000000000233
 41
3.127735184442476
 42
3.141592653589793
  0
ELLIPSE
  5
21C
330
1FB
100
AcDbEntity
  8
AM_9
100
AcDbEllipse
 10
0.0
 20
3.247595264191645
 30
0.0
 11
0.4999999999999997
 21
0.0
 31
0.0
210
0.0
220
0.0
230
1.0
 40
0.5000000000000216
 41
0.0066301186250213
 42
3.127735184453869
  0
ELLIPSE
  5
21D
330
1FB
100
AcDbEntity
  8
AM_9
100
AcDbEllipse
 10
-0.000000000005732
 20
3.247595264166578
 30
0.0
 11
0.500000000005732
 21
0.0
 31
0.0
210
0.0
220
0.0
230
1.0
 40
0.500000000000035
 41
0.0
 42
0.0066301187252247
  0
ELLIPSE
  5
21E
330
1FB
100
AcDbEntity
  8
AM_9
100
AcDbEllipse
 10
-0.0000000000000016
 20
3.334197804570046
 30
0.0
 11
0.4000000000000137
 21
0.0
 31
0.0
210
0.0
220
0.0
230
1.0
 40
0.5000000000000921
 41
1.305184177224699
 42
1.570796326794897
  0
ELLIPSE
  5
21F
330
1FB
100
AcDbEntity
  8
AM_9
100
AcDbEllipse
 10
0.0000000000000018
 20
3.334197804570046
 30
0.0
 11
0.4000000000000135
 21
0.0
 31
0.0
210
0.0
220
0.0
230
1.0
 40
0.5000000000000924
 41
1.570796326794897
 42
1.836408476365093
  0
LWPOLYLINE
  5
220
330
1FB
100
AcDbEntity
  8
AM_9
100
AcDbPolyline
 90
        5
 70
     0
 43
0.0
 10
0.0000000000000001
 20
3.547595264191645
 10
-0.0210741257736646
 20
3.547348407412434
 10
-0.060402570184052
 20
3.545559901959899
 10
-0.0993942506021262
 20
3.542044133904511
 10
-0.1113723789589835
 20
3.540604910881288
  0
LWPOLYLINE
  5
221
330
1FB
100
AcDbEntity
  8
AM_9
100
AcDbPolyline
 90
        5
 70
     0
 43
0.0
 10
0.1113658313975608
 20
3.540605744777968
 10
0.0955894055999993
 20
3.542465437304596
 10
0.0565013713639802
 20
3.545815254767533
 10
0.0171232421128453
 20
3.547432318207595
 10
0.0000000000000001
 20
3.547595264191645
  0
LINE
  5
222
330
1FB
100
AcDbEntity
  8
AM_9
100
AcDbLine
 10
-1.53984375
 20
-3.1496
 30
0.0
 11
1.53984375
 21
-3.1496
 31
0.0
  0
LINE
  5
223
330
1FB
100
AcDbEntity
  8
AM_9
100
AcDbLine
 10
1.53984375
 20
3.1496
 30
0.0
 11
-1.53984375
 21
3.1496
 31
0.0
  0
LINE
  5
224
330
1FB
100
AcDbEntity
  8
AM_9
100
AcDbLine
 10
-0.1333993411325296
 20
3.600038886209734
 30
0.0
 11
0.1333993411325296
 21
3.600038886209734
 31
0.0
  0
LINE
  5
225
330
1FB
100
AcDbEntity
  8
AM_9
100
AcDbLine
 10
-0.4999431695115635
 20
3.251357895180757
 30
0.0
 11
-0.4999999999999997
 21
3.247595264191645
 31
0.0
  0
LWPOLYLINE
  5
226
330
1FB
100
AcDbEntity
  8
AM_9
100
AcDbPolyline
 90
       29
 70
     0
 43
0.0
 10
0.4999785079244866
 20
3.249910734968526
 10
0.4969128457931017
 20
3.274801430463977
 10
0.487767154621325
 20
3.301070739377458
 10
0.4727365836580481
 20
3.325956539045473
 10
0.4516695280503002
 20
3.349465839277923
 10
0.4249599726427977
 20
3.37126121502724
 10
0.3931063625274693
 20
3.39104185319118
 10
0.3560426204370301
 20
3.408832648491208
 10
0.3143996690222669
 20
3.42446453927872
 10
0.268946978324576
 20
3.437767902376738
 10
0.2198535400622739
 20
3.448744847209829
 10
0.1677981903125484
 20
3.457364409734013
 10
0.1137640548136603
 20
3.463548729764769
 10
0.0572637063999634
 20
3.467332249258508
 10
0.0000000000000001
 20
3.468598297395934
 10
-0.0557663586364928
 20
3.467389512848797
 10
-0.1110025946144849
 20
3.463783166377766
 10
-0.1646674131397033
 20
3.457809268738422
 10
-0.2162139928358451
 20
3.449442034862392
 10
-0.2652114527117827
 20
3.438699141002379
 10
-0.3107583268387064
 20
3.425680427159848
 10
-0.3526093073301458
 20
3.410273811850836
 10
-0.3901677304798054
 20
3.392596942920257
 10
-0.4227368791419001
 20
3.372856778338759
 10
-0.4500303681430339
 20
3.351001239449002
 10
-0.471725491748304
 20
3.327235592362801
 10
-0.4874028301163982
 20
3.301922643895108
 10
-0.4968298347344643
 20
3.275290875320719
 10
-0.4999431695115635
 20
3.251357895180757
  0
LINE
  5
227
330
1FB
100
AcDbEntity
  8
AM_9
100
AcDbLine
 10
0.5
 20
3.247595264191645
 30
0.0
 11
0.4999785079244866
 21
3.249910734968526
 31
0.0
  0
LINE
  5
228
330
1FB
100
AcDbEntity
  8
AM_9
100
AcDbLine
 10
-1.53984375
 20
-1.38224415576923
 30
0.0
 11
-1.53984375
 21
-3.75
 31
0.0
  0
LINE
  5
229
330
1FB
100
AcDbEntity
  8
AM_9
100
AcDbLine
 10
1.53984375
 20
-1.38224415576923
 30
0.0
 11
1.53984375
 21
-3.75
 31
0.0
  0
LINE
  5
22A
330
1FB
100
AcDbEntity
  8
AM_9
100
AcDbLine
 10
-0.4374999999999996
 20
-1.5
 30
0.0
 11
-0.4374999999999996
 21
-3.75
 31
0.0
  0
LINE
  5
22B
330
1FB
100
AcDbEntity
  8
AM_9
100
AcDbLine
 10
0.4375000000000002
 20
-1.5
 30
0.0
 11
0.4375000000000002
 21
-3.75
 31
0.0
  0
LINE
  5
22C
330
1FB
100
AcDbEntity
  8
AM_7
100
AcDbLine
 10
1.88203125
 20
0.0
 30
0.0
 11
-2.897343750000001
 21
0.0
 31
0.0
  0
LINE
  5
22D
330
1FB
100
AcDbEntity
  8
AM_4
100
AcDbLine
 10
-1.53984375
 20
3.75
 30
0.0
 11
1.53984375
 21
3.75
 31
0.0
  0
LINE
  5
22E
330
1FB
100
AcDbEntity
  8
AM_4
100
AcDbLine
 10
0.1158852690771878
 20
3.6375
 30
0.0
 11
1.53984375
 21
3.6375
 31
0.0
  0
LINE
  5
22F
330
1FB
100
AcDbEntity
  8
AM_4
100
AcDbLine
 10
-1.53984375
 20
3.6375
 30
0.0
 11
-0.1158852690771872
 21
3.6375
 31
0.0
  0
ELLIPSE
  5
230
330
1FB
100
AcDbEntity
  8
AM_4
100
AcDbEllipse
 10
0.0000000000000001
 20
3.247595264191645
 30
0.0
 11
0.4999999999999997
 21
0.0
 31
0.0
210
0.0
220
0.0
230
1.0
 40
0.5000000000000003
 41
3.141592653589793
 42
6.283185307179586
  0
ELLIPSE
  5
231
330
1FB
100
AcDbEntity
  8
AM_4
100
AcDbEllipse
 10
-0.0000000000000001
 20
3.33419780457009
 30
0.0
 11
0.4000000000000002
 21
0.0
 31
0.0
210
0.0
220
0.0
230
1.0
 40
0.4999999999999991
 41
1.855158345917012
 42
7.588369484404279
  0
ELLIPSE
  5
232
330
1FB
100
AcDbEntity
  8
AM_4
100
AcDbEllipse
 10
-0.0000000000002506
 20
3.33419780457401
 30
0.0
 11
0.3999999999990381
 21
5.960464477524731E-9
 31
0.0
210
0.0
220
0.0
230
1.0
 40
0.4999999999916814
 41
-4.446776839804916
 42
-4.428026970471944
  0
LWPOLYLINE
  5
233
330
1FB
100
AcDbEntity
  8
AM_4
100
AcDbPolyline
 90
       18
 70
     0
 43
0.0
 10
-0.1113723789589835
 20
3.540604910881288
 10
-0.1378369771856755
 20
3.536803724680694
 10
-0.1755321770742734
 20
3.52983866308646
 10
-0.2122874550075336
 20
3.521144149162602
 10
-0.2479161779915773
 20
3.510707545692798
 10
-0.2822346510707418
 20
3.498505079970543
 10
-0.3150552130096577
 20
3.48449956089073
 10
-0.3461730420420983
 20
3.468642082790738
 10
-0.3753450528853517
 20
3.450883570909025
 10
-0.4022410215033027
 20
3.431223192438731
 10
-0.4264276153826094
 20
3.409783131525012
 10
-0.4474877180094082
 20
3.386800466613117
 10
-0.4633960964899211
 20
3.365228078623056
 10
-0.4764077861401566
 20
3.342979000959498
 10
-0.4874882974445864
 20
3.317653844099075
 10
-0.4950273173739754
 20
3.292021657590166
 10
-0.4991163062760958
 20
3.266383289708459
 10
-0.4999999093557028
 20
3.247404849608079
  0
LWPOLYLINE
  5
234
330
1FB
100
AcDbEntity
  8
AM_4
100
AcDbPolyline
 90
       19
 70
     0
 43
0.0
 10
0.4999999040191897
 20
3.247791203769955
 10
0.4998756505381379
 20
3.254647222916266
 10
0.4974144174158023
 20
3.279689919340784
 10
0.4919038947650467
 20
3.304144764058208
 10
0.4834563147770989
 20
3.327904382999778
 10
0.4721344006619153
 20
3.350918873802253
 10
0.4579446559817205
 20
3.373161844116479
 10
0.440844836241773
 20
3.394605612892438
 10
0.4207762109644219
 20
3.415189492944596
 10
0.3977228592117097
 20
3.434792851477267
 10
0.3717777491709701
 20
3.453232611464536
 10
0.3431712751867493
 20
3.470297966277105
 10
0.3122335705208965
 20
3.485804946238495
 10
0.2793623738517708
 20
3.499615915355354
 10
0.244876023421619
 20
3.511682005201756
 10
0.2090331328627801
 20
3.521995078552209
 10
0.1720628638074181
 20
3.530559313670413
 10
0.1341789731490591
 20
3.537381120357346
 10
0.1113658313975608
 20
3.540605744777968
  0
LINE
  5
235
330
1FB
100
AcDbEntity
  8
AM_4
100
AcDbLine
 10
0.1333993411325296
 20
3.600038886209734
 30
0.0
 11
1.53984375
 21
3.600038886209734
 31
0.0
  0
LINE
  5
236
330
1FB
100
AcDbEntity
  8
AM_4
100
AcDbLine
 10
-1.53984375
 20
3.600038886209734
 30
0.0
 11
-0.1333993411325296
 21
3.600038886209734
 31
0.0
  0
LINE
  5
237
330
1FB
100
AcDbEntity
  8
AM_4
100
AcDbLine
 10
1.222098214285715
 20
0.5792020372892378
 30
0.0
 11
-1.222098214285714
 21
0.5792020372892378
 31
0.0
  0
LWPOLYLINE
  5
238
330
1FB
100
AcDbEntity
  8
AM_4
100
AcDbPolyline
 90
       30
 70
     0
 43
0.0
 10
-0.4999999999999997
 20
3.247595264191645
 10
-0.4968806455748541
 20
3.219354174281511
 10
-0.487565236970706
 20
3.190853819177375
 10
-0.4721939258987553
 20
3.162319995078279
 10
-0.4510604659883566
 20
3.134345497895595
 10
-0.4242015635676032
 20
3.107194093668238
 10
-0.3920041326619296
 20
3.081295587898598
 10
-0.3550642109680168
 20
3.057235418192726
 10
-0.3133209950692641
 20
3.03521836223074
 10
-0.2674902417003729
 20
3.015735463474429
 10
-0.2184236127284126
 20
2.999268154635516
 10
-0.1665096901985107
 20
2.986126835445753
 10
-0.1123006212734702
 20
2.976483926241907
 10
-0.0568271617803539
 20
2.970594436715888
 10
-0.0010450219956542
 20
2.968628374549458
 10
0.0549269415526866
 20
2.970492347565835
 10
0.1100285998640004
 20
2.97613675429303
 10
0.1635136894656411
 20
2.985485506120202
 10
0.2151207497125944
 20
2.998335177249578
 10
0.2638986974491532
 20
3.014359594187883
 10
0.3096212873799817
 20
3.033475620567994
 10
0.351614059613663
 20
3.055259148357045
 10
0.3891053812035883
 20
3.079189438700806
 10
0.4218798792562427
 20
3.105124345113975
 10
0.4494347539867474
 20
3.13253686127148
 10
0.4712447618669874
 20
3.160809847587968
 10
0.4869723040234338
 20
3.189500054004449
 10
0.4966197023059928
 20
3.21835804124267
 10
0.4999974264276257
 20
3.246792850173906
 10
0.5
 20
3.247595264191645
  0
LINE
  5
239
330
1FB
100
AcDbEntity
  8
AM_4
100
AcDbLine
 10
-1.222098214285714
 20
-1.3875
 30
0.0
 11
1.222098214285715
 21
-1.3875
 31
0.0
  0
LINE
  5
23A
330
1FB
100
AcDbEntity
  8
AM_4
100
AcDbLine
 10
1.222098214285715
 20
0.480563092829075
 30
0.0
 11
1.53984375
 21
0.480563092829075
 31
0.0
  0
LINE
  5
23B
330
1FB
100
AcDbEntity
  8
AM_4
100
AcDbLine
 10
-1.53984375
 20
0.480563092829075
 30
0.0
 11
-1.222098214285714
 21
0.480563092829075
 31
0.0
  0
LINE
  5
23C
330
1FB
100
AcDbEntity
  8
AM_4
100
AcDbLine
 10
1.7109375
 20
-1.498409783425699
 30
0.0
 11
1.7109375
 21
-3.75
 31
0.0
  0
LINE
  5
23D
330
1FB
100
AcDbEntity
  8
AM_4
100
AcDbLine
 10
1.53984375
 20
3.75
 30
0.0
 11
1.53984375
 21
-1.38224415576923
 31
0.0
  0
LINE
  5
23E
330
1FB
100
AcDbEntity
  8
AM_4
100
AcDbLine
 10
1.222098214285715
 20
-1.303833785569744
 30
0.0
 11
1.53984375
 21
-1.303833785569744
 31
0.0
  0
LINE
  5
23F
330
1FB
100
AcDbEntity
  8
AM_4
100
AcDbLine
 10
1.222098214285715
 20
0.5792020372892378
 30
0.0
 11
1.222098214285715
 21
-1.5
 31
0.0
  0
LWPOLYLINE
  5
240
330
1FB
100
AcDbEntity
  8
AM_4
100
AcDbPolyline
 90
       12
 70
     0
 43
0.0
 10
1.53984375
 20
-1.382244155769231
 10
1.549943371716992
 20
-1.399075212164609
 10
1.56147148454556
 20
-1.414961981276754
 10
1.574340352586211
 20
-1.429783555200027
 10
1.588452035982723
 20
-1.443427132807363
 10
1.60369913630358
 20
-1.455788878234951
 10
1.619965613908889
 20
-1.466774711135862
 10
1.637127671082107
 20
-1.476301022688292
 10
1.655054694205411
 20
-1.484295311909183
 10
1.673610247808202
 20
-1.490696737430482
 10
1.692653112923412
 20
-1.495456580538683
 10
1.7109375
 20
-1.498409783425699
  0
LINE
  5
241
330
1FB
100
AcDbEntity
  8
AM_4
100
AcDbLine
 10
-1.7109375
 20
-1.498409783425699
 30
0.0
 11
-1.7109375
 21
-3.75
 31
0.0
  0
LWPOLYLINE
  5
242
330
1FB
100
AcDbEntity
  8
AM_4
100
AcDbPolyline
 90
       12
 70
     0
 43
0.0
 10
-1.7109375
 20
-1.498409783425699
 10
-1.691567668680654
 20
-1.495232291825262
 10
-1.6725484820579
 20
-1.490378699504141
 10
-1.654024687626037
 20
-1.483885945230579
 10
-1.636137262645664
 20
-1.475803442785031
 10
-1.619022341221605
 20
-1.466192704891454
 10
-1.602810178240167
 20
-1.455126875068342
 10
-1.587624158050813
 20
-1.442690170962379
 10
-1.573579855436751
 20
-1.428977243401299
 10
-1.560784156021058
 20
-1.414092456043933
 10
-1.549334442802541
 20
-1.398149091109752
 10
-1.539843749999999
 20
-1.382244155769231
  0
LINE
  5
243
330
1FB
100
AcDbEntity
  8
AM_4
100
AcDbLine
 10
-1.222098214285714
 20
0.5792020372892378
 30
0.0
 11
-1.222098214285714
 21
-1.5
 31
0.0
  0
LINE
  5
244
330
1FB
100
AcDbEntity
  8
AM_4
100
AcDbLine
 10
-1.53984375
 20
-1.303833785569744
 30
0.0
 11
-1.222098214285714
 21
-1.303833785569744
 31
0.0
  0
LINE
  5
245
330
1FB
100
AcDbEntity
  8
AM_4
100
AcDbLine
 10
-1.53984375
 20
-1.38224415576923
 30
0.0
 11
-1.53984375
 21
3.75
 31
0.0
  0
LWPOLYLINE
  5
246
330
1FB
100
AcDbEntity
  8
AM_4
100
AcDbPolyline
 90
       19
 70
     0
 43
0.0
 10
1.36875
 20
-1.725
 10
1.369606192929357
 20
-1.705389957881777
 10
1.372168255572253
 20
-1.685929160024941
 10
1.37641668908496
 20
-1.666765714851933
 10
1.382319160323171
 20
-1.648045467751724
 10
1.389830747916754
 20
-1.629910891108342
 10
1.398894284148501
 20
-1.6125
 10
1.409440790034977
 20
-1.595945301821014
 10
1.42139000029823
 20
-1.580372787820529
 10
1.434650974233027
 20
-1.565900974233027
 10
1.449122787820529
 20
-1.55264000029823
 10
1.464695301821014
 20
-1.540690790034977
 10
1.48125
 20
-1.530144284148501
 10
1.498660891108343
 20
-1.521080747916754
 10
1.516795467751725
 20
-1.513569160323171
 10
1.535515714851933
 20
-1.507666689084959
 10
1.55467916002494
 20
-1.503418255572253
 10
1.574139957881777
 20
-1.500856192929357
 10
1.59375
 20
-1.5
  0
LINE
  5
247
330
1FB
100
AcDbEntity
  8
AM_4
100
AcDbLine
 10
1.36875
 20
-1.725
 30
0.0
 11
1.36875
 21
-3.75
 31
0.0
  0
LINE
  5
248
330
1FB
100
AcDbEntity
  8
AM_4
100
AcDbLine
 10
-1.36875
 20
-1.725
 30
0.0
 11
1.36875
 21
-1.725
 31
0.0
  0
LINE
  5
249
330
1FB
100
AcDbEntity
  8
AM_4
100
AcDbLine
 10
-1.7109375
 20
-1.5
 30
0.0
 11
1.7109375
 21
-1.5
 31
0.0
  0
LINE
  5
24A
330
1FB
100
AcDbEntity
  8
AM_4
100
AcDbLine
 10
-1.7109375
 20
-3.75
 30
0.0
 11
1.7109375
 21
-3.75
 31
0.0
  0
LINE
  5
24B
330
1FB
100
AcDbEntity
  8
AM_4
100
AcDbLine
 10
-1.36875
 20
-1.725
 30
0.0
 11
-1.36875
 21
-3.75
 31
0.0
  0
LWPOLYLINE
  5
24C
330
1FB
100
AcDbEntity
  8
AM_4
100
AcDbPolyline
 90
       19
 70
     0
 43
0.0
 10
-1.59375
 20
-1.5
 10
-1.574139957881777
 20
-1.500856192929357
 10
-1.55467916002494
 20
-1.503418255572253
 10
-1.535515714851933
 20
-1.507666689084959
 10
-1.516795467751724
 20
-1.51356916032317
 10
-1.498660891108342
 20
-1.521080747916754
 10
-1.48125
 20
-1.530144284148501
 10
-1.464695301821014
 20
-1.540690790034976
 10
-1.449122787820529
 20
-1.552640000298229
 10
-1.434650974233027
 20
-1.565900974233027
 10
-1.42139000029823
 20
-1.580372787820528
 10
-1.409440790034977
 20
-1.595945301821014
 10
-1.398894284148501
 20
-1.6125
 10
-1.389830747916754
 20
-1.629910891108342
 10
-1.38231916032317
 20
-1.648045467751724
 10
-1.376416689084959
 20
-1.666765714851932
 10
-1.372168255572253
 20
-1.68592916002494
 10
-1.369606192929357
 20
-1.705389957881776
 10
-1.36875
 20
-1.724999999999999
  0
ENDBLK
  5
1FE
330
1FB
100
AcDbEntity
  8
0
100
AcDbBlockEnd
  0
ENDSEC
  0
SECTION
  2
ENTITIES
  0
INSERT
  5
6F
330
1F
100
AcDbEntity
  8
0
100
AcDbBlockReference
  2
1_069421_2
 10
0.0
 20
0.0
 30
0.0
  0
POINT
  5
24E
330
1F
100
AcDbEntity
  8
ConnectionPoints
100
AcDbPoint
 10
-2.440333333333333
 20
2.135416666666667
 30
0.0000000000000001
  0
POINT
  5
24F
330
1F
100
AcDbEntity
  8
ConnectionPoints
100
AcDbPoint
 10
-2.370333333333333
 20
0.0
 30
0.0000000000000001
  0
POINT
  5
250
330
1F
100
AcDbEntity
  8
ConnectionPoints
100
AcDbPoint
 10
-2.6875
 20
0.0
 30
0.0000000000000002
  0
POINT
  5
251
330
1F
100
AcDbEntity
  8
ConnectionPoints
100
AcDbPoint
 10
-2.569333333333333
 20
0.0
 30
0.0000000000000002
  0
POINT
  5
252
330
1F
100
AcDbEntity
  8
ConnectionPoints
100
AcDbPoint
 10
-2.370333333333333
 20
2.135416666666667
 30
0.0000000000000001
  0
POINT
  5
253
330
1F
100
AcDbEntity
  8
ConnectionPoints
100
AcDbPoint
 10
-2.5555
 20
2.135416666666667
 30
0.0000000000000002
  0
POINT
  5
254
330
1F
100
AcDbEntity
  8
ConnectionPoints
100
AcDbPoint
 10
-2.370333333333333
 20
-2.135416666666667
 30
0.0000000000000001
  0
POINT
  5
255
330
1F
100
AcDbEntity
  8
ConnectionPoints
100
AcDbPoint
 10
-2.5555
 20
-2.135416666666667
 30
0.0000000000000002
  0
POINT
  5
256
330
1F
100
AcDbEntity
  8
ConnectionPoints
100
AcDbPoint
 10
-2.370333333333333
 20
0.0
 30
0.0000000000000001
  0
POINT
  5
257
330
1F
100
AcDbEntity
  8
ConnectionPoints
100
AcDbPoint
 10
0.0000000000000001
 20
3.334197804570089
 30
1.925
  0
POINT
  5
258
330
1F
100
AcDbEntity
  8
ConnectionPoints
100
AcDbPoint
 10
0.0000000000000001
 20
3.334197804570089
 30
1.925
  0
POINT
  5
259
330
1F
100
AcDbEntity
  8
ConnectionPoints
100
AcDbPoint
 10
-2.4375
 20
0.0
 30
0.0000000000000001
  0
POINT
  5
25A
330
1F
100
AcDbEntity
  8
ConnectionPoints
100
AcDbPoint
 10
-2.6875
 20
0.0
 30
0.0000000000000002
  0
ENDSEC
  0
SECTION
  2
OBJECTS
  0
DICTIONARY
  5
C
330
0
100
AcDbDictionary
281
     1
  3
ACAD_DETAILVIEWSTYLE
350
262
  3
ACAD_GROUP
350
D
  3
ACAD_LAYOUT
350
1A
  3
ACAD_MATERIAL
350
43
  3
ACAD_MLEADERSTYLE
350
6B
  3
ACAD_MLINESTYLE
350
17
  3
ACAD_PLOTSETTINGS
350
19
  3
ACAD_PLOTSTYLENAME
350
E
  3
ACAD_SCALELIST
350
47
  3
ACAD_SECTIONVIEWSTYLE
350
263
  3
ACAD_TABLESTYLE
350
69
  3
ACAD_VISUALSTYLE
350
2A
  3
ACDB_RECOMPOSE_DATA
350
25F
  3
AcDbVariableDictionary
350
25B
  0
SUN
  5
6D
330
29
100
AcDbSun
 90
        1
290
     0
 63
     7
421
 16777215
 40
1.0
291
     1
 91
  2455826
 92
 54000000
292
     0
 70
     2
 71
   256
280
     1
  0
DICTIONARY
  5
262
102
{ACAD_REACTORS
330
C
102
}
330
C
100
AcDbDictionary
281
     1
  0
DICTIONARY
  5
D
102
{ACAD_REACTORS
330
C
102
}
330
C
100
AcDbDictionary
281
     1
  0
DICTIONARY
  5
1A
102
{ACAD_REACTORS
330
C
102
}
330
C
100
AcDbDictionary
281
     1
  3
Layout1
350
1E
  3
Layout2
350
26
  3
Model
350
22
  0
DICTIONARY
  5
43
102
{ACAD_REACTORS
330
C
102
}
330
C
100
AcDbDictionary
281
     1
  3
ByBlock
350
45
  3
ByLayer
350
44
  3
Global
350
46
  0
DICTIONARY
  5
6B
102
{ACAD_REACTORS
330
C
102
}
330
C
100
AcDbDictionary
281
     1
  3
Standard
350
6C
  0
DICTIONARY
  5
17
102
{ACAD_REACTORS
330
C
102
}
330
C
100
AcDbDictionary
281
     1
  3
Standard
350
18
  0
DICTIONARY
  5
19
102
{ACAD_REACTORS
330
C
102
}
330
C
100
AcDbDictionary
281
     1
  0
ACDBDICTIONARYWDFLT
  5
E
102
{ACAD_REACTORS
330
C
102
}
330
C
100
AcDbDictionary
281
     1
  3
Normal
350
F
100
AcDbDictionaryWithDefault
340
F
  0
DICTIONARY
  5
47
102
{ACAD_REACTORS
330
C
102
}
330
C
100
AcDbDictionary
281
     1
  3
A0
350
48
  3
A1
350
49
  3
A2
350
4A
  3
A3
350
4B
  3
A4
350
4C
  3
A5
350
4D
  3
A6
350
4E
  3
A7
350
4F
  3
A8
350
50
  3
A9
350
51
  3
B0
350
52
  3
B1
350
53
  3
B2
350
54
  3
B3
350
55
  3
B4
350
56
  3
B5
350
57
  3
B6
350
58
  3
B7
350
59
  3
B8
350
5A
  3
B9
350
5B
  3
C0
350
5C
  3
C1
350
5D
  3
C2
350
5E
  3
C3
350
5F
  3
C4
350
60
  3
C5
350
61
  3
C6
350
62
  3
C7
350
63
  3
C8
350
64
  3
C9
350
65
  3
D0
350
66
  3
D1
350
67
  3
D2
350
68
  0
DICTIONARY
  5
263
102
{ACAD_REACTORS
330
C
102
}
330
C
100
AcDbDictionary
281
     1
  0
DICTIONARY
  5
69
102
{ACAD_REACTORS
330
C
102
}
330
C
100
AcDbDictionary
281
     1
  3
Standard
350
6A
  0
DICTIONARY
  5
2A
102
{ACAD_REACTORS
330
C
102
}
330
C
100
AcDbDictionary
281
     1
  3
2dWireframe
350
2F
  3
Basic
350
32
  3
Brighten
350
36
  3
ColorChange
350
3A
  3
Conceptual
350
34
  3
Dim
350
35
  3
EdgeColorOff
350
3D
  3
Facepattern
350
39
  3
Flat
350
2B
  3
FlatWithEdges
350
2C
  3
Gouraud
350
2D
  3
GouraudWithEdges
350
2E
  3
Hidden
350
31
  3
JitterOff
350
3B
  3
Linepattern
350
38
  3
OverhangOff
350
3C
  3
Realistic
350
33
  3
Shaded
350
42
  3
Shaded with edges
350
41
  3
Shades of Gray
350
3E
  3
Sketchy
350
3F
  3
Thicken
350
37
  3
Wireframe
350
30
  3
X-Ray
350
40
  0
XRECORD
  5
25F
102
{ACAD_REACTORS
330
C
102
}
330
C
100
AcDbXrecord
280
     1
 90
        1
330
6A
  0
DICTIONARY
  5
25B
102
{ACAD_REACTORS
330
C
102
}
330
C
100
AcDbDictionary
281
     1
  3
CANNOSCALE
350
25C
  3
CMLEADERSTYLE
350
261
  3
CTABLESTYLE
350
260
  0
LAYOUT
  5
1E
102
{ACAD_REACTORS
330
1A
102
}
330
1A
100
AcDbPlotSettings
  1

  2
none_device
  4

  6

 40
0.0
 41
0.0
 42
0.0
 43
0.0
 44
0.0
 45
0.0
 46
0.0
 47
0.0
 48
0.0
 49
0.0
140
0.0
141
0.0
142
1.0
143
1.0
 70
   688
 72
     0
 73
     0
 74
     5
  7

 75
    16
 76
     0
 77
     2
 78
   300
147
1.0
148
0.0
149
0.0
100
AcDbLayout
  1
Layout1
 70
     1
 71
     1
 10
0.0
 20
0.0
 11
12.0
 21
9.0
 12
0.0
 22
0.0
 32
0.0
 14
1.000000000000000E+20
 24
1.000000000000000E+20
 34
1.000000000000000E+20
 15
-1.000000000000000E+20
 25
-1.000000000000000E+20
 35
-1.000000000000000E+20
146
0.0
 13
0.0
 23
0.0
 33
0.0
 16
1.0
 26
0.0
 36
0.0
 17
0.0
 27
1.0
 37
0.0
 76
     0
330
1B
  0
LAYOUT
  5
26
102
{ACAD_REACTORS
330
1A
102
}
330
1A
100
AcDbPlotSettings
  1

  2
none_device
  4

  6

 40
0.0
 41
0.0
 42
0.0
 43
0.0
 44
0.0
 45
0.0
 46
0.0
 47
0.0
 48
0.0
 49
0.0
140
0.0
141
0.0
142
1.0
143
1.0
 70
   688
 72
     0
 73
     0
 74
     5
  7

 75
    16
 76
     0
 77
     2
 78
   300
147
1.0
148
0.0
149
0.0
100
AcDbLayout
  1
Layout2
 70
     1
 71
     2
 10
0.0
 20
0.0
 11
0.0
 21
0.0
 12
0.0
 22
0.0
 32
0.0
 14
0.0
 24
0.0
 34
0.0
 15
0.0
 25
0.0
 35
0.0
146
0.0
 13
0.0
 23
0.0
 33
0.0
 16
1.0
 26
0.0
 36
0.0
 17
0.0
 27
1.0
 37
0.0
 76
     0
330
23
  0
LAYOUT
  5
22
102
{ACAD_REACTORS
330
1A
102
}
330
1A
100
AcDbPlotSettings
  1

  2
none_device
  4
Letter_(8.50_x_11.00_Inches)
  6

 40
6.35
 41
6.35
 42
6.35000508
 43
6.35000508
 44
215.9
 45
279.4
 46
0.0
 47
0.0
 48
0.0
 49
0.0
140
0.0
141
0.0
142
1.0
143
1.0
 70
  1712
 72
     0
 73
     0
 74
     0
  7

 75
     0
 76
     0
 77
     2
 78
   300
147
1.0
148
0.0
149
0.0
100
AcDbLayout
  1
Model
 70
     1
 71
     0
 10
0.0
 20
0.0
 11
12.0
 21
9.0
 12
0.0
 22
0.0
 32
0.0
 14
1.000000000000000E+20
 24
1.000000000000000E+20
 34
1.000000000000000E+20
 15
-1.000000000000000E+20
 25
-1.000000000000000E+20
 35
-1.000000000000000E+20
146
0.0
 13
0.0
 23
0.0
 33
0.0
 16
1.0
 26
0.0
 36
0.0
 17
0.0
 27
1.0
 37
0.0
 76
     0
330
1F
331
29
  0
MATERIAL
  5
45
102
{ACAD_REACTORS
330
43
102
}
330
43
100
AcDbMaterial
  1
ByBlock
 72
     1
 94
      127
  0
MATERIAL
  5
44
102
{ACAD_REACTORS
330
43
102
}
330
43
100
AcDbMaterial
  1
ByLayer
 72
     1
 94
      127
  0
MATERIAL
  5
46
102
{ACAD_REACTORS
330
43
102
}
330
43
100
AcDbMaterial
  1
Global
 72
     1
 94
      127
  0
MLEADERSTYLE
  5
6C
102
{ACAD_REACTORS
330
6B
102
}
330
6B
100
AcDbMLeaderStyle
179
     2
170
     2
171
     1
172
     0
 90
        2
 40
0.0
 41
0.0
173
     1
 91
-1056964608
340
14
 92
       -2
290
     1
 42
0.09
291
     1
 43
0.36
  3
Standard
341
0
 44
0.18
300

342
11
174
     1
178
     6
175
     1
176
     0
 93
-1056964608
 45
0.18
292
     0
297
     0
 46
0.18
343
0
 94
-1056964608
 47
1.0
 49
1.0
140
1.0
293
     1
141
0.0
294
     1
177
     0
142
1.0
295
     0
296
     0
143
0.125
271
     0
272
     9
273
     9
298
     0
  0
MLINESTYLE
  5
18
102
{ACAD_REACTORS
330
17
102
}
330
17
100
AcDbMlineStyle
  2
Standard
 70
     0
  3

 62
   256
 51
90.0
 52
90.0
 71
     2
 49
0.5
 62
   256
  6
BYLAYER
 49
-0.5
 62
   256
  6
BYLAYER
  0
ACDBPLACEHOLDER
  5
F
102
{ACAD_REACTORS
330
E
102
}
330
E
  0
SCALE
  5
48
102
{ACAD_REACTORS
330
47
102
}
330
47
100
AcDbScale
 70
     0
300
1:1
140
1.0
141
1.0
290
     1
  0
SCALE
  5
49
102
{ACAD_REACTORS
330
47
102
}
330
47
100
AcDbScale
 70
     0
300
1:2
140
1.0
141
2.0
290
     0
  0
SCALE
  5
4A
102
{ACAD_REACTORS
330
47
102
}
330
47
100
AcDbScale
 70
     0
300
1:4
140
1.0
141
4.0
290
     0
  0
SCALE
  5
4B
102
{ACAD_REACTORS
330
47
102
}
330
47
100
AcDbScale
 70
     0
300
1:5
140
1.0
141
5.0
290
     0
  0
SCALE
  5
4C
102
{ACAD_REACTORS
330
47
102
}
330
47
100
AcDbScale
 70
     0
300
1:8
140
1.0
141
8.0
290
     0
  0
SCALE
  5
4D
102
{ACAD_REACTORS
330
47
102
}
330
47
100
AcDbScale
 70
     0
300
1:10
140
1.0
141
10.0
290
     0
  0
SCALE
  5
4E
102
{ACAD_REACTORS
330
47
102
}
330
47
100
AcDbScale
 70
     0
300
1:16
140
1.0
141
16.0
290
     0
  0
SCALE
  5
4F
102
{ACAD_REACTORS
330
47
102
}
330
47
100
AcDbScale
 70
     0
300
1:20
140
1.0
141
20.0
290
     0
  0
SCALE
  5
50
102
{ACAD_REACTORS
330
47
102
}
330
47
100
AcDbScale
 70
     0
300
1:30
140
1.0
141
30.0
290
     0
  0
SCALE
  5
51
102
{ACAD_REACTORS
330
47
102
}
330
47
100
AcDbScale
 70
     0
300
1:40
140
1.0
141
40.0
290
     0
  0
SCALE
  5
52
102
{ACAD_REACTORS
330
47
102
}
330
47
100
AcDbScale
 70
     0
300
1:50
140
1.0
141
50.0
290
     0
  0
SCALE
  5
53
102
{ACAD_REACTORS
330
47
102
}
330
47
100
AcDbScale
 70
     0
300
1:100
140
1.0
141
100.0
290
     0
  0
SCALE
  5
54
102
{ACAD_REACTORS
330
47
102
}
330
47
100
AcDbScale
 70
     0
300
2:1
140
2.0
141
1.0
290
     0
  0
SCALE
  5
55
102
{ACAD_REACTORS
330
47
102
}
330
47
100
AcDbScale
 70
     0
300
4:1
140
4.0
141
1.0
290
     0
  0
SCALE
  5
56
102
{ACAD_REACTORS
330
47
102
}
330
47
100
AcDbScale
 70
     0
300
8:1
140
8.0
141
1.0
290
     0
  0
SCALE
  5
57
102
{ACAD_REACTORS
330
47
102
}
330
47
100
AcDbScale
 70
     0
300
10:1
140
10.0
141
1.0
290
     0
  0
SCALE
  5
58
102
{ACAD_REACTORS
330
47
102
}
330
47
100
AcDbScale
 70
     0
300
100:1
140
100.0
141
1.0
290
     0
  0
SCALE
  5
59
102
{ACAD_REACTORS
330
47
102
}
330
47
100
AcDbScale
 70
     0
300
1/128" = 1'-0"
140
0.0078125
141
12.0
290
     0
  0
SCALE
  5
5A
102
{ACAD_REACTORS
330
47
102
}
330
47
100
AcDbScale
 70
     0
300
1/64" = 1'-0"
140
0.015625
141
12.0
290
     0
  0
SCALE
  5
5B
102
{ACAD_REACTORS
330
47
102
}
330
47
100
AcDbScale
 70
     0
300
1/32" = 1'-0"
140
0.03125
141
12.0
290
     0
  0
SCALE
  5
5C
102
{ACAD_REACTORS
330
47
102
}
330
47
100
AcDbScale
 70
     0
300
1/16" = 1'-0"
140
0.0625
141
12.0
290
     0
  0
SCALE
  5
5D
102
{ACAD_REACTORS
330
47
102
}
330
47
100
AcDbScale
 70
     0
300
3/32" = 1'-0"
140
0.09375
141
12.0
290
     0
  0
SCALE
  5
5E
102
{ACAD_REACTORS
330
47
102
}
330
47
100
AcDbScale
 70
     0
300
1/8" = 1'-0"
140
0.125
141
12.0
290
     0
  0
SCALE
  5
5F
102
{ACAD_REACTORS
330
47
102
}
330
47
100
AcDbScale
 70
     0
300
3/16" = 1'-0"
140
0.1875
141
12.0
290
     0
  0
SCALE
  5
60
102
{ACAD_REACTORS
330
47
102
}
330
47
100
AcDbScale
 70
     0
300
1/4" = 1'-0"
140
0.25
141
12.0
290
     0
  0
SCALE
  5
61
102
{ACAD_REACTORS
330
47
102
}
330
47
100
AcDbScale
 70
     0
300
3/8" = 1'-0"
140
0.375
141
12.0
290
     0
  0
SCALE
  5
62
102
{ACAD_REACTORS
330
47
102
}
330
47
100
AcDbScale
 70
     0
300
1/2" = 1'-0"
140
0.5
141
12.0
290
     0
  0
SCALE
  5
63
102
{ACAD_REACTORS
330
47
102
}
330
47
100
AcDbScale
 70
     0
300
3/4" = 1'-0"
140
0.75
141
12.0
290
     0
  0
SCALE
  5
64
102
{ACAD_REACTORS
330
47
102
}
330
47
100
AcDbScale
 70
     0
300
1" = 1'-0"
140
1.0
141
12.0
290
     0
  0
SCALE
  5
65
102
{ACAD_REACTORS
330
47
102
}
330
47
100
AcDbScale
 70
     0
300
1-1/2" = 1'-0"
140
1.5
141
12.0
290
     0
  0
SCALE
  5
66
102
{ACAD_REACTORS
330
47
102
}
330
47
100
AcDbScale
 70
     0
300
3" = 1'-0"
140
3.0
141
12.0
290
     0
  0
SCALE
  5
67
102
{ACAD_REACTORS
330
47
102
}
330
47
100
AcDbScale
 70
     0
300
6" = 1'-0"
140
6.0
141
12.0
290
     0
  0
SCALE
  5
68
102
{ACAD_REACTORS
330
47
102
}
330
47
100
AcDbScale
 70
     0
300
1'-0" = 1'-0"
140
12.0
141
12.0
290
     0
  0
TABLESTYLE
  5
6A
102
{ACAD_REACTORS
330
69
102
}
102
{ACAD_XDICTIONARY
360
25D
102
}
330
69
100
AcDbTableStyle
  3
Standard
 70
     0
 71
     0
 40
0.06
 41
0.06
280
     0
281
     0
  7
Standard
140
0.18
170
     2
 62
     0
 63
   257
283
     0
 90
        4
 91
        0
  1

274
    -2
284
     1
 64
     0
275
    -2
285
     1
 65
     0
276
    -2
286
     1
 66
     0
277
    -2
287
     1
 67
     0
278
    -2
288
     1
 68
     0
279
    -2
289
     1
 69
     0
  7
Standard
140
0.25
170
     5
 62
     0
 63
   257
283
     0
 90
        4
 91
        0
  1

274
    -2
284
     1
 64
     0
275
    -2
285
     1
 65
     0
276
    -2
286
     1
 66
     0
277
    -2
287
     1
 67
     0
278
    -2
288
     1
 68
     0
279
    -2
289
     1
 69
     0
  7
Standard
140
0.18
170
     5
 62
     0
 63
   257
283
     0
 90
        4
 91
        0
  1

274
    -2
284
     1
 64
     0
275
    -2
285
     1
 65
     0
276
    -2
286
     1
 66
     0
277
    -2
287
     1
 67
     0
278
    -2
288
     1
 68
     0
279
    -2
289
     1
 69
     0
  0
VISUALSTYLE
  5
2F
102
{ACAD_REACTORS
330
2A
102
}
330
2A
100
AcDbVisualStyle
  2
2dWireframe
 70
     4
177
     3
291
     0
 70
    58
 90
        0
176
     1
 90
        2
176
     1
 90
        0
176
     1
 90
        0
176
     1
 40
0.6
176
     1
 40
30.0
176
     1
 62
     7
420
 16777215
176
     1
 90
        1
176
     1
 90
        4
176
     1
 62
     7
176
     1
 62
   257
176
     1
 90
        1
176
     1
 90
        1
176
     1
 40
1.0
176
     1
 90
        0
176
     1
 62
   257
176
     1
 40
1.0
176
     1
 90
        1
176
     1
 90
        6
176
     1
 90
        2
176
     1
 62
     7
176
     1
 90
        5
176
     1
 90
        0
176
     1
 90
        0
176
     1
290
     0
176
     1
 90
        1
176
     1
 40
0.0
176
     1
 90
        0
176
     1
290
     1
176
     1
290
     1
176
     1
290
     0
176
     1
290
     0
176
     1
290
     0
176
     1
290
     0
176
     1
290
     0
176
     1
290
     0
176
     1
290
     0
176
     1
 90
       50
176
     1
 40
0.0
176
     1
 40
1.0
176
     1
 90
        0
176
     1
 62
    18
420
        0
176
     1
 90
       50
176
     1
 90
        3
176
     1
 62
     5
420
      255
176
     1
290
     0
176
     1
 90
       50
176
     1
 90
       50
176
     1
 90
       50
176
     1
290
     0
176
     1
 90
       50
176
     1
 62
   256
176
     0
 40
1.0
176
     0
 90
        2
176
     1
  1
strokes_ogs.tif
176
     1
290
     0
176
     1
 40
1.0
176
     1
 40
1.0
176
     1
  0
VISUALSTYLE
  5
32
102
{ACAD_REACTORS
330
2A
102
}
330
2A
100
AcDbVisualStyle
  2
Basic
 70
     7
177
     3
291
     1
 70
    58
 90
        1
176
     1
 90
        0
176
     1
 90
        1
176
     1
 90
        0
176
     1
 40
0.6
176
     1
 40
30.0
176
     1
 62
     7
420
 16777215
176
     1
 90
        0
176
     1
 90
        4
176
     1
 62
     7
176
     1
 62
   257
176
     1
 90
        1
176
     1
 90
        1
176
     1
 40
1.0
176
     1
 90
        8
176
     1
 62
     7
176
     1
 40
1.0
176
     1
 90
        1
176
     1
 90
        6
176
     1
 90
        2
176
     1
 62
     7
176
     1
 90
        5
176
     1
 90
        0
176
     1
 90
        0
176
     1
290
     0
176
     1
 90
        1
176
     1
 40
0.0
176
     1
 90
        0
176
     1
290
     0
176
     1
290
     1
176
     1
290
     1
176
     1
290
     0
176
     1
290
     0
176
     1
290
     0
176
     1
290
     0
176
     1
290
     0
176
     1
290
     0
176
     1
 90
       50
176
     1
 40
0.0
176
     1
 40
1.0
176
     1
 90
        0
176
     1
 62
    18
420
        0
176
     1
 90
       50
176
     1
 90
        3
176
     1
 62
     5
420
      255
176
     1
290
     0
176
     1
 90
       50
176
     1
 90
       50
176
     1
 90
       50
176
     1
290
     0
176
     1
 90
       50
176
     1
 62
   256
176
     0
 40
1.0
176
     0
 90
        2
176
     1
  1
strokes_ogs.tif
176
     1
290
     0
176
     1
 40
1.0
176
     1
 40
1.0
176
     1
  0
VISUALSTYLE
  5
36
102
{ACAD_REACTORS
330
2A
102
}
330
2A
100
AcDbVisualStyle
  2
Brighten
 70
    12
177
     3
291
     1
 70
    58
 90
        2
176
     1
 90
        2
176
     1
 90
        0
176
     1
 90
        0
176
     1
 40
0.6
176
     1
 40
30.0
176
     1
 62
     7
420
 16777215
176
     1
 90
        1
176
     1
 90
        4
176
     1
 62
     7
176
     1
 62
   257
176
     1
 90
        1
176
     1
 90
        1
176
     1
 40
1.0
176
     1
 90
        8
176
     1
 62
     7
176
     1
 40
1.0
176
     1
 90
        1
176
     1
 90
        6
176
     1
 90
        2
176
     1
 62
     7
176
     1
 90
        5
176
     1
 90
        0
176
     1
 90
        0
176
     1
290
     0
176
     1
 90
        1
176
     1
 40
50.0
176
     1
 90
        0
176
     1
290
     0
176
     1
290
     1
176
     1
290
     1
176
     1
290
     0
176
     1
290
     0
176
     1
290
     0
176
     1
290
     0
176
     1
290
     0
176
     1
290
     0
176
     1
 90
       50
176
     1
 40
0.0
176
     1
 40
1.0
176
     1
 90
        0
176
     1
 62
    18
420
        0
176
     1
 90
       50
176
     1
 90
        3
176
     1
 62
     5
420
      255
176
     1
290
     0
176
     1
 90
       50
176
     1
 90
       50
176
     1
 90
       50
176
     1
290
     0
176
     1
 90
       50
176
     1
 62
   256
176
     0
 40
1.0
176
     0
 90
        2
176
     1
  1
strokes_ogs.tif
176
     1
290
     0
176
     1
 40
1.0
176
     1
 40
1.0
176
     1
  0
VISUALSTYLE
  5
3A
102
{ACAD_REACTORS
330
2A
102
}
330
2A
100
AcDbVisualStyle
  2
ColorChange
 70
    16
177
     3
291
     1
 70
    58
 90
        2
176
     1
 90
        2
176
     1
 90
        3
176
     1
 90
        0
176
     1
 40
0.6
176
     1
 40
30.0
176
     1
 62
     8
420
  8421504
176
     1
 90
        1
176
     1
 90
        4
176
     1
 62
     7
176
     1
 62
   257
176
     1
 90
        1
176
     1
 90
        1
176
     1
 40
1.0
176
     1
 90
        8
176
     1
 62
     8
420
  8421504
176
     1
 40
1.0
176
     1
 90
        1
176
     1
 90
        6
176
     1
 90
        2
176
     1
 62
     7
176
     1
 90
        5
176
     1
 90
        0
176
     1
 90
        0
176
     1
290
     0
176
     1
 90
        1
176
     1
 40
0.0
176
     1
 90
        0
176
     1
290
     0
176
     1
290
     1
176
     1
290
     1
176
     1
290
     0
176
     1
290
     0
176
     1
290
     0
176
     1
290
     0
176
     1
290
     0
176
     1
290
     0
176
     1
 90
       50
176
     1
 40
0.0
176
     1
 40
1.0
176
     1
 90
        0
176
     1
 62
    18
420
        0
176
     1
 90
       50
176
     1
 90
        3
176
     1
 62
     5
420
      255
176
     1
290
     0
176
     1
 90
       50
176
     1
 90
       50
176
     1
 90
       50
176
     1
290
     0
176
     1
 90
       50
176
     1
 62
   256
176
     0
 40
1.0
176
     0
 90
        2
176
     1
  1
strokes_ogs.tif
176
     1
290
     0
176
     1
 40
1.0
176
     1
 40
1.0
176
     1
  0
VISUALSTYLE
  5
34
102
{ACAD_REACTORS
330
2A
102
}
330
2A
100
AcDbVisualStyle
  2
Conceptual
 70
     9
177
     3
291
     0
 70
    58
 90
        3
176
     1
 90
        2
176
     1
 90
        0
176
     1
 90
        0
176
     1
 40
0.6
176
     1
 40
30.0
176
     1
 62
     7
420
 16777215
176
     1
 90
        2
176
     1
 90
        2
176
     1
 62
     7
176
     1
 62
   257
176
     1
 90
        1
176
     1
 90
        1
176
     1
 40
179.0
176
     1
 90
        8
176
     1
 62
     7
176
     1
 40
1.0
176
     1
 90
        1
176
     1
 90
        6
176
     1
 90
        2
176
     1
 62
     7
176
     1
 90
        3
176
     1
 90
        0
176
     1
 90
        0
176
     1
290
     0
176
     1
 90
        1
176
     1
 40
0.0
176
     1
 90
        0
176
     1
290
     0
176
     1
290
     1
176
     1
290
     1
176
     1
290
     0
176
     1
290
     0
176
     1
290
     0
176
     1
290
     0
176
     1
290
     0
176
     1
290
     0
176
     1
 90
       50
176
     1
 40
0.0
176
     1
 40
1.0
176
     1
 90
        0
176
     1
 62
    18
420
        0
176
     1
 90
       50
176
     1
 90
        3
176
     1
 62
     5
420
      255
176
     1
290
     0
176
     1
 90
       50
176
     1
 90
       50
176
     1
 90
       50
176
     1
290
     0
176
     1
 90
       50
176
     1
 62
   256
176
     0
 40
1.0
176
     0
 90
        2
176
     1
  1
strokes_ogs.tif
176
     1
290
     0
176
     1
 40
1.0
176
     1
 40
1.0
176
     1
  0
VISUALSTYLE
  5
35
102
{ACAD_REACTORS
330
2A
102
}
330
2A
100
AcDbVisualStyle
  2
Dim
 70
    11
177
     3
291
     1
 70
    58
 90
        2
176
     1
 90
        2
176
     1
 90
        0
176
     1
 90
        0
176
     1
 40
0.6
176
     1
 40
30.0
176
     1
 62
     7
420
 16777215
176
     1
 90
        1
176
     1
 90
        4
176
     1
 62
     7
176
     1
 62
   257
176
     1
 90
        1
176
     1
 90
        1
176
     1
 40
1.0
176
     1
 90
        8
176
     1
 62
     7
176
     1
 40
1.0
176
     1
 90
        1
176
     1
 90
        6
176
     1
 90
        2
176
     1
 62
     7
176
     1
 90
        5
176
     1
 90
        0
176
     1
 90
        0
176
     1
290
     0
176
     1
 90
        1
176
     1
 40
-50.0
176
     1
 90
        0
176
     1
290
     0
176
     1
290
     1
176
     1
290
     1
176
     1
290
     0
176
     1
290
     0
176
     1
290
     0
176
     1
290
     0
176
     1
290
     0
176
     1
290
     0
176
     1
 90
       50
176
     1
 40
0.0
176
     1
 40
1.0
176
     1
 90
        0
176
     1
 62
    18
420
        0
176
     1
 90
       50
176
     1
 90
        3
176
     1
 62
     5
420
      255
176
     1
290
     0
176
     1
 90
       50
176
     1
 90
       50
176
     1
 90
       50
176
     1
290
     0
176
     1
 90
       50
176
     1
 62
   256
176
     0
 40
1.0
176
     0
 90
        2
176
     1
  1
strokes_ogs.tif
176
     1
290
     0
176
     1
 40
1.0
176
     1
 40
1.0
176
     1
  0
VISUALSTYLE
  5
3D
102
{ACAD_REACTORS
330
2A
102
}
330
2A
100
AcDbVisualStyle
  2
EdgeColorOff
 70
    22
177
     3
291
     1
 70
    58
 90
        2
176
     0
 90
        2
176
     0
 90
        0
176
     0
 90
        0
176
     0
 40
0.6
176
     0
 40
30.0
176
     0
 62
     7
420
 16777215
176
     0
 90
        1
176
     0
 90
        4
176
     0
 62
     7
176
     0
 62
   257
176
     0
 90
        1
176
     0
 90
        1
176
     0
 40
1.0
176
     0
 90
        8
176
     2
 62
     7
176
     0
 40
1.0
176
     0
 90
        1
176
     0
 90
        6
176
     0
 90
        2
176
     0
 62
     7
176
     0
 90
        5
176
     0
 90
        0
176
     0
 90
        0
176
     0
290
     0
176
     0
 90
        1
176
     0
 40
0.0
176
     0
 90
        0
176
     0
290
     0
176
     0
290
     1
176
     0
290
     1
176
     0
290
     0
176
     0
290
     0
176
     0
290
     0
176
     0
290
     0
176
     0
290
     0
176
     0
290
     0
176
     0
 90
       50
176
     0
 40
0.0
176
     0
 40
1.0
176
     0
 90
        0
176
     0
 62
    18
420
        0
176
     0
 90
       50
176
     0
 90
        3
176
     0
 62
     5
420
      255
176
     0
290
     0
176
     0
 90
       50
176
     0
 90
       50
176
     0
 90
       50
176
     0
290
     0
176
     0
 90
       50
176
     0
 62
   256
176
     0
 40
1.0
176
     0
 90
        2
176
     0
  1
strokes_ogs.tif
176
     0
290
     0
176
     0
 40
1.0
176
     0
 40
1.0
176
     0
  0
VISUALSTYLE
  5
39
102
{ACAD_REACTORS
330
2A
102
}
330
2A
100
AcDbVisualStyle
  2
Facepattern
 70
    15
177
     3
291
     1
 70
    58
 90
        2
176
     1
 90
        2
176
     1
 90
        0
176
     1
 90
        0
176
     1
 40
0.6
176
     1
 40
30.0
176
     1
 62
     7
420
 16777215
176
     1
 90
        1
176
     1
 90
        4
176
     1
 62
     7
176
     1
 62
   257
176
     1
 90
        1
176
     1
 90
        1
176
     1
 40
1.0
176
     1
 90
        8
176
     1
 62
     7
176
     1
 40
1.0
176
     1
 90
        1
176
     1
 90
        6
176
     1
 90
        2
176
     1
 62
     7
176
     1
 90
        5
176
     1
 90
        0
176
     1
 90
        0
176
     1
290
     0
176
     1
 90
        1
176
     1
 40
0.0
176
     1
 90
        0
176
     1
290
     0
176
     1
290
     1
176
     1
290
     1
176
     1
290
     0
176
     1
290
     0
176
     1
290
     0
176
     1
290
     0
176
     1
290
     0
176
     1
290
     0
176
     1
 90
       50
176
     1
 40
0.0
176
     1
 40
1.0
176
     1
 90
        0
176
     1
 62
    18
420
        0
176
     1
 90
       50
176
     1
 90
        3
176
     1
 62
     5
420
      255
176
     1
290
     0
176
     1
 90
       50
176
     1
 90
       50
176
     1
 90
       50
176
     1
290
     0
176
     1
 90
       50
176
     1
 62
   256
176
     0
 40
1.0
176
     0
 90
        2
176
     1
  1
strokes_ogs.tif
176
     1
290
     0
176
     1
 40
1.0
176
     1
 40
1.0
176
     1
  0
VISUALSTYLE
  5
2B
102
{ACAD_REACTORS
330
2A
102
}
330
2A
100
AcDbVisualStyle
  2
Flat
 70
     0
177
     3
291
     1
 70
    58
 90
        2
176
     1
 90
        1
176
     1
 90
        1
176
     1
 90
        2
176
     1
 40
0.6
176
     1
 40
30.0
176
     1
 62
     7
420
 16777215
176
     1
 90
        0
176
     1
 90
        0
176
     1
 62
     7
176
     1
 62
   257
176
     1
 90
        1
176
     1
 90
        1
176
     1
 40
1.0
176
     1
 90
        8
176
     1
 62
     7
176
     1
 40
1.0
176
     1
 90
        1
176
     1
 90
        6
176
     1
 90
        2
176
     1
 62
     7
176
     1
 90
        5
176
     1
 90
        0
176
     1
 90
        0
176
     1
290
     0
176
     1
 90
       13
176
     1
 40
0.0
176
     1
 90
        0
176
     1
290
     0
176
     1
290
     1
176
     1
290
     1
176
     1
290
     0
176
     1
290
     0
176
     1
290
     0
176
     1
290
     0
176
     1
290
     0
176
     1
290
     0
176
     1
 90
       50
176
     1
 40
0.0
176
     1
 40
1.0
176
     1
 90
        0
176
     1
 62
    18
420
        0
176
     1
 90
       50
176
     1
 90
        3
176
     1
 62
     5
420
      255
176
     1
290
     0
176
     1
 90
       50
176
     1
 90
       50
176
     1
 90
       50
176
     1
290
     0
176
     1
 90
       50
176
     1
 62
   256
176
     0
 40
1.0
176
     0
 90
        2
176
     1
  1
strokes_ogs.tif
176
     1
290
     0
176
     1
 40
1.0
176
     1
 40
1.0
176
     1
  0
VISUALSTYLE
  5
2C
102
{ACAD_REACTORS
330
2A
102
}
330
2A
100
AcDbVisualStyle
  2
FlatWithEdges
 70
     1
177
     3
291
     1
 70
    58
 90
        2
176
     1
 90
        1
176
     1
 90
        1
176
     1
 90
        2
176
     1
 40
0.6
176
     1
 40
30.0
176
     1
 62
     7
420
 16777215
176
     1
 90
        1
176
     1
 90
        0
176
     1
 62
     7
176
     1
 62
   257
176
     1
 90
        1
176
     1
 90
        1
176
     1
 40
1.0
176
     1
 90
        0
176
     1
 62
   257
176
     1
 40
1.0
176
     1
 90
        1
176
     1
 90
        6
176
     1
 90
        2
176
     1
 62
     7
176
     1
 90
        5
176
     1
 90
        0
176
     1
 90
        0
176
     1
290
     0
176
     1
 90
       13
176
     1
 40
0.0
176
     1
 90
        0
176
     1
290
     0
176
     1
290
     1
176
     1
290
     1
176
     1
290
     0
176
     1
290
     0
176
     1
290
     0
176
     1
290
     0
176
     1
290
     0
176
     1
290
     0
176
     1
 90
       50
176
     1
 40
0.0
176
     1
 40
1.0
176
     1
 90
        0
176
     1
 62
    18
420
        0
176
     1
 90
       50
176
     1
 90
        3
176
     1
 62
     5
420
      255
176
     1
290
     0
176
     1
 90
       50
176
     1
 90
       50
176
     1
 90
       50
176
     1
290
     0
176
     1
 90
       50
176
     1
 62
   256
176
     0
 40
1.0
176
     0
 90
        2
176
     1
  1
strokes_ogs.tif
176
     1
290
     0
176
     1
 40
1.0
176
     1
 40
1.0
176
     1
  0
VISUALSTYLE
  5
2D
102
{ACAD_REACTORS
330
2A
102
}
330
2A
100
AcDbVisualStyle
  2
Gouraud
 70
     2
177
     3
291
     1
 70
    58
 90
        2
176
     1
 90
        2
176
     1
 90
        1
176
     1
 90
        2
176
     1
 40
0.6
176
     1
 40
30.0
176
     1
 62
     7
420
 16777215
176
     1
 90
        0
176
     1
 90
        0
176
     1
 62
     7
176
     1
 62
   257
176
     1
 90
        1
176
     1
 90
        1
176
     1
 40
1.0
176
     1
 90
        0
176
     1
 62
     7
176
     1
 40
1.0
176
     1
 90
        1
176
     1
 90
        6
176
     1
 90
        2
176
     1
 62
     7
176
     1
 90
        5
176
     1
 90
        0
176
     1
 90
        0
176
     1
290
     0
176
     1
 90
       13
176
     1
 40
0.0
176
     1
 90
        0
176
     1
290
     0
176
     1
290
     1
176
     1
290
     1
176
     1
290
     0
176
     1
290
     0
176
     1
290
     0
176
     1
290
     0
176
     1
290
     0
176
     1
290
     0
176
     1
 90
       50
176
     1
 40
0.0
176
     1
 40
1.0
176
     1
 90
        0
176
     1
 62
    18
420
        0
176
     1
 90
       50
176
     1
 90
        3
176
     1
 62
     5
420
      255
176
     1
290
     0
176
     1
 90
       50
176
     1
 90
       50
176
     1
 90
       50
176
     1
290
     0
176
     1
 90
       50
176
     1
 62
   256
176
     0
 40
1.0
176
     0
 90
        2
176
     1
  1
strokes_ogs.tif
176
     1
290
     0
176
     1
 40
1.0
176
     1
 40
1.0
176
     1
  0
VISUALSTYLE
  5
2E
102
{ACAD_REACTORS
330
2A
102
}
330
2A
100
AcDbVisualStyle
  2
GouraudWithEdges
 70
     3
177
     3
291
     1
 70
    58
 90
        2
176
     1
 90
        2
176
     1
 90
        1
176
     1
 90
        2
176
     1
 40
0.6
176
     1
 40
30.0
176
     1
 62
     7
420
 16777215
176
     1
 90
        1
176
     1
 90
        0
176
     1
 62
     7
176
     1
 62
   257
176
     1
 90
        1
176
     1
 90
        1
176
     1
 40
1.0
176
     1
 90
        0
176
     1
 62
   257
176
     1
 40
1.0
176
     1
 90
        1
176
     1
 90
        6
176
     1
 90
        2
176
     1
 62
     7
176
     1
 90
        5
176
     1
 90
        0
176
     1
 90
        0
176
     1
290
     0
176
     1
 90
       13
176
     1
 40
0.0
176
     1
 90
        0
176
     1
290
     0
176
     1
290
     1
176
     1
290
     1
176
     1
290
     0
176
     1
290
     0
176
     1
290
     0
176
     1
290
     0
176
     1
290
     0
176
     1
290
     0
176
     1
 90
       50
176
     1
 40
0.0
176
     1
 40
1.0
176
     1
 90
        0
176
     1
 62
    18
420
        0
176
     1
 90
       50
176
     1
 90
        3
176
     1
 62
     5
420
      255
176
     1
290
     0
176
     1
 90
       50
176
     1
 90
       50
176
     1
 90
       50
176
     1
290
     0
176
     1
 90
       50
176
     1
 62
   256
176
     0
 40
1.0
176
     0
 90
        2
176
     1
  1
strokes_ogs.tif
176
     1
290
     0
176
     1
 40
1.0
176
     1
 40
1.0
176
     1
  0
VISUALSTYLE
  5
31
102
{ACAD_REACTORS
330
2A
102
}
330
2A
100
AcDbVisualStyle
  2
Hidden
 70
     6
177
     3
291
     0
 70
    58
 90
        1
176
     1
 90
        2
176
     1
 90
        2
176
     1
 90
        0
176
     1
 40
0.6
176
     1
 40
30.0
176
     1
 62
     7
420
 16777215
176
     1
 90
        2
176
     1
 90
        2
176
     1
 62
     7
176
     1
 62
   257
176
     1
 90
        2
176
     1
 90
        1
176
     1
 40
40.0
176
     1
 90
        0
176
     1
 62
   257
176
     1
 40
1.0
176
     1
 90
        1
176
     1
 90
        6
176
     1
 90
        2
176
     1
 62
     7
176
     1
 90
        3
176
     1
 90
        0
176
     1
 90
        0
176
     1
290
     0
176
     1
 90
        1
176
     1
 40
0.0
176
     1
 90
        0
176
     1
290
     0
176
     1
290
     1
176
     1
290
     1
176
     1
290
     0
176
     1
290
     0
176
     1
290
     0
176
     1
290
     0
176
     1
290
     0
176
     1
290
     0
176
     1
 90
       50
176
     1
 40
0.0
176
     1
 40
1.0
176
     1
 90
        0
176
     1
 62
    18
420
        0
176
     1
 90
       50
176
     1
 90
        3
176
     1
 62
     5
420
      255
176
     1
290
     0
176
     1
 90
       50
176
     1
 90
       50
176
     1
 90
       50
176
     1
290
     0
176
     1
 90
       50
176
     1
 62
   256
176
     0
 40
1.0
176
     0
 90
        2
176
     1
  1
strokes_ogs.tif
176
     1
290
     0
176
     1
 40
1.0
176
     1
 40
1.0
176
     1
  0
VISUALSTYLE
  5
3B
102
{ACAD_REACTORS
330
2A
102
}
330
2A
100
AcDbVisualStyle
  2
JitterOff
 70
    20
177
     3
291
     1
 70
    58
 90
        2
176
     0
 90
        2
176
     0
 90
        0
176
     0
 90
        0
176
     0
 40
0.6
176
     0
 40
30.0
176
     0
 62
     7
420
 16777215
176
     0
 90
        1
176
     0
 90
        4
176
     0
 62
     7
176
     0
 62
   257
176
     0
 90
        1
176
     0
 90
        1
176
     0
 40
1.0
176
     0
 90
       10
176
     2
 62
     7
176
     0
 40
1.0
176
     0
 90
        1
176
     0
 90
        6
176
     0
 90
        2
176
     0
 62
     7
176
     0
 90
        5
176
     0
 90
        0
176
     0
 90
        0
176
     0
290
     0
176
     0
 90
        1
176
     0
 40
0.0
176
     0
 90
        0
176
     0
290
     0
176
     0
290
     1
176
     0
290
     1
176
     0
290
     0
176
     0
290
     0
176
     0
290
     0
176
     0
290
     0
176
     0
290
     0
176
     0
290
     0
176
     0
 90
       50
176
     0
 40
0.0
176
     0
 40
1.0
176
     0
 90
        0
176
     0
 62
    18
420
        0
176
     0
 90
       50
176
     0
 90
        3
176
     0
 62
     5
420
      255
176
     0
290
     0
176
     0
 90
       50
176
     0
 90
       50
176
     0
 90
       50
176
     0
290
     0
176
     0
 90
       50
176
     0
 62
   256
176
     0
 40
1.0
176
     0
 90
        2
176
     0
  1
strokes_ogs.tif
176
     0
290
     0
176
     0
 40
1.0
176
     0
 40
1.0
176
     0
  0
VISUALSTYLE
  5
38
102
{ACAD_REACTORS
330
2A
102
}
330
2A
100
AcDbVisualStyle
  2
Linepattern
 70
    14
177
     3
291
     1
 70
    58
 90
        2
176
     1
 90
        2
176
     1
 90
        0
176
     1
 90
        0
176
     1
 40
0.6
176
     1
 40
30.0
176
     1
 62
     7
420
 16777215
176
     1
 90
        1
176
     1
 90
        4
176
     1
 62
     7
176
     1
 62
   257
176
     1
 90
        7
176
     1
 90
        7
176
     1
 40
1.0
176
     1
 90
        8
176
     1
 62
     7
176
     1
 40
1.0
176
     1
 90
        1
176
     1
 90
        6
176
     1
 90
        2
176
     1
 62
     7
176
     1
 90
        5
176
     1
 90
        0
176
     1
 90
        0
176
     1
290
     0
176
     1
 90
        1
176
     1
 40
0.0
176
     1
 90
        0
176
     1
290
     0
176
     1
290
     1
176
     1
290
     1
176
     1
290
     0
176
     1
290
     0
176
     1
290
     0
176
     1
290
     0
176
     1
290
     0
176
     1
290
     0
176
     1
 90
       50
176
     1
 40
0.0
176
     1
 40
1.0
176
     1
 90
        0
176
     1
 62
    18
420
        0
176
     1
 90
       50
176
     1
 90
        3
176
     1
 62
     5
420
      255
176
     1
290
     0
176
     1
 90
       50
176
     1
 90
       50
176
     1
 90
       50
176
     1
290
     0
176
     1
 90
       50
176
     1
 62
   256
176
     0
 40
1.0
176
     0
 90
        2
176
     1
  1
strokes_ogs.tif
176
     1
290
     0
176
     1
 40
1.0
176
     1
 40
1.0
176
     1
  0
VISUALSTYLE
  5
3C
102
{ACAD_REACTORS
330
2A
102
}
330
2A
100
AcDbVisualStyle
  2
OverhangOff
 70
    21
177
     3
291
     1
 70
    58
 90
        2
176
     0
 90
        2
176
     0
 90
        0
176
     0
 90
        0
176
     0
 40
0.6
176
     0
 40
30.0
176
     0
 62
     7
420
 16777215
176
     0
 90
        1
176
     0
 90
        4
176
     0
 62
     7
176
     0
 62
   257
176
     0
 90
        1
176
     0
 90
        1
176
     0
 40
1.0
176
     0
 90
        9
176
     2
 62
     7
176
     0
 40
1.0
176
     0
 90
        1
176
     0
 90
        6
176
     0
 90
        2
176
     0
 62
     7
176
     0
 90
        5
176
     0
 90
        0
176
     0
 90
        0
176
     0
290
     0
176
     0
 90
        1
176
     0
 40
0.0
176
     0
 90
        0
176
     0
290
     0
176
     0
290
     1
176
     0
290
     1
176
     0
290
     0
176
     0
290
     0
176
     0
290
     0
176
     0
290
     0
176
     0
290
     0
176
     0
290
     0
176
     0
 90
       50
176
     0
 40
0.0
176
     0
 40
1.0
176
     0
 90
        0
176
     0
 62
    18
420
        0
176
     0
 90
       50
176
     0
 90
        3
176
     0
 62
     5
420
      255
176
     0
290
     0
176
     0
 90
       50
176
     0
 90
       50
176
     0
 90
       50
176
     0
290
     0
176
     0
 90
       50
176
     0
 62
   256
176
     0
 40
1.0
176
     0
 90
        2
176
     0
  1
strokes_ogs.tif
176
     0
290
     0
176
     0
 40
1.0
176
     0
 40
1.0
176
     0
  0
VISUALSTYLE
  5
33
102
{ACAD_REACTORS
330
2A
102
}
330
2A
100
AcDbVisualStyle
  2
Realistic
 70
     8
177
     3
291
     0
 70
    58
 90
        2
176
     1
 90
        3
176
     1
 90
        0
176
     1
 90
        2
176
     1
 40
0.6
176
     1
 40
30.0
176
     1
 62
     7
420
 16777215
176
     1
 90
        0
176
     1
 90
        0
176
     1
 62
     7
176
     1
 62
   257
176
     1
 90
        1
176
     1
 90
        1
176
     1
 40
1.0
176
     1
 90
        8
176
     1
 62
   257
176
     1
 40
1.0
176
     1
 90
        1
176
     1
 90
        6
176
     1
 90
        2
176
     1
 62
     7
176
     1
 90
        3
176
     1
 90
        0
176
     1
 90
        0
176
     1
290
     0
176
     1
 90
       13
176
     1
 40
0.0
176
     1
 90
        0
176
     1
290
     0
176
     1
290
     1
176
     1
290
     1
176
     1
290
     0
176
     1
290
     0
176
     1
290
     0
176
     1
290
     0
176
     1
290
     0
176
     1
290
     0
176
     1
 90
       50
176
     1
 40
0.0
176
     1
 40
1.0
176
     1
 90
        0
176
     1
 62
    18
420
        0
176
     1
 90
       50
176
     1
 90
        3
176
     1
 62
     5
420
      255
176
     1
290
     0
176
     1
 90
       50
176
     1
 90
       50
176
     1
 90
       50
176
     1
290
     0
176
     1
 90
       50
176
     1
 62
   256
176
     0
 40
1.0
176
     0
 90
        2
176
     1
  1
strokes_ogs.tif
176
     1
290
     0
176
     1
 40
1.0
176
     1
 40
1.0
176
     1
  0
VISUALSTYLE
  5
42
102
{ACAD_REACTORS
330
2A
102
}
330
2A
100
AcDbVisualStyle
  2
Shaded
 70
    27
177
     3
291
     0
 70
    58
 90
        2
176
     1
 90
        2
176
     1
 90
        1
176
     1
 90
        2
176
     1
 40
0.6
176
     1
 40
30.0
176
     1
 62
     7
420
 16777215
176
     1
 90
        0
176
     1
 90
        4
176
     1
 62
     7
176
     1
 62
   257
176
     1
 90
        1
176
     1
 90
        1
176
     1
 40
1.0
176
     1
 90
        8
176
     1
 62
   257
176
     1
 40
1.0
176
     1
 90
        1
176
     1
 90
        6
176
     1
 90
        2
176
     1
 62
     8
420
  7895160
176
     1
 90
        3
176
     1
 90
        0
176
     1
 90
        0
176
     1
290
     0
176
     1
 90
        5
176
     1
 40
0.0
176
     1
 90
        0
176
     1
290
     0
176
     1
290
     1
176
     1
290
     1
176
     1
290
     0
176
     1
290
     0
176
     1
290
     0
176
     1
290
     0
176
     1
290
     0
176
     1
290
     0
176
     1
 90
       50
176
     1
 40
0.0
176
     1
 40
1.0
176
     1
 90
        0
176
     1
 62
    18
420
        0
176
     1
 90
       50
176
     1
 90
        3
176
     1
 62
     5
420
      255
176
     1
290
     0
176
     1
 90
       50
176
     1
 90
       50
176
     1
 90
       50
176
     1
290
     0
176
     1
 90
       50
176
     1
 62
   256
176
     0
 40
1.0
176
     0
 90
        2
176
     1
  1
strokes_ogs.tif
176
     1
290
     0
176
     1
 40
1.0
176
     1
 40
1.0
176
     1
  0
VISUALSTYLE
  5
41
102
{ACAD_REACTORS
330
2A
102
}
330
2A
100
AcDbVisualStyle
  2
Shaded with edges
 70
    26
177
     3
291
     0
 70
    58
 90
        2
176
     1
 90
        2
176
     1
 90
        1
176
     1
 90
        2
176
     1
 40
0.6
176
     1
 40
30.0
176
     1
 62
     7
420
 16777215
176
     1
 90
        1
176
     1
 90
       10
176
     1
 62
     7
176
     1
 62
   257
176
     1
 90
        2
176
     1
 90
        1
176
     1
 40
1.0
176
     1
 90
        8
176
     1
 62
   257
176
     1
 40
1.0
176
     1
 90
        1
176
     1
 90
        6
176
     1
 90
        2
176
     1
 62
     7
176
     1
 90
        3
176
     1
 90
        0
176
     1
 90
        0
176
     1
290
     0
176
     1
 90
        5
176
     1
 40
0.0
176
     1
 90
        0
176
     1
290
     0
176
     1
290
     1
176
     1
290
     1
176
     1
290
     0
176
     1
290
     0
176
     1
290
     0
176
     1
290
     0
176
     1
290
     0
176
     1
290
     0
176
     1
 90
       50
176
     1
 40
0.0
176
     1
 40
1.0
176
     1
 90
        0
176
     1
 62
    18
420
        0
176
     1
 90
       50
176
     1
 90
        3
176
     1
 62
     5
420
      255
176
     1
290
     0
176
     1
 90
       50
176
     1
 90
       50
176
     1
 90
       50
176
     1
290
     0
176
     1
 90
       50
176
     1
 62
   256
176
     0
 40
1.0
176
     0
 90
        2
176
     1
  1
strokes_ogs.tif
176
     1
290
     0
176
     1
 40
1.0
176
     1
 40
1.0
176
     1
  0
VISUALSTYLE
  5
3E
102
{ACAD_REACTORS
330
2A
102
}
330
2A
100
AcDbVisualStyle
  2
Shades of Gray
 70
    23
177
     3
291
     0
 70
    58
 90
        2
176
     1
 90
        2
176
     1
 90
        3
176
     1
 90
        0
176
     1
 40
0.6
176
     1
 40
30.0
176
     1
 62
     7
420
 16777215
176
     1
 90
        2
176
     1
 90
        2
176
     1
 62
     7
176
     1
 62
     7
176
     1
 90
        1
176
     1
 90
        1
176
     1
 40
40.0
176
     1
 90
        8
176
     1
 62
     7
176
     1
 40
1.0
176
     1
 90
        1
176
     1
 90
        6
176
     1
 90
        2
176
     1
 62
     7
176
     1
 90
        3
176
     1
 90
        0
176
     1
 90
        0
176
     1
290
     0
176
     1
 90
        1
176
     1
 40
0.0
176
     1
 90
        0
176
     1
290
     0
176
     1
290
     1
176
     1
290
     1
176
     1
290
     0
176
     1
290
     0
176
     1
290
     0
176
     1
290
     0
176
     1
290
     0
176
     1
290
     0
176
     1
 90
       50
176
     1
 40
0.0
176
     1
 40
1.0
176
     1
 90
        0
176
     1
 62
    18
420
        0
176
     1
 90
       50
176
     1
 90
        3
176
     1
 62
     5
420
      255
176
     1
290
     0
176
     1
 90
       50
176
     1
 90
       50
176
     1
 90
       50
176
     1
290
     0
176
     1
 90
       50
176
     1
 62
   256
176
     0
 40
1.0
176
     0
 90
        2
176
     1
  1
strokes_ogs.tif
176
     1
290
     0
176
     1
 40
1.0
176
     1
 40
1.0
176
     1
  0
VISUALSTYLE
  5
3F
102
{ACAD_REACTORS
330
2A
102
}
330
2A
100
AcDbVisualStyle
  2
Sketchy
 70
    24
177
     3
291
     0
 70
    58
 90
        1
176
     1
 90
        2
176
     1
 90
        2
176
     1
 90
        0
176
     1
 40
0.6
176
     1
 40
30.0
176
     1
 62
     7
420
 16777215
176
     1
 90
        2
176
     1
 90
        2
176
     1
 62
     7
176
     1
 62
     7
176
     1
 90
        1
176
     1
 90
        1
176
     1
 40
40.0
176
     1
 90
       11
176
     1
 62
     7
176
     1
 40
1.0
176
     1
 90
        1
176
     1
 90
        6
176
     1
 90
        2
176
     1
 62
     7
176
     1
 90
        6
176
     1
 90
        0
176
     1
 90
        0
176
     1
290
     0
176
     1
 90
        1
176
     1
 40
0.0
176
     1
 90
        0
176
     1
290
     0
176
     1
290
     1
176
     1
290
     1
176
     1
290
     0
176
     1
290
     0
176
     1
290
     0
176
     1
290
     0
176
     1
290
     0
176
     1
290
     0
176
     1
 90
       50
176
     1
 40
0.0
176
     1
 40
1.0
176
     1
 90
        0
176
     1
 62
    18
420
        0
176
     1
 90
       50
176
     1
 90
        3
176
     1
 62
     5
420
      255
176
     1
290
     0
176
     1
 90
       50
176
     1
 90
       50
176
     1
 90
       50
176
     1
290
     0
176
     1
 90
       50
176
     1
 62
   256
176
     0
 40
1.0
176
     0
 90
        2
176
     1
  1
strokes_ogs.tif
176
     1
290
     0
176
     1
 40
1.0
176
     1
 40
1.0
176
     1
  0
VISUALSTYLE
  5
37
102
{ACAD_REACTORS
330
2A
102
}
330
2A
100
AcDbVisualStyle
  2
Thicken
 70
    13
177
     3
291
     1
 70
    58
 90
        2
176
     1
 90
        2
176
     1
 90
        0
176
     1
 90
        0
176
     1
 40
0.6
176
     1
 40
30.0
176
     1
 62
     7
420
 16777215
176
     1
 90
        1
176
     1
 90
        4
176
     1
 62
     7
176
     1
 62
   257
176
     1
 90
        1
176
     1
 90
        1
176
     1
 40
1.0
176
     1
 90
       12
176
     1
 62
     7
176
     1
 40
1.0
176
     1
 90
        1
176
     1
 90
        6
176
     1
 90
        2
176
     1
 62
     7
176
     1
 90
        5
176
     1
 90
        0
176
     1
 90
        0
176
     1
290
     0
176
     1
 90
        1
176
     1
 40
0.0
176
     1
 90
        0
176
     1
290
     0
176
     1
290
     1
176
     1
290
     1
176
     1
290
     0
176
     1
290
     0
176
     1
290
     0
176
     1
290
     0
176
     1
290
     0
176
     1
290
     0
176
     1
 90
       50
176
     1
 40
0.0
176
     1
 40
1.0
176
     1
 90
        0
176
     1
 62
    18
420
        0
176
     1
 90
       50
176
     1
 90
        3
176
     1
 62
     5
420
      255
176
     1
290
     0
176
     1
 90
       50
176
     1
 90
       50
176
     1
 90
       50
176
     1
290
     0
176
     1
 90
       50
176
     1
 62
   256
176
     0
 40
1.0
176
     0
 90
        2
176
     1
  1
strokes_ogs.tif
176
     1
290
     0
176
     1
 40
1.0
176
     1
 40
1.0
176
     1
  0
VISUALSTYLE
  5
30
102
{ACAD_REACTORS
330
2A
102
}
330
2A
100
AcDbVisualStyle
  2
Wireframe
 70
     5
177
     3
291
     0
 70
    58
 90
        0
176
     1
 90
        2
176
     1
 90
        0
176
     1
 90
        0
176
     1
 40
0.6
176
     1
 40
30.0
176
     1
 62
     7
420
 16777215
176
     1
 90
        1
176
     1
 90
        4
176
     1
 62
     7
176
     1
 62
   257
176
     1
 90
        1
176
     1
 90
        1
176
     1
 40
1.0
176
     1
 90
        0
176
     1
 62
   257
176
     1
 40
1.0
176
     1
 90
        1
176
     1
 90
        6
176
     1
 90
        2
176
     1
 62
     7
176
     1
 90
        3
176
     1
 90
        0
176
     1
 90
        0
176
     1
290
     0
176
     1
 90
        1
176
     1
 40
0.0
176
     1
 90
        0
176
     1
290
     0
176
     1
290
     1
176
     1
290
     1
176
     1
290
     0
176
     1
290
     0
176
     1
290
     0
176
     1
290
     0
176
     1
290
     0
176
     1
290
     0
176
     1
 90
       50
176
     1
 40
0.0
176
     1
 40
1.0
176
     1
 90
        0
176
     1
 62
    18
420
        0
176
     1
 90
       50
176
     1
 90
        3
176
     1
 62
     5
420
      255
176
     1
290
     0
176
     1
 90
       50
176
     1
 90
       50
176
     1
 90
       50
176
     1
290
     0
176
     1
 90
       50
176
     1
 62
   256
176
     0
 40
1.0
176
     0
 90
        2
176
     1
  1
strokes_ogs.tif
176
     1
290
     0
176
     1
 40
1.0
176
     1
 40
1.0
176
     1
  0
VISUALSTYLE
  5
40
102
{ACAD_REACTORS
330
2A
102
}
330
2A
100
AcDbVisualStyle
  2
X-Ray
 70
    25
177
     3
291
     0
 70
    58
 90
        2
176
     1
 90
        2
176
     1
 90
        1
176
     1
 90
        1
176
     1
 40
0.5
176
     1
 40
30.0
176
     1
 62
     7
420
 16777215
176
     1
 90
        1
176
     1
 90
        0
176
     1
 62
     7
176
     1
 62
   257
176
     1
 90
        1
176
     1
 90
        1
176
     1
 40
1.0
176
     1
 90
        8
176
     1
 62
     7
176
     1
 40
1.0
176
     1
 90
        1
176
     1
 90
        6
176
     1
 90
        2
176
     1
 62
     7
176
     1
 90
        3
176
     1
 90
        0
176
     1
 90
        0
176
     1
290
     0
176
     1
 90
       13
176
     1
 40
0.0
176
     1
 90
        0
176
     1
290
     0
176
     1
290
     1
176
     1
290
     1
176
     1
290
     0
176
     1
290
     0
176
     1
290
     0
176
     1
290
     0
176
     1
290
     0
176
     1
290
     0
176
     1
 90
       50
176
     1
 40
0.0
176
     1
 40
1.0
176
     1
 90
        0
176
     1
 62
    18
420
        0
176
     1
 90
       50
176
     1
 90
        3
176
     1
 62
     5
420
      255
176
     1
290
     0
176
     1
 90
       50
176
     1
 90
       50
176
     1
 90
       50
176
     1
290
     0
176
     1
 90
       50
176
     1
 62
   256
176
     0
 40
1.0
176
     0
 90
        2
176
     1
  1
strokes_ogs.tif
176
     1
290
     0
176
     1
 40
1.0
176
     1
 40
1.0
176
     1
  0
DICTIONARYVAR
  5
25C
102
{ACAD_REACTORS
330
25B
102
}
330
25B
100
DictionaryVariables
280
     0
  1
1:1
  0
DICTIONARYVAR
  5
261
102
{ACAD_REACTORS
330
25B
102
}
330
25B
100
DictionaryVariables
280
     0
  1
Standard
  0
DICTIONARYVAR
  5
260
102
{ACAD_REACTORS
330
25B
102
}
330
25B
100
DictionaryVariables
280
     0
  1
Standard
  0
DICTIONARY
  5
25D
330
6A
100
AcDbDictionary
280
     1
281
     1
  3
ACAD_ROUNDTRIP_2008_TABLESTYLE_CELLSTYLEMAP
360
25E
  0
CELLSTYLEMAP
  5
25E
102
{ACAD_REACTORS
330
25D
102
}
330
25D
100
AcDbCellStyleMap
 90
        3
300
CELLSTYLE
  1
TABLEFORMAT_BEGIN
 90
        5
170
     1
 91
        0
 92
    32768
 62
   257
 93
        1
300
CONTENTFORMAT
  1
CONTENTFORMAT_BEGIN
 90
        0
 91
        0
 92
        4
 93
        0
300

 40
0.0
140
1.0
 94
        5
 62
     0
340
11
144
0.25
309
CONTENTFORMAT_END
171
     1
301
MARGIN
  1
CELLMARGIN_BEGIN
 40
0.06
 40
0.06
 40
0.06
 40
0.06
 40
0.06
 40
0.06
309
CELLMARGIN_END
 94
        6
 95
        1
302
GRIDFORMAT
  1
GRIDFORMAT_BEGIN
 90
        0
 91
        1
 62
     0
 92
       -2
340
14
 93
        0
 40
0.045
309
GRIDFORMAT_END
 95
        2
302
GRIDFORMAT
  1
GRIDFORMAT_BEGIN
 90
        0
 91
        1
 62
     0
 92
       -2
340
14
 93
        0
 40
0.045
309
GRIDFORMAT_END
 95
        4
302
GRIDFORMAT
  1
GRIDFORMAT_BEGIN
 90
        0
 91
        1
 62
     0
 92
       -2
340
14
 93
        0
 40
0.045
309
GRIDFORMAT_END
 95
        8
302
GRIDFORMAT
  1
GRIDFORMAT_BEGIN
 90
        0
 91
        1
 62
     0
 92
       -2
340
14
 93
        0
 40
0.045
309
GRIDFORMAT_END
 95
       16
302
GRIDFORMAT
  1
GRIDFORMAT_BEGIN
 90
        0
 91
        1
 62
     0
 92
       -2
340
14
 93
        0
 40
0.045
309
GRIDFORMAT_END
 95
       32
302
GRIDFORMAT
  1
GRIDFORMAT_BEGIN
 90
        0
 91
        1
 62
     0
 92
       -2
340
14
 93
        0
 40
0.045
309
GRIDFORMAT_END
309
TABLEFORMAT_END
  1
CELLSTYLE_BEGIN
 90
        1
 91
        1
300
_TITLE
309
CELLSTYLE_END
300
CELLSTYLE
  1
TABLEFORMAT_BEGIN
 90
        5
170
     1
 91
        0
 92
        0
 62
   257
 93
        1
300
CONTENTFORMAT
  1
CONTENTFORMAT_BEGIN
 90
        0
 91
        0
 92
        4
 93
        0
300

 40
0.0
140
1.0
 94
        5
 62
     0
340
11
144
0.18
309
CONTENTFORMAT_END
171
     1
301
MARGIN
  1
CELLMARGIN_BEGIN
 40
0.06
 40
0.06
 40
0.06
 40
0.06
 40
0.06
 40
0.06
309
CELLMARGIN_END
 94
        6
 95
        1
302
GRIDFORMAT
  1
GRIDFORMAT_BEGIN
 90
        0
 91
        1
 62
     0
 92
       -2
340
14
 93
        0
 40
0.045
309
GRIDFORMAT_END
 95
        2
302
GRIDFORMAT
  1
GRIDFORMAT_BEGIN
 90
        0
 91
        1
 62
     0
 92
       -2
340
14
 93
        0
 40
0.045
309
GRIDFORMAT_END
 95
        4
302
GRIDFORMAT
  1
GRIDFORMAT_BEGIN
 90
        0
 91
        1
 62
     0
 92
       -2
340
14
 93
        0
 40
0.045
309
GRIDFORMAT_END
 95
        8
302
GRIDFORMAT
  1
GRIDFORMAT_BEGIN
 90
        0
 91
        1
 62
     0
 92
       -2
340
14
 93
        0
 40
0.045
309
GRIDFORMAT_END
 95
       16
302
GRIDFORMAT
  1
GRIDFORMAT_BEGIN
 90
        0
 91
        1
 62
     0
 92
       -2
340
14
 93
        0
 40
0.045
309
GRIDFORMAT_END
 95
       32
302
GRIDFORMAT
  1
GRIDFORMAT_BEGIN
 90
        0
 91
        1
 62
     0
 92
       -2
340
14
 93
        0
 40
0.045
309
GRIDFORMAT_END
309
TABLEFORMAT_END
  1
CELLSTYLE_BEGIN
 90
        2
 91
        1
300
_HEADER
309
CELLSTYLE_END
300
CELLSTYLE
  1
TABLEFORMAT_BEGIN
 90
        5
170
     1
 91
        0
 92
        0
 62
   257
 93
        1
300
CONTENTFORMAT
  1
CONTENTFORMAT_BEGIN
 90
        0
 91
        0
 92
        4
 93
        0
300

 40
0.0
140
1.0
 94
        2
 62
     0
340
11
144
0.18
309
CONTENTFORMAT_END
171
     1
301
MARGIN
  1
CELLMARGIN_BEGIN
 40
0.06
 40
0.06
 40
0.06
 40
0.06
 40
0.06
 40
0.06
309
CELLMARGIN_END
 94
        6
 95
        1
302
GRIDFORMAT
  1
GRIDFORMAT_BEGIN
 90
        0
 91
        1
 62
     0
 92
       -2
340
14
 93
        0
 40
0.045
309
GRIDFORMAT_END
 95
        2
302
GRIDFORMAT
  1
GRIDFORMAT_BEGIN
 90
        0
 91
        1
 62
     0
 92
       -2
340
14
 93
        0
 40
0.045
309
GRIDFORMAT_END
 95
        4
302
GRIDFORMAT
  1
GRIDFORMAT_BEGIN
 90
        0
 91
        1
 62
     0
 92
       -2
340
14
 93
        0
 40
0.045
309
GRIDFORMAT_END
 95
        8
302
GRIDFORMAT
  1
GRIDFORMAT_BEGIN
 90
        0
 91
        1
 62
     0
 92
       -2
340
14
 93
        0
 40
0.045
309
GRIDFORMAT_END
 95
       16
302
GRIDFORMAT
  1
GRIDFORMAT_BEGIN
 90
        0
 91
        1
 62
     0
 92
       -2
340
14
 93
        0
 40
0.045
309
GRIDFORMAT_END
 95
       32
302
GRIDFORMAT
  1
GRIDFORMAT_BEGIN
 90
        0
 91
        1
 62
     0
 92
       -2
340
14
 93
        0
 40
0.045
309
GRIDFORMAT_END
309
TABLEFORMAT_END
  1
CELLSTYLE_BEGIN
 90
        3
 91
        2
300
_DATA
309
CELLSTYLE_END
  0
ENDSEC
  0
EOF