0
SECTION
  2
HEADER
  9
$ACADVER
  1
AC1027
  9
$ACADMAINTVER
 70
     8
  9
$DWGCODEPAGE
  3
ANSI_1252
  9
$REQUIREDVERSIONS
160
                 0
  9
$COMMENTS
  1
File was created by Cadenas
  9
$CUSTOMPROPERTYTAG
  1
NN
  9
$CUSTOMPROPERTY
  1
Imperial -IP Pillow Block 1-1/8 thru 2-1/4  2-Bolt Inch Bore (Contact Seal)
  9
$CUSTOMPROPERTYTAG
  1
NT
  9
$CUSTOMPROPERTY
  1
Imperial 2 Bolt Piliow Block Bearings
  9
$CUSTOMPROPERTYTAG
  1
NB
  9
$CUSTOMPROPERTY
  1
069411
  9
$CUSTOMPROPERTYTAG
  1
NBSYN
  9
$CUSTOMPROPERTY
  1
$PN.
  9
$CUSTOMPROPERTYTAG
  1
LINA
  9
$CUSTOMPROPERTY
  1
069411
  9
$CUSTOMPROPERTYTAG
  1
SS
  9
$CUSTOMPROPERTY
  1
2
  9
$CUSTOMPROPERTYTAG
  1
PN
  9
$CUSTOMPROPERTY
  1
069411
  9
$CUSTOMPROPERTYTAG
  1
DESCRIPTION
  9
$CUSTOMPROPERTY
  1
P2B-IP-200R
  9
$CUSTOMPROPERTYTAG
  1
EF
  9
$CUSTOMPROPERTY
  1
Non-Expansion Type
  9
$CUSTOMPROPERTYTAG
  1
ST
  9
$CUSTOMPROPERTY
  1
Contact  Seal
  9
$CUSTOMPROPERTYTAG
  1
A
  9
$CUSTOMPROPERTY
  1
2-55/64
  9
$CUSTOMPROPERTYTAG
  1
B
  9
$CUSTOMPROPERTY
  1
8-3/8
  9
$CUSTOMPROPERTYTAG
  1
C
  9
$CUSTOMPROPERTY
  1
2-1/2
  9
$CUSTOMPROPERTYTAG
  1
DMIN
  9
$CUSTOMPROPERTY
  1
6-1/16
  9
$CUSTOMPROPERTYTAG
  1
DMAX
  9
$CUSTOMPROPERTY
  1
6-7/16
  9
$CUSTOMPROPERTYTAG
  1
F
  9
$CUSTOMPROPERTY
  1
5/8
  9
$CUSTOMPROPERTYTAG
  1
G
  9
$CUSTOMPROPERTY
  1
61/64
  9
$CUSTOMPROPERTYTAG
  1
H
  9
$CUSTOMPROPERTY
  1
1-5/16
  9
$CUSTOMPROPERTYTAG
  1
J
  9
$CUSTOMPROPERTY
  1
4-9/16
  9
$CUSTOMPROPERTYTAG
  1
L
  9
$CUSTOMPROPERTY
  1
3-9/32
  9
$CUSTOMPROPERTYTAG
  1
M
  9
$CUSTOMPROPERTY
  1
2-1/4
  9
$CUSTOMPROPERTYTAG
  1
R
  9
$CUSTOMPROPERTY
  1
55/64
  9
$CUSTOMPROPERTYTAG
  1
S
  9
$CUSTOMPROPERTY
  1
2
  9
$CUSTOMPROPERTYTAG
  1
X
  9
$CUSTOMPROPERTY
  1
1/4
  9
$CUSTOMPROPERTYTAG
  1
Y
  9
$CUSTOMPROPERTY
  1
0.020
  9
$CUSTOMPROPERTYTAG
  1
Z
  9
$CUSTOMPROPERTY
  1
2-19/64
  9
$CUSTOMPROPERTYTAG
  1
COMPANY
  9
$CUSTOMPROPERTY
  1
baldor
  9
$INSBASE
 10
0.0
 20
0.0
 30
0.0
  9
$EXTMIN
 10
1.000000000000000E+20
 20
1.000000000000000E+20
 30
1.000000000000000E+20
  9
$EXTMAX
 10
-1.000000000000000E+20
 20
-1.000000000000000E+20
 30
-1.000000000000000E+20
  9
$LIMMIN
 10
0.0
 20
0.0
  9
$LIMMAX
 10
12.0
 20
9.0
  9
$ORTHOMODE
 70
     0
  9
$REGENMODE
 70
     1
  9
$FILLMODE
 70
     1
  9
$QTEXTMODE
 70
     0
  9
$MIRRTEXT
 70
     1
  9
$LTSCALE
 40
1.0
  9
$ATTMODE
 70
     1
  9
$TEXTSIZE
 40
0.2
  9
$TRACEWID
 40
0.05
  9
$TEXTSTYLE
  7
Standard
  9
$CLAYER
  8
0
  9
$CELTYPE
  6
ByLayer
  9
$CECOLOR
 62
   256
  9
$CELTSCALE
 40
1.0
  9
$DISPSILH
 70
     0
  9
$DIMSCALE
 40
1.0
  9
$DIMASZ
 40
0.18
  9
$DIMEXO
 40
0.0625
  9
$DIMDLI
 40
0.38
  9
$DIMRND
 40
0.0
  9
$DIMDLE
 40
0.0
  9
$DIMEXE
 40
0.18
  9
$DIMTP
 40
0.0
  9
$DIMTM
 40
0.0
  9
$DIMTXT
 40
0.18
  9
$DIMCEN
 40
0.09
  9
$DIMTSZ
 40
0.0
  9
$DIMTOL
 70
     0
  9
$DIMLIM
 70
     0
  9
$DIMTIH
 70
     1
  9
$DIMTOH
 70
     1
  9
$DIMSE1
 70
     0
  9
$DIMSE2
 70
     0
  9
$DIMTAD
 70
     0
  9
$DIMZIN
 70
     0
  9
$DIMBLK
  1

  9
$DIMASO
 70
     1
  9
$DIMSHO
 70
     1
  9
$DIMPOST
  1

  9
$DIMAPOST
  1

  9
$DIMALT
 70
     0
  9
$DIMALTD
 70
     2
  9
$DIMALTF
 40
25.4
  9
$DIMLFAC
 40
1.0
  9
$DIMTOFL
 70
     0
  9
$DIMTVP
 40
0.0
  9
$DIMTIX
 70
     0
  9
$DIMSOXD
 70
     0
  9
$DIMSAH
 70
     0
  9
$DIMBLK1
  1

  9
$DIMBLK2
  1

  9
$DIMSTYLE
  2
Standard
  9
$DIMCLRD
 70
     0
  9
$DIMCLRE
 70
     0
  9
$DIMCLRT
 70
     0
  9
$DIMTFAC
 40
1.0
  9
$DIMGAP
 40
0.09
  9
$DIMJUST
 70
     0
  9
$DIMSD1
 70
     0
  9
$DIMSD2
 70
     0
  9
$DIMTOLJ
 70
     1
  9
$DIMTZIN
 70
     0
  9
$DIMALTZ
 70
     0
  9
$DIMALTTZ
 70
     0
  9
$DIMUPT
 70
     0
  9
$DIMDEC
 70
     4
  9
$DIMTDEC
 70
     4
  9
$DIMALTU
 70
     2
  9
$DIMALTTD
 70
     2
  9
$DIMTXSTY
  7
Standard
  9
$DIMAUNIT
 70
     0
  9
$DIMADEC
 70
     0
  9
$DIMALTRND
 40
0.0
  9
$DIMAZIN
 70
     0
  9
$DIMDSEP
 70
    46
  9
$DIMATFIT
 70
     3
  9
$DIMFRAC
 70
     0
  9
$DIMLDRBLK
  1

  9
$DIMLUNIT
 70
     2
  9
$DIMLWD
 70
    -2
  9
$DIMLWE
 70
    -2
  9
$DIMTMOVE
 70
     0
  9
$DIMFXL
 40
1.0
  9
$DIMFXLON
 70
     0
  9
$DIMJOGANG
 40
0.7853981633974483
  9
$DIMTFILL
 70
     0
  9
$DIMTFILLCLR
 70
     0
  9
$DIMARCSYM
 70
     0
  9
$DIMLTYPE
  6

  9
$DIMLTEX1
  6

  9
$DIMLTEX2
  6

  9
$DIMTXTDIRECTION
 70
     0
  9
$LUNITS
 70
     2
  9
$LUPREC
 70
     4
  9
$SKETCHINC
 40
0.1
  9
$FILLETRAD
 40
0.5
  9
$AUNITS
 70
     0
  9
$AUPREC
 70
     0
  9
$MENU
  1
.
  9
$ELEVATION
 40
0.0
  9
$PELEVATION
 40
0.0
  9
$THICKNESS
 40
0.0
  9
$LIMCHECK
 70
     0
  9
$CHAMFERA
 40
0.0
  9
$CHAMFERB
 40
0.0
  9
$CHAMFERC
 40
0.0
  9
$CHAMFERD
 40
0.0
  9
$SKPOLY
 70
     0
  9
$TDCREATE
 40
2458168.988793415
  9
$TDUCREATE
 40
2458168.947126748
  9
$TDUPDATE
 40
2458168.988793588
  9
$TDUUPDATE
 40
2458168.947126921
  9
$TDINDWG
 40
0.0000000116
  9
$TDUSRTIMER
 40
0.0000000116
  9
$USRTIMER
 70
     1
  9
$ANGBASE
 50
0.0
  9
$ANGDIR
 70
     0
  9
$PDMODE
 70
     0
  9
$PDSIZE
 40
0.0
  9
$PLINEWID
 40
0.0
  9
$SPLFRAME
 70
     0
  9
$SPLINETYPE
 70
     6
  9
$SPLINESEGS
 70
     8
  9
$HANDSEED
  5
211
  9
$SURFTAB1
 70
     6
  9
$SURFTAB2
 70
     6
  9
$SURFTYPE
 70
     6
  9
$SURFU
 70
     6
  9
$SURFV
 70
     6
  9
$UCSBASE
  2

  9
$UCSNAME
  2

  9
$UCSORG
 10
0.0
 20
0.0
 30
0.0
  9
$UCSXDIR
 10
1.0
 20
0.0
 30
0.0
  9
$UCSYDIR
 10
0.0
 20
1.0
 30
0.0
  9
$UCSORTHOREF
  2

  9
$UCSORTHOVIEW
 70
     0
  9
$UCSORGTOP
 10
0.0
 20
0.0
 30
0.0
  9
$UCSORGBOTTOM
 10
0.0
 20
0.0
 30
0.0
  9
$UCSORGLEFT
 10
0.0
 20
0.0
 30
0.0
  9
$UCSORGRIGHT
 10
0.0
 20
0.0
 30
0.0
  9
$UCSORGFRONT
 10
0.0
 20
0.0
 30
0.0
  9
$UCSORGBACK
 10
0.0
 20
0.0
 30
0.0
  9
$PUCSBASE
  2

  9
$PUCSNAME
  2

  9
$PUCSORG
 10
0.0
 20
0.0
 30
0.0
  9
$PUCSXDIR
 10
1.0
 20
0.0
 30
0.0
  9
$PUCSYDIR
 10
0.0
 20
1.0
 30
0.0
  9
$PUCSORTHOREF
  2

  9
$PUCSORTHOVIEW
 70
     0
  9
$PUCSORGTOP
 10
0.0
 20
0.0
 30
0.0
  9
$PUCSORGBOTTOM
 10
0.0
 20
0.0
 30
0.0
  9
$PUCSORGLEFT
 10
0.0
 20
0.0
 30
0.0
  9
$PUCSORGRIGHT
 10
0.0
 20
0.0
 30
0.0
  9
$PUCSORGFRONT
 10
0.0
 20
0.0
 30
0.0
  9
$PUCSORGBACK
 10
0.0
 20
0.0
 30
0.0
  9
$USERI1
 70
     0
  9
$USERI2
 70
     0
  9
$USERI3
 70
     0
  9
$USERI4
 70
     0
  9
$USERI5
 70
     0
  9
$USERR1
 40
0.0
  9
$USERR2
 40
0.0
  9
$USERR3
 40
0.0
  9
$USERR4
 40
0.0
  9
$USERR5
 40
0.0
  9
$WORLDVIEW
 70
     1
  9
$SHADEDGE
 70
     3
  9
$SHADEDIF
 70
    70
  9
$TILEMODE
 70
     1
  9
$MAXACTVP
 70
    64
  9
$PINSBASE
 10
0.0
 20
0.0
 30
0.0
  9
$PLIMCHECK
 70
     0
  9
$PEXTMIN
 10
1.000000000000000E+20
 20
1.000000000000000E+20
 30
1.000000000000000E+20
  9
$PEXTMAX
 10
-1.000000000000000E+20
 20
-1.000000000000000E+20
 30
-1.000000000000000E+20
  9
$PLIMMIN
 10
0.0
 20
0.0
  9
$PLIMMAX
 10
12.0
 20
9.0
  9
$UNITMODE
 70
     0
  9
$VISRETAIN
 70
     1
  9
$PLINEGEN
 70
     0
  9
$PSLTSCALE
 70
     1
  9
$TREEDEPTH
 70
  3020
  9
$CMLSTYLE
  2
Standard
  9
$CMLJUST
 70
     0
  9
$CMLSCALE
 40
1.0
  9
$PROXYGRAPHICS
 70
     1
  9
$MEASUREMENT
 70
     0
  9
$CELWEIGHT
370
    -1
  9
$ENDCAPS
280
     0
  9
$JOINSTYLE
280
     0
  9
$LWDISPLAY
290
     0
  9
$INSUNITS
 70
     1
  9
$HYPERLINKBASE
  1

  9
$STYLESHEET
  1

  9
$XEDIT
290
     1
  9
$CEPSNTYPE
380
     0
  9
$PSTYLEMODE
290
     1
  9
$FINGERPRINTGUID
  2
{E71D9168-5117-4361-A4F9-CA92117449DC}
  9
$VERSIONGUID
  2
{FAEB1C32-E019-11D5-929B-00C0DF256EC4}
  9
$EXTNAMES
290
     1
  9
$PSVPSCALE
 40
0.0
  9
$OLESTARTUP
290
     0
  9
$SORTENTS
280
   127
  9
$INDEXCTL
280
     0
  9
$HIDETEXT
280
     1
  9
$XCLIPFRAME
280
     2
  9
$HALOGAP
280
     0
  9
$OBSCOLOR
 70
   257
  9
$OBSLTYPE
280
     0
  9
$INTERSECTIONDISPLAY
280
     0
  9
$INTERSECTIONCOLOR
 70
   257
  9
$DIMASSOC
280
     2
  9
$PROJECTNAME
  1

  9
$CAMERADISPLAY
290
     0
  9
$LENSLENGTH
 40
50.0
  9
$CAMERAHEIGHT
 40
0.0
  9
$STEPSPERSEC
 40
2.0
  9
$STEPSIZE
 40
6.0
  9
$3DDWFPREC
 40
2.0
  9
$PSOLWIDTH
 40
0.25
  9
$PSOLHEIGHT
 40
4.0
  9
$LOFTANG1
 40
1.570796326794897
  9
$LOFTANG2
 40
1.570796326794897
  9
$LOFTMAG1
 40
0.0
  9
$LOFTMAG2
 40
0.0
  9
$LOFTPARAM
 70
     7
  9
$LOFTNORMALS
280
     1
  9
$LATITUDE
 40
37.795
  9
$LONGITUDE
 40
-122.394
  9
$NORTHDIRECTION
 40
0.0
  9
$TIMEZONE
 70
 -8000
  9
$LIGHTGLYPHDISPLAY
280
     1
  9
$TILEMODELIGHTSYNCH
280
     1
  9
$CMATERIAL
347
44
  9
$SOLIDHIST
280
     0
  9
$SHOWHIST
280
     1
  9
$DWFFRAME
280
     2
  9
$DGNFRAME
280
     2
  9
$REALWORLDSCALE
290
     1
  9
$INTERFERECOLOR
 62
   256
  9
$CSHADOW
280
     0
  9
$SHADOWPLANELOCATION
 40
0.0
  0
ENDSEC
  0
SECTION
  2
CLASSES
  0
CLASS
  1
ACDBDICTIONARYWDFLT
  2
AcDbDictionaryWithDefault
  3
ObjectDBX Classes
 90
        0
 91
        4
280
     0
281
     0
  0
CLASS
  1
VISUALSTYLE
  2
AcDbVisualStyle
  3
ObjectDBX Classes
 90
     4095
 91
        4
280
     0
281
     0
  0
CLASS
  1
MATERIAL
  2
AcDbMaterial
  3
ObjectDBX Classes
 90
     1153
 91
        4
280
     0
281
     0
  0
CLASS
  1
SCALE
  2
AcDbScale
  3
ObjectDBX Classes
 90
     1153
 91
        4
280
     0
281
     0
  0
CLASS
  1
TABLESTYLE
  2
AcDbTableStyle
  3
ObjectDBX Classes
 90
     4095
 91
        4
280
     0
281
     0
  0
CLASS
  1
MLEADERSTYLE
  2
AcDbMLeaderStyle
  3
ACDB_MLEADERSTYLE_CLASS
 90
     4095
 91
        4
280
     0
281
     0
  0
CLASS
  1
SUN
  2
AcDbSun
  3
SCENEOE
 90
     1153
 91
        4
280
     0
281
     0
  0
CLASS
  1
DICTIONARYVAR
  2
AcDbDictionaryVar
  3
ObjectDBX Classes
 90
        0
 91
        4
280
     0
281
     0
  0
CLASS
  1
CELLSTYLEMAP
  2
AcDbCellStyleMap
  3
ObjectDBX Classes
 90
     1152
 91
        4
280
     0
281
     0
  0
ENDSEC
  0
SECTION
  2
TABLES
  0
TABLE
  2
VPORT
  5
8
330
0
100
AcDbSymbolTable
 70
     1
  0
VPORT
  5
29
330
8
100
AcDbSymbolTableRecord
100
AcDbViewportTableRecord
  2
*Active
 70
     0
 10
0.0
 20
0.0
 11
1.0
 21
1.0
 12
0.0
 22
0.1076923820078584
 13
0.0
 23
0.0
 14
0.5
 24
0.5
 15
0.5
 25
0.5
 16
0.0
 26
0.0
 36
1.0
 17
0.0
 27
0.0
 37
0.0
 40
4.809692459296032
 41
1.776101085941432
 42
50.0
 43
0.0
 44
0.0
 50
0.0
 51
0.0
 71
     0
 72
   100
 73
     1
 74
     3
 75
     0
 76
     0
 77
     0
 78
     0
281
     0
 65
     1
110
0.0
120
0.0
130
0.0
111
1.0
121
0.0
131
0.0
112
0.0
122
1.0
132
0.0
 79
     0
146
0.0
348
2F
 60
     3
 61
     5
292
     1
282
     1
141
0.0
142
0.0
 63
   250
361
6D
  0
ENDTAB
  0
TABLE
  2
LTYPE
  5
5
330
0
100
AcDbSymbolTable
 70
     3
  0
LTYPE
  5
14
330
5
100
AcDbSymbolTableRecord
100
AcDbLinetypeTableRecord
  2
ByBlock
 70
     0
  3

 72
    65
 73
     0
 40
0.0
  0
LTYPE
  5
15
330
5
100
AcDbSymbolTableRecord
100
AcDbLinetypeTableRecord
  2
ByLayer
 70
     0
  3

 72
    65
 73
     0
 40
0.0
  0
LTYPE
  5
16
330
5
100
AcDbSymbolTableRecord
100
AcDbLinetypeTableRecord
  2
Continuous
 70
     0
  3
Solid line
 72
    65
 73
     0
 40
0.0
  0
LTYPE
  5
A0
330
5
100
AcDbSymbolTableRecord
100
AcDbLinetypeTableRecord
  2
Center
 70
     0
  3

 72
    65
 73
     4
 40
1.5
 49
0.45
 74
     0
 49
-0.5
 74
     0
 49
0.05
 74
     0
 49
-0.5
 74
     0
  0
LTYPE
  5
E4
330
5
100
AcDbSymbolTableRecord
100
AcDbLinetypeTableRecord
  2
Dashed
 70
     0
  3

 72
    65
 73
     2
 40
2.0
 49
1.0
 74
     0
 49
-1.0
 74
     0
  0
ENDTAB
  0
TABLE
  2
LAYER
  5
2
330
0
100
AcDbSymbolTable
 70
     7
  0
LAYER
  5
10
330
2
100
AcDbSymbolTableRecord
100
AcDbLayerTableRecord
  2
0
 70
     0
 62
     7
  6
Continuous
370
    -3
390
F
347
46
348
0
  0
LAYER
  5
72
330
2
100
AcDbSymbolTableRecord
100
AcDbLayerTableRecord
  2
AM_6
 70
     0
 62
    -2
  6
Continuous
370
    35
390
F
347
46
348
0
  0
LAYER
  5
9E
330
2
100
AcDbSymbolTableRecord
100
AcDbLayerTableRecord
  2
AM_5
 70
     0
 62
     3
  6
Continuous
370
    25
390
F
347
46
348
0
  0
LAYER
  5
A1
330
2
100
AcDbSymbolTableRecord
100
AcDbLayerTableRecord
  2
AM_7
 70
     0
 62
     7
  6
Center
370
    25
390
F
347
46
348
0
  0
LAYER
  5
A3
330
2
100
AcDbSymbolTableRecord
100
AcDbLayerTableRecord
  2
AM_4
 70
     0
 62
     3
  6
Continuous
370
    25
390
F
347
46
348
0
  0
LAYER
  5
E5
330
2
100
AcDbSymbolTableRecord
100
AcDbLayerTableRecord
  2
AM_9
 70
     0
 62
     6
  6
Dashed
370
    25
390
F
347
46
348
0
  0
LAYER
  5
1FA
330
2
100
AcDbSymbolTableRecord
100
AcDbLayerTableRecord
  2
ConnectionPoints
 70
     0
 62
     7
  6
Continuous
370
    50
390
F
347
46
348
0
  0
ENDTAB
  0
TABLE
  2
STYLE
  5
3
330
0
100
AcDbSymbolTable
 70
     1
  0
STYLE
  5
11
330
3
100
AcDbSymbolTableRecord
100
AcDbTextStyleTableRecord
  2
Standard
 70
     0
 40
0.0
 41
1.0
 50
0.0
 71
     0
 42
0.2
  3
txt
  4

  0
ENDTAB
  0
TABLE
  2
VIEW
  5
6
330
0
100
AcDbSymbolTable
 70
     0
  0
ENDTAB
  0
TABLE
  2
UCS
  5
7
330
0
100
AcDbSymbolTable
 70
     0
  0
ENDTAB
  0
TABLE
  2
APPID
  5
9
330
0
100
AcDbSymbolTable
 70
     1
  0
APPID
  5
12
330
9
100
AcDbSymbolTableRecord
100
AcDbRegAppTableRecord
  2
ACAD
 70
     0
  0
ENDTAB
  0
TABLE
  2
DIMSTYLE
  5
A
330
0
100
AcDbSymbolTable
 70
     1
100
AcDbDimStyleTable
  0
DIMSTYLE
105
27
330
A
100
AcDbSymbolTableRecord
100
AcDbDimStyleTableRecord
  2
Standard
 70
     0
178
     0
340
11
  0
ENDTAB
  0
TABLE
  2
BLOCK_RECORD
  5
1
330
0
100
AcDbSymbolTable
 70
     8
  0
BLOCK_RECORD
  5
1F
330
1
100
AcDbSymbolTableRecord
100
AcDbBlockTableRecord
  2
*Model_Space
340
22
 70
     0
280
     1
281
     0
  0
BLOCK_RECORD
  5
1B
330
1
100
AcDbSymbolTableRecord
100
AcDbBlockTableRecord
  2
*Paper_Space
340
1E
 70
     0
280
     1
281
     0
  0
BLOCK_RECORD
  5
23
330
1
100
AcDbSymbolTableRecord
100
AcDbBlockTableRecord
  2
*Paper_Space0
340
26
 70
     0
280
     1
281
     0
  0
BLOCK_RECORD
  5
6E
330
1
100
AcDbSymbolTableRecord
100
AcDbBlockTableRecord
  2
1_069411_0
340
0
102
{BLKREFS
331
6F
102
}
 70
     0
280
     1
281
     0
  0
BLOCK_RECORD
  5
8E
330
1
100
AcDbSymbolTableRecord
100
AcDbBlockTableRecord
  2
2_ASME_B18_3_10_1_0_in_069411_0
340
0
102
{BLKREFS
331
8F
102
}
 70
     0
280
     1
281
     0
  0
BLOCK_RECORD
  5
AF
330
1
100
AcDbSymbolTableRecord
100
AcDbBlockTableRecord
  2
3_ASME_B18_3_10_2_0_in_069411_0
340
0
102
{BLKREFS
331
B0
102
}
 70
     0
280
     1
281
     0
  0
BLOCK_RECORD
  5
CB
330
1
100
AcDbSymbolTableRecord
100
AcDbBlockTableRecord
  2
4_070891LW_0_in_069411_0
340
0
102
{BLKREFS
331
CC
102
}
 70
     0
280
     1
281
     0
  0
BLOCK_RECORD
  5
118
330
1
100
AcDbSymbolTableRecord
100
AcDbBlockTableRecord
  2
5_070891I_0_in_069411_0
340
0
102
{BLKREFS
331
119
102
}
 70
     0
280
     1
281
     0
  0
BLOCK_RECORD
  5
174
330
1
100
AcDbSymbolTableRecord
100
AcDbBlockTableRecord
  2
6_405015E_Inch_0_in_069411_0
340
0
102
{BLKREFS
331
175
102
}
 70
     0
280
     1
281
     0
  0
BLOCK_RECORD
  5
1A9
330
1
100
AcDbSymbolTableRecord
100
AcDbBlockTableRecord
  2
7_069411H_0_in_069411_0
340
0
102
{BLKREFS
331
1AA
102
}
 70
     0
280
     1
281
     0
  0
ENDTAB
  0
ENDSEC
  0
SECTION
  2
BLOCKS
  0
BLOCK
  5
20
330
1F
100
AcDbEntity
  8
0
100
AcDbBlockBegin
  2
*Model_Space
 70
     0
 10
0.0
 20
0.0
 30
0.0
  3
*Model_Space
  1

  0
ENDBLK
  5
21
330
1F
100
AcDbEntity
  8
0
100
AcDbBlockEnd
  0
BLOCK
  5
1C
330
1B
100
AcDbEntity
 67
     1
  8
0
100
AcDbBlockBegin
  2
*Paper_Space
 70
     0
 10
0.0
 20
0.0
 30
0.0
  3
*Paper_Space
  1

  0
ENDBLK
  5
1D
330
1B
100
AcDbEntity
 67
     1
  8
0
100
AcDbBlockEnd
  0
BLOCK
  5
24
330
23
100
AcDbEntity
  8
0
100
AcDbBlockBegin
  2
*Paper_Space0
 70
     0
 10
0.0
 20
0.0
 30
0.0
  3
*Paper_Space0
  1

  0
ENDBLK
  5
25
330
23
100
AcDbEntity
  8
0
100
AcDbBlockEnd
  0
BLOCK
  5
70
330
6E
100
AcDbEntity
  8
0
100
AcDbBlockBegin
  2
1_069411_0
 70
     2
 10
0.0
 20
0.0
 30
0.0
  3
1_069411_0
  1

  0
ATTDEF
  5
73
330
6E
100
AcDbEntity
  8
AM_6
100
AcDbText
 10
9.1875
 20
2.465384764015716
 30
0.0
 40
0.5
  1
Imperial -IP Pillow Block 1-1/8 thru 2-1/4  2-Bolt Inch Bore (Contact Seal)
100
AcDbAttributeDefinition
  3

  2
NN
 70
     8
280
     0
  0
ATTDEF
  5
74
330
6E
100
AcDbEntity
  8
AM_6
100
AcDbText
 10
9.1875
 20
1.965384764015716
 30
0.0
 40
0.5
  1
Imperial 2 Bolt Piliow Block Bearings
100
AcDbAttributeDefinition
  3

  2
NT
 70
     8
280
     0
  0
ATTDEF
  5
75
330
6E
100
AcDbEntity
  8
AM_6
100
AcDbText
 10
9.1875
 20
1.465384764015716
 30
0.0
 40
0.5
  1
069411
100
AcDbAttributeDefinition
  3

  2
NB
 70
     8
280
     0
  0
ATTDEF
  5
76
330
6E
100
AcDbEntity
  8
AM_6
100
AcDbText
 10
9.1875
 20
0.9653847640157163
 30
0.0
 40
0.5
  1
$PN.
100
AcDbAttributeDefinition
  3

  2
NBSYN
 70
     8
280
     0
  0
ATTDEF
  5
77
330
6E
100
AcDbEntity
  8
AM_6
100
AcDbText
 10
9.1875
 20
0.4653847640157163
 30
0.0
 40
0.5
  1
069411
100
AcDbAttributeDefinition
  3

  2
LINA
 70
     8
280
     0
  0
ATTDEF
  5
78
330
6E
100
AcDbEntity
  8
AM_6
100
AcDbText
 10
9.1875
 20
-0.0346152359842837
 30
0.0
 40
0.5
  1
2
100
AcDbAttributeDefinition
  3

  2
SS
 70
     8
280
     0
  0
ATTDEF
  5
79
330
6E
100
AcDbEntity
  8
AM_6
100
AcDbText
 10
9.1875
 20
-0.5346152359842837
 30
0.0
 40
0.5
  1
069411
100
AcDbAttributeDefinition
  3

  2
PN
 70
     8
280
     0
  0
ATTDEF
  5
7A
330
6E
100
AcDbEntity
  8
AM_6
100
AcDbText
 10
9.1875
 20
-1.034615235984284
 30
0.0
 40
0.5
  1
P2B-IP-200R
100
AcDbAttributeDefinition
  3

  2
DESCRIPTION
 70
     8
280
     0
  0
ATTDEF
  5
7B
330
6E
100
AcDbEntity
  8
AM_6
100
AcDbText
 10
9.1875
 20
-1.534615235984284
 30
0.0
 40
0.5
  1
Non-Expansion Type
100
AcDbAttributeDefinition
  3

  2
EF
 70
     8
280
     0
  0
ATTDEF
  5
7C
330
6E
100
AcDbEntity
  8
AM_6
100
AcDbText
 10
9.1875
 20
-2.034615235984284
 30
0.0
 40
0.5
  1
Contact  Seal
100
AcDbAttributeDefinition
  3

  2
ST
 70
     8
280
     0
  0
ATTDEF
  5
7D
330
6E
100
AcDbEntity
  8
AM_6
100
AcDbText
 10
9.1875
 20
-2.534615235984284
 30
0.0
 40
0.5
  1
2-55/64
100
AcDbAttributeDefinition
  3

  2
A
 70
     8
280
     0
  0
ATTDEF
  5
7E
330
6E
100
AcDbEntity
  8
AM_6
100
AcDbText
 10
9.1875
 20
-3.034615235984284
 30
0.0
 40
0.5
  1
8-3/8
100
AcDbAttributeDefinition
  3

  2
B
 70
     8
280
     0
  0
ATTDEF
  5
7F
330
6E
100
AcDbEntity
  8
AM_6
100
AcDbText
 10
9.1875
 20
-3.534615235984284
 30
0.0
 40
0.5
  1
2-1/2
100
AcDbAttributeDefinition
  3

  2
C
 70
     8
280
     0
  0
ATTDEF
  5
80
330
6E
100
AcDbEntity
  8
AM_6
100
AcDbText
 10
9.1875
 20
-4.034615235984283
 30
0.0
 40
0.5
  1
6-1/16
100
AcDbAttributeDefinition
  3

  2
DMIN
 70
     8
280
     0
  0
ATTDEF
  5
81
330
6E
100
AcDbEntity
  8
AM_6
100
AcDbText
 10
9.1875
 20
-4.534615235984283
 30
0.0
 40
0.5
  1
6-7/16
100
AcDbAttributeDefinition
  3

  2
DMAX
 70
     8
280
     0
  0
ATTDEF
  5
82
330
6E
100
AcDbEntity
  8
AM_6
100
AcDbText
 10
9.1875
 20
-5.034615235984283
 30
0.0
 40
0.5
  1
5/8
100
AcDbAttributeDefinition
  3

  2
F
 70
     8
280
     0
  0
ATTDEF
  5
83
330
6E
100
AcDbEntity
  8
AM_6
100
AcDbText
 10
9.1875
 20
-5.534615235984283
 30
0.0
 40
0.5
  1
61/64
100
AcDbAttributeDefinition
  3

  2
G
 70
     8
280
     0
  0
ATTDEF
  5
84
330
6E
100
AcDbEntity
  8
AM_6
100
AcDbText
 10
9.1875
 20
-6.034615235984283
 30
0.0
 40
0.5
  1
1-5/16
100
AcDbAttributeDefinition
  3

  2
H
 70
     8
280
     0
  0
ATTDEF
  5
85
330
6E
100
AcDbEntity
  8
AM_6
100
AcDbText
 10
9.1875
 20
-6.534615235984283
 30
0.0
 40
0.5
  1
4-9/16
100
AcDbAttributeDefinition
  3

  2
J
 70
     8
280
     0
  0
ATTDEF
  5
86
330
6E
100
AcDbEntity
  8
AM_6
100
AcDbText
 10
9.1875
 20
-7.034615235984283
 30
0.0
 40
0.5
  1
3-9/32
100
AcDbAttributeDefinition
  3

  2
L
 70
     8
280
     0
  0
ATTDEF
  5
87
330
6E
100
AcDbEntity
  8
AM_6
100
AcDbText
 10
9.1875
 20
-7.534615235984283
 30
0.0
 40
0.5
  1
2-1/4
100
AcDbAttributeDefinition
  3

  2
M
 70
     8
280
     0
  0
ATTDEF
  5
88
330
6E
100
AcDbEntity
  8
AM_6
100
AcDbText
 10
9.1875
 20
-8.034615235984283
 30
0.0
 40
0.5
  1
55/64
100
AcDbAttributeDefinition
  3

  2
R
 70
     8
280
     0
  0
ATTDEF
  5
89
330
6E
100
AcDbEntity
  8
AM_6
100
AcDbText
 10
9.1875
 20
-8.534615235984283
 30
0.0
 40
0.5
  1
2
100
AcDbAttributeDefinition
  3

  2
S
 70
     8
280
     0
  0
ATTDEF
  5
8A
330
6E
100
AcDbEntity
  8
AM_6
100
AcDbText
 10
9.1875
 20
-9.034615235984283
 30
0.0
 40
0.5
  1
1/4
100
AcDbAttributeDefinition
  3

  2
X
 70
     8
280
     0
  0
ATTDEF
  5
8B
330
6E
100
AcDbEntity
  8
AM_6
100
AcDbText
 10
9.1875
 20
-9.534615235984283
 30
0.0
 40
0.5
  1
0.020
100
AcDbAttributeDefinition
  3

  2
Y
 70
     8
280
     0
  0
ATTDEF
  5
8C
330
6E
100
AcDbEntity
  8
AM_6
100
AcDbText
 10
9.1875
 20
-10.03461523598428
 30
0.0
 40
0.5
  1
2-19/64
100
AcDbAttributeDefinition
  3

  2
Z
 70
     8
280
     0
  0
ATTDEF
  5
8D
330
6E
100
AcDbEntity
  8
AM_6
100
AcDbText
 10
9.1875
 20
-10.53461523598428
 30
0.0
 40
0.5
  1
baldor
100
AcDbAttributeDefinition
  3

  2
COMPANY
 70
     8
280
     0
  0
INSERT
  5
8F
330
6E
100
AcDbEntity
  8
0
100
AcDbBlockReference
  2
2_ASME_B18_3_10_1_0_in_069411_0
 10
0.0
 20
0.0
 30
0.0
  0
INSERT
  5
B0
330
6E
100
AcDbEntity
  8
0
100
AcDbBlockReference
  2
3_ASME_B18_3_10_2_0_in_069411_0
 10
0.0
 20
0.0
 30
0.0
  0
INSERT
  5
CC
330
6E
100
AcDbEntity
  8
0
100
AcDbBlockReference
  2
4_070891LW_0_in_069411_0
 10
0.0
 20
0.0
 30
0.0
  0
INSERT
  5
119
330
6E
100
AcDbEntity
  8
0
100
AcDbBlockReference
  2
5_070891I_0_in_069411_0
 10
0.0
 20
0.0
 30
0.0
  0
INSERT
  5
175
330
6E
100
AcDbEntity
  8
0
100
AcDbBlockReference
  2
6_405015E_Inch_0_in_069411_0
 10
0.0
 20
0.0
 30
0.0
  0
INSERT
  5
1AA
330
6E
100
AcDbEntity
  8
0
100
AcDbBlockReference
  2
7_069411H_0_in_069411_0
 10
0.0
 20
0.0
 30
0.0
  0
ENDBLK
  5
71
330
6E
100
AcDbEntity
  8
0
100
AcDbBlockEnd
  0
BLOCK
  5
90
330
8E
100
AcDbEntity
  8
0
100
AcDbBlockBegin
  2
2_ASME_B18_3_10_1_0_in_069411_0
 70
     2
 10
0.0
 20
0.0
 30
0.0
  3
2_ASME_B18_3_10_1_0_in_069411_0
  1

  0
ATTDEF
  5
92
330
8E
100
AcDbEntity
  8
AM_6
100
AcDbText
 10
5.189525
 20
-1.195368055555555
 30
0.0
 40
0.5
  1
ANSI/ASME B18.3-1998
100
AcDbAttributeDefinition
  3

  2
NN
 70
     8
280
     0
  0
ATTDEF
  5
93
330
8E
100
AcDbEntity
  8
AM_6
100
AcDbText
 10
5.189525
 20
-1.695368055555555
 30
0.0
 40
0.5
  1
Socket Button Head Cap Screws
100
AcDbAttributeDefinition
  3

  2
NT
 70
     8
280
     0
  0
ATTDEF
  5
94
330
8E
100
AcDbEntity
  8
AM_6
100
AcDbText
 10
5.189525
 20
-2.195368055555555
 30
0.0
 40
0.5
  1
ASME B18.3-10
100
AcDbAttributeDefinition
  3

  2
NB
 70
     8
280
     0
  0
ATTDEF
  5
95
330
8E
100
AcDbEntity
  8
AM_6
100
AcDbText
 10
5.189525
 20
-2.695368055555555
 30
0.0
 40
0.5
  1
ASME B18.3-$NS.
100
AcDbAttributeDefinition
  3

  2
NBSYN
 70
     8
280
     0
  0
ATTDEF
  5
96
330
8E
100
AcDbEntity
  8
AM_6
100
AcDbText
 10
5.189525
 20
-3.195368055555555
 30
0.0
 40
0.5
  1
ASME B18.3-10
100
AcDbAttributeDefinition
  3

  2
LINA
 70
     8
280
     0
  0
ATTDEF
  5
97
330
8E
100
AcDbEntity
  8
AM_6
100
AcDbText
 10
5.189525
 20
-3.695368055555555
 30
0.0
 40
0.5
  1
10
100
AcDbAttributeDefinition
  3

  2
NS
 70
     8
280
     0
  0
ATTDEF
  5
98
330
8E
100
AcDbEntity
  8
AM_6
100
AcDbText
 10
5.189525
 20
-4.195368055555555
 30
0.0
 40
0.5
  1
0.361
100
AcDbAttributeDefinition
  3

  2
A
 70
     8
280
     0
  0
ATTDEF
  5
99
330
8E
100
AcDbEntity
  8
AM_6
100
AcDbText
 10
5.189525
 20
-4.695368055555555
 30
0.0
 40
0.5
  1
0.101
100
AcDbAttributeDefinition
  3

  2
H
 70
     8
280
     0
  0
ATTDEF
  5
9A
330
8E
100
AcDbEntity
  8
AM_6
100
AcDbText
 10
5.189525
 20
-5.195368055555555
 30
0.0
 40
0.5
  1
0.800
100
AcDbAttributeDefinition
  3

  2
L
 70
     8
280
     0
  0
ATTDEF
  5
9B
330
8E
100
AcDbEntity
  8
AM_6
100
AcDbText
 10
5.189525
 20
-5.695368055555555
 30
0.0
 40
0.5
  1
0.020
100
AcDbAttributeDefinition
  3

  2
S
 70
     8
280
     0
  0
ATTDEF
  5
9C
330
8E
100
AcDbEntity
  8
AM_6
100
AcDbText
 10
5.189525
 20
-6.195368055555555
 30
0.0
 40
0.5
  1
0.125000
100
AcDbAttributeDefinition
  3

  2
J
 70
     8
280
     0
  0
ATTDEF
  5
9D
330
8E
100
AcDbEntity
  8
AM_6
100
AcDbText
 10
5.189525
 20
-6.695368055555555
 30
0.0
 40
0.5
  1
baldor
100
AcDbAttributeDefinition
  3

  2
COMPANY
 70
     8
280
     0
  0
ARC
  5
9F
330
8E
100
AcDbEntity
  8
AM_5
100
AcDbCircle
 10
-0.0000000000000001
 20
-1.375868055555556
 30
0.0
 40
0.0702000000000003
100
AcDbArc
 50
75.0000000000001
 51
15.00000000000019
  0
LINE
  5
A2
330
8E
100
AcDbEntity
  8
AM_7
100
AcDbLine
 10
-0.1895249999999999
 20
-1.375868055555555
 30
0.0
 11
0.1895249999999999
 21
-1.375868055555555
 31
0.0
  0
CIRCLE
  5
A4
330
8E
100
AcDbEntity
  8
AM_4
100
AcDbCircle
 10
0.0
 20
-1.375868055555555
 30
0.0
 40
0.0995
  0
LINE
  5
A5
330
8E
100
AcDbEntity
  8
AM_4
100
AcDbLine
 10
-0.0625
 20
-1.411952447379907
 30
0.0
 11
-0.0625
 21
-1.339783663731204
 31
0.0
  0
LINE
  5
A6
330
8E
100
AcDbEntity
  8
AM_4
100
AcDbLine
 10
-0.0625
 20
-1.339783663731204
 30
0.0
 11
0.0
 21
-1.303699271906852
 31
0.0
  0
LINE
  5
A7
330
8E
100
AcDbEntity
  8
AM_4
100
AcDbLine
 10
0.0
 20
-1.303699271906852
 30
0.0
 11
0.0625
 21
-1.339783663731204
 31
0.0
  0
LINE
  5
A8
330
8E
100
AcDbEntity
  8
AM_4
100
AcDbLine
 10
0.0625
 20
-1.339783663731204
 30
0.0
 11
0.0625
 21
-1.411952447379907
 31
0.0
  0
LINE
  5
A9
330
8E
100
AcDbEntity
  8
AM_4
100
AcDbLine
 10
0.0625
 20
-1.411952447379907
 30
0.0
 11
0.0
 21
-1.448036839204259
 31
0.0
  0
LINE
  5
AA
330
8E
100
AcDbEntity
  8
AM_4
100
AcDbLine
 10
0.0
 20
-1.448036839204259
 30
0.0
 11
-0.0625
 21
-1.411952447379907
 31
0.0
  0
ARC
  5
AB
330
8E
100
AcDbEntity
  8
AM_5
100
AcDbCircle
 10
0.0
 20
-1.375868055555555
 30
0.0
 40
0.0763999999999999
100
AcDbArc
 50
75.00000000000006
 51
14.9999999999999
  0
ARC
  5
AC
330
8E
100
AcDbEntity
  8
AM_5
100
AcDbCircle
 10
-0.0000000000000001
 20
-1.375868055555555
 30
0.0
 40
0.0764
100
AcDbArc
 50
14.9999999999999
 51
195.0000000000003
  0
ARC
  5
AD
330
8E
100
AcDbEntity
  8
AM_5
100
AcDbCircle
 10
-0.0000000000000002
 20
-1.375868055555556
 30
0.0
 40
0.0702000000000002
100
AcDbArc
 50
345.0000000000001
 51
285.0000000000002
  0
CIRCLE
  5
AE
330
8E
100
AcDbEntity
  8
AM_4
100
AcDbCircle
 10
0.0
 20
-1.375868055555555
 30
0.0
 40
0.1804999999999999
  0
ENDBLK
  5
91
330
8E
100
AcDbEntity
  8
0
100
AcDbBlockEnd
  0
BLOCK
  5
B1
330
AF
100
AcDbEntity
  8
0
100
AcDbBlockBegin
  2
3_ASME_B18_3_10_2_0_in_069411_0
 70
     2
 10
0.0
 20
0.0
 30
0.0
  3
3_ASME_B18_3_10_2_0_in_069411_0
  1

  0
ATTDEF
  5
B3
330
AF
100
AcDbEntity
  8
AM_6
100
AcDbText
 10
5.189525
 20
1.556368055555555
 30
0.0
 40
0.5
  1
ANSI/ASME B18.3-1998
100
AcDbAttributeDefinition
  3

  2
NN
 70
     8
280
     0
  0
ATTDEF
  5
B4
330
AF
100
AcDbEntity
  8
AM_6
100
AcDbText
 10
5.189525
 20
1.056368055555555
 30
0.0
 40
0.5
  1
Socket Button Head Cap Screws
100
AcDbAttributeDefinition
  3

  2
NT
 70
     8
280
     0
  0
ATTDEF
  5
B5
330
AF
100
AcDbEntity
  8
AM_6
100
AcDbText
 10
5.189525
 20
0.5563680555555552
 30
0.0
 40
0.5
  1
ASME B18.3-10
100
AcDbAttributeDefinition
  3

  2
NB
 70
     8
280
     0
  0
ATTDEF
  5
B6
330
AF
100
AcDbEntity
  8
AM_6
100
AcDbText
 10
5.189525
 20
0.0563680555555552
 30
0.0
 40
0.5
  1
ASME B18.3-$NS.
100
AcDbAttributeDefinition
  3

  2
NBSYN
 70
     8
280
     0
  0
ATTDEF
  5
B7
330
AF
100
AcDbEntity
  8
AM_6
100
AcDbText
 10
5.189525
 20
-0.4436319444444448
 30
0.0
 40
0.5
  1
ASME B18.3-10
100
AcDbAttributeDefinition
  3

  2
LINA
 70
     8
280
     0
  0
ATTDEF
  5
B8
330
AF
100
AcDbEntity
  8
AM_6
100
AcDbText
 10
5.189525
 20
-0.9436319444444448
 30
0.0
 40
0.5
  1
10
100
AcDbAttributeDefinition
  3

  2
NS
 70
     8
280
     0
  0
ATTDEF
  5
B9
330
AF
100
AcDbEntity
  8
AM_6
100
AcDbText
 10
5.189525
 20
-1.443631944444445
 30
0.0
 40
0.5
  1
0.361
100
AcDbAttributeDefinition
  3

  2
A
 70
     8
280
     0
  0
ATTDEF
  5
BA
330
AF
100
AcDbEntity
  8
AM_6
100
AcDbText
 10
5.189525
 20
-1.943631944444445
 30
0.0
 40
0.5
  1
0.101
100
AcDbAttributeDefinition
  3

  2
H
 70
     8
280
     0
  0
ATTDEF
  5
BB
330
AF
100
AcDbEntity
  8
AM_6
100
AcDbText
 10
5.189525
 20
-2.443631944444445
 30
0.0
 40
0.5
  1
0.800
100
AcDbAttributeDefinition
  3

  2
L
 70
     8
280
     0
  0
ATTDEF
  5
BC
330
AF
100
AcDbEntity
  8
AM_6
100
AcDbText
 10
5.189525
 20
-2.943631944444445
 30
0.0
 40
0.5
  1
0.020
100
AcDbAttributeDefinition
  3

  2
S
 70
     8
280
     0
  0
ATTDEF
  5
BD
330
AF
100
AcDbEntity
  8
AM_6
100
AcDbText
 10
5.189525
 20
-3.443631944444445
 30
0.0
 40
0.5
  1
0.125000
100
AcDbAttributeDefinition
  3

  2
J
 70
     8
280
     0
  0
ATTDEF
  5
BE
330
AF
100
AcDbEntity
  8
AM_6
100
AcDbText
 10
5.189525
 20
-3.943631944444445
 30
0.0
 40
0.5
  1
baldor
100
AcDbAttributeDefinition
  3

  2
COMPANY
 70
     8
280
     0
  0
ARC
  5
BF
330
AF
100
AcDbEntity
  8
AM_5
100
AcDbCircle
 10
0.0000000000000001
 20
1.375868055555555
 30
0.0
 40
0.0702000000000001
100
AcDbArc
 50
75.00000000000006
 51
15.00000000000019
  0
LINE
  5
C0
330
AF
100
AcDbEntity
  8
AM_7
100
AcDbLine
 10
-0.1895249999999999
 20
1.375868055555555
 30
0.0
 11
0.1895249999999999
 21
1.375868055555555
 31
0.0
  0
LINE
  5
C1
330
AF
100
AcDbEntity
  8
AM_4
100
AcDbLine
 10
-0.0625
 20
1.411952447379907
 30
0.0
 11
0.0
 21
1.448036839204259
 31
0.0
  0
CIRCLE
  5
C2
330
AF
100
AcDbEntity
  8
AM_4
100
AcDbCircle
 10
0.0
 20
1.375868055555555
 30
0.0
 40
0.0995
  0
LINE
  5
C3
330
AF
100
AcDbEntity
  8
AM_4
100
AcDbLine
 10
-0.0625
 20
1.339783663731204
 30
0.0
 11
-0.0625
 21
1.411952447379907
 31
0.0
  0
LINE
  5
C4
330
AF
100
AcDbEntity
  8
AM_4
100
AcDbLine
 10
0.0
 20
1.448036839204259
 30
0.0
 11
0.0625
 21
1.411952447379907
 31
0.0
  0
LINE
  5
C5
330
AF
100
AcDbEntity
  8
AM_4
100
AcDbLine
 10
0.0625
 20
1.411952447379907
 30
0.0
 11
0.0625
 21
1.339783663731204
 31
0.0
  0
LINE
  5
C6
330
AF
100
AcDbEntity
  8
AM_4
100
AcDbLine
 10
0.0625
 20
1.339783663731204
 30
0.0
 11
0.0
 21
1.303699271906852
 31
0.0
  0
LINE
  5
C7
330
AF
100
AcDbEntity
  8
AM_4
100
AcDbLine
 10
0.0
 20
1.303699271906852
 30
0.0
 11
-0.0625
 21
1.339783663731204
 31
0.0
  0
ARC
  5
C8
330
AF
100
AcDbEntity
  8
AM_5
100
AcDbCircle
 10
-0.0000000000000002
 20
1.375868055555556
 30
0.0
 40
0.0702000000000002
100
AcDbArc
 50
345.0000000000001
 51
285.0000000000002
  0
CIRCLE
  5
C9
330
AF
100
AcDbEntity
  8
AM_4
100
AcDbCircle
 10
0.0
 20
1.375868055555555
 30
0.0
 40
0.1804999999999999
  0
CIRCLE
  5
CA
330
AF
100
AcDbEntity
  8
AM_5
100
AcDbCircle
 10
0.0
 20
1.375868055555556
 30
0.0
 40
0.0764000000000002
  0
ENDBLK
  5
B2
330
AF
100
AcDbEntity
  8
0
100
AcDbBlockEnd
  0
BLOCK
  5
CD
330
CB
100
AcDbEntity
  8
0
100
AcDbBlockBegin
  2
4_070891LW_0_in_069411_0
 70
     2
 10
0.0
 20
0.0
 30
0.0
  3
4_070891LW_0_in_069411_0
  1

  0
ATTDEF
  5
CF
330
CB
100
AcDbEntity
  8
AM_6
100
AcDbText
 10
6.640625
 20
1.640625
 30
0.0
 40
0.5
  1
Imperial Insert Lockwasher -Inch
100
AcDbAttributeDefinition
  3

  2
NN
 70
     8
280
     0
  0
ATTDEF
  5
D0
330
CB
100
AcDbEntity
  8
AM_6
100
AcDbText
 10
6.640625
 20
1.140625
 30
0.0
 40
0.5
  1
Imperial Bearings
100
AcDbAttributeDefinition
  3

  2
NT
 70
     8
280
     0
  0
ATTDEF
  5
D1
330
CB
100
AcDbEntity
  8
AM_6
100
AcDbText
 10
6.640625
 20
0.640625
 30
0.0
 40
0.5
  1
070891LW
100
AcDbAttributeDefinition
  3

  2
NB
 70
     8
280
     0
  0
ATTDEF
  5
D2
330
CB
100
AcDbEntity
  8
AM_6
100
AcDbText
 10
6.640625
 20
0.140625
 30
0.0
 40
0.5
  1
$PN.LW
100
AcDbAttributeDefinition
  3

  2
NBSYN
 70
     8
280
     0
  0
ATTDEF
  5
D3
330
CB
100
AcDbEntity
  8
AM_6
100
AcDbText
 10
6.640625
 20
-0.359375
 30
0.0
 40
0.5
  1
070891
100
AcDbAttributeDefinition
  3

  2
LINA
 70
     8
280
     0
  0
ATTDEF
  5
D4
330
CB
100
AcDbEntity
  8
AM_6
100
AcDbText
 10
6.640625
 20
-0.859375
 30
0.0
 40
0.5
  1
2
100
AcDbAttributeDefinition
  3

  2
SS
 70
     8
280
     0
  0
ATTDEF
  5
D5
330
CB
100
AcDbEntity
  8
AM_6
100
AcDbText
 10
6.640625
 20
-1.359375
 30
0.0
 40
0.5
  1
2.000000
100
AcDbAttributeDefinition
  3

  2
SS1
 70
     8
280
     0
  0
ATTDEF
  5
D6
330
CB
100
AcDbEntity
  8
AM_6
100
AcDbText
 10
6.640625
 20
-1.859375
 30
0.0
 40
0.5
  1
070891
100
AcDbAttributeDefinition
  3

  2
PN
 70
     8
280
     0
  0
ATTDEF
  5
D7
330
CB
100
AcDbEntity
  8
AM_6
100
AcDbText
 10
6.640625
 20
-2.359375
 30
0.0
 40
0.5
  1
INS-IP-200R
100
AcDbAttributeDefinition
  3

  2
DESCRIPTION
 70
     8
280
     0
  0
ATTDEF
  5
D8
330
CB
100
AcDbEntity
  8
AM_6
100
AcDbText
 10
6.640625
 20
-2.859375
 30
0.0
 40
0.5
  1
3.5433
100
AcDbAttributeDefinition
  3

  2
A
 70
     8
280
     0
  0
ATTDEF
  5
D9
330
CB
100
AcDbEntity
  8
AM_6
100
AcDbText
 10
6.640625
 20
-3.359375
 30
0.0
 40
0.5
  1
61/64
100
AcDbAttributeDefinition
  3

  2
B
 70
     8
280
     0
  0
ATTDEF
  5
DA
330
CB
100
AcDbEntity
  8
AM_6
100
AcDbText
 10
6.640625
 20
-3.859375
 30
0.0
 40
0.5
  1
2-55/64
100
AcDbAttributeDefinition
  3

  2
C
 70
     8
280
     0
  0
ATTDEF
  5
DB
330
CB
100
AcDbEntity
  8
AM_6
100
AcDbText
 10
6.640625
 20
-4.359375
 30
0.0
 40
0.5
  1
0.977
100
AcDbAttributeDefinition
  3

  2
D
 70
     8
280
     0
  0
ATTDEF
  5
DC
330
CB
100
AcDbEntity
  8
AM_6
100
AcDbText
 10
6.640625
 20
-4.859375
 30
0.0
 40
0.5
  1
3-9/32
100
AcDbAttributeDefinition
  3

  2
E
 70
     8
280
     0
  0
ATTDEF
  5
DD
330
CB
100
AcDbEntity
  8
AM_6
100
AcDbText
 10
6.640625
 20
-5.359375
 30
0.0
 40
0.5
  1
0.1900
100
AcDbAttributeDefinition
  3

  2
NDM
 70
     8
280
     0
  0
ATTDEF
  5
DE
330
CB
100
AcDbEntity
  8
AM_6
100
AcDbText
 10
6.640625
 20
-5.859375
 30
0.0
 40
0.5
  1
0.1450
100
AcDbAttributeDefinition
  3

  2
KDM
 70
     8
280
     0
  0
ATTDEF
  5
DF
330
CB
100
AcDbEntity
  8
AM_6
100
AcDbText
 10
6.640625
 20
-6.359375
 30
0.0
 40
0.5
  1
2.67
100
AcDbAttributeDefinition
  3

  2
AL
 70
     8
280
     0
  0
ATTDEF
  5
E0
330
CB
100
AcDbEntity
  8
AM_6
100
AcDbText
 10
6.640625
 20
-6.859375
 30
0.0
 40
0.5
  1
0.38
100
AcDbAttributeDefinition
  3

  2
BL
 70
     8
280
     0
  0
ATTDEF
  5
E1
330
CB
100
AcDbEntity
  8
AM_6
100
AcDbText
 10
6.640625
 20
-7.359375
 30
0.0
 40
0.5
  1
0.07
100
AcDbAttributeDefinition
  3

  2
CL
 70
     8
280
     0
  0
ATTDEF
  5
E2
330
CB
100
AcDbEntity
  8
AM_6
100
AcDbText
 10
6.640625
 20
-7.859375
 30
0.0
 40
0.5
  1
0.44
100
AcDbAttributeDefinition
  3

  2
DL
 70
     8
280
     0
  0
ATTDEF
  5
E3
330
CB
100
AcDbEntity
  8
AM_6
100
AcDbText
 10
6.640625
 20
-8.359375
 30
0.0
 40
0.5
  1
baldor
100
AcDbAttributeDefinition
  3

  2
COMPANY
 70
     8
280
     0
  0
ARC
  5
E6
330
CB
100
AcDbEntity
  8
AM_9
100
AcDbCircle
 10
0.0000000000000238
 20
-0.0000000000000556
 30
0.0
 40
1.052631578947429
100
AcDbArc
 50
107.3220104342033
 51
117.6779895657968
  0
ARC
  5
E7
330
CB
100
AcDbEntity
  8
AM_9
100
AcDbCircle
 10
0.0000000000000007
 20
-1.372584389499687
 30
0.0
 40
0.09505673286394
100
AcDbArc
 50
181.9796350972876
 51
358.0203649027124
  0
LINE
  5
E8
330
CB
100
AcDbEntity
  8
AM_9
100
AcDbLine
 10
-0.0949999999999993
 20
-1.375868055555555
 30
0.0
 11
-0.0949999999999996
 21
-1.222390858552222
 31
0.0
  0
LINE
  5
E9
330
CB
100
AcDbEntity
  8
AM_9
100
AcDbLine
 10
0.0950000000000005
 20
-1.222390858552222
 30
0.0
 11
0.0950000000000005
 21
-1.375868055555555
 31
0.0
  0
LINE
  5
EA
330
CB
100
AcDbEntity
  8
AM_9
100
AcDbLine
 10
-0.095
 20
1.222390858552222
 30
0.0
 11
-0.0950000000000002
 21
1.375868055555555
 31
0.0
  0
LINE
  5
EB
330
CB
100
AcDbEntity
  8
AM_9
100
AcDbLine
 10
0.0950000000000001
 20
1.375868055555556
 30
0.0
 11
0.095
 21
1.222390858552222
 31
0.0
  0
LINE
  5
EC
330
CB
100
AcDbEntity
  8
AM_7
100
AcDbLine
 10
-1.375924771489512
 20
-0.0997500177764836
 30
0.0
 11
-1.375924771489512
 21
0.0997500177764823
 31
0.0
  0
LINE
  5
ED
330
CB
100
AcDbEntity
  8
AM_7
100
AcDbLine
 10
-1.072675754099267
 20
0.9729257363227845
 30
0.0
 11
-0.8731757185463018
 21
0.9729257363227845
 31
0.0
  0
LINE
  5
EE
330
CB
100
AcDbEntity
  8
AM_7
100
AcDbLine
 10
-0.9729257363227846
 20
0.8731757185463017
 30
0.0
 11
-0.9729257363227846
 21
1.072675754099267
 31
0.0
  0
LINE
  5
EF
330
CB
100
AcDbEntity
  8
AM_7
100
AcDbLine
 10
0.8731757185463022
 20
-0.9729257363227842
 30
0.0
 11
1.072675754099268
 21
-0.9729257363227842
 31
0.0
  0
LINE
  5
F0
330
CB
100
AcDbEntity
  8
AM_7
100
AcDbLine
 10
0.9729257363227849
 20
-1.072675754099267
 30
0.0
 11
0.9729257363227849
 21
-0.8731757185463015
 31
0.0
  0
LINE
  5
F1
330
CB
100
AcDbEntity
  8
AM_7
100
AcDbLine
 10
-1.072675754099267
 20
-0.9729257363227849
 30
0.0
 11
-0.8731757185463012
 21
-0.9729257363227849
 31
0.0
  0
LINE
  5
F2
330
CB
100
AcDbEntity
  8
AM_7
100
AcDbLine
 10
-0.972925736322784
 20
-1.072675754099268
 30
0.0
 11
-0.972925736322784
 21
-0.873175718546302
 31
0.0
  0
LINE
  5
F3
330
CB
100
AcDbEntity
  8
AM_7
100
AcDbLine
 10
0.8731757185463018
 20
0.972925736322785
 30
0.0
 11
1.072675754099267
 21
0.972925736322785
 31
0.0
  0
LINE
  5
F4
330
CB
100
AcDbEntity
  8
AM_7
100
AcDbLine
 10
0.9729257363227845
 20
0.8731757185463024
 30
0.0
 11
0.9729257363227845
 21
1.072675754099268
 31
0.0
  0
LINE
  5
F5
330
CB
100
AcDbEntity
  8
AM_4
100
AcDbLine
 10
-0.0949999999999996
 20
-1.222390858552222
 30
0.0
 11
-0.0949999999999995
 21
-1.076898929273977
 31
0.0
  0
ARC
  5
F6
330
CB
100
AcDbEntity
  8
AM_4
100
AcDbCircle
 10
0.9729257363227843
 20
0.972925736322785
 30
0.0
 40
0.0950000169299835
100
AcDbArc
 50
314.965793860413
 51
135.034206139587
  0
ARC
  5
F7
330
CB
100
AcDbEntity
  8
AM_4
100
AcDbCircle
 10
0.0000000000000022
 20
0.0000000000000054
 30
0.0
 40
1.081081081081086
100
AcDbArc
 50
230.0413691322179
 51
264.9586308677822
  0
ARC
  5
F8
330
CB
100
AcDbEntity
  8
AM_4
100
AcDbCircle
 10
-0.9729257363227846
 20
0.9729257363227845
 30
0.0
 40
0.0950000169299836
100
AcDbArc
 50
44.96579386042168
 51
225.034206139587
  0
LINE
  5
F9
330
CB
100
AcDbEntity
  8
AM_4
100
AcDbLine
 10
-0.3134122398193021
 20
1.004891043311999
 30
0.0
 11
-0.3243428229762838
 21
1.031279805414231
 31
0.0
  0
LINE
  5
FA
330
CB
100
AcDbEntity
  8
AM_4
100
AcDbLine
 10
0.0950000000000006
 20
-1.076898929273977
 30
0.0
 11
0.0950000000000005
 21
-1.222390858552222
 31
0.0
  0
LINE
  5
FB
330
CB
100
AcDbEntity
  8
AM_4
100
AcDbLine
 10
-0.6943073913294389
 20
-0.8286576797548841
 30
0.0
 11
-0.9057104878885602
 21
-1.040060776314005
 31
0.0
  0
ARC
  5
FC
330
CB
100
AcDbEntity
  8
AM_4
100
AcDbCircle
 10
0.9729257363227848
 20
-0.9729257363227841
 30
0.0
 40
0.0950000169299836
100
AcDbArc
 50
224.965793860411
 51
45.03420613958694
  0
CIRCLE
  5
FD
330
CB
100
AcDbEntity
  8
AM_4
100
AcDbCircle
 10
0.0
 20
0.0
 30
0.0
 40
1.640625
  0
LINE
  5
FE
330
CB
100
AcDbEntity
  8
AM_4
100
AcDbLine
 10
-0.9057104878885709
 20
1.040060776314015
 30
0.0
 11
-0.6943073913294395
 21
0.8286576797548834
 31
0.0
  0
LINE
  5
FF
330
CB
100
AcDbEntity
  8
AM_4
100
AcDbLine
 10
0.9057104878885586
 20
-1.040060776314002
 30
0.0
 11
0.6943073913294397
 21
-0.8286576797548831
 31
0.0
  0
ARC
  5
100
330
CB
100
AcDbEntity
  8
AM_4
100
AcDbCircle
 10
-0.0000000000000013
 20
-0.0000000000000006
 30
0.0
 40
1.081081081081082
100
AcDbArc
 50
5.041369132217929
 51
39.95863086778221
  0
LINE
  5
101
330
CB
100
AcDbEntity
  8
AM_4
100
AcDbLine
 10
1.040060776314004
 20
0.9057104878885611
 30
0.0
 11
0.8286576797548832
 21
0.6943073913294396
 31
0.0
  0
ARC
  5
102
330
CB
100
AcDbEntity
  8
AM_4
100
AcDbCircle
 10
-0.0000000000000044
 20
0.0000000000000079
 30
0.0
 40
1.081081081081072
100
AcDbArc
 50
117.5413691322178
 51
129.9586308677823
  0
ARC
  5
103
330
CB
100
AcDbEntity
  8
AM_4
100
AcDbCircle
 10
-0.0000000000000011
 20
0.0000000000000002
 30
0.0
 40
1.081081081081082
100
AcDbArc
 50
320.0413691322178
 51
354.9586308677823
  0
ARC
  5
104
330
CB
100
AcDbEntity
  8
AM_4
100
AcDbCircle
 10
-0.0000000000000009
 20
0.0000000000000011
 30
0.0
 40
1.081081081081082
100
AcDbArc
 50
275.0413691322178
 51
309.9586308677822
  0
LINE
  5
105
330
CB
100
AcDbEntity
  8
AM_4
100
AcDbLine
 10
1.076898929273977
 20
0.0950000000000006
 30
0.0
 11
1.375868055555556
 21
0.0950000000000003
 31
0.0
  0
ARC
  5
106
330
CB
100
AcDbEntity
  8
AM_4
100
AcDbCircle
 10
-0.0000000000000092
 20
0.0000000000000234
 30
0.0
 40
0.9999999999999748
100
AcDbArc
 50
107.0486801875821
 51
117.951319812418
  0
LINE
  5
107
330
CB
100
AcDbEntity
  8
AM_4
100
AcDbLine
 10
-0.4998799341534281
 20
0.9585699532648637
 30
0.0
 11
-0.4889493509964465
 21
0.9321811911626321
 31
0.0
  0
LINE
  5
108
330
CB
100
AcDbEntity
  8
AM_4
100
AcDbLine
 10
0.8286576797548839
 20
-0.6943073913294389
 30
0.0
 11
1.040060776314005
 21
-0.9057104878885603
 31
0.0
  0
LINE
  5
109
330
CB
100
AcDbEntity
  8
AM_4
100
AcDbLine
 10
0.6943073913294389
 20
0.8286576797548839
 30
0.0
 11
0.9057104878885606
 21
1.040060776314005
 31
0.0
  0
LINE
  5
10A
330
CB
100
AcDbEntity
  8
AM_4
100
AcDbLine
 10
-0.8286576797548836
 20
0.6943073913294394
 30
0.0
 11
-1.040060776314005
 21
0.9057104878885607
 31
0.0
  0
ARC
  5
10B
330
CB
100
AcDbEntity
  8
AM_4
100
AcDbCircle
 10
-0.972925736322784
 20
-0.9729257363227849
 30
0.0
 40
0.0950000169299837
100
AcDbArc
 50
134.9657938604131
 51
315.0342061395869
  0
LINE
  5
10C
330
CB
100
AcDbEntity
  8
AM_4
100
AcDbLine
 10
-0.0949999999999999
 20
1.076898929273977
 30
0.0
 11
-0.095
 21
1.222390858552222
 31
0.0
  0
ARC
  5
10D
330
CB
100
AcDbEntity
  8
AM_4
100
AcDbCircle
 10
-0.0000000000000041
 20
0.0000000000000169
 30
0.0
 40
1.081081081081064
100
AcDbArc
 50
95.04136913221764
 51
107.4586308677823
  0
ARC
  5
10E
330
CB
100
AcDbEntity
  8
AM_4
100
AcDbCircle
 10
1.372584389499685
 20
0.0000000000000004
 30
0.0
 40
0.0950567328639402
100
AcDbArc
 50
271.9796350972886
 51
88.02036490271095
  0
LINE
  5
10F
330
CB
100
AcDbEntity
  8
AM_4
100
AcDbLine
 10
1.375868055555555
 20
-0.0949999999999997
 30
0.0
 11
1.076898929273977
 21
-0.0949999999999996
 31
0.0
  0
LINE
  5
110
330
CB
100
AcDbEntity
  8
AM_4
100
AcDbLine
 10
-1.040060776314004
 20
-0.9057104878885611
 30
0.0
 11
-0.828657679754883
 21
-0.69430739132944
 31
0.0
  0
ARC
  5
111
330
CB
100
AcDbEntity
  8
AM_4
100
AcDbCircle
 10
0.0
 20
0.0000000000000003
 30
0.0
 40
1.081081081081081
100
AcDbArc
 50
185.0413691322178
 51
219.9586308677822
  0
LINE
  5
112
330
CB
100
AcDbEntity
  8
AM_4
100
AcDbLine
 10
-1.076898929273977
 20
-0.0950000000000006
 30
0.0
 11
-1.375868055555555
 21
-0.0950000000000006
 31
0.0
  0
ARC
  5
113
330
CB
100
AcDbEntity
  8
AM_4
100
AcDbCircle
 10
-1.375924771489512
 20
-0.0000000000000006
 30
0.0
 40
0.0950000169299837
100
AcDbArc
 50
89.9657938604128
 51
270.0342061395873
  0
LINE
  5
114
330
CB
100
AcDbEntity
  8
AM_4
100
AcDbLine
 10
-1.375868055555555
 20
0.0949999999999995
 30
0.0
 11
-1.076898929273977
 21
0.0949999999999992
 31
0.0
  0
ARC
  5
115
330
CB
100
AcDbEntity
  8
AM_4
100
AcDbCircle
 10
0.0000000000000014
 20
-0.0000000000000006
 30
0.0
 40
1.081081081081082
100
AcDbArc
 50
140.0413691322178
 51
174.9586308677822
  0
LINE
  5
116
330
CB
100
AcDbEntity
  8
AM_4
100
AcDbLine
 10
0.095
 20
1.222390858552222
 30
0.0
 11
0.0949999999999999
 21
1.076898929273977
 31
0.0
  0
ARC
  5
117
330
CB
100
AcDbEntity
  8
AM_4
100
AcDbCircle
 10
-0.0000000000000021
 20
-0.0000000000000056
 30
0.0
 40
1.081081081081086
100
AcDbArc
 50
50.04136913221794
 51
84.95863086778215
  0
ENDBLK
  5
CE
330
CB
100
AcDbEntity
  8
0
100
AcDbBlockEnd
  0
BLOCK
  5
11A
330
118
100
AcDbEntity
  8
0
100
AcDbBlockBegin
  2
5_070891I_0_in_069411_0
 70
     2
 10
0.0
 20
0.0
 30
0.0
  3
5_070891I_0_in_069411_0
  1

  0
ATTDEF
  5
11C
330
118
100
AcDbEntity
  8
AM_6
100
AcDbText
 10
6.72399375
 20
1.72399375
 30
0.0
 40
0.5
  1
Imperial Insert -Inch
100
AcDbAttributeDefinition
  3

  2
NN
 70
     8
280
     0
  0
ATTDEF
  5
11D
330
118
100
AcDbEntity
  8
AM_6
100
AcDbText
 10
6.72399375
 20
1.22399375
 30
0.0
 40
0.5
  1
Imperial Bearings
100
AcDbAttributeDefinition
  3

  2
NT
 70
     8
280
     0
  0
ATTDEF
  5
11E
330
118
100
AcDbEntity
  8
AM_6
100
AcDbText
 10
6.72399375
 20
0.72399375
 30
0.0
 40
0.5
  1
070891I
100
AcDbAttributeDefinition
  3

  2
NB
 70
     8
280
     0
  0
ATTDEF
  5
11F
330
118
100
AcDbEntity
  8
AM_6
100
AcDbText
 10
6.72399375
 20
0.22399375
 30
0.0
 40
0.5
  1
$PN.I
100
AcDbAttributeDefinition
  3

  2
NBSYN
 70
     8
280
     0
  0
ATTDEF
  5
120
330
118
100
AcDbEntity
  8
AM_6
100
AcDbText
 10
6.72399375
 20
-0.27600625
 30
0.0
 40
0.5
  1
070891
100
AcDbAttributeDefinition
  3

  2
LINA
 70
     8
280
     0
  0
ATTDEF
  5
121
330
118
100
AcDbEntity
  8
AM_6
100
AcDbText
 10
6.72399375
 20
-0.77600625
 30
0.0
 40
0.5
  1
2
100
AcDbAttributeDefinition
  3

  2
SS
 70
     8
280
     0
  0
ATTDEF
  5
122
330
118
100
AcDbEntity
  8
AM_6
100
AcDbText
 10
6.72399375
 20
-1.27600625
 30
0.0
 40
0.5
  1
2.000000
100
AcDbAttributeDefinition
  3

  2
SS1
 70
     8
280
     0
  0
ATTDEF
  5
123
330
118
100
AcDbEntity
  8
AM_6
100
AcDbText
 10
6.72399375
 20
-1.77600625
 30
0.0
 40
0.5
  1
070891
100
AcDbAttributeDefinition
  3

  2
PN
 70
     8
280
     0
  0
ATTDEF
  5
124
330
118
100
AcDbEntity
  8
AM_6
100
AcDbText
 10
6.72399375
 20
-2.27600625
 30
0.0
 40
0.5
  1
INS-IP-200R
100
AcDbAttributeDefinition
  3

  2
DESCRIPTION
 70
     8
280
     0
  0
ATTDEF
  5
125
330
118
100
AcDbEntity
  8
AM_6
100
AcDbText
 10
6.72399375
 20
-2.77600625
 30
0.0
 40
0.5
  1
Contact Seal
100
AcDbAttributeDefinition
  3

  2
ST
 70
     8
280
     0
  0
ATTDEF
  5
126
330
118
100
AcDbEntity
  8
AM_6
100
AcDbText
 10
6.72399375
 20
-3.27600625
 30
0.0
 40
0.5
  1
3.5433
100
AcDbAttributeDefinition
  3

  2
A
 70
     8
280
     0
  0
ATTDEF
  5
127
330
118
100
AcDbEntity
  8
AM_6
100
AcDbText
 10
6.72399375
 20
-3.77600625
 30
0.0
 40
0.5
  1
61/64
100
AcDbAttributeDefinition
  3

  2
B
 70
     8
280
     0
  0
ATTDEF
  5
128
330
118
100
AcDbEntity
  8
AM_6
100
AcDbText
 10
6.72399375
 20
-4.27600625
 30
0.0
 40
0.5
  1
2-55/64
100
AcDbAttributeDefinition
  3

  2
C
 70
     8
280
     0
  0
ATTDEF
  5
129
330
118
100
AcDbEntity
  8
AM_6
100
AcDbText
 10
6.72399375
 20
-4.77600625
 30
0.0
 40
0.5
  1
0.977
100
AcDbAttributeDefinition
  3

  2
D
 70
     8
280
     0
  0
ATTDEF
  5
12A
330
118
100
AcDbEntity
  8
AM_6
100
AcDbText
 10
6.72399375
 20
-5.27600625
 30
0.0
 40
0.5
  1
3-9/32
100
AcDbAttributeDefinition
  3

  2
E
 70
     8
280
     0
  0
ATTDEF
  5
12B
330
118
100
AcDbEntity
  8
AM_6
100
AcDbText
 10
6.72399375
 20
-5.77600625
 30
0.0
 40
0.5
  1
0.1900
100
AcDbAttributeDefinition
  3

  2
NDM
 70
     8
280
     0
  0
ATTDEF
  5
12C
330
118
100
AcDbEntity
  8
AM_6
100
AcDbText
 10
6.72399375
 20
-6.27600625
 30
0.0
 40
0.5
  1
0.101
100
AcDbAttributeDefinition
  3

  2
H
 70
     8
280
     0
  0
ATTDEF
  5
12D
330
118
100
AcDbEntity
  8
AM_6
100
AcDbText
 10
6.72399375
 20
-6.77600625
 30
0.0
 40
0.5
  1
0.1450
100
AcDbAttributeDefinition
  3

  2
KDM
 70
     8
280
     0
  0
ATTDEF
  5
12E
330
118
100
AcDbEntity
  8
AM_6
100
AcDbText
 10
6.72399375
 20
-7.27600625
 30
0.0
 40
0.5
  1
2.67
100
AcDbAttributeDefinition
  3

  2
AL
 70
     8
280
     0
  0
ATTDEF
  5
12F
330
118
100
AcDbEntity
  8
AM_6
100
AcDbText
 10
6.72399375
 20
-7.77600625
 30
0.0
 40
0.5
  1
0.38
100
AcDbAttributeDefinition
  3

  2
BL
 70
     8
280
     0
  0
ATTDEF
  5
130
330
118
100
AcDbEntity
  8
AM_6
100
AcDbText
 10
6.72399375
 20
-8.27600625
 30
0.0
 40
0.5
  1
0.07
100
AcDbAttributeDefinition
  3

  2
CL
 70
     8
280
     0
  0
ATTDEF
  5
131
330
118
100
AcDbEntity
  8
AM_6
100
AcDbText
 10
6.72399375
 20
-8.77600625
 30
0.0
 40
0.5
  1
0.44
100
AcDbAttributeDefinition
  3

  2
DL
 70
     8
280
     0
  0
ATTDEF
  5
132
330
118
100
AcDbEntity
  8
AM_6
100
AcDbText
 10
6.72399375
 20
-9.27600625
 30
0.0
 40
0.5
  1
0.8000
100
AcDbAttributeDefinition
  3

  2
LL
 70
     8
280
     0
  0
ATTDEF
  5
133
330
118
100
AcDbEntity
  8
AM_6
100
AcDbText
 10
6.72399375
 20
-9.77600625
 30
0.0
 40
0.5
  1
0.020
100
AcDbAttributeDefinition
  3

  2
Y
 70
     8
280
     0
  0
ATTDEF
  5
134
330
118
100
AcDbEntity
  8
AM_6
100
AcDbText
 10
6.72399375
 20
-10.27600625
 30
0.0
 40
0.5
  1
0.020000
100
AcDbAttributeDefinition
  3

  2
Y1
 70
     8
280
     0
  0
ATTDEF
  5
135
330
118
100
AcDbEntity
  8
AM_6
100
AcDbText
 10
6.72399375
 20
-10.77600625
 30
0.0
 40
0.5
  1
2-19/64
100
AcDbAttributeDefinition
  3

  2
Z
 70
     8
280
     0
  0
ATTDEF
  5
136
330
118
100
AcDbEntity
  8
AM_6
100
AcDbText
 10
6.72399375
 20
-11.27600625
 30
0.0
 40
0.5
  1
2.296875
100
AcDbAttributeDefinition
  3

  2
Z1
 70
     8
280
     0
  0
ATTDEF
  5
137
330
118
100
AcDbEntity
  8
AM_6
100
AcDbText
 10
6.72399375
 20
-11.77600625
 30
0.0
 40
0.5
  1
baldor
100
AcDbAttributeDefinition
  3

  2
COMPANY
 70
     8
280
     0
  0
CIRCLE
  5
138
330
118
100
AcDbEntity
  8
AM_9
100
AcDbCircle
 10
0.0
 20
0.0
 30
0.0
 40
1.1484375
  0
CIRCLE
  5
139
330
118
100
AcDbEntity
  8
AM_9
100
AcDbCircle
 10
0.0
 20
0.0
 30
0.0
 40
1.246594551282051
  0
CIRCLE
  5
13A
330
118
100
AcDbEntity
  8
AM_9
100
AcDbCircle
 10
0.0
 20
0.0
 30
0.0
 40
1.403857579506881
  0
CIRCLE
  5
13B
330
118
100
AcDbEntity
  8
AM_9
100
AcDbCircle
 10
0.0
 20
0.0
 30
0.0
 40
1.276041666666667
  0
CIRCLE
  5
13C
330
118
100
AcDbEntity
  8
AM_9
100
AcDbCircle
 10
0.0
 20
0.0
 30
0.0
 40
1.490460118395209
  0
CIRCLE
  5
13D
330
118
100
AcDbEntity
  8
AM_9
100
AcDbCircle
 10
0.0
 20
0.0
 30
0.0
 40
1.57165
  0
CIRCLE
  5
13E
330
118
100
AcDbEntity
  8
AM_9
100
AcDbCircle
 10
0.0
 20
0.0
 30
0.0
 40
1.72399375
  0
CIRCLE
  5
13F
330
118
100
AcDbEntity
  8
AM_9
100
AcDbCircle
 10
0.0
 20
-1.375868055555555
 30
0.0
 40
0.0724499999999999
  0
LINE
  5
140
330
118
100
AcDbEntity
  8
AM_9
100
AcDbLine
 10
1.011162697096763
 20
-0.8768124086713185
 30
0.0
 11
1.078337841309485
 21
-0.8096372644585969
 31
0.0
  0
LINE
  5
141
330
118
100
AcDbEntity
  8
AM_9
100
AcDbLine
 10
0.8096372644585971
 20
-1.078337841309485
 30
0.0
 11
0.8768124086713195
 21
-1.011162697096763
 31
0.0
  0
LINE
  5
142
330
118
100
AcDbEntity
  8
AM_9
100
AcDbLine
 10
0.8096372644585971
 20
1.078337841309485
 30
0.0
 11
1.019140602985677
 21
1.287841179836565
 31
0.0
  0
LINE
  5
143
330
118
100
AcDbEntity
  8
AM_9
100
AcDbLine
 10
0.8768124086713186
 20
1.011162697096763
 30
0.0
 11
0.8096372644585971
 21
1.078337841309485
 31
0.0
  0
LINE
  5
144
330
118
100
AcDbEntity
  8
AM_9
100
AcDbLine
 10
1.078337841309485
 20
0.8096372644585967
 30
0.0
 11
1.011162697096762
 21
0.8768124086713193
 31
0.0
  0
LINE
  5
145
330
118
100
AcDbEntity
  8
AM_9
100
AcDbLine
 10
1.078337841309485
 20
-0.8096372644585969
 30
0.0
 11
1.287841179836565
 21
-1.019140602985677
 31
0.0
  0
LINE
  5
146
330
118
100
AcDbEntity
  8
AM_9
100
AcDbLine
 10
-1.011162697096763
 20
0.8768124086713189
 30
0.0
 11
-1.078337841309485
 21
0.8096372644585971
 31
0.0
  0
LINE
  5
147
330
118
100
AcDbEntity
  8
AM_9
100
AcDbLine
 10
-0.8096372644585971
 20
1.078337841309485
 30
0.0
 11
-0.8768124086713192
 21
1.011162697096763
 31
0.0
  0
LINE
  5
148
330
118
100
AcDbEntity
  8
AM_9
100
AcDbLine
 10
1.019140602985677
 20
-1.287841179836565
 30
0.0
 11
0.8096372644585971
 21
-1.078337841309485
 31
0.0
  0
LINE
  5
149
330
118
100
AcDbEntity
  8
AM_9
100
AcDbLine
 10
-1.078337841309485
 20
0.8096372644585971
 30
0.0
 11
-1.287841179836565
 21
1.019140602985677
 31
0.0
  0
ARC
  5
14A
330
118
100
AcDbEntity
  8
AM_9
100
AcDbCircle
 10
0.0000000000000234
 20
-0.0000000000000614
 30
0.0
 40
1.055408970976319
100
AcDbArc
 50
107.3356737931623
 51
117.6643262068375
  0
LINE
  5
14B
330
118
100
AcDbEntity
  8
AM_9
100
AcDbLine
 10
1.287841179836565
 20
1.019140602985677
 30
0.0
 11
1.078337841309485
 21
0.8096372644585967
 31
0.0
  0
LINE
  5
14C
330
118
100
AcDbEntity
  8
AM_9
100
AcDbLine
 10
-0.8768124086713184
 20
-1.011162697096763
 30
0.0
 11
-0.8096372644585971
 21
-1.078337841309485
 31
0.0
  0
LINE
  5
14D
330
118
100
AcDbEntity
  8
AM_9
100
AcDbLine
 10
-1.078337841309485
 20
-0.8096372644585967
 30
0.0
 11
-1.011162697096762
 21
-0.8768124086713193
 31
0.0
  0
LINE
  5
14E
330
118
100
AcDbEntity
  8
AM_9
100
AcDbLine
 10
-0.8096372644585971
 20
-1.078337841309485
 30
0.0
 11
-1.019140602985677
 21
-1.287841179836565
 31
0.0
  0
LINE
  5
14F
330
118
100
AcDbEntity
  8
AM_9
100
AcDbLine
 10
-1.019140602985677
 20
1.287841179836565
 30
0.0
 11
-0.8096372644585971
 21
1.078337841309485
 31
0.0
  0
LINE
  5
150
330
118
100
AcDbEntity
  8
AM_9
100
AcDbLine
 10
-1.287841179836565
 20
-1.019140602985677
 30
0.0
 11
-1.078337841309485
 21
-0.8096372644585967
 31
0.0
  0
ARC
  5
151
330
118
100
AcDbEntity
  8
AM_9
100
AcDbCircle
 10
-0.0000000000000004
 20
-0.0000000000000001
 30
0.0
 40
1.592340561259646
100
AcDbArc
 50
141.8529292201711
 51
218.1470707798289
  0
ARC
  5
152
330
118
100
AcDbEntity
  8
AM_9
100
AcDbCircle
 10
-0.0000000000000002
 20
-0.0000000000000013
 30
0.0
 40
1.592340561259646
100
AcDbArc
 50
231.8529292201711
 51
308.1470707798289
  0
ARC
  5
153
330
118
100
AcDbEntity
  8
AM_9
100
AcDbCircle
 10
0.0000000000000007
 20
0.0000000000000002
 30
0.0
 40
1.592340561259646
100
AcDbArc
 50
321.8529292201711
 51
38.14707077982892
  0
CIRCLE
  5
154
330
118
100
AcDbEntity
  8
AM_9
100
AcDbCircle
 10
0.0
 20
1.375868055555555
 30
0.0
 40
0.0724499999999999
  0
ARC
  5
155
330
118
100
AcDbEntity
  8
AM_9
100
AcDbCircle
 10
0.0000000000000002
 20
0.0000000000000011
 30
0.0
 40
1.592340561259646
100
AcDbArc
 50
51.85292922017106
 51
128.1470707798289
  0
CIRCLE
  5
156
330
118
100
AcDbEntity
  8
AM_4
100
AcDbCircle
 10
0.0
 20
0.0
 30
0.0
 40
1.721649999999999
  0
LINE
  5
157
330
118
100
AcDbEntity
  8
AM_4
100
AcDbLine
 10
1.019140602985677
 20
1.287841179836565
 30
0.0
 11
1.028878695709276
 21
1.297579272560164
 31
0.0
  0
LINE
  5
158
330
118
100
AcDbEntity
  8
AM_4
100
AcDbLine
 10
1.287841179836565
 20
-1.019140602985677
 30
0.0
 11
1.297579272560164
 21
-1.028878695709276
 31
0.0
  0
LINE
  5
159
330
118
100
AcDbEntity
  8
AM_4
100
AcDbLine
 10
1.028878695709275
 20
-1.297579272560164
 30
0.0
 11
1.019140602985677
 21
-1.287841179836565
 31
0.0
  0
LINE
  5
15A
330
118
100
AcDbEntity
  8
AM_4
100
AcDbLine
 10
-1.287841179836565
 20
1.019140602985677
 30
0.0
 11
-1.297579272560164
 21
1.028878695709276
 31
0.0
  0
LINE
  5
15B
330
118
100
AcDbEntity
  8
AM_4
100
AcDbLine
 10
1.297579272560164
 20
1.028878695709275
 30
0.0
 11
1.287841179836565
 21
1.019140602985677
 31
0.0
  0
LINE
  5
15C
330
118
100
AcDbEntity
  8
AM_4
100
AcDbLine
 10
-1.019140602985677
 20
-1.287841179836565
 30
0.0
 11
-1.028878695709276
 21
-1.297579272560164
 31
0.0
  0
LINE
  5
15D
330
118
100
AcDbEntity
  8
AM_4
100
AcDbLine
 10
-1.028878695709275
 20
1.297579272560164
 30
0.0
 11
-1.019140602985677
 21
1.287841179836565
 31
0.0
  0
LINE
  5
15E
330
118
100
AcDbEntity
  8
AM_4
100
AcDbLine
 10
-1.297579272560164
 20
-1.028878695709275
 30
0.0
 11
-1.287841179836565
 21
-1.019140602985677
 31
0.0
  0
CIRCLE
  5
15F
330
118
100
AcDbEntity
  8
AM_4
100
AcDbCircle
 10
0.0
 20
0.0
 30
0.0
 40
1.68158633509779
  0
ARC
  5
160
330
118
100
AcDbEntity
  8
AM_4
100
AcDbCircle
 10
0.0000000000000087
 20
-0.0000000000000069
 30
0.0
 40
1.655990138576359
100
AcDbArc
 50
308.4116604984158
 51
321.5883395015841
  0
ARC
  5
161
330
118
100
AcDbEntity
  8
AM_4
100
AcDbCircle
 10
0.0000000000000249
 20
0.0000000000000235
 30
0.0
 40
1.655990138576404
100
AcDbArc
 50
218.411660498416
 51
231.5883395015839
  0
ARC
  5
162
330
118
100
AcDbEntity
  8
AM_4
100
AcDbCircle
 10
-0.0000000000000016
 20
-0.0000000000000011
 30
0.0
 40
1.65599013857637
100
AcDbArc
 50
128.4116604984158
 51
141.588339501584
  0
ARC
  5
163
330
118
100
AcDbEntity
  8
AM_4
100
AcDbCircle
 10
-0.0000000000000102
 20
-0.0000000000000087
 30
0.0
 40
1.655990138576383
100
AcDbArc
 50
38.41166049841592
 51
51.58833950158399
  0
LINE
  5
164
330
118
100
AcDbEntity
  8
AM_4
100
AcDbLine
 10
0.8768124086713195
 20
-1.011162697096763
 30
0.0
 11
1.011162697096763
 21
-0.8768124086713185
 31
0.0
  0
LINE
  5
165
330
118
100
AcDbEntity
  8
AM_4
100
AcDbLine
 10
1.011162697096762
 20
0.8768124086713193
 30
0.0
 11
0.8768124086713186
 21
1.011162697096763
 31
0.0
  0
LINE
  5
166
330
118
100
AcDbEntity
  8
AM_4
100
AcDbLine
 10
-0.8768124086713192
 20
1.011162697096763
 30
0.0
 11
-1.011162697096763
 21
0.8768124086713189
 31
0.0
  0
LINE
  5
167
330
118
100
AcDbEntity
  8
AM_4
100
AcDbLine
 10
-1.011162697096762
 20
-0.8768124086713193
 30
0.0
 11
-0.8768124086713184
 21
-1.011162697096763
 31
0.0
  0
ARC
  5
168
330
118
100
AcDbEntity
  8
AM_4
100
AcDbCircle
 10
0.0000000000000007
 20
-0.0000000000000002
 30
0.0
 40
1.642310102610602
100
AcDbArc
 50
141.6434649700237
 51
218.3565350299762
  0
ARC
  5
169
330
118
100
AcDbEntity
  8
AM_4
100
AcDbCircle
 10
0.0000000000000002
 20
0.0000000000000009
 30
0.0
 40
1.642310102610602
100
AcDbArc
 50
231.6434649700237
 51
308.3565350299762
  0
ARC
  5
16A
330
118
100
AcDbEntity
  8
AM_4
100
AcDbCircle
 10
-0.0000000000000011
 20
0.0000000000000001
 30
0.0
 40
1.642310102610603
100
AcDbArc
 50
321.6434649700237
 51
38.35653502997621
  0
ARC
  5
16B
330
118
100
AcDbEntity
  8
AM_4
100
AcDbCircle
 10
-0.0000000000000003
 20
-0.0000000000000011
 30
0.0
 40
1.642310102610603
100
AcDbArc
 50
51.64346497002376
 51
128.3565350299762
  0
LINE
  5
16C
330
118
100
AcDbEntity
  8
AM_4
100
AcDbLine
 10
-0.2931841038808567
 20
0.9560560031878781
 30
0.0
 11
-0.3134122398193019
 21
1.004891043311999
 31
0.0
  0
ARC
  5
16D
330
118
100
AcDbEntity
  8
AM_4
100
AcDbCircle
 10
0.0000000000000012
 20
0.0000000000000006
 30
0.0
 40
1.052631578947368
100
AcDbArc
 50
117.6779895657971
 51
107.322010434203
  0
ARC
  5
16E
330
118
100
AcDbEntity
  8
AM_4
100
AcDbCircle
 10
0.0000000000000021
 20
0.000000000000001
 30
0.0
 40
1.0
100
AcDbArc
 50
117.9513198124179
 51
107.0486801875823
  0
LINE
  5
16F
330
118
100
AcDbEntity
  8
AM_4
100
AcDbLine
 10
-0.4889493509964462
 20
0.9321811911626322
 30
0.0
 11
-0.468721215058001
 21
0.8833461510385108
 31
0.0
  0
ARC
  5
170
330
118
100
AcDbEntity
  8
AM_5
100
AcDbCircle
 10
0.0
 20
1.375868055555556
 30
0.0
 40
0.095
100
AcDbArc
 50
165.0000000000001
 51
105.0
  0
ARC
  5
171
330
118
100
AcDbEntity
  8
AM_5
100
AcDbCircle
 10
0.0
 20
-1.375868055555556
 30
0.0
 40
0.095
100
AcDbArc
 50
165.0000000000001
 51
105.0
  0
ARC
  5
172
330
118
100
AcDbEntity
  8
AM_5
100
AcDbCircle
 10
0.0000000000000001
 20
1.375868055555556
 30
0.0
 40
0.0949999999999999
100
AcDbArc
 50
105.0000000000001
 51
14.99999999999985
  0
ARC
  5
173
330
118
100
AcDbEntity
  8
AM_5
100
AcDbCircle
 10
0.0000000000000001
 20
-1.375868055555555
 30
0.0
 40
0.0949999999999999
100
AcDbArc
 50
105.0000000000001
 51
14.99999999999985
  0
ENDBLK
  5
11B
330
118
100
AcDbEntity
  8
0
100
AcDbBlockEnd
  0
BLOCK
  5
176
330
174
100
AcDbEntity
  8
0
100
AcDbBlockBegin
  2
6_405015E_Inch_0_in_069411_0
 70
     2
 10
0.0
 20
0.0
 30
0.0
  3
6_405015E_Inch_0_in_069411_0
  1

  0
ATTDEF
  5
178
330
174
100
AcDbEntity
  8
AM_6
100
AcDbText
 10
6.482671671481428
 20
2.465384764015716
 30
0.0
 40
0.5
  1
405015E -Inch
100
AcDbAttributeDefinition
  3

  2
NN
 70
     8
280
     0
  0
ATTDEF
  5
179
330
174
100
AcDbEntity
  8
AM_6
100
AcDbText
 10
6.482671671481428
 20
1.965384764015716
 30
0.0
 40
0.5
  1
Grease Fitting
100
AcDbAttributeDefinition
  3

  2
NT
 70
     8
280
     0
  0
ATTDEF
  5
17A
330
174
100
AcDbEntity
  8
AM_6
100
AcDbText
 10
6.482671671481428
 20
1.465384764015716
 30
0.0
 40
0.5
  1
405015E-Inch
100
AcDbAttributeDefinition
  3

  2
NB
 70
     8
280
     0
  0
ATTDEF
  5
17B
330
174
100
AcDbEntity
  8
AM_6
100
AcDbText
 10
6.482671671481428
 20
0.9653847640157163
 30
0.0
 40
0.5
  1
$MN.-Inch
100
AcDbAttributeDefinition
  3

  2
NBSYN
 70
     8
280
     0
  0
ATTDEF
  5
17C
330
174
100
AcDbEntity
  8
AM_6
100
AcDbText
 10
6.482671671481428
 20
0.4653847640157163
 30
0.0
 40
0.5
  1
405015E
100
AcDbAttributeDefinition
  3

  2
LINA
 70
     8
280
     0
  0
ATTDEF
  5
17D
330
174
100
AcDbEntity
  8
AM_6
100
AcDbText
 10
6.482671671481428
 20
-0.0346152359842837
 30
0.0
 40
0.5
  1
405015E
100
AcDbAttributeDefinition
  3

  2
MN
 70
     8
280
     0
  0
ATTDEF
  5
17E
330
174
100
AcDbEntity
  8
AM_6
100
AcDbText
 10
6.482671671481428
 20
-0.5346152359842837
 30
0.0
 40
0.5
  1
1/8 x 27PTF
100
AcDbAttributeDefinition
  3

  2
T
 70
     8
280
     0
  0
ATTDEF
  5
17F
330
174
100
AcDbEntity
  8
AM_6
100
AcDbText
 10
6.482671671481428
 20
-1.034615235984284
 30
0.0
 40
0.5
  1
baldor
100
AcDbAttributeDefinition
  3

  2
COMPANY
 70
     8
280
     0
  0
LINE
  5
180
330
174
100
AcDbEntity
  8
AM_9
100
AcDbLine
 10
1.213962000506657
 20
1.778838118390948
 30
0.0
 11
1.264115287586382
 21
1.792276651161726
 31
0.0
  0
LINE
  5
181
330
174
100
AcDbEntity
  8
AM_9
100
AcDbLine
 10
0.920099466722564
 20
1.990894277942941
 30
0.0
 11
0.9335379994933425
 21
1.940740990863217
 31
0.0
  0
LINE
  5
182
330
174
100
AcDbEntity
  8
AM_9
100
AcDbLine
 10
0.9335379994933425
 20
1.940740990863217
 30
0.0
 11
1.213962000506657
 21
1.778838118390948
 31
0.0
  0
LINE
  5
183
330
174
100
AcDbEntity
  8
AM_9
100
AcDbLine
 10
1.264115287586382
 20
1.792276651161726
 30
0.0
 11
1.384436369872023
 21
1.986410338018423
 31
0.0
  0
LINE
  5
184
330
174
100
AcDbEntity
  8
AM_9
100
AcDbLine
 10
1.028063630127977
 20
2.192162235241493
 30
0.0
 11
0.920099466722564
 21
1.990894277942941
 31
0.0
  0
LINE
  5
185
330
174
100
AcDbEntity
  8
AM_9
100
AcDbLine
 10
0.920099466722564
 20
1.990894277942941
 30
0.0
 11
1.264115287586382
 21
1.792276651161726
 31
0.0
  0
LINE
  5
186
330
174
100
AcDbEntity
  8
AM_5
100
AcDbLine
 10
1.319306457620486
 20
1.948807565647702
 30
0.0
 11
1.213962000506657
 21
1.778838118390948
 31
0.0
  0
LINE
  5
187
330
174
100
AcDbEntity
  8
AM_5
100
AcDbLine
 10
1.384436369872023
 20
1.986410338018423
 30
0.0
 11
1.319306457620486
 21
1.948807565647702
 31
0.0
  0
LINE
  5
188
330
174
100
AcDbEntity
  8
AM_5
100
AcDbLine
 10
0.9972613920436926
 20
2.134740370949654
 30
0.0
 11
1.35010869570477
 21
1.931023885198098
 31
0.0
  0
LINE
  5
189
330
174
100
AcDbEntity
  8
AM_5
100
AcDbLine
 10
1.028063630127977
 20
2.11695669050005
 30
0.0
 11
0.9335379994933427
 21
1.940740990863217
 31
0.0
  0
LINE
  5
18A
330
174
100
AcDbEntity
  8
AM_5
100
AcDbLine
 10
1.028063630127977
 20
2.192162235241493
 30
0.0
 11
1.028063630127977
 21
2.11695669050005
 31
0.0
  0
LINE
  5
18B
330
174
100
AcDbEntity
  8
AM_4
100
AcDbLine
 10
1.399682667397366
 20
2.214321494405768
 30
0.0
 11
1.414682667397366
 21
2.240302256519301
 31
0.0
  0
LINE
  5
18C
330
174
100
AcDbEntity
  8
AM_4
100
AcDbLine
 10
1.232817332602634
 20
2.345302256519301
 30
0.0
 11
1.217817332602634
 21
2.319321494405768
 31
0.0
  0
LINE
  5
18D
330
174
100
AcDbEntity
  8
AM_4
100
AcDbLine
 10
1.217817332602634
 20
2.319321494405768
 30
0.0
 11
1.189725343752893
 21
2.298304923902154
 31
0.0
  0
LINE
  5
18E
330
174
100
AcDbEntity
  8
AM_4
100
AcDbLine
 10
1.395527777865679
 20
2.179484833167256
 30
0.0
 11
1.399682667397366
 21
2.214321494405768
 31
0.0
  0
LINE
  5
18F
330
174
100
AcDbEntity
  8
AM_4
100
AcDbLine
 10
1.217817332602634
 20
2.319321494405768
 30
0.0
 11
1.399682667397366
 21
2.214321494405768
 31
0.0
  0
LINE
  5
190
330
174
100
AcDbEntity
  8
AM_4
100
AcDbLine
 10
1.414682667397366
 20
2.240302256519301
 30
0.0
 11
1.470663429510899
 21
2.277263780746368
 31
0.0
  0
LINE
  5
191
330
174
100
AcDbEntity
  8
AM_4
100
AcDbLine
 10
1.236836570489101
 20
2.412263780746368
 30
0.0
 11
1.232817332602634
 21
2.345302256519301
 31
0.0
  0
LINE
  5
192
330
174
100
AcDbEntity
  8
AM_4
100
AcDbLine
 10
1.232817332602634
 20
2.345302256519301
 30
0.0
 11
1.414682667397366
 21
2.240302256519301
 31
0.0
  0
LINE
  5
193
330
174
100
AcDbEntity
  8
AM_4
100
AcDbLine
 10
1.304828328518572
 20
2.465384764015716
 30
0.0
 11
1.236836570489101
 21
2.412263780746368
 31
0.0
  0
LINE
  5
194
330
174
100
AcDbEntity
  8
AM_4
100
AcDbLine
 10
1.470663429510899
 20
2.277263780746368
 30
0.0
 11
1.482671671481428
 21
2.362706862082529
 31
0.0
  0
LINE
  5
195
330
174
100
AcDbEntity
  8
AM_4
100
AcDbLine
 10
1.304828328518572
 20
2.465384764015716
 30
0.0
 11
1.482671671481428
 21
2.362706862082529
 31
0.0
  0
LINE
  5
196
330
174
100
AcDbEntity
  8
AM_4
100
AcDbLine
 10
1.236836570489101
 20
2.412263780746368
 30
0.0
 11
1.470663429510899
 21
2.277263780746368
 31
0.0
  0
LINE
  5
197
330
174
100
AcDbEntity
  8
AM_4
100
AcDbLine
 10
1.189725343752893
 20
2.298304923902154
 30
0.0
 11
1.115990226109452
 21
2.278019878937881
 31
0.0
  0
LINE
  5
198
330
174
100
AcDbEntity
  8
AM_4
100
AcDbLine
 10
1.41482797243143
 20
2.105485825654865
 30
0.0
 11
1.395527777865679
 21
2.179484833167256
 31
0.0
  0
LINE
  5
199
330
174
100
AcDbEntity
  8
AM_4
100
AcDbLine
 10
1.189725343752893
 20
2.298304923902154
 30
0.0
 11
1.395527777865679
 21
2.179484833167256
 31
0.0
  0
LINE
  5
19A
330
174
100
AcDbEntity
  8
AM_4
100
AcDbLine
 10
1.066806942922154
 20
2.285263827008402
 30
0.0
 11
1.445693057077846
 21
2.066513827008402
 31
0.0
  0
LINE
  5
19B
330
174
100
AcDbEntity
  8
AM_4
100
AcDbLine
 10
1.395693057077846
 20
1.979911286629958
 30
0.0
 11
1.445693057077846
 21
2.066513827008402
 31
0.0
  0
LINE
  5
19C
330
174
100
AcDbEntity
  8
AM_4
100
AcDbLine
 10
1.066806942922154
 20
2.285263827008402
 30
0.0
 11
1.016806942922154
 21
2.198661286629958
 31
0.0
  0
LINE
  5
19D
330
174
100
AcDbEntity
  8
AM_4
100
AcDbLine
 10
1.115990226109452
 20
2.278019878937881
 30
0.0
 11
1.071137069941076
 21
2.282763827008402
 31
0.0
  0
LINE
  5
19E
330
174
100
AcDbEntity
  8
AM_4
100
AcDbLine
 10
1.441362930058924
 20
2.069013827008402
 30
0.0
 11
1.41482797243143
 21
2.105485825654865
 31
0.0
  0
LINE
  5
19F
330
174
100
AcDbEntity
  8
AM_4
100
AcDbLine
 10
1.115990226109452
 20
2.278019878937881
 30
0.0
 11
1.41482797243143
 21
2.105485825654865
 31
0.0
  0
LWPOLYLINE
  5
1A0
330
174
100
AcDbEntity
  8
AM_4
100
AcDbPolyline
 90
        3
 70
     0
 43
0.0
 10
1.350971528538923
 20
2.121201327008402
 10
1.397135602415867
 20
2.091784848447633
 10
1.441159257229539
 20
2.058661055319786
  0
LWPOLYLINE
  5
1A1
330
174
100
AcDbEntity
  8
AM_4
100
AcDbPolyline
 90
        3
 70
     0
 43
0.0
 10
1.400226856926153
 20
1.987764058318574
 10
1.34975250203231
 20
2.009223131711475
 10
1.300971528538923
 20
2.034598786629958
  0
LWPOLYLINE
  5
1A2
330
174
100
AcDbEntity
  8
AM_4
100
AcDbPolyline
 90
        3
 70
     0
 43
0.0
 10
1.251716200151693
 20
2.168036055319786
 10
1.302190555045535
 20
2.146576981926885
 10
1.350971528538923
 20
2.121201327008402
  0
LWPOLYLINE
  5
1A3
330
174
100
AcDbEntity
  8
AM_4
100
AcDbPolyline
 90
        3
 70
     0
 43
0.0
 10
1.300971528538923
 20
2.034598786629958
 10
1.254807454661979
 20
2.064015265190728
 10
1.210783799848307
 20
2.097139058318575
  0
LINE
  5
1A4
330
174
100
AcDbEntity
  8
AM_4
100
AcDbLine
 10
1.251716200151693
 20
2.168036055319786
 30
0.0
 11
1.210783799848307
 21
2.097139058318575
 31
0.0
  0
LWPOLYLINE
  5
1A5
330
174
100
AcDbEntity
  8
AM_4
100
AcDbPolyline
 90
        3
 70
     0
 43
0.0
 10
1.161528471461077
 20
2.230576327008402
 10
1.207692545338021
 20
2.201159848447633
 10
1.251716200151693
 20
2.168036055319786
  0
LWPOLYLINE
  5
1A6
330
174
100
AcDbEntity
  8
AM_4
100
AcDbPolyline
 90
        3
 70
     0
 43
0.0
 10
1.062273143073847
 20
2.277411055319786
 10
1.112747497967689
 20
2.255951981926885
 10
1.161528471461077
 20
2.230576327008402
  0
LWPOLYLINE
  5
1A7
330
174
100
AcDbEntity
  8
AM_4
100
AcDbPolyline
 90
        3
 70
     0
 43
0.0
 10
1.111528471461077
 20
2.143973786629958
 10
1.065364397584133
 20
2.173390265190728
 10
1.021340742770461
 20
2.206514058318575
  0
LWPOLYLINE
  5
1A8
330
174
100
AcDbEntity
  8
AM_4
100
AcDbPolyline
 90
        3
 70
     0
 43
0.0
 10
1.210783799848307
 20
2.097139058318575
 10
1.160309444954464
 20
2.118598131711475
 10
1.111528471461077
 20
2.143973786629958
  0
ENDBLK
  5
177
330
174
100
AcDbEntity
  8
0
100
AcDbBlockEnd
  0
BLOCK
  5
1AB
330
1A9
100
AcDbEntity
  8
0
100
AcDbBlockBegin
  2
7_069411H_0_in_069411_0
 70
     2
 10
0.0
 20
0.0
 30
0.0
  3
7_069411H_0_in_069411_0
  1

  0
ATTDEF
  5
1AD
330
1A9
100
AcDbEntity
  8
AM_6
100
AcDbText
 10
9.1875
 20
2.441758625970225
 30
0.0
 40
0.5
  1
P2B-IP -(Contact Seal)-Housing -Inch
100
AcDbAttributeDefinition
  3

  2
NN
 70
     8
280
     0
  0
ATTDEF
  5
1AE
330
1A9
100
AcDbEntity
  8
AM_6
100
AcDbText
 10
9.1875
 20
1.941758625970225
 30
0.0
 40
0.5
  1
Imperial 2 Bolt Piliow Block Bearings
100
AcDbAttributeDefinition
  3

  2
NT
 70
     8
280
     0
  0
ATTDEF
  5
1AF
330
1A9
100
AcDbEntity
  8
AM_6
100
AcDbText
 10
9.1875
 20
1.441758625970225
 30
0.0
 40
0.5
  1
069411H
100
AcDbAttributeDefinition
  3

  2
NB
 70
     8
280
     0
  0
ATTDEF
  5
1B0
330
1A9
100
AcDbEntity
  8
AM_6
100
AcDbText
 10
9.1875
 20
0.9417586259702246
 30
0.0
 40
0.5
  1
$PN.H
100
AcDbAttributeDefinition
  3

  2
NBSYN
 70
     8
280
     0
  0
ATTDEF
  5
1B1
330
1A9
100
AcDbEntity
  8
AM_6
100
AcDbText
 10
9.1875
 20
0.4417586259702246
 30
0.0
 40
0.5
  1
069411
100
AcDbAttributeDefinition
  3

  2
LINA
 70
     8
280
     0
  0
ATTDEF
  5
1B2
330
1A9
100
AcDbEntity
  8
AM_6
100
AcDbText
 10
9.1875
 20
-0.0582413740297754
 30
0.0
 40
0.5
  1
2
100
AcDbAttributeDefinition
  3

  2
SS
 70
     8
280
     0
  0
ATTDEF
  5
1B3
330
1A9
100
AcDbEntity
  8
AM_6
100
AcDbText
 10
9.1875
 20
-0.5582413740297754
 30
0.0
 40
0.5
  1
069411
100
AcDbAttributeDefinition
  3

  2
PN
 70
     8
280
     0
  0
ATTDEF
  5
1B4
330
1A9
100
AcDbEntity
  8
AM_6
100
AcDbText
 10
9.1875
 20
-1.058241374029775
 30
0.0
 40
0.5
  1
P2B-IP-200R
100
AcDbAttributeDefinition
  3

  2
DESCRIPTION
 70
     8
280
     0
  0
ATTDEF
  5
1B5
330
1A9
100
AcDbEntity
  8
AM_6
100
AcDbText
 10
9.1875
 20
-1.558241374029775
 30
0.0
 40
0.5
  1
Non-Expansion Type
100
AcDbAttributeDefinition
  3

  2
EF
 70
     8
280
     0
  0
ATTDEF
  5
1B6
330
1A9
100
AcDbEntity
  8
AM_6
100
AcDbText
 10
9.1875
 20
-2.058241374029775
 30
0.0
 40
0.5
  1
Contact  Seal
100
AcDbAttributeDefinition
  3

  2
ST
 70
     8
280
     0
  0
ATTDEF
  5
1B7
330
1A9
100
AcDbEntity
  8
AM_6
100
AcDbText
 10
9.1875
 20
-2.558241374029775
 30
0.0
 40
0.5
  1
2-55/64
100
AcDbAttributeDefinition
  3

  2
A
 70
     8
280
     0
  0
ATTDEF
  5
1B8
330
1A9
100
AcDbEntity
  8
AM_6
100
AcDbText
 10
9.1875
 20
-3.058241374029775
 30
0.0
 40
0.5
  1
8-3/8
100
AcDbAttributeDefinition
  3

  2
B
 70
     8
280
     0
  0
ATTDEF
  5
1B9
330
1A9
100
AcDbEntity
  8
AM_6
100
AcDbText
 10
9.1875
 20
-3.558241374029775
 30
0.0
 40
0.5
  1
2-1/2
100
AcDbAttributeDefinition
  3

  2
C
 70
     8
280
     0
  0
ATTDEF
  5
1BA
330
1A9
100
AcDbEntity
  8
AM_6
100
AcDbText
 10
9.1875
 20
-4.058241374029775
 30
0.0
 40
0.5
  1
6-1/16
100
AcDbAttributeDefinition
  3

  2
DMIN
 70
     8
280
     0
  0
ATTDEF
  5
1BB
330
1A9
100
AcDbEntity
  8
AM_6
100
AcDbText
 10
9.1875
 20
-4.558241374029775
 30
0.0
 40
0.5
  1
6-7/16
100
AcDbAttributeDefinition
  3

  2
DMAX
 70
     8
280
     0
  0
ATTDEF
  5
1BC
330
1A9
100
AcDbEntity
  8
AM_6
100
AcDbText
 10
9.1875
 20
-5.058241374029775
 30
0.0
 40
0.5
  1
5/8
100
AcDbAttributeDefinition
  3

  2
F
 70
     8
280
     0
  0
ATTDEF
  5
1BD
330
1A9
100
AcDbEntity
  8
AM_6
100
AcDbText
 10
9.1875
 20
-5.558241374029775
 30
0.0
 40
0.5
  1
61/64
100
AcDbAttributeDefinition
  3

  2
G
 70
     8
280
     0
  0
ATTDEF
  5
1BE
330
1A9
100
AcDbEntity
  8
AM_6
100
AcDbText
 10
9.1875
 20
-6.058241374029775
 30
0.0
 40
0.5
  1
1-5/16
100
AcDbAttributeDefinition
  3

  2
H
 70
     8
280
     0
  0
ATTDEF
  5
1BF
330
1A9
100
AcDbEntity
  8
AM_6
100
AcDbText
 10
9.1875
 20
-6.558241374029775
 30
0.0
 40
0.5
  1
4-9/16
100
AcDbAttributeDefinition
  3

  2
J
 70
     8
280
     0
  0
ATTDEF
  5
1C0
330
1A9
100
AcDbEntity
  8
AM_6
100
AcDbText
 10
9.1875
 20
-7.058241374029775
 30
0.0
 40
0.5
  1
3-9/32
100
AcDbAttributeDefinition
  3

  2
L
 70
     8
280
     0
  0
ATTDEF
  5
1C1
330
1A9
100
AcDbEntity
  8
AM_6
100
AcDbText
 10
9.1875
 20
-7.558241374029775
 30
0.0
 40
0.5
  1
2-1/4
100
AcDbAttributeDefinition
  3

  2
M
 70
     8
280
     0
  0
ATTDEF
  5
1C2
330
1A9
100
AcDbEntity
  8
AM_6
100
AcDbText
 10
9.1875
 20
-8.058241374029775
 30
0.0
 40
0.5
  1
55/64
100
AcDbAttributeDefinition
  3

  2
R
 70
     8
280
     0
  0
ATTDEF
  5
1C3
330
1A9
100
AcDbEntity
  8
AM_6
100
AcDbText
 10
9.1875
 20
-8.558241374029775
 30
0.0
 40
0.5
  1
2
100
AcDbAttributeDefinition
  3

  2
S
 70
     8
280
     0
  0
ATTDEF
  5
1C4
330
1A9
100
AcDbEntity
  8
AM_6
100
AcDbText
 10
9.1875
 20
-9.058241374029775
 30
0.0
 40
0.5
  1
1/4
100
AcDbAttributeDefinition
  3

  2
X
 70
     8
280
     0
  0
ATTDEF
  5
1C5
330
1A9
100
AcDbEntity
  8
AM_6
100
AcDbText
 10
9.1875
 20
-9.558241374029775
 30
0.0
 40
0.5
  1
0.020
100
AcDbAttributeDefinition
  3

  2
Y
 70
     8
280
     0
  0
ATTDEF
  5
1C6
330
1A9
100
AcDbEntity
  8
AM_6
100
AcDbText
 10
9.1875
 20
-10.05824137402977
 30
0.0
 40
0.5
  1
2-19/64
100
AcDbAttributeDefinition
  3

  2
Z
 70
     8
280
     0
  0
ATTDEF
  5
1C7
330
1A9
100
AcDbEntity
  8
AM_6
100
AcDbText
 10
9.1875
 20
-10.55824137402977
 30
0.0
 40
0.5
  1
baldor
100
AcDbAttributeDefinition
  3

  2
COMPANY
 70
     8
280
     0
  0
LINE
  5
1C8
330
1A9
100
AcDbEntity
  8
AM_9
100
AcDbLine
 10
-3.21875
 20
-0.9375
 30
0.0
 11
-3.21875
 21
-2.25
 31
0.0
  0
LINE
  5
1C9
330
1A9
100
AcDbEntity
  8
AM_9
100
AcDbLine
 10
-3.53125
 20
-0.9375
 30
0.0
 11
-3.53125
 21
-2.25
 31
0.0
  0
LINE
  5
1CA
330
1A9
100
AcDbEntity
  8
AM_9
100
AcDbLine
 10
-3.03125
 20
-0.9375
 30
0.0
 11
-3.03125
 21
-2.25
 31
0.0
  0
LINE
  5
1CB
330
1A9
100
AcDbEntity
  8
AM_9
100
AcDbLine
 10
-2.71875
 20
-2.25
 30
0.0
 11
-2.71875
 21
-0.9375
 31
0.0
  0
LINE
  5
1CC
330
1A9
100
AcDbEntity
  8
AM_9
100
AcDbLine
 10
3.03125
 20
-0.9375
 30
0.0
 11
3.03125
 21
-2.25
 31
0.0
  0
LINE
  5
1CD
330
1A9
100
AcDbEntity
  8
AM_9
100
AcDbLine
 10
2.71875
 20
-0.9375
 30
0.0
 11
2.71875
 21
-2.25
 31
0.0
  0
LINE
  5
1CE
330
1A9
100
AcDbEntity
  8
AM_9
100
AcDbLine
 10
3.21875
 20
-0.9375
 30
0.0
 11
3.21875
 21
-2.25
 31
0.0
  0
LINE
  5
1CF
330
1A9
100
AcDbEntity
  8
AM_9
100
AcDbLine
 10
3.53125
 20
-2.25
 30
0.0
 11
3.53125
 21
-0.9375
 31
0.0
  0
LINE
  5
1D0
330
1A9
100
AcDbEntity
  8
AM_9
100
AcDbLine
 10
2.28625
 20
0.347443790417962
 30
0.0
 11
2.28625
 21
-0.8718749990221117
 31
0.0
  0
ARC
  5
1D1
330
1A9
100
AcDbEntity
  8
AM_9
100
AcDbCircle
 10
-2.351874999999999
 20
-0.8718750000000006
 30
0.0
 40
0.0656249999999994
100
AcDbArc
 50
270.0
 51
0.0000012074182697
  0
ARC
  5
1D2
330
1A9
100
AcDbEntity
  8
AM_9
100
AcDbCircle
 10
2.351875
 20
-0.8718750000000002
 30
0.0
 40
0.0656249999999998
100
AcDbArc
 50
180.0
 51
270.0
  0
LINE
  5
1D3
330
1A9
100
AcDbEntity
  8
AM_9
100
AcDbLine
 10
-2.28625
 20
-0.8718749990221116
 30
0.0
 11
-2.28625
 21
0.3474437904179621
 31
0.0
  0
LINE
  5
1D4
330
1A9
100
AcDbEntity
  8
AM_9
100
AcDbLine
 10
2.351875
 20
-0.9375
 30
0.0
 11
2.559986344569529
 21
-0.9375
 31
0.0
  0
LINE
  5
1D5
330
1A9
100
AcDbEntity
  8
AM_9
100
AcDbLine
 10
-2.559986344569527
 20
-0.9375
 30
0.0
 11
-2.351875
 21
-0.9375
 31
0.0
  0
LINE
  5
1D6
330
1A9
100
AcDbEntity
  8
AM_7
100
AcDbLine
 10
-1.8602325
 20
0.0
 30
0.0
 11
1.8602325
 21
0.0
 31
0.0
  0
LINE
  5
1D7
330
1A9
100
AcDbEntity
  8
AM_7
100
AcDbLine
 10
0.0
 20
-1.8602325
 30
0.0
 11
0.0
 21
1.8602325
 31
0.0
  0
LINE
  5
1D8
330
1A9
100
AcDbEntity
  8
AM_7
100
AcDbLine
 10
0.8779639752249087
 20
1.520678212304686
 30
0.0
 11
1.40975
 21
2.441758625970225
 31
0.0
  0
LINE
  5
1D9
330
1A9
100
AcDbEntity
  8
AM_4
100
AcDbLine
 10
1.562057967140479
 20
1.705563763455066
 30
0.0
 11
1.589262701892219
 21
1.752683746251514
 31
0.0
  0
LINE
  5
1DA
330
1A9
100
AcDbEntity
  8
AM_4
100
AcDbLine
 10
0.7232372981077807
 20
2.252683746251515
 30
0.0
 11
1.589262701892219
 21
1.752683746251514
 31
0.0
  0
LINE
  5
1DB
330
1A9
100
AcDbEntity
  8
AM_4
100
AcDbLine
 10
0.8598398384862243
 20
2.289286286629959
 30
0.0
 11
1.552660161398423
 21
1.889286286696557
 31
0.0
  0
ARC
  5
1DC
330
1A9
100
AcDbEntity
  8
AM_4
100
AcDbCircle
 10
1.502660161513774
 20
1.802683746251514
 30
0.0
 40
0.1000000000000008
100
AcDbArc
 50
330.0000000000002
 51
59.99999999999959
  0
ARC
  5
1DD
330
1A9
100
AcDbEntity
  8
AM_4
100
AcDbCircle
 10
0.8098398384862248
 20
2.202683746251513
 30
0.0
 40
0.1000000000000012
100
AcDbArc
 50
60.00000000000036
 51
149.9999999999993
  0
LINE
  5
1DE
330
1A9
100
AcDbEntity
  8
AM_4
100
AcDbLine
 10
0.7232372981077807
 20
2.252683746251515
 30
0.0
 11
0.6958867898695582
 21
2.205311276370082
 31
0.0
  0
ARC
  5
1DF
330
1A9
100
AcDbEntity
  8
AM_4
100
AcDbCircle
 10
2.559986344569527
 20
-0.8062500000000006
 30
0.0
 40
0.1312499999999986
100
AcDbArc
 50
186.9431399116295
 51
207.6732880355076
  0
ARC
  5
1E0
330
1A9
100
AcDbEntity
  8
AM_4
100
AcDbCircle
 10
-2.559986344569512
 20
-0.8062500000000046
 30
0.0
 40
0.131249999999984
100
AcDbArc
 50
332.3267119644908
 51
353.0568600883715
  0
LINE
  5
1E1
330
1A9
100
AcDbEntity
  8
AM_4
100
AcDbLine
 10
-0.5249250000000004
 20
2.3125
 30
0.0
 11
0.5249250000000004
 21
2.3125
 31
0.0
  0
ARC
  5
1E2
330
1A9
100
AcDbEntity
  8
AM_4
100
AcDbCircle
 10
-0.5249250000000013
 20
2.246875000000001
 30
0.0
 40
0.0656249999999989
100
AcDbArc
 50
90.0
 51
180.0
  0
LINE
  5
1E3
330
1A9
100
AcDbEntity
  8
AM_4
100
AcDbLine
 10
0.59055
 20
2.246875
 30
0.0
 11
0.59055
 21
2.235823550171167
 31
0.0
  0
ARC
  5
1E4
330
1A9
100
AcDbEntity
  8
AM_4
100
AcDbCircle
 10
0.0000000000000027
 20
0.0000000000000019
 30
0.0
 40
2.312499999999997
100
AcDbArc
 50
6.943139911629641
 51
75.20431333143262
  0
LINE
  5
1E5
330
1A9
100
AcDbEntity
  8
AM_4
100
AcDbLine
 10
-2.429698852599442
 20
-0.8221160624020231
 30
0.0
 11
-2.295541525187222
 21
0.2795449089880244
 31
0.0
  0
LINE
  5
1E6
330
1A9
100
AcDbEntity
  8
AM_4
100
AcDbLine
 10
2.295541525187222
 20
0.2795449089880251
 30
0.0
 11
2.429698852599443
 21
-0.8221160624020228
 31
0.0
  0
ARC
  5
1E7
330
1A9
100
AcDbEntity
  8
AM_4
100
AcDbCircle
 10
0.524925000000001
 20
2.246875000000001
 30
0.0
 40
0.065624999999999
100
AcDbArc
 50
0.0
 51
90.0
  0
LINE
  5
1E8
330
1A9
100
AcDbEntity
  8
AM_4
100
AcDbLine
 10
-0.59055
 20
2.235823550171167
 30
0.0
 11
-0.59055
 21
2.246875000000001
 31
0.0
  0
ARC
  5
1E9
330
1A9
100
AcDbEntity
  8
AM_4
100
AcDbCircle
 10
0.0000000000000013
 20
-0.0000000000000011
 30
0.0
 40
2.312500000000001
100
AcDbArc
 50
104.7956866685675
 51
173.0568600883703
  0
CIRCLE
  5
1EA
330
1A9
100
AcDbEntity
  8
AM_4
100
AcDbCircle
 10
0.0
 20
0.0
 30
0.0
 40
1.77165
  0
LWPOLYLINE
  5
1EB
330
1A9
100
AcDbEntity
  8
AM_4
100
AcDbPolyline
 90
       14
 70
     0
 43
0.0
 10
-2.44375
 20
-0.8672063343805544
 10
-2.44950500898191
 20
-0.8771050420702458
 10
-2.456100847638097
 20
-0.8864645001063384
 10
-2.46348731765371
 20
-0.8952134773617825
 10
-2.471608203531858
 20
-0.9032853888368869
 10
-2.480401700427483
 20
-0.9106188024113732
 10
-2.489800884519552
 20
-0.9171579063799028
 10
-2.499734222341739
 20
-0.9228529342128565
 10
-2.510126115195307
 20
-0.9276605433096737
 10
-2.520897474500842
 20
-0.931544144862214
 10
-2.531966323710105
 20
-0.9344741823176796
 10
-2.543248422197059
 20
-0.9364283563218296
 10
-2.554657906379901
 20
-0.9373917944305299
 10
-2.559986344569527
 20
-0.9375
  0
LINE
  5
1EC
330
1A9
100
AcDbEntity
  8
AM_4
100
AcDbLine
 10
-2.44375
 20
-0.8672063343805537
 30
0.0
 11
-2.44375
 21
-2.25
 31
0.0
  0
LINE
  5
1ED
330
1A9
100
AcDbEntity
  8
AM_4
100
AcDbLine
 10
-4.1875
 20
-2.25
 30
0.0
 11
4.1875
 21
-2.25
 31
0.0
  0
LINE
  5
1EE
330
1A9
100
AcDbEntity
  8
AM_4
100
AcDbLine
 10
4.1875
 20
-1.068749999999999
 30
0.0
 11
4.1875
 21
-2.25
 31
0.0
  0
LWPOLYLINE
  5
1EF
330
1A9
100
AcDbEntity
  8
AM_4
100
AcDbPolyline
 90
       19
 70
     0
 43
0.0
 10
4.056250000000001
 20
-0.9375000000000002
 10
4.067689191235631
 20
-0.9379994458754586
 10
4.079041323318786
 20
-0.9394939824171479
 10
4.090219999669707
 20
-0.9419722352995599
 10
4.101140143811494
 20
-0.9454153435218496
 10
4.111718646853467
 20
-0.9497971029514396
 10
4.121875000000001
 20
-0.9550841657532922
 10
4.131531907271075
 20
-0.9612362941870697
 10
4.140615873771359
 20
-0.9682066668406338
 10
4.149057765030735
 20
-0.9759422349692654
 10
4.156793333159366
 20
-0.9843841262286412
 10
4.16376370581293
 20
-0.9934680927289246
 10
4.169915834246708
 20
-1.003124999999999
 10
4.17520289704856
 20
-1.013281353146532
 10
4.17958465647815
 20
-1.023859856188505
 10
4.183027764700441
 20
-1.034780000330293
 10
4.185506017582853
 20
-1.045958676681214
 10
4.187000554124541
 20
-1.057310808764369
 10
4.1875
 20
-1.068749999999999
  0
LINE
  5
1F0
330
1A9
100
AcDbEntity
  8
AM_4
100
AcDbLine
 10
-2.56875
 20
-0.9375
 30
0.0
 11
-2.56875
 21
-2.25
 31
0.0
  0
LINE
  5
1F1
330
1A9
100
AcDbEntity
  8
AM_4
100
AcDbLine
 10
-4.1875
 20
-1.06875
 30
0.0
 11
-4.1875
 21
-2.25
 31
0.0
  0
LINE
  5
1F2
330
1A9
100
AcDbEntity
  8
AM_4
100
AcDbLine
 10
-3.9375
 20
-2.25
 30
0.0
 11
-3.9375
 21
-0.9374999999999998
 31
0.0
  0
LINE
  5
1F3
330
1A9
100
AcDbEntity
  8
AM_4
100
AcDbLine
 10
-4.05625
 20
-0.9375
 30
0.0
 11
-2.559986344569527
 21
-0.9375
 31
0.0
  0
LWPOLYLINE
  5
1F4
330
1A9
100
AcDbEntity
  8
AM_4
100
AcDbPolyline
 90
       19
 70
     0
 43
0.0
 10
-4.1875
 20
-1.068750008746502
 10
-4.18700055488685
 20
-1.057310817477588
 10
-4.185506019101666
 20
-1.045958685294838
 10
-4.183027766964202
 20
-1.034780008778766
 10
-4.17958465946963
 20
-1.023859864407529
 10
-4.175202900744992
 20
-1.013281361073556
 10
-4.169915838619959
 20
-1.003125007574693
 10
-4.163763710829718
 20
-0.9934680998936405
 10
-4.15679333878151
 20
-0.9843841329288513
 10
-4.149057771215446
 20
-0.9759422411539769
 10
-4.140615880471569
 20
-0.9682066724627777
 10
-4.131531914435791
 20
-0.9612362992038578
 10
-4.121875007574694
 20
-0.955084170126544
 10
-4.111718654780491
 20
-0.9497971066478716
 10
-4.101140152030519
 20
-0.9454153465133298
 10
-4.090220008118179
 20
-0.9419722375633216
 10
-4.07904133193241
 20
-0.9394939839359623
 10
-4.067689199948851
 20
-0.9379994466377667
 10
-4.056250008746503
 20
-0.9375000000000003
  0
LINE
  5
1F5
330
1A9
100
AcDbEntity
  8
AM_4
100
AcDbLine
 10
2.559986344569527
 20
-0.9375
 30
0.0
 11
4.056250000000001
 21
-0.9375
 31
0.0
  0
LWPOLYLINE
  5
1F6
330
1A9
100
AcDbEntity
  8
AM_4
100
AcDbPolyline
 90
       14
 70
     0
 43
0.0
 10
2.559986344569527
 20
-0.9375
 10
2.548547153333898
 20
-0.9370005541245415
 10
2.537195021250743
 20
-0.9355060175828521
 10
2.526016344899821
 20
-0.9330277647004399
 10
2.515096200758034
 20
-0.9295846564781503
 10
2.504517697716061
 20
-0.9252028970485598
 10
2.494361344569528
 20
-0.9199158342467071
 10
2.484704437298453
 20
-0.9137637058129295
 10
2.475620470798169
 20
-0.9067933331593652
 10
2.467178579538793
 20
-0.8990577650307335
 10
2.459443011410162
 20
-0.8906158737713574
 10
2.452472638756598
 20
-0.8815319072710738
 10
2.44632051032282
 20
-0.8718749999999991
 10
2.44375
 20
-0.8672063343805532
  0
LINE
  5
1F7
330
1A9
100
AcDbEntity
  8
AM_4
100
AcDbLine
 10
2.44375
 20
-0.8672063343805532
 30
0.0
 11
2.44375
 21
-2.25
 31
0.0
  0
LINE
  5
1F8
330
1A9
100
AcDbEntity
  8
AM_4
100
AcDbLine
 10
3.937499999999999
 20
-0.9375
 30
0.0
 11
3.9375
 21
-2.25
 31
0.0
  0
LINE
  5
1F9
330
1A9
100
AcDbEntity
  8
AM_4
100
AcDbLine
 10
2.56875
 20
-2.25
 30
0.0
 11
2.56875
 21
-0.9374999999999998
 31
0.0
  0
ENDBLK
  5
1AC
330
1A9
100
AcDbEntity
  8
0
100
AcDbBlockEnd
  0
ENDSEC
  0
SECTION
  2
ENTITIES
  0
INSERT
  5
6F
330
1F
100
AcDbEntity
  8
0
100
AcDbBlockReference
  2
1_069411_0
 10
0.0
 20
0.0
 30
0.0
  0
POINT
  5
1FB
330
1F
100
AcDbEntity
  8
ConnectionPoints
100
AcDbPoint
 10
0.0
 20
1.375868055555556
 30
1.837166666666667
  0
POINT
  5
1FC
330
1F
100
AcDbEntity
  8
ConnectionPoints
100
AcDbPoint
 10
0.0
 20
0.0
 30
1.767166666666667
  0
POINT
  5
1FD
330
1F
100
AcDbEntity
  8
ConnectionPoints
100
AcDbPoint
 10
0.0
 20
0.0
 30
2.0
  0
POINT
  5
1FE
330
1F
100
AcDbEntity
  8
ConnectionPoints
100
AcDbPoint
 10
0.0
 20
0.0
 30
1.966166666666667
  0
POINT
  5
1FF
330
1F
100
AcDbEntity
  8
ConnectionPoints
100
AcDbPoint
 10
0.0
 20
1.375868055555556
 30
1.767166666666667
  0
POINT
  5
200
330
1F
100
AcDbEntity
  8
ConnectionPoints
100
AcDbPoint
 10
0.0
 20
1.375868055555556
 30
1.899
  0
POINT
  5
201
330
1F
100
AcDbEntity
  8
ConnectionPoints
100
AcDbPoint
 10
0.0
 20
-1.375868055555556
 30
1.767166666666667
  0
POINT
  5
202
330
1F
100
AcDbEntity
  8
ConnectionPoints
100
AcDbPoint
 10
0.0
 20
-1.375868055555556
 30
1.899
  0
POINT
  5
203
330
1F
100
AcDbEntity
  8
ConnectionPoints
100
AcDbPoint
 10
0.0
 20
0.0
 30
1.767166666666667
  0
POINT
  5
204
330
1F
100
AcDbEntity
  8
ConnectionPoints
100
AcDbPoint
 10
1.20625
 20
2.089286286629958
 30
0.0
  0
POINT
  5
205
330
1F
100
AcDbEntity
  8
ConnectionPoints
100
AcDbPoint
 10
1.20625
 20
2.089286286629958
 30
0.0
  0
POINT
  5
206
330
1F
100
AcDbEntity
  8
ConnectionPoints
100
AcDbPoint
 10
0.0
 20
0.0
 30
1.75
  0
POINT
  5
207
330
1F
100
AcDbEntity
  8
ConnectionPoints
100
AcDbPoint
 10
0.0
 20
0.0
 30
2.0
  0
ENDSEC
  0
SECTION
  2
OBJECTS
  0
DICTIONARY
  5
C
330
0
100
AcDbDictionary
281
     1
  3
ACAD_DETAILVIEWSTYLE
350
20F
  3
ACAD_GROUP
350
D
  3
ACAD_LAYOUT
350
1A
  3
ACAD_MATERIAL
350
43
  3
ACAD_MLEADERSTYLE
350
6B
  3
ACAD_MLINESTYLE
350
17
  3
ACAD_PLOTSETTINGS
350
19
  3
ACAD_PLOTSTYLENAME
350
E
  3
ACAD_SCALELIST
350
47
  3
ACAD_SECTIONVIEWSTYLE
350
210
  3
ACAD_TABLESTYLE
350
69
  3
ACAD_VISUALSTYLE
350
2A
  3
ACDB_RECOMPOSE_DATA
350
20C
  3
AcDbVariableDictionary
350
208
  0
SUN
  5
6D
330
29
100
AcDbSun
 90
        1
290
     0
 63
     7
421
 16777215
 40
1.0
291
     1
 91
  2455826
 92
 54000000
292
     0
 70
     2
 71
   256
280
     1
  0
DICTIONARY
  5
20F
102
{ACAD_REACTORS
330
C
102
}
330
C
100
AcDbDictionary
281
     1
  0
DICTIONARY
  5
D
102
{ACAD_REACTORS
330
C
102
}
330
C
100
AcDbDictionary
281
     1
  0
DICTIONARY
  5
1A
102
{ACAD_REACTORS
330
C
102
}
330
C
100
AcDbDictionary
281
     1
  3
Layout1
350
1E
  3
Layout2
350
26
  3
Model
350
22
  0
DICTIONARY
  5
43
102
{ACAD_REACTORS
330
C
102
}
330
C
100
AcDbDictionary
281
     1
  3
ByBlock
350
45
  3
ByLayer
350
44
  3
Global
350
46
  0
DICTIONARY
  5
6B
102
{ACAD_REACTORS
330
C
102
}
330
C
100
AcDbDictionary
281
     1
  3
Standard
350
6C
  0
DICTIONARY
  5
17
102
{ACAD_REACTORS
330
C
102
}
330
C
100
AcDbDictionary
281
     1
  3
Standard
350
18
  0
DICTIONARY
  5
19
102
{ACAD_REACTORS
330
C
102
}
330
C
100
AcDbDictionary
281
     1
  0
ACDBDICTIONARYWDFLT
  5
E
102
{ACAD_REACTORS
330
C
102
}
330
C
100
AcDbDictionary
281
     1
  3
Normal
350
F
100
AcDbDictionaryWithDefault
340
F
  0
DICTIONARY
  5
47
102
{ACAD_REACTORS
330
C
102
}
330
C
100
AcDbDictionary
281
     1
  3
A0
350
48
  3
A1
350
49
  3
A2
350
4A
  3
A3
350
4B
  3
A4
350
4C
  3
A5
350
4D
  3
A6
350
4E
  3
A7
350
4F
  3
A8
350
50
  3
A9
350
51
  3
B0
350
52
  3
B1
350
53
  3
B2
350
54
  3
B3
350
55
  3
B4
350
56
  3
B5
350
57
  3
B6
350
58
  3
B7
350
59
  3
B8
350
5A
  3
B9
350
5B
  3
C0
350
5C
  3
C1
350
5D
  3
C2
350
5E
  3
C3
350
5F
  3
C4
350
60
  3
C5
350
61
  3
C6
350
62
  3
C7
350
63
  3
C8
350
64
  3
C9
350
65
  3
D0
350
66
  3
D1
350
67
  3
D2
350
68
  0
DICTIONARY
  5
210
102
{ACAD_REACTORS
330
C
102
}
330
C
100
AcDbDictionary
281
     1
  0
DICTIONARY
  5
69
102
{ACAD_REACTORS
330
C
102
}
330
C
100
AcDbDictionary
281
     1
  3
Standard
350
6A
  0
DICTIONARY
  5
2A
102
{ACAD_REACTORS
330
C
102
}
330
C
100
AcDbDictionary
281
     1
  3
2dWireframe
350
2F
  3
Basic
350
32
  3
Brighten
350
36
  3
ColorChange
350
3A
  3
Conceptual
350
34
  3
Dim
350
35
  3
EdgeColorOff
350
3D
  3
Facepattern
350
39
  3
Flat
350
2B
  3
FlatWithEdges
350
2C
  3
Gouraud
350
2D
  3
GouraudWithEdges
350
2E
  3
Hidden
350
31
  3
JitterOff
350
3B
  3
Linepattern
350
38
  3
OverhangOff
350
3C
  3
Realistic
350
33
  3
Shaded
350
42
  3
Shaded with edges
350
41
  3
Shades of Gray
350
3E
  3
Sketchy
350
3F
  3
Thicken
350
37
  3
Wireframe
350
30
  3
X-Ray
350
40
  0
XRECORD
  5
20C
102
{ACAD_REACTORS
330
C
102
}
330
C
100
AcDbXrecord
280
     1
 90
        1
330
6A
  0
DICTIONARY
  5
208
102
{ACAD_REACTORS
330
C
102
}
330
C
100
AcDbDictionary
281
     1
  3
CANNOSCALE
350
209
  3
CMLEADERSTYLE
350
20E
  3
CTABLESTYLE
350
20D
  0
LAYOUT
  5
1E
102
{ACAD_REACTORS
330
1A
102
}
330
1A
100
AcDbPlotSettings
  1

  2
none_device
  4

  6

 40
0.0
 41
0.0
 42
0.0
 43
0.0
 44
0.0
 45
0.0
 46
0.0
 47
0.0
 48
0.0
 49
0.0
140
0.0
141
0.0
142
1.0
143
1.0
 70
   688
 72
     0
 73
     0
 74
     5
  7

 75
    16
 76
     0
 77
     2
 78
   300
147
1.0
148
0.0
149
0.0
100
AcDbLayout
  1
Layout1
 70
     1
 71
     1
 10
0.0
 20
0.0
 11
12.0
 21
9.0
 12
0.0
 22
0.0
 32
0.0
 14
1.000000000000000E+20
 24
1.000000000000000E+20
 34
1.000000000000000E+20
 15
-1.000000000000000E+20
 25
-1.000000000000000E+20
 35
-1.000000000000000E+20
146
0.0
 13
0.0
 23
0.0
 33
0.0
 16
1.0
 26
0.0
 36
0.0
 17
0.0
 27
1.0
 37
0.0
 76
     0
330
1B
  0
LAYOUT
  5
26
102
{ACAD_REACTORS
330
1A
102
}
330
1A
100
AcDbPlotSettings
  1

  2
none_device
  4

  6

 40
0.0
 41
0.0
 42
0.0
 43
0.0
 44
0.0
 45
0.0
 46
0.0
 47
0.0
 48
0.0
 49
0.0
140
0.0
141
0.0
142
1.0
143
1.0
 70
   688
 72
     0
 73
     0
 74
     5
  7

 75
    16
 76
     0
 77
     2
 78
   300
147
1.0
148
0.0
149
0.0
100
AcDbLayout
  1
Layout2
 70
     1
 71
     2
 10
0.0
 20
0.0
 11
0.0
 21
0.0
 12
0.0
 22
0.0
 32
0.0
 14
0.0
 24
0.0
 34
0.0
 15
0.0
 25
0.0
 35
0.0
146
0.0
 13
0.0
 23
0.0
 33
0.0
 16
1.0
 26
0.0
 36
0.0
 17
0.0
 27
1.0
 37
0.0
 76
     0
330
23
  0
LAYOUT
  5
22
102
{ACAD_REACTORS
330
1A
102
}
330
1A
100
AcDbPlotSettings
  1

  2
none_device
  4
Letter_(8.50_x_11.00_Inches)
  6

 40
6.35
 41
6.35
 42
6.35000508
 43
6.35000508
 44
215.9
 45
279.4
 46
0.0
 47
0.0
 48
0.0
 49
0.0
140
0.0
141
0.0
142
1.0
143
1.0
 70
  1712
 72
     0
 73
     0
 74
     0
  7

 75
     0
 76
     0
 77
     2
 78
   300
147
1.0
148
0.0
149
0.0
100
AcDbLayout
  1
Model
 70
     1
 71
     0
 10
0.0
 20
0.0
 11
12.0
 21
9.0
 12
0.0
 22
0.0
 32
0.0
 14
1.000000000000000E+20
 24
1.000000000000000E+20
 34
1.000000000000000E+20
 15
-1.000000000000000E+20
 25
-1.000000000000000E+20
 35
-1.000000000000000E+20
146
0.0
 13
0.0
 23
0.0
 33
0.0
 16
1.0
 26
0.0
 36
0.0
 17
0.0
 27
1.0
 37
0.0
 76
     0
330
1F
331
29
  0
MATERIAL
  5
45
102
{ACAD_REACTORS
330
43
102
}
330
43
100
AcDbMaterial
  1
ByBlock
 72
     1
 94
      127
  0
MATERIAL
  5
44
102
{ACAD_REACTORS
330
43
102
}
330
43
100
AcDbMaterial
  1
ByLayer
 72
     1
 94
      127
  0
MATERIAL
  5
46
102
{ACAD_REACTORS
330
43
102
}
330
43
100
AcDbMaterial
  1
Global
 72
     1
 94
      127
  0
MLEADERSTYLE
  5
6C
102
{ACAD_REACTORS
330
6B
102
}
330
6B
100
AcDbMLeaderStyle
179
     2
170
     2
171
     1
172
     0
 90
        2
 40
0.0
 41
0.0
173
     1
 91
-1056964608
340
14
 92
       -2
290
     1
 42
0.09
291
     1
 43
0.36
  3
Standard
341
0
 44
0.18
300

342
11
174
     1
178
     6
175
     1
176
     0
 93
-1056964608
 45
0.18
292
     0
297
     0
 46
0.18
343
0
 94
-1056964608
 47
1.0
 49
1.0
140
1.0
293
     1
141
0.0
294
     1
177
     0
142
1.0
295
     0
296
     0
143
0.125
271
     0
272
     9
273
     9
298
     0
  0
MLINESTYLE
  5
18
102
{ACAD_REACTORS
330
17
102
}
330
17
100
AcDbMlineStyle
  2
Standard
 70
     0
  3

 62
   256
 51
90.0
 52
90.0
 71
     2
 49
0.5
 62
   256
  6
BYLAYER
 49
-0.5
 62
   256
  6
BYLAYER
  0
ACDBPLACEHOLDER
  5
F
102
{ACAD_REACTORS
330
E
102
}
330
E
  0
SCALE
  5
48
102
{ACAD_REACTORS
330
47
102
}
330
47
100
AcDbScale
 70
     0
300
1:1
140
1.0
141
1.0
290
     1
  0
SCALE
  5
49
102
{ACAD_REACTORS
330
47
102
}
330
47
100
AcDbScale
 70
     0
300
1:2
140
1.0
141
2.0
290
     0
  0
SCALE
  5
4A
102
{ACAD_REACTORS
330
47
102
}
330
47
100
AcDbScale
 70
     0
300
1:4
140
1.0
141
4.0
290
     0
  0
SCALE
  5
4B
102
{ACAD_REACTORS
330
47
102
}
330
47
100
AcDbScale
 70
     0
300
1:5
140
1.0
141
5.0
290
     0
  0
SCALE
  5
4C
102
{ACAD_REACTORS
330
47
102
}
330
47
100
AcDbScale
 70
     0
300
1:8
140
1.0
141
8.0
290
     0
  0
SCALE
  5
4D
102
{ACAD_REACTORS
330
47
102
}
330
47
100
AcDbScale
 70
     0
300
1:10
140
1.0
141
10.0
290
     0
  0
SCALE
  5
4E
102
{ACAD_REACTORS
330
47
102
}
330
47
100
AcDbScale
 70
     0
300
1:16
140
1.0
141
16.0
290
     0
  0
SCALE
  5
4F
102
{ACAD_REACTORS
330
47
102
}
330
47
100
AcDbScale
 70
     0
300
1:20
140
1.0
141
20.0
290
     0
  0
SCALE
  5
50
102
{ACAD_REACTORS
330
47
102
}
330
47
100
AcDbScale
 70
     0
300
1:30
140
1.0
141
30.0
290
     0
  0
SCALE
  5
51
102
{ACAD_REACTORS
330
47
102
}
330
47
100
AcDbScale
 70
     0
300
1:40
140
1.0
141
40.0
290
     0
  0
SCALE
  5
52
102
{ACAD_REACTORS
330
47
102
}
330
47
100
AcDbScale
 70
     0
300
1:50
140
1.0
141
50.0
290
     0
  0
SCALE
  5
53
102
{ACAD_REACTORS
330
47
102
}
330
47
100
AcDbScale
 70
     0
300
1:100
140
1.0
141
100.0
290
     0
  0
SCALE
  5
54
102
{ACAD_REACTORS
330
47
102
}
330
47
100
AcDbScale
 70
     0
300
2:1
140
2.0
141
1.0
290
     0
  0
SCALE
  5
55
102
{ACAD_REACTORS
330
47
102
}
330
47
100
AcDbScale
 70
     0
300
4:1
140
4.0
141
1.0
290
     0
  0
SCALE
  5
56
102
{ACAD_REACTORS
330
47
102
}
330
47
100
AcDbScale
 70
     0
300
8:1
140
8.0
141
1.0
290
     0
  0
SCALE
  5
57
102
{ACAD_REACTORS
330
47
102
}
330
47
100
AcDbScale
 70
     0
300
10:1
140
10.0
141
1.0
290
     0
  0
SCALE
  5
58
102
{ACAD_REACTORS
330
47
102
}
330
47
100
AcDbScale
 70
     0
300
100:1
140
100.0
141
1.0
290
     0
  0
SCALE
  5
59
102
{ACAD_REACTORS
330
47
102
}
330
47
100
AcDbScale
 70
     0
300
1/128" = 1'-0"
140
0.0078125
141
12.0
290
     0
  0
SCALE
  5
5A
102
{ACAD_REACTORS
330
47
102
}
330
47
100
AcDbScale
 70
     0
300
1/64" = 1'-0"
140
0.015625
141
12.0
290
     0
  0
SCALE
  5
5B
102
{ACAD_REACTORS
330
47
102
}
330
47
100
AcDbScale
 70
     0
300
1/32" = 1'-0"
140
0.03125
141
12.0
290
     0
  0
SCALE
  5
5C
102
{ACAD_REACTORS
330
47
102
}
330
47
100
AcDbScale
 70
     0
300
1/16" = 1'-0"
140
0.0625
141
12.0
290
     0
  0
SCALE
  5
5D
102
{ACAD_REACTORS
330
47
102
}
330
47
100
AcDbScale
 70
     0
300
3/32" = 1'-0"
140
0.09375
141
12.0
290
     0
  0
SCALE
  5
5E
102
{ACAD_REACTORS
330
47
102
}
330
47
100
AcDbScale
 70
     0
300
1/8" = 1'-0"
140
0.125
141
12.0
290
     0
  0
SCALE
  5
5F
102
{ACAD_REACTORS
330
47
102
}
330
47
100
AcDbScale
 70
     0
300
3/16" = 1'-0"
140
0.1875
141
12.0
290
     0
  0
SCALE
  5
60
102
{ACAD_REACTORS
330
47
102
}
330
47
100
AcDbScale
 70
     0
300
1/4" = 1'-0"
140
0.25
141
12.0
290
     0
  0
SCALE
  5
61
102
{ACAD_REACTORS
330
47
102
}
330
47
100
AcDbScale
 70
     0
300
3/8" = 1'-0"
140
0.375
141
12.0
290
     0
  0
SCALE
  5
62
102
{ACAD_REACTORS
330
47
102
}
330
47
100
AcDbScale
 70
     0
300
1/2" = 1'-0"
140
0.5
141
12.0
290
     0
  0
SCALE
  5
63
102
{ACAD_REACTORS
330
47
102
}
330
47
100
AcDbScale
 70
     0
300
3/4" = 1'-0"
140
0.75
141
12.0
290
     0
  0
SCALE
  5
64
102
{ACAD_REACTORS
330
47
102
}
330
47
100
AcDbScale
 70
     0
300
1" = 1'-0"
140
1.0
141
12.0
290
     0
  0
SCALE
  5
65
102
{ACAD_REACTORS
330
47
102
}
330
47
100
AcDbScale
 70
     0
300
1-1/2" = 1'-0"
140
1.5
141
12.0
290
     0
  0
SCALE
  5
66
102
{ACAD_REACTORS
330
47
102
}
330
47
100
AcDbScale
 70
     0
300
3" = 1'-0"
140
3.0
141
12.0
290
     0
  0
SCALE
  5
67
102
{ACAD_REACTORS
330
47
102
}
330
47
100
AcDbScale
 70
     0
300
6" = 1'-0"
140
6.0
141
12.0
290
     0
  0
SCALE
  5
68
102
{ACAD_REACTORS
330
47
102
}
330
47
100
AcDbScale
 70
     0
300
1'-0" = 1'-0"
140
12.0
141
12.0
290
     0
  0
TABLESTYLE
  5
6A
102
{ACAD_REACTORS
330
69
102
}
102
{ACAD_XDICTIONARY
360
20A
102
}
330
69
100
AcDbTableStyle
  3
Standard
 70
     0
 71
     0
 40
0.06
 41
0.06
280
     0
281
     0
  7
Standard
140
0.18
170
     2
 62
     0
 63
   257
283
     0
 90
        4
 91
        0
  1

274
    -2
284
     1
 64
     0
275
    -2
285
     1
 65
     0
276
    -2
286
     1
 66
     0
277
    -2
287
     1
 67
     0
278
    -2
288
     1
 68
     0
279
    -2
289
     1
 69
     0
  7
Standard
140
0.25
170
     5
 62
     0
 63
   257
283
     0
 90
        4
 91
        0
  1

274
    -2
284
     1
 64
     0
275
    -2
285
     1
 65
     0
276
    -2
286
     1
 66
     0
277
    -2
287
     1
 67
     0
278
    -2
288
     1
 68
     0
279
    -2
289
     1
 69
     0
  7
Standard
140
0.18
170
     5
 62
     0
 63
   257
283
     0
 90
        4
 91
        0
  1

274
    -2
284
     1
 64
     0
275
    -2
285
     1
 65
     0
276
    -2
286
     1
 66
     0
277
    -2
287
     1
 67
     0
278
    -2
288
     1
 68
     0
279
    -2
289
     1
 69
     0
  0
VISUALSTYLE
  5
2F
102
{ACAD_REACTORS
330
2A
102
}
330
2A
100
AcDbVisualStyle
  2
2dWireframe
 70
     4
177
     3
291
     0
 70
    58
 90
        0
176
     1
 90
        2
176
     1
 90
        0
176
     1
 90
        0
176
     1
 40
0.6
176
     1
 40
30.0
176
     1
 62
     7
420
 16777215
176
     1
 90
        1
176
     1
 90
        4
176
     1
 62
     7
176
     1
 62
   257
176
     1
 90
        1
176
     1
 90
        1
176
     1
 40
1.0
176
     1
 90
        0
176
     1
 62
   257
176
     1
 40
1.0
176
     1
 90
        1
176
     1
 90
        6
176
     1
 90
        2
176
     1
 62
     7
176
     1
 90
        5
176
     1
 90
        0
176
     1
 90
        0
176
     1
290
     0
176
     1
 90
        1
176
     1
 40
0.0
176
     1
 90
        0
176
     1
290
     1
176
     1
290
     1
176
     1
290
     0
176
     1
290
     0
176
     1
290
     0
176
     1
290
     0
176
     1
290
     0
176
     1
290
     0
176
     1
290
     0
176
     1
 90
       50
176
     1
 40
0.0
176
     1
 40
1.0
176
     1
 90
        0
176
     1
 62
    18
420
        0
176
     1
 90
       50
176
     1
 90
        3
176
     1
 62
     5
420
      255
176
     1
290
     0
176
     1
 90
       50
176
     1
 90
       50
176
     1
 90
       50
176
     1
290
     0
176
     1
 90
       50
176
     1
 62
   256
176
     0
 40
1.0
176
     0
 90
        2
176
     1
  1
strokes_ogs.tif
176
     1
290
     0
176
     1
 40
1.0
176
     1
 40
1.0
176
     1
  0
VISUALSTYLE
  5
32
102
{ACAD_REACTORS
330
2A
102
}
330
2A
100
AcDbVisualStyle
  2
Basic
 70
     7
177
     3
291
     1
 70
    58
 90
        1
176
     1
 90
        0
176
     1
 90
        1
176
     1
 90
        0
176
     1
 40
0.6
176
     1
 40
30.0
176
     1
 62
     7
420
 16777215
176
     1
 90
        0
176
     1
 90
        4
176
     1
 62
     7
176
     1
 62
   257
176
     1
 90
        1
176
     1
 90
        1
176
     1
 40
1.0
176
     1
 90
        8
176
     1
 62
     7
176
     1
 40
1.0
176
     1
 90
        1
176
     1
 90
        6
176
     1
 90
        2
176
     1
 62
     7
176
     1
 90
        5
176
     1
 90
        0
176
     1
 90
        0
176
     1
290
     0
176
     1
 90
        1
176
     1
 40
0.0
176
     1
 90
        0
176
     1
290
     0
176
     1
290
     1
176
     1
290
     1
176
     1
290
     0
176
     1
290
     0
176
     1
290
     0
176
     1
290
     0
176
     1
290
     0
176
     1
290
     0
176
     1
 90
       50
176
     1
 40
0.0
176
     1
 40
1.0
176
     1
 90
        0
176
     1
 62
    18
420
        0
176
     1
 90
       50
176
     1
 90
        3
176
     1
 62
     5
420
      255
176
     1
290
     0
176
     1
 90
       50
176
     1
 90
       50
176
     1
 90
       50
176
     1
290
     0
176
     1
 90
       50
176
     1
 62
   256
176
     0
 40
1.0
176
     0
 90
        2
176
     1
  1
strokes_ogs.tif
176
     1
290
     0
176
     1
 40
1.0
176
     1
 40
1.0
176
     1
  0
VISUALSTYLE
  5
36
102
{ACAD_REACTORS
330
2A
102
}
330
2A
100
AcDbVisualStyle
  2
Brighten
 70
    12
177
     3
291
     1
 70
    58
 90
        2
176
     1
 90
        2
176
     1
 90
        0
176
     1
 90
        0
176
     1
 40
0.6
176
     1
 40
30.0
176
     1
 62
     7
420
 16777215
176
     1
 90
        1
176
     1
 90
        4
176
     1
 62
     7
176
     1
 62
   257
176
     1
 90
        1
176
     1
 90
        1
176
     1
 40
1.0
176
     1
 90
        8
176
     1
 62
     7
176
     1
 40
1.0
176
     1
 90
        1
176
     1
 90
        6
176
     1
 90
        2
176
     1
 62
     7
176
     1
 90
        5
176
     1
 90
        0
176
     1
 90
        0
176
     1
290
     0
176
     1
 90
        1
176
     1
 40
50.0
176
     1
 90
        0
176
     1
290
     0
176
     1
290
     1
176
     1
290
     1
176
     1
290
     0
176
     1
290
     0
176
     1
290
     0
176
     1
290
     0
176
     1
290
     0
176
     1
290
     0
176
     1
 90
       50
176
     1
 40
0.0
176
     1
 40
1.0
176
     1
 90
        0
176
     1
 62
    18
420
        0
176
     1
 90
       50
176
     1
 90
        3
176
     1
 62
     5
420
      255
176
     1
290
     0
176
     1
 90
       50
176
     1
 90
       50
176
     1
 90
       50
176
     1
290
     0
176
     1
 90
       50
176
     1
 62
   256
176
     0
 40
1.0
176
     0
 90
        2
176
     1
  1
strokes_ogs.tif
176
     1
290
     0
176
     1
 40
1.0
176
     1
 40
1.0
176
     1
  0
VISUALSTYLE
  5
3A
102
{ACAD_REACTORS
330
2A
102
}
330
2A
100
AcDbVisualStyle
  2
ColorChange
 70
    16
177
     3
291
     1
 70
    58
 90
        2
176
     1
 90
        2
176
     1
 90
        3
176
     1
 90
        0
176
     1
 40
0.6
176
     1
 40
30.0
176
     1
 62
     8
420
  8421504
176
     1
 90
        1
176
     1
 90
        4
176
     1
 62
     7
176
     1
 62
   257
176
     1
 90
        1
176
     1
 90
        1
176
     1
 40
1.0
176
     1
 90
        8
176
     1
 62
     8
420
  8421504
176
     1
 40
1.0
176
     1
 90
        1
176
     1
 90
        6
176
     1
 90
        2
176
     1
 62
     7
176
     1
 90
        5
176
     1
 90
        0
176
     1
 90
        0
176
     1
290
     0
176
     1
 90
        1
176
     1
 40
0.0
176
     1
 90
        0
176
     1
290
     0
176
     1
290
     1
176
     1
290
     1
176
     1
290
     0
176
     1
290
     0
176
     1
290
     0
176
     1
290
     0
176
     1
290
     0
176
     1
290
     0
176
     1
 90
       50
176
     1
 40
0.0
176
     1
 40
1.0
176
     1
 90
        0
176
     1
 62
    18
420
        0
176
     1
 90
       50
176
     1
 90
        3
176
     1
 62
     5
420
      255
176
     1
290
     0
176
     1
 90
       50
176
     1
 90
       50
176
     1
 90
       50
176
     1
290
     0
176
     1
 90
       50
176
     1
 62
   256
176
     0
 40
1.0
176
     0
 90
        2
176
     1
  1
strokes_ogs.tif
176
     1
290
     0
176
     1
 40
1.0
176
     1
 40
1.0
176
     1
  0
VISUALSTYLE
  5
34
102
{ACAD_REACTORS
330
2A
102
}
330
2A
100
AcDbVisualStyle
  2
Conceptual
 70
     9
177
     3
291
     0
 70
    58
 90
        3
176
     1
 90
        2
176
     1
 90
        0
176
     1
 90
        0
176
     1
 40
0.6
176
     1
 40
30.0
176
     1
 62
     7
420
 16777215
176
     1
 90
        2
176
     1
 90
        2
176
     1
 62
     7
176
     1
 62
   257
176
     1
 90
        1
176
     1
 90
        1
176
     1
 40
179.0
176
     1
 90
        8
176
     1
 62
     7
176
     1
 40
1.0
176
     1
 90
        1
176
     1
 90
        6
176
     1
 90
        2
176
     1
 62
     7
176
     1
 90
        3
176
     1
 90
        0
176
     1
 90
        0
176
     1
290
     0
176
     1
 90
        1
176
     1
 40
0.0
176
     1
 90
        0
176
     1
290
     0
176
     1
290
     1
176
     1
290
     1
176
     1
290
     0
176
     1
290
     0
176
     1
290
     0
176
     1
290
     0
176
     1
290
     0
176
     1
290
     0
176
     1
 90
       50
176
     1
 40
0.0
176
     1
 40
1.0
176
     1
 90
        0
176
     1
 62
    18
420
        0
176
     1
 90
       50
176
     1
 90
        3
176
     1
 62
     5
420
      255
176
     1
290
     0
176
     1
 90
       50
176
     1
 90
       50
176
     1
 90
       50
176
     1
290
     0
176
     1
 90
       50
176
     1
 62
   256
176
     0
 40
1.0
176
     0
 90
        2
176
     1
  1
strokes_ogs.tif
176
     1
290
     0
176
     1
 40
1.0
176
     1
 40
1.0
176
     1
  0
VISUALSTYLE
  5
35
102
{ACAD_REACTORS
330
2A
102
}
330
2A
100
AcDbVisualStyle
  2
Dim
 70
    11
177
     3
291
     1
 70
    58
 90
        2
176
     1
 90
        2
176
     1
 90
        0
176
     1
 90
        0
176
     1
 40
0.6
176
     1
 40
30.0
176
     1
 62
     7
420
 16777215
176
     1
 90
        1
176
     1
 90
        4
176
     1
 62
     7
176
     1
 62
   257
176
     1
 90
        1
176
     1
 90
        1
176
     1
 40
1.0
176
     1
 90
        8
176
     1
 62
     7
176
     1
 40
1.0
176
     1
 90
        1
176
     1
 90
        6
176
     1
 90
        2
176
     1
 62
     7
176
     1
 90
        5
176
     1
 90
        0
176
     1
 90
        0
176
     1
290
     0
176
     1
 90
        1
176
     1
 40
-50.0
176
     1
 90
        0
176
     1
290
     0
176
     1
290
     1
176
     1
290
     1
176
     1
290
     0
176
     1
290
     0
176
     1
290
     0
176
     1
290
     0
176
     1
290
     0
176
     1
290
     0
176
     1
 90
       50
176
     1
 40
0.0
176
     1
 40
1.0
176
     1
 90
        0
176
     1
 62
    18
420
        0
176
     1
 90
       50
176
     1
 90
        3
176
     1
 62
     5
420
      255
176
     1
290
     0
176
     1
 90
       50
176
     1
 90
       50
176
     1
 90
       50
176
     1
290
     0
176
     1
 90
       50
176
     1
 62
   256
176
     0
 40
1.0
176
     0
 90
        2
176
     1
  1
strokes_ogs.tif
176
     1
290
     0
176
     1
 40
1.0
176
     1
 40
1.0
176
     1
  0
VISUALSTYLE
  5
3D
102
{ACAD_REACTORS
330
2A
102
}
330
2A
100
AcDbVisualStyle
  2
EdgeColorOff
 70
    22
177
     3
291
     1
 70
    58
 90
        2
176
     0
 90
        2
176
     0
 90
        0
176
     0
 90
        0
176
     0
 40
0.6
176
     0
 40
30.0
176
     0
 62
     7
420
 16777215
176
     0
 90
        1
176
     0
 90
        4
176
     0
 62
     7
176
     0
 62
   257
176
     0
 90
        1
176
     0
 90
        1
176
     0
 40
1.0
176
     0
 90
        8
176
     2
 62
     7
176
     0
 40
1.0
176
     0
 90
        1
176
     0
 90
        6
176
     0
 90
        2
176
     0
 62
     7
176
     0
 90
        5
176
     0
 90
        0
176
     0
 90
        0
176
     0
290
     0
176
     0
 90
        1
176
     0
 40
0.0
176
     0
 90
        0
176
     0
290
     0
176
     0
290
     1
176
     0
290
     1
176
     0
290
     0
176
     0
290
     0
176
     0
290
     0
176
     0
290
     0
176
     0
290
     0
176
     0
290
     0
176
     0
 90
       50
176
     0
 40
0.0
176
     0
 40
1.0
176
     0
 90
        0
176
     0
 62
    18
420
        0
176
     0
 90
       50
176
     0
 90
        3
176
     0
 62
     5
420
      255
176
     0
290
     0
176
     0
 90
       50
176
     0
 90
       50
176
     0
 90
       50
176
     0
290
     0
176
     0
 90
       50
176
     0
 62
   256
176
     0
 40
1.0
176
     0
 90
        2
176
     0
  1
strokes_ogs.tif
176
     0
290
     0
176
     0
 40
1.0
176
     0
 40
1.0
176
     0
  0
VISUALSTYLE
  5
39
102
{ACAD_REACTORS
330
2A
102
}
330
2A
100
AcDbVisualStyle
  2
Facepattern
 70
    15
177
     3
291
     1
 70
    58
 90
        2
176
     1
 90
        2
176
     1
 90
        0
176
     1
 90
        0
176
     1
 40
0.6
176
     1
 40
30.0
176
     1
 62
     7
420
 16777215
176
     1
 90
        1
176
     1
 90
        4
176
     1
 62
     7
176
     1
 62
   257
176
     1
 90
        1
176
     1
 90
        1
176
     1
 40
1.0
176
     1
 90
        8
176
     1
 62
     7
176
     1
 40
1.0
176
     1
 90
        1
176
     1
 90
        6
176
     1
 90
        2
176
     1
 62
     7
176
     1
 90
        5
176
     1
 90
        0
176
     1
 90
        0
176
     1
290
     0
176
     1
 90
        1
176
     1
 40
0.0
176
     1
 90
        0
176
     1
290
     0
176
     1
290
     1
176
     1
290
     1
176
     1
290
     0
176
     1
290
     0
176
     1
290
     0
176
     1
290
     0
176
     1
290
     0
176
     1
290
     0
176
     1
 90
       50
176
     1
 40
0.0
176
     1
 40
1.0
176
     1
 90
        0
176
     1
 62
    18
420
        0
176
     1
 90
       50
176
     1
 90
        3
176
     1
 62
     5
420
      255
176
     1
290
     0
176
     1
 90
       50
176
     1
 90
       50
176
     1
 90
       50
176
     1
290
     0
176
     1
 90
       50
176
     1
 62
   256
176
     0
 40
1.0
176
     0
 90
        2
176
     1
  1
strokes_ogs.tif
176
     1
290
     0
176
     1
 40
1.0
176
     1
 40
1.0
176
     1
  0
VISUALSTYLE
  5
2B
102
{ACAD_REACTORS
330
2A
102
}
330
2A
100
AcDbVisualStyle
  2
Flat
 70
     0
177
     3
291
     1
 70
    58
 90
        2
176
     1
 90
        1
176
     1
 90
        1
176
     1
 90
        2
176
     1
 40
0.6
176
     1
 40
30.0
176
     1
 62
     7
420
 16777215
176
     1
 90
        0
176
     1
 90
        0
176
     1
 62
     7
176
     1
 62
   257
176
     1
 90
        1
176
     1
 90
        1
176
     1
 40
1.0
176
     1
 90
        8
176
     1
 62
     7
176
     1
 40
1.0
176
     1
 90
        1
176
     1
 90
        6
176
     1
 90
        2
176
     1
 62
     7
176
     1
 90
        5
176
     1
 90
        0
176
     1
 90
        0
176
     1
290
     0
176
     1
 90
       13
176
     1
 40
0.0
176
     1
 90
        0
176
     1
290
     0
176
     1
290
     1
176
     1
290
     1
176
     1
290
     0
176
     1
290
     0
176
     1
290
     0
176
     1
290
     0
176
     1
290
     0
176
     1
290
     0
176
     1
 90
       50
176
     1
 40
0.0
176
     1
 40
1.0
176
     1
 90
        0
176
     1
 62
    18
420
        0
176
     1
 90
       50
176
     1
 90
        3
176
     1
 62
     5
420
      255
176
     1
290
     0
176
     1
 90
       50
176
     1
 90
       50
176
     1
 90
       50
176
     1
290
     0
176
     1
 90
       50
176
     1
 62
   256
176
     0
 40
1.0
176
     0
 90
        2
176
     1
  1
strokes_ogs.tif
176
     1
290
     0
176
     1
 40
1.0
176
     1
 40
1.0
176
     1
  0
VISUALSTYLE
  5
2C
102
{ACAD_REACTORS
330
2A
102
}
330
2A
100
AcDbVisualStyle
  2
FlatWithEdges
 70
     1
177
     3
291
     1
 70
    58
 90
        2
176
     1
 90
        1
176
     1
 90
        1
176
     1
 90
        2
176
     1
 40
0.6
176
     1
 40
30.0
176
     1
 62
     7
420
 16777215
176
     1
 90
        1
176
     1
 90
        0
176
     1
 62
     7
176
     1
 62
   257
176
     1
 90
        1
176
     1
 90
        1
176
     1
 40
1.0
176
     1
 90
        0
176
     1
 62
   257
176
     1
 40
1.0
176
     1
 90
        1
176
     1
 90
        6
176
     1
 90
        2
176
     1
 62
     7
176
     1
 90
        5
176
     1
 90
        0
176
     1
 90
        0
176
     1
290
     0
176
     1
 90
       13
176
     1
 40
0.0
176
     1
 90
        0
176
     1
290
     0
176
     1
290
     1
176
     1
290
     1
176
     1
290
     0
176
     1
290
     0
176
     1
290
     0
176
     1
290
     0
176
     1
290
     0
176
     1
290
     0
176
     1
 90
       50
176
     1
 40
0.0
176
     1
 40
1.0
176
     1
 90
        0
176
     1
 62
    18
420
        0
176
     1
 90
       50
176
     1
 90
        3
176
     1
 62
     5
420
      255
176
     1
290
     0
176
     1
 90
       50
176
     1
 90
       50
176
     1
 90
       50
176
     1
290
     0
176
     1
 90
       50
176
     1
 62
   256
176
     0
 40
1.0
176
     0
 90
        2
176
     1
  1
strokes_ogs.tif
176
     1
290
     0
176
     1
 40
1.0
176
     1
 40
1.0
176
     1
  0
VISUALSTYLE
  5
2D
102
{ACAD_REACTORS
330
2A
102
}
330
2A
100
AcDbVisualStyle
  2
Gouraud
 70
     2
177
     3
291
     1
 70
    58
 90
        2
176
     1
 90
        2
176
     1
 90
        1
176
     1
 90
        2
176
     1
 40
0.6
176
     1
 40
30.0
176
     1
 62
     7
420
 16777215
176
     1
 90
        0
176
     1
 90
        0
176
     1
 62
     7
176
     1
 62
   257
176
     1
 90
        1
176
     1
 90
        1
176
     1
 40
1.0
176
     1
 90
        0
176
     1
 62
     7
176
     1
 40
1.0
176
     1
 90
        1
176
     1
 90
        6
176
     1
 90
        2
176
     1
 62
     7
176
     1
 90
        5
176
     1
 90
        0
176
     1
 90
        0
176
     1
290
     0
176
     1
 90
       13
176
     1
 40
0.0
176
     1
 90
        0
176
     1
290
     0
176
     1
290
     1
176
     1
290
     1
176
     1
290
     0
176
     1
290
     0
176
     1
290
     0
176
     1
290
     0
176
     1
290
     0
176
     1
290
     0
176
     1
 90
       50
176
     1
 40
0.0
176
     1
 40
1.0
176
     1
 90
        0
176
     1
 62
    18
420
        0
176
     1
 90
       50
176
     1
 90
        3
176
     1
 62
     5
420
      255
176
     1
290
     0
176
     1
 90
       50
176
     1
 90
       50
176
     1
 90
       50
176
     1
290
     0
176
     1
 90
       50
176
     1
 62
   256
176
     0
 40
1.0
176
     0
 90
        2
176
     1
  1
strokes_ogs.tif
176
     1
290
     0
176
     1
 40
1.0
176
     1
 40
1.0
176
     1
  0
VISUALSTYLE
  5
2E
102
{ACAD_REACTORS
330
2A
102
}
330
2A
100
AcDbVisualStyle
  2
GouraudWithEdges
 70
     3
177
     3
291
     1
 70
    58
 90
        2
176
     1
 90
        2
176
     1
 90
        1
176
     1
 90
        2
176
     1
 40
0.6
176
     1
 40
30.0
176
     1
 62
     7
420
 16777215
176
     1
 90
        1
176
     1
 90
        0
176
     1
 62
     7
176
     1
 62
   257
176
     1
 90
        1
176
     1
 90
        1
176
     1
 40
1.0
176
     1
 90
        0
176
     1
 62
   257
176
     1
 40
1.0
176
     1
 90
        1
176
     1
 90
        6
176
     1
 90
        2
176
     1
 62
     7
176
     1
 90
        5
176
     1
 90
        0
176
     1
 90
        0
176
     1
290
     0
176
     1
 90
       13
176
     1
 40
0.0
176
     1
 90
        0
176
     1
290
     0
176
     1
290
     1
176
     1
290
     1
176
     1
290
     0
176
     1
290
     0
176
     1
290
     0
176
     1
290
     0
176
     1
290
     0
176
     1
290
     0
176
     1
 90
       50
176
     1
 40
0.0
176
     1
 40
1.0
176
     1
 90
        0
176
     1
 62
    18
420
        0
176
     1
 90
       50
176
     1
 90
        3
176
     1
 62
     5
420
      255
176
     1
290
     0
176
     1
 90
       50
176
     1
 90
       50
176
     1
 90
       50
176
     1
290
     0
176
     1
 90
       50
176
     1
 62
   256
176
     0
 40
1.0
176
     0
 90
        2
176
     1
  1
strokes_ogs.tif
176
     1
290
     0
176
     1
 40
1.0
176
     1
 40
1.0
176
     1
  0
VISUALSTYLE
  5
31
102
{ACAD_REACTORS
330
2A
102
}
330
2A
100
AcDbVisualStyle
  2
Hidden
 70
     6
177
     3
291
     0
 70
    58
 90
        1
176
     1
 90
        2
176
     1
 90
        2
176
     1
 90
        0
176
     1
 40
0.6
176
     1
 40
30.0
176
     1
 62
     7
420
 16777215
176
     1
 90
        2
176
     1
 90
        2
176
     1
 62
     7
176
     1
 62
   257
176
     1
 90
        2
176
     1
 90
        1
176
     1
 40
40.0
176
     1
 90
        0
176
     1
 62
   257
176
     1
 40
1.0
176
     1
 90
        1
176
     1
 90
        6
176
     1
 90
        2
176
     1
 62
     7
176
     1
 90
        3
176
     1
 90
        0
176
     1
 90
        0
176
     1
290
     0
176
     1
 90
        1
176
     1
 40
0.0
176
     1
 90
        0
176
     1
290
     0
176
     1
290
     1
176
     1
290
     1
176
     1
290
     0
176
     1
290
     0
176
     1
290
     0
176
     1
290
     0
176
     1
290
     0
176
     1
290
     0
176
     1
 90
       50
176
     1
 40
0.0
176
     1
 40
1.0
176
     1
 90
        0
176
     1
 62
    18
420
        0
176
     1
 90
       50
176
     1
 90
        3
176
     1
 62
     5
420
      255
176
     1
290
     0
176
     1
 90
       50
176
     1
 90
       50
176
     1
 90
       50
176
     1
290
     0
176
     1
 90
       50
176
     1
 62
   256
176
     0
 40
1.0
176
     0
 90
        2
176
     1
  1
strokes_ogs.tif
176
     1
290
     0
176
     1
 40
1.0
176
     1
 40
1.0
176
     1
  0
VISUALSTYLE
  5
3B
102
{ACAD_REACTORS
330
2A
102
}
330
2A
100
AcDbVisualStyle
  2
JitterOff
 70
    20
177
     3
291
     1
 70
    58
 90
        2
176
     0
 90
        2
176
     0
 90
        0
176
     0
 90
        0
176
     0
 40
0.6
176
     0
 40
30.0
176
     0
 62
     7
420
 16777215
176
     0
 90
        1
176
     0
 90
        4
176
     0
 62
     7
176
     0
 62
   257
176
     0
 90
        1
176
     0
 90
        1
176
     0
 40
1.0
176
     0
 90
       10
176
     2
 62
     7
176
     0
 40
1.0
176
     0
 90
        1
176
     0
 90
        6
176
     0
 90
        2
176
     0
 62
     7
176
     0
 90
        5
176
     0
 90
        0
176
     0
 90
        0
176
     0
290
     0
176
     0
 90
        1
176
     0
 40
0.0
176
     0
 90
        0
176
     0
290
     0
176
     0
290
     1
176
     0
290
     1
176
     0
290
     0
176
     0
290
     0
176
     0
290
     0
176
     0
290
     0
176
     0
290
     0
176
     0
290
     0
176
     0
 90
       50
176
     0
 40
0.0
176
     0
 40
1.0
176
     0
 90
        0
176
     0
 62
    18
420
        0
176
     0
 90
       50
176
     0
 90
        3
176
     0
 62
     5
420
      255
176
     0
290
     0
176
     0
 90
       50
176
     0
 90
       50
176
     0
 90
       50
176
     0
290
     0
176
     0
 90
       50
176
     0
 62
   256
176
     0
 40
1.0
176
     0
 90
        2
176
     0
  1
strokes_ogs.tif
176
     0
290
     0
176
     0
 40
1.0
176
     0
 40
1.0
176
     0
  0
VISUALSTYLE
  5
38
102
{ACAD_REACTORS
330
2A
102
}
330
2A
100
AcDbVisualStyle
  2
Linepattern
 70
    14
177
     3
291
     1
 70
    58
 90
        2
176
     1
 90
        2
176
     1
 90
        0
176
     1
 90
        0
176
     1
 40
0.6
176
     1
 40
30.0
176
     1
 62
     7
420
 16777215
176
     1
 90
        1
176
     1
 90
        4
176
     1
 62
     7
176
     1
 62
   257
176
     1
 90
        7
176
     1
 90
        7
176
     1
 40
1.0
176
     1
 90
        8
176
     1
 62
     7
176
     1
 40
1.0
176
     1
 90
        1
176
     1
 90
        6
176
     1
 90
        2
176
     1
 62
     7
176
     1
 90
        5
176
     1
 90
        0
176
     1
 90
        0
176
     1
290
     0
176
     1
 90
        1
176
     1
 40
0.0
176
     1
 90
        0
176
     1
290
     0
176
     1
290
     1
176
     1
290
     1
176
     1
290
     0
176
     1
290
     0
176
     1
290
     0
176
     1
290
     0
176
     1
290
     0
176
     1
290
     0
176
     1
 90
       50
176
     1
 40
0.0
176
     1
 40
1.0
176
     1
 90
        0
176
     1
 62
    18
420
        0
176
     1
 90
       50
176
     1
 90
        3
176
     1
 62
     5
420
      255
176
     1
290
     0
176
     1
 90
       50
176
     1
 90
       50
176
     1
 90
       50
176
     1
290
     0
176
     1
 90
       50
176
     1
 62
   256
176
     0
 40
1.0
176
     0
 90
        2
176
     1
  1
strokes_ogs.tif
176
     1
290
     0
176
     1
 40
1.0
176
     1
 40
1.0
176
     1
  0
VISUALSTYLE
  5
3C
102
{ACAD_REACTORS
330
2A
102
}
330
2A
100
AcDbVisualStyle
  2
OverhangOff
 70
    21
177
     3
291
     1
 70
    58
 90
        2
176
     0
 90
        2
176
     0
 90
        0
176
     0
 90
        0
176
     0
 40
0.6
176
     0
 40
30.0
176
     0
 62
     7
420
 16777215
176
     0
 90
        1
176
     0
 90
        4
176
     0
 62
     7
176
     0
 62
   257
176
     0
 90
        1
176
     0
 90
        1
176
     0
 40
1.0
176
     0
 90
        9
176
     2
 62
     7
176
     0
 40
1.0
176
     0
 90
        1
176
     0
 90
        6
176
     0
 90
        2
176
     0
 62
     7
176
     0
 90
        5
176
     0
 90
        0
176
     0
 90
        0
176
     0
290
     0
176
     0
 90
        1
176
     0
 40
0.0
176
     0
 90
        0
176
     0
290
     0
176
     0
290
     1
176
     0
290
     1
176
     0
290
     0
176
     0
290
     0
176
     0
290
     0
176
     0
290
     0
176
     0
290
     0
176
     0
290
     0
176
     0
 90
       50
176
     0
 40
0.0
176
     0
 40
1.0
176
     0
 90
        0
176
     0
 62
    18
420
        0
176
     0
 90
       50
176
     0
 90
        3
176
     0
 62
     5
420
      255
176
     0
290
     0
176
     0
 90
       50
176
     0
 90
       50
176
     0
 90
       50
176
     0
290
     0
176
     0
 90
       50
176
     0
 62
   256
176
     0
 40
1.0
176
     0
 90
        2
176
     0
  1
strokes_ogs.tif
176
     0
290
     0
176
     0
 40
1.0
176
     0
 40
1.0
176
     0
  0
VISUALSTYLE
  5
33
102
{ACAD_REACTORS
330
2A
102
}
330
2A
100
AcDbVisualStyle
  2
Realistic
 70
     8
177
     3
291
     0
 70
    58
 90
        2
176
     1
 90
        3
176
     1
 90
        0
176
     1
 90
        2
176
     1
 40
0.6
176
     1
 40
30.0
176
     1
 62
     7
420
 16777215
176
     1
 90
        0
176
     1
 90
        0
176
     1
 62
     7
176
     1
 62
   257
176
     1
 90
        1
176
     1
 90
        1
176
     1
 40
1.0
176
     1
 90
        8
176
     1
 62
   257
176
     1
 40
1.0
176
     1
 90
        1
176
     1
 90
        6
176
     1
 90
        2
176
     1
 62
     7
176
     1
 90
        3
176
     1
 90
        0
176
     1
 90
        0
176
     1
290
     0
176
     1
 90
       13
176
     1
 40
0.0
176
     1
 90
        0
176
     1
290
     0
176
     1
290
     1
176
     1
290
     1
176
     1
290
     0
176
     1
290
     0
176
     1
290
     0
176
     1
290
     0
176
     1
290
     0
176
     1
290
     0
176
     1
 90
       50
176
     1
 40
0.0
176
     1
 40
1.0
176
     1
 90
        0
176
     1
 62
    18
420
        0
176
     1
 90
       50
176
     1
 90
        3
176
     1
 62
     5
420
      255
176
     1
290
     0
176
     1
 90
       50
176
     1
 90
       50
176
     1
 90
       50
176
     1
290
     0
176
     1
 90
       50
176
     1
 62
   256
176
     0
 40
1.0
176
     0
 90
        2
176
     1
  1
strokes_ogs.tif
176
     1
290
     0
176
     1
 40
1.0
176
     1
 40
1.0
176
     1
  0
VISUALSTYLE
  5
42
102
{ACAD_REACTORS
330
2A
102
}
330
2A
100
AcDbVisualStyle
  2
Shaded
 70
    27
177
     3
291
     0
 70
    58
 90
        2
176
     1
 90
        2
176
     1
 90
        1
176
     1
 90
        2
176
     1
 40
0.6
176
     1
 40
30.0
176
     1
 62
     7
420
 16777215
176
     1
 90
        0
176
     1
 90
        4
176
     1
 62
     7
176
     1
 62
   257
176
     1
 90
        1
176
     1
 90
        1
176
     1
 40
1.0
176
     1
 90
        8
176
     1
 62
   257
176
     1
 40
1.0
176
     1
 90
        1
176
     1
 90
        6
176
     1
 90
        2
176
     1
 62
     8
420
  7895160
176
     1
 90
        3
176
     1
 90
        0
176
     1
 90
        0
176
     1
290
     0
176
     1
 90
        5
176
     1
 40
0.0
176
     1
 90
        0
176
     1
290
     0
176
     1
290
     1
176
     1
290
     1
176
     1
290
     0
176
     1
290
     0
176
     1
290
     0
176
     1
290
     0
176
     1
290
     0
176
     1
290
     0
176
     1
 90
       50
176
     1
 40
0.0
176
     1
 40
1.0
176
     1
 90
        0
176
     1
 62
    18
420
        0
176
     1
 90
       50
176
     1
 90
        3
176
     1
 62
     5
420
      255
176
     1
290
     0
176
     1
 90
       50
176
     1
 90
       50
176
     1
 90
       50
176
     1
290
     0
176
     1
 90
       50
176
     1
 62
   256
176
     0
 40
1.0
176
     0
 90
        2
176
     1
  1
strokes_ogs.tif
176
     1
290
     0
176
     1
 40
1.0
176
     1
 40
1.0
176
     1
  0
VISUALSTYLE
  5
41
102
{ACAD_REACTORS
330
2A
102
}
330
2A
100
AcDbVisualStyle
  2
Shaded with edges
 70
    26
177
     3
291
     0
 70
    58
 90
        2
176
     1
 90
        2
176
     1
 90
        1
176
     1
 90
        2
176
     1
 40
0.6
176
     1
 40
30.0
176
     1
 62
     7
420
 16777215
176
     1
 90
        1
176
     1
 90
       10
176
     1
 62
     7
176
     1
 62
   257
176
     1
 90
        2
176
     1
 90
        1
176
     1
 40
1.0
176
     1
 90
        8
176
     1
 62
   257
176
     1
 40
1.0
176
     1
 90
        1
176
     1
 90
        6
176
     1
 90
        2
176
     1
 62
     7
176
     1
 90
        3
176
     1
 90
        0
176
     1
 90
        0
176
     1
290
     0
176
     1
 90
        5
176
     1
 40
0.0
176
     1
 90
        0
176
     1
290
     0
176
     1
290
     1
176
     1
290
     1
176
     1
290
     0
176
     1
290
     0
176
     1
290
     0
176
     1
290
     0
176
     1
290
     0
176
     1
290
     0
176
     1
 90
       50
176
     1
 40
0.0
176
     1
 40
1.0
176
     1
 90
        0
176
     1
 62
    18
420
        0
176
     1
 90
       50
176
     1
 90
        3
176
     1
 62
     5
420
      255
176
     1
290
     0
176
     1
 90
       50
176
     1
 90
       50
176
     1
 90
       50
176
     1
290
     0
176
     1
 90
       50
176
     1
 62
   256
176
     0
 40
1.0
176
     0
 90
        2
176
     1
  1
strokes_ogs.tif
176
     1
290
     0
176
     1
 40
1.0
176
     1
 40
1.0
176
     1
  0
VISUALSTYLE
  5
3E
102
{ACAD_REACTORS
330
2A
102
}
330
2A
100
AcDbVisualStyle
  2
Shades of Gray
 70
    23
177
     3
291
     0
 70
    58
 90
        2
176
     1
 90
        2
176
     1
 90
        3
176
     1
 90
        0
176
     1
 40
0.6
176
     1
 40
30.0
176
     1
 62
     7
420
 16777215
176
     1
 90
        2
176
     1
 90
        2
176
     1
 62
     7
176
     1
 62
     7
176
     1
 90
        1
176
     1
 90
        1
176
     1
 40
40.0
176
     1
 90
        8
176
     1
 62
     7
176
     1
 40
1.0
176
     1
 90
        1
176
     1
 90
        6
176
     1
 90
        2
176
     1
 62
     7
176
     1
 90
        3
176
     1
 90
        0
176
     1
 90
        0
176
     1
290
     0
176
     1
 90
        1
176
     1
 40
0.0
176
     1
 90
        0
176
     1
290
     0
176
     1
290
     1
176
     1
290
     1
176
     1
290
     0
176
     1
290
     0
176
     1
290
     0
176
     1
290
     0
176
     1
290
     0
176
     1
290
     0
176
     1
 90
       50
176
     1
 40
0.0
176
     1
 40
1.0
176
     1
 90
        0
176
     1
 62
    18
420
        0
176
     1
 90
       50
176
     1
 90
        3
176
     1
 62
     5
420
      255
176
     1
290
     0
176
     1
 90
       50
176
     1
 90
       50
176
     1
 90
       50
176
     1
290
     0
176
     1
 90
       50
176
     1
 62
   256
176
     0
 40
1.0
176
     0
 90
        2
176
     1
  1
strokes_ogs.tif
176
     1
290
     0
176
     1
 40
1.0
176
     1
 40
1.0
176
     1
  0
VISUALSTYLE
  5
3F
102
{ACAD_REACTORS
330
2A
102
}
330
2A
100
AcDbVisualStyle
  2
Sketchy
 70
    24
177
     3
291
     0
 70
    58
 90
        1
176
     1
 90
        2
176
     1
 90
        2
176
     1
 90
        0
176
     1
 40
0.6
176
     1
 40
30.0
176
     1
 62
     7
420
 16777215
176
     1
 90
        2
176
     1
 90
        2
176
     1
 62
     7
176
     1
 62
     7
176
     1
 90
        1
176
     1
 90
        1
176
     1
 40
40.0
176
     1
 90
       11
176
     1
 62
     7
176
     1
 40
1.0
176
     1
 90
        1
176
     1
 90
        6
176
     1
 90
        2
176
     1
 62
     7
176
     1
 90
        6
176
     1
 90
        0
176
     1
 90
        0
176
     1
290
     0
176
     1
 90
        1
176
     1
 40
0.0
176
     1
 90
        0
176
     1
290
     0
176
     1
290
     1
176
     1
290
     1
176
     1
290
     0
176
     1
290
     0
176
     1
290
     0
176
     1
290
     0
176
     1
290
     0
176
     1
290
     0
176
     1
 90
       50
176
     1
 40
0.0
176
     1
 40
1.0
176
     1
 90
        0
176
     1
 62
    18
420
        0
176
     1
 90
       50
176
     1
 90
        3
176
     1
 62
     5
420
      255
176
     1
290
     0
176
     1
 90
       50
176
     1
 90
       50
176
     1
 90
       50
176
     1
290
     0
176
     1
 90
       50
176
     1
 62
   256
176
     0
 40
1.0
176
     0
 90
        2
176
     1
  1
strokes_ogs.tif
176
     1
290
     0
176
     1
 40
1.0
176
     1
 40
1.0
176
     1
  0
VISUALSTYLE
  5
37
102
{ACAD_REACTORS
330
2A
102
}
330
2A
100
AcDbVisualStyle
  2
Thicken
 70
    13
177
     3
291
     1
 70
    58
 90
        2
176
     1
 90
        2
176
     1
 90
        0
176
     1
 90
        0
176
     1
 40
0.6
176
     1
 40
30.0
176
     1
 62
     7
420
 16777215
176
     1
 90
        1
176
     1
 90
        4
176
     1
 62
     7
176
     1
 62
   257
176
     1
 90
        1
176
     1
 90
        1
176
     1
 40
1.0
176
     1
 90
       12
176
     1
 62
     7
176
     1
 40
1.0
176
     1
 90
        1
176
     1
 90
        6
176
     1
 90
        2
176
     1
 62
     7
176
     1
 90
        5
176
     1
 90
        0
176
     1
 90
        0
176
     1
290
     0
176
     1
 90
        1
176
     1
 40
0.0
176
     1
 90
        0
176
     1
290
     0
176
     1
290
     1
176
     1
290
     1
176
     1
290
     0
176
     1
290
     0
176
     1
290
     0
176
     1
290
     0
176
     1
290
     0
176
     1
290
     0
176
     1
 90
       50
176
     1
 40
0.0
176
     1
 40
1.0
176
     1
 90
        0
176
     1
 62
    18
420
        0
176
     1
 90
       50
176
     1
 90
        3
176
     1
 62
     5
420
      255
176
     1
290
     0
176
     1
 90
       50
176
     1
 90
       50
176
     1
 90
       50
176
     1
290
     0
176
     1
 90
       50
176
     1
 62
   256
176
     0
 40
1.0
176
     0
 90
        2
176
     1
  1
strokes_ogs.tif
176
     1
290
     0
176
     1
 40
1.0
176
     1
 40
1.0
176
     1
  0
VISUALSTYLE
  5
30
102
{ACAD_REACTORS
330
2A
102
}
330
2A
100
AcDbVisualStyle
  2
Wireframe
 70
     5
177
     3
291
     0
 70
    58
 90
        0
176
     1
 90
        2
176
     1
 90
        0
176
     1
 90
        0
176
     1
 40
0.6
176
     1
 40
30.0
176
     1
 62
     7
420
 16777215
176
     1
 90
        1
176
     1
 90
        4
176
     1
 62
     7
176
     1
 62
   257
176
     1
 90
        1
176
     1
 90
        1
176
     1
 40
1.0
176
     1
 90
        0
176
     1
 62
   257
176
     1
 40
1.0
176
     1
 90
        1
176
     1
 90
        6
176
     1
 90
        2
176
     1
 62
     7
176
     1
 90
        3
176
     1
 90
        0
176
     1
 90
        0
176
     1
290
     0
176
     1
 90
        1
176
     1
 40
0.0
176
     1
 90
        0
176
     1
290
     0
176
     1
290
     1
176
     1
290
     1
176
     1
290
     0
176
     1
290
     0
176
     1
290
     0
176
     1
290
     0
176
     1
290
     0
176
     1
290
     0
176
     1
 90
       50
176
     1
 40
0.0
176
     1
 40
1.0
176
     1
 90
        0
176
     1
 62
    18
420
        0
176
     1
 90
       50
176
     1
 90
        3
176
     1
 62
     5
420
      255
176
     1
290
     0
176
     1
 90
       50
176
     1
 90
       50
176
     1
 90
       50
176
     1
290
     0
176
     1
 90
       50
176
     1
 62
   256
176
     0
 40
1.0
176
     0
 90
        2
176
     1
  1
strokes_ogs.tif
176
     1
290
     0
176
     1
 40
1.0
176
     1
 40
1.0
176
     1
  0
VISUALSTYLE
  5
40
102
{ACAD_REACTORS
330
2A
102
}
330
2A
100
AcDbVisualStyle
  2
X-Ray
 70
    25
177
     3
291
     0
 70
    58
 90
        2
176
     1
 90
        2
176
     1
 90
        1
176
     1
 90
        1
176
     1
 40
0.5
176
     1
 40
30.0
176
     1
 62
     7
420
 16777215
176
     1
 90
        1
176
     1
 90
        0
176
     1
 62
     7
176
     1
 62
   257
176
     1
 90
        1
176
     1
 90
        1
176
     1
 40
1.0
176
     1
 90
        8
176
     1
 62
     7
176
     1
 40
1.0
176
     1
 90
        1
176
     1
 90
        6
176
     1
 90
        2
176
     1
 62
     7
176
     1
 90
        3
176
     1
 90
        0
176
     1
 90
        0
176
     1
290
     0
176
     1
 90
       13
176
     1
 40
0.0
176
     1
 90
        0
176
     1
290
     0
176
     1
290
     1
176
     1
290
     1
176
     1
290
     0
176
     1
290
     0
176
     1
290
     0
176
     1
290
     0
176
     1
290
     0
176
     1
290
     0
176
     1
 90
       50
176
     1
 40
0.0
176
     1
 40
1.0
176
     1
 90
        0
176
     1
 62
    18
420
        0
176
     1
 90
       50
176
     1
 90
        3
176
     1
 62
     5
420
      255
176
     1
290
     0
176
     1
 90
       50
176
     1
 90
       50
176
     1
 90
       50
176
     1
290
     0
176
     1
 90
       50
176
     1
 62
   256
176
     0
 40
1.0
176
     0
 90
        2
176
     1
  1
strokes_ogs.tif
176
     1
290
     0
176
     1
 40
1.0
176
     1
 40
1.0
176
     1
  0
DICTIONARYVAR
  5
209
102
{ACAD_REACTORS
330
208
102
}
330
208
100
DictionaryVariables
280
     0
  1
1:1
  0
DICTIONARYVAR
  5
20E
102
{ACAD_REACTORS
330
208
102
}
330
208
100
DictionaryVariables
280
     0
  1
Standard
  0
DICTIONARYVAR
  5
20D
102
{ACAD_REACTORS
330
208
102
}
330
208
100
DictionaryVariables
280
     0
  1
Standard
  0
DICTIONARY
  5
20A
330
6A
100
AcDbDictionary
280
     1
281
     1
  3
ACAD_ROUNDTRIP_2008_TABLESTYLE_CELLSTYLEMAP
360
20B
  0
CELLSTYLEMAP
  5
20B
102
{ACAD_REACTORS
330
20A
102
}
330
20A
100
AcDbCellStyleMap
 90
        3
300
CELLSTYLE
  1
TABLEFORMAT_BEGIN
 90
        5
170
     1
 91
        0
 92
    32768
 62
   257
 93
        1
300
CONTENTFORMAT
  1
CONTENTFORMAT_BEGIN
 90
        0
 91
        0
 92
        4
 93
        0
300

 40
0.0
140
1.0
 94
        5
 62
     0
340
11
144
0.25
309
CONTENTFORMAT_END
171
     1
301
MARGIN
  1
CELLMARGIN_BEGIN
 40
0.06
 40
0.06
 40
0.06
 40
0.06
 40
0.06
 40
0.06
309
CELLMARGIN_END
 94
        6
 95
        1
302
GRIDFORMAT
  1
GRIDFORMAT_BEGIN
 90
        0
 91
        1
 62
     0
 92
       -2
340
14
 93
        0
 40
0.045
309
GRIDFORMAT_END
 95
        2
302
GRIDFORMAT
  1
GRIDFORMAT_BEGIN
 90
        0
 91
        1
 62
     0
 92
       -2
340
14
 93
        0
 40
0.045
309
GRIDFORMAT_END
 95
        4
302
GRIDFORMAT
  1
GRIDFORMAT_BEGIN
 90
        0
 91
        1
 62
     0
 92
       -2
340
14
 93
        0
 40
0.045
309
GRIDFORMAT_END
 95
        8
302
GRIDFORMAT
  1
GRIDFORMAT_BEGIN
 90
        0
 91
        1
 62
     0
 92
       -2
340
14
 93
        0
 40
0.045
309
GRIDFORMAT_END
 95
       16
302
GRIDFORMAT
  1
GRIDFORMAT_BEGIN
 90
        0
 91
        1
 62
     0
 92
       -2
340
14
 93
        0
 40
0.045
309
GRIDFORMAT_END
 95
       32
302
GRIDFORMAT
  1
GRIDFORMAT_BEGIN
 90
        0
 91
        1
 62
     0
 92
       -2
340
14
 93
        0
 40
0.045
309
GRIDFORMAT_END
309
TABLEFORMAT_END
  1
CELLSTYLE_BEGIN
 90
        1
 91
        1
300
_TITLE
309
CELLSTYLE_END
300
CELLSTYLE
  1
TABLEFORMAT_BEGIN
 90
        5
170
     1
 91
        0
 92
        0
 62
   257
 93
        1
300
CONTENTFORMAT
  1
CONTENTFORMAT_BEGIN
 90
        0
 91
        0
 92
        4
 93
        0
300

 40
0.0
140
1.0
 94
        5
 62
     0
340
11
144
0.18
309
CONTENTFORMAT_END
171
     1
301
MARGIN
  1
CELLMARGIN_BEGIN
 40
0.06
 40
0.06
 40
0.06
 40
0.06
 40
0.06
 40
0.06
309
CELLMARGIN_END
 94
        6
 95
        1
302
GRIDFORMAT
  1
GRIDFORMAT_BEGIN
 90
        0
 91
        1
 62
     0
 92
       -2
340
14
 93
        0
 40
0.045
309
GRIDFORMAT_END
 95
        2
302
GRIDFORMAT
  1
GRIDFORMAT_BEGIN
 90
        0
 91
        1
 62
     0
 92
       -2
340
14
 93
        0
 40
0.045
309
GRIDFORMAT_END
 95
        4
302
GRIDFORMAT
  1
GRIDFORMAT_BEGIN
 90
        0
 91
        1
 62
     0
 92
       -2
340
14
 93
        0
 40
0.045
309
GRIDFORMAT_END
 95
        8
302
GRIDFORMAT
  1
GRIDFORMAT_BEGIN
 90
        0
 91
        1
 62
     0
 92
       -2
340
14
 93
        0
 40
0.045
309
GRIDFORMAT_END
 95
       16
302
GRIDFORMAT
  1
GRIDFORMAT_BEGIN
 90
        0
 91
        1
 62
     0
 92
       -2
340
14
 93
        0
 40
0.045
309
GRIDFORMAT_END
 95
       32
302
GRIDFORMAT
  1
GRIDFORMAT_BEGIN
 90
        0
 91
        1
 62
     0
 92
       -2
340
14
 93
        0
 40
0.045
309
GRIDFORMAT_END
309
TABLEFORMAT_END
  1
CELLSTYLE_BEGIN
 90
        2
 91
        1
300
_HEADER
309
CELLSTYLE_END
300
CELLSTYLE
  1
TABLEFORMAT_BEGIN
 90
        5
170
     1
 91
        0
 92
        0
 62
   257
 93
        1
300
CONTENTFORMAT
  1
CONTENTFORMAT_BEGIN
 90
        0
 91
        0
 92
        4
 93
        0
300

 40
0.0
140
1.0
 94
        2
 62
     0
340
11
144
0.18
309
CONTENTFORMAT_END
171
     1
301
MARGIN
  1
CELLMARGIN_BEGIN
 40
0.06
 40
0.06
 40
0.06
 40
0.06
 40
0.06
 40
0.06
309
CELLMARGIN_END
 94
        6
 95
        1
302
GRIDFORMAT
  1
GRIDFORMAT_BEGIN
 90
        0
 91
        1
 62
     0
 92
       -2
340
14
 93
        0
 40
0.045
309
GRIDFORMAT_END
 95
        2
302
GRIDFORMAT
  1
GRIDFORMAT_BEGIN
 90
        0
 91
        1
 62
     0
 92
       -2
340
14
 93
        0
 40
0.045
309
GRIDFORMAT_END
 95
        4
302
GRIDFORMAT
  1
GRIDFORMAT_BEGIN
 90
        0
 91
        1
 62
     0
 92
       -2
340
14
 93
        0
 40
0.045
309
GRIDFORMAT_END
 95
        8
302
GRIDFORMAT
  1
GRIDFORMAT_BEGIN
 90
        0
 91
        1
 62
     0
 92
       -2
340
14
 93
        0
 40
0.045
309
GRIDFORMAT_END
 95
       16
302
GRIDFORMAT
  1
GRIDFORMAT_BEGIN
 90
        0
 91
        1
 62
     0
 92
       -2
340
14
 93
        0
 40
0.045
309
GRIDFORMAT_END
 95
       32
302
GRIDFORMAT
  1
GRIDFORMAT_BEGIN
 90
        0
 91
        1
 62
     0
 92
       -2
340
14
 93
        0
 40
0.045
309
GRIDFORMAT_END
309
TABLEFORMAT_END
  1
CELLSTYLE_BEGIN
 90
        3
 91
        2
300
_DATA
309
CELLSTYLE_END
  0
ENDSEC
  0
EOF