0
SECTION
  2
HEADER
  9
$ACADVER
  1
AC1027
  9
$ACADMAINTVER
 70
   105
  9
$DWGCODEPAGE
  3
ANSI_1252
  9
$REQUIREDVERSIONS
160
                 0
  9
$COMMENTS
  1
File was created by Cadenas
  9
$CUSTOMPROPERTYTAG
  1
NN
  9
$CUSTOMPROPERTY
  1
Imperial -IP Pillow Block 1-1/8 thru 2-1/4  2-Bolt Inch Bore (Contact Seal)
  9
$CUSTOMPROPERTYTAG
  1
NT
  9
$CUSTOMPROPERTY
  1
Imperial 2 Bolt Piliow Block Bearings
  9
$CUSTOMPROPERTYTAG
  1
NB
  9
$CUSTOMPROPERTY
  1
069406
  9
$CUSTOMPROPERTYTAG
  1
NBSYN
  9
$CUSTOMPROPERTY
  1
$PN.
  9
$CUSTOMPROPERTYTAG
  1
LINA
  9
$CUSTOMPROPERTY
  1
069406
  9
$CUSTOMPROPERTYTAG
  1
SS
  9
$CUSTOMPROPERTY
  1
1-5/8
  9
$CUSTOMPROPERTYTAG
  1
PN
  9
$CUSTOMPROPERTY
  1
069406
  9
$CUSTOMPROPERTYTAG
  1
DESCRIPTION
  9
$CUSTOMPROPERTY
  1
P2B-IP-110R
  9
$CUSTOMPROPERTYTAG
  1
EF
  9
$CUSTOMPROPERTY
  1
Non-Expansion Type
  9
$CUSTOMPROPERTYTAG
  1
ST
  9
$CUSTOMPROPERTY
  1
Contact  Seal
  9
$CUSTOMPROPERTYTAG
  1
A
  9
$CUSTOMPROPERTY
  1
2-13/16
  9
$CUSTOMPROPERTYTAG
  1
B
  9
$CUSTOMPROPERTY
  1
7-3/8
  9
$CUSTOMPROPERTYTAG
  1
C
  9
$CUSTOMPROPERTY
  1
2-1/16
  9
$CUSTOMPROPERTYTAG
  1
DMIN
  9
$CUSTOMPROPERTY
  1
5-5/16
  9
$CUSTOMPROPERTYTAG
  1
DMAX
  9
$CUSTOMPROPERTY
  1
5-45/64
  9
$CUSTOMPROPERTYTAG
  1
F
  9
$CUSTOMPROPERTY
  1
1/2
  9
$CUSTOMPROPERTYTAG
  1
G
  9
$CUSTOMPROPERTY
  1
13/16
  9
$CUSTOMPROPERTYTAG
  1
H
  9
$CUSTOMPROPERTY
  1
1-1/4
  9
$CUSTOMPROPERTYTAG
  1
J
  9
$CUSTOMPROPERTY
  1
4-17/64
  9
$CUSTOMPROPERTYTAG
  1
L
  9
$CUSTOMPROPERTY
  1
3
  9
$CUSTOMPROPERTYTAG
  1
M
  9
$CUSTOMPROPERTY
  1
2-1/8
  9
$CUSTOMPROPERTYTAG
  1
R
  9
$CUSTOMPROPERTY
  1
13/16
  9
$CUSTOMPROPERTYTAG
  1
S
  9
$CUSTOMPROPERTY
  1
2
  9
$CUSTOMPROPERTYTAG
  1
X
  9
$CUSTOMPROPERTY
  1
1/4
  9
$CUSTOMPROPERTYTAG
  1
Y
  9
$CUSTOMPROPERTY
  1
0.020
  9
$CUSTOMPROPERTYTAG
  1
Z
  9
$CUSTOMPROPERTY
  1
2-5/64
  9
$CUSTOMPROPERTYTAG
  1
COMPANY
  9
$CUSTOMPROPERTY
  1
baldor
  9
$INSBASE
 10
0.0
 20
0.0
 30
0.0
  9
$EXTMIN
 10
1.000000000000000E+20
 20
1.000000000000000E+20
 30
1.000000000000000E+20
  9
$EXTMAX
 10
-1.000000000000000E+20
 20
-1.000000000000000E+20
 30
-1.000000000000000E+20
  9
$LIMMIN
 10
0.0
 20
0.0
  9
$LIMMAX
 10
12.0
 20
9.0
  9
$ORTHOMODE
 70
     0
  9
$REGENMODE
 70
     1
  9
$FILLMODE
 70
     1
  9
$QTEXTMODE
 70
     0
  9
$MIRRTEXT
 70
     1
  9
$LTSCALE
 40
1.0
  9
$ATTMODE
 70
     1
  9
$TEXTSIZE
 40
0.2
  9
$TRACEWID
 40
0.05
  9
$TEXTSTYLE
  7
Standard
  9
$CLAYER
  8
0
  9
$CELTYPE
  6
ByLayer
  9
$CECOLOR
 62
   256
  9
$CELTSCALE
 40
1.0
  9
$DISPSILH
 70
     0
  9
$DIMSCALE
 40
1.0
  9
$DIMASZ
 40
0.18
  9
$DIMEXO
 40
0.0625
  9
$DIMDLI
 40
0.38
  9
$DIMRND
 40
0.0
  9
$DIMDLE
 40
0.0
  9
$DIMEXE
 40
0.18
  9
$DIMTP
 40
0.0
  9
$DIMTM
 40
0.0
  9
$DIMTXT
 40
0.18
  9
$DIMCEN
 40
0.09
  9
$DIMTSZ
 40
0.0
  9
$DIMTOL
 70
     0
  9
$DIMLIM
 70
     0
  9
$DIMTIH
 70
     1
  9
$DIMTOH
 70
     1
  9
$DIMSE1
 70
     0
  9
$DIMSE2
 70
     0
  9
$DIMTAD
 70
     0
  9
$DIMZIN
 70
     0
  9
$DIMBLK
  1

  9
$DIMASO
 70
     1
  9
$DIMSHO
 70
     1
  9
$DIMPOST
  1

  9
$DIMAPOST
  1

  9
$DIMALT
 70
     0
  9
$DIMALTD
 70
     2
  9
$DIMALTF
 40
25.4
  9
$DIMLFAC
 40
1.0
  9
$DIMTOFL
 70
     0
  9
$DIMTVP
 40
0.0
  9
$DIMTIX
 70
     0
  9
$DIMSOXD
 70
     0
  9
$DIMSAH
 70
     0
  9
$DIMBLK1
  1

  9
$DIMBLK2
  1

  9
$DIMSTYLE
  2
Standard
  9
$DIMCLRD
 70
     0
  9
$DIMCLRE
 70
     0
  9
$DIMCLRT
 70
     0
  9
$DIMTFAC
 40
1.0
  9
$DIMGAP
 40
0.09
  9
$DIMJUST
 70
     0
  9
$DIMSD1
 70
     0
  9
$DIMSD2
 70
     0
  9
$DIMTOLJ
 70
     1
  9
$DIMTZIN
 70
     0
  9
$DIMALTZ
 70
     0
  9
$DIMALTTZ
 70
     0
  9
$DIMUPT
 70
     0
  9
$DIMDEC
 70
     4
  9
$DIMTDEC
 70
     4
  9
$DIMALTU
 70
     2
  9
$DIMALTTD
 70
     2
  9
$DIMTXSTY
  7
Standard
  9
$DIMAUNIT
 70
     0
  9
$DIMADEC
 70
     0
  9
$DIMALTRND
 40
0.0
  9
$DIMAZIN
 70
     0
  9
$DIMDSEP
 70
    46
  9
$DIMATFIT
 70
     3
  9
$DIMFRAC
 70
     0
  9
$DIMLDRBLK
  1

  9
$DIMLUNIT
 70
     2
  9
$DIMLWD
 70
    -2
  9
$DIMLWE
 70
    -2
  9
$DIMTMOVE
 70
     0
  9
$DIMFXL
 40
1.0
  9
$DIMFXLON
 70
     0
  9
$DIMJOGANG
 40
0.7853981633974483
  9
$DIMTFILL
 70
     0
  9
$DIMTFILLCLR
 70
     0
  9
$DIMARCSYM
 70
     0
  9
$DIMLTYPE
  6

  9
$DIMLTEX1
  6

  9
$DIMLTEX2
  6

  9
$DIMTXTDIRECTION
 70
     0
  9
$LUNITS
 70
     2
  9
$LUPREC
 70
     4
  9
$SKETCHINC
 40
0.1
  9
$FILLETRAD
 40
0.5
  9
$AUNITS
 70
     0
  9
$AUPREC
 70
     0
  9
$MENU
  1
.
  9
$ELEVATION
 40
0.0
  9
$PELEVATION
 40
0.0
  9
$THICKNESS
 40
0.0
  9
$LIMCHECK
 70
     0
  9
$CHAMFERA
 40
0.0
  9
$CHAMFERB
 40
0.0
  9
$CHAMFERC
 40
0.0
  9
$CHAMFERD
 40
0.0
  9
$SKPOLY
 70
     0
  9
$TDCREATE
 40
2458168.976666759
  9
$TDUCREATE
 40
2458168.935000093
  9
$TDUPDATE
 40
2458168.976666945
  9
$TDUUPDATE
 40
2458168.935000278
  9
$TDINDWG
 40
0.0000000116
  9
$TDUSRTIMER
 40
0.0000000116
  9
$USRTIMER
 70
     1
  9
$ANGBASE
 50
0.0
  9
$ANGDIR
 70
     0
  9
$PDMODE
 70
     0
  9
$PDSIZE
 40
0.0
  9
$PLINEWID
 40
0.0
  9
$SPLFRAME
 70
     0
  9
$SPLINETYPE
 70
     6
  9
$SPLINESEGS
 70
     8
  9
$HANDSEED
  5
20E
  9
$SURFTAB1
 70
     6
  9
$SURFTAB2
 70
     6
  9
$SURFTYPE
 70
     6
  9
$SURFU
 70
     6
  9
$SURFV
 70
     6
  9
$UCSBASE
  2

  9
$UCSNAME
  2

  9
$UCSORG
 10
0.0
 20
0.0
 30
0.0
  9
$UCSXDIR
 10
1.0
 20
0.0
 30
0.0
  9
$UCSYDIR
 10
0.0
 20
1.0
 30
0.0
  9
$UCSORTHOREF
  2

  9
$UCSORTHOVIEW
 70
     0
  9
$UCSORGTOP
 10
0.0
 20
0.0
 30
0.0
  9
$UCSORGBOTTOM
 10
0.0
 20
0.0
 30
0.0
  9
$UCSORGLEFT
 10
0.0
 20
0.0
 30
0.0
  9
$UCSORGRIGHT
 10
0.0
 20
0.0
 30
0.0
  9
$UCSORGFRONT
 10
0.0
 20
0.0
 30
0.0
  9
$UCSORGBACK
 10
0.0
 20
0.0
 30
0.0
  9
$PUCSBASE
  2

  9
$PUCSNAME
  2

  9
$PUCSORG
 10
0.0
 20
0.0
 30
0.0
  9
$PUCSXDIR
 10
1.0
 20
0.0
 30
0.0
  9
$PUCSYDIR
 10
0.0
 20
1.0
 30
0.0
  9
$PUCSORTHOREF
  2

  9
$PUCSORTHOVIEW
 70
     0
  9
$PUCSORGTOP
 10
0.0
 20
0.0
 30
0.0
  9
$PUCSORGBOTTOM
 10
0.0
 20
0.0
 30
0.0
  9
$PUCSORGLEFT
 10
0.0
 20
0.0
 30
0.0
  9
$PUCSORGRIGHT
 10
0.0
 20
0.0
 30
0.0
  9
$PUCSORGFRONT
 10
0.0
 20
0.0
 30
0.0
  9
$PUCSORGBACK
 10
0.0
 20
0.0
 30
0.0
  9
$USERI1
 70
     0
  9
$USERI2
 70
     0
  9
$USERI3
 70
     0
  9
$USERI4
 70
     0
  9
$USERI5
 70
     0
  9
$USERR1
 40
0.0
  9
$USERR2
 40
0.0
  9
$USERR3
 40
0.0
  9
$USERR4
 40
0.0
  9
$USERR5
 40
0.0
  9
$WORLDVIEW
 70
     1
  9
$SHADEDGE
 70
     3
  9
$SHADEDIF
 70
    70
  9
$TILEMODE
 70
     1
  9
$MAXACTVP
 70
    64
  9
$PINSBASE
 10
0.0
 20
0.0
 30
0.0
  9
$PLIMCHECK
 70
     0
  9
$PEXTMIN
 10
1.000000000000000E+20
 20
1.000000000000000E+20
 30
1.000000000000000E+20
  9
$PEXTMAX
 10
-1.000000000000000E+20
 20
-1.000000000000000E+20
 30
-1.000000000000000E+20
  9
$PLIMMIN
 10
0.0
 20
0.0
  9
$PLIMMAX
 10
12.0
 20
9.0
  9
$UNITMODE
 70
     0
  9
$VISRETAIN
 70
     1
  9
$PLINEGEN
 70
     0
  9
$PSLTSCALE
 70
     1
  9
$TREEDEPTH
 70
  3020
  9
$CMLSTYLE
  2
Standard
  9
$CMLJUST
 70
     0
  9
$CMLSCALE
 40
1.0
  9
$PROXYGRAPHICS
 70
     1
  9
$MEASUREMENT
 70
     0
  9
$CELWEIGHT
370
    -1
  9
$ENDCAPS
280
     0
  9
$JOINSTYLE
280
     0
  9
$LWDISPLAY
290
     0
  9
$INSUNITS
 70
     1
  9
$HYPERLINKBASE
  1

  9
$STYLESHEET
  1

  9
$XEDIT
290
     1
  9
$CEPSNTYPE
380
     0
  9
$PSTYLEMODE
290
     1
  9
$FINGERPRINTGUID
  2
{DE9DC715-9D28-4355-B9F6-9FFCE30250A5}
  9
$VERSIONGUID
  2
{FAEB1C32-E019-11D5-929B-00C0DF256EC4}
  9
$EXTNAMES
290
     1
  9
$PSVPSCALE
 40
0.0
  9
$OLESTARTUP
290
     0
  9
$SORTENTS
280
   127
  9
$INDEXCTL
280
     0
  9
$HIDETEXT
280
     1
  9
$XCLIPFRAME
280
     2
  9
$HALOGAP
280
     0
  9
$OBSCOLOR
 70
   257
  9
$OBSLTYPE
280
     0
  9
$INTERSECTIONDISPLAY
280
     0
  9
$INTERSECTIONCOLOR
 70
   257
  9
$DIMASSOC
280
     2
  9
$PROJECTNAME
  1

  9
$CAMERADISPLAY
290
     0
  9
$LENSLENGTH
 40
50.0
  9
$CAMERAHEIGHT
 40
0.0
  9
$STEPSPERSEC
 40
2.0
  9
$STEPSIZE
 40
6.0
  9
$3DDWFPREC
 40
2.0
  9
$PSOLWIDTH
 40
0.25
  9
$PSOLHEIGHT
 40
4.0
  9
$LOFTANG1
 40
1.570796326794897
  9
$LOFTANG2
 40
1.570796326794897
  9
$LOFTMAG1
 40
0.0
  9
$LOFTMAG2
 40
0.0
  9
$LOFTPARAM
 70
     7
  9
$LOFTNORMALS
280
     1
  9
$LATITUDE
 40
37.795
  9
$LONGITUDE
 40
-122.394
  9
$NORTHDIRECTION
 40
0.0
  9
$TIMEZONE
 70
 -8000
  9
$LIGHTGLYPHDISPLAY
280
     1
  9
$TILEMODELIGHTSYNCH
280
     1
  9
$CMATERIAL
347
44
  9
$SOLIDHIST
280
     0
  9
$SHOWHIST
280
     1
  9
$DWFFRAME
280
     2
  9
$DGNFRAME
280
     2
  9
$REALWORLDSCALE
290
     1
  9
$INTERFERECOLOR
 62
   256
  9
$CSHADOW
280
     0
  9
$SHADOWPLANELOCATION
 40
0.0
  0
ENDSEC
  0
SECTION
  2
CLASSES
  0
CLASS
  1
ACDBDICTIONARYWDFLT
  2
AcDbDictionaryWithDefault
  3
ObjectDBX Classes
 90
        0
 91
        4
280
     0
281
     0
  0
CLASS
  1
VISUALSTYLE
  2
AcDbVisualStyle
  3
ObjectDBX Classes
 90
     4095
 91
        4
280
     0
281
     0
  0
CLASS
  1
MATERIAL
  2
AcDbMaterial
  3
ObjectDBX Classes
 90
     1153
 91
        4
280
     0
281
     0
  0
CLASS
  1
SCALE
  2
AcDbScale
  3
ObjectDBX Classes
 90
     1153
 91
        4
280
     0
281
     0
  0
CLASS
  1
TABLESTYLE
  2
AcDbTableStyle
  3
ObjectDBX Classes
 90
     4095
 91
        4
280
     0
281
     0
  0
CLASS
  1
MLEADERSTYLE
  2
AcDbMLeaderStyle
  3
ACDB_MLEADERSTYLE_CLASS
 90
     4095
 91
        4
280
     0
281
     0
  0
CLASS
  1
SUN
  2
AcDbSun
  3
SCENEOE
 90
     1153
 91
        4
280
     0
281
     0
  0
CLASS
  1
DICTIONARYVAR
  2
AcDbDictionaryVar
  3
ObjectDBX Classes
 90
        0
 91
        4
280
     0
281
     0
  0
CLASS
  1
CELLSTYLEMAP
  2
AcDbCellStyleMap
  3
ObjectDBX Classes
 90
     1152
 91
        4
280
     0
281
     0
  0
ENDSEC
  0
SECTION
  2
TABLES
  0
TABLE
  2
VPORT
  5
8
330
0
100
AcDbSymbolTable
 70
     1
  0
VPORT
  5
29
330
8
100
AcDbSymbolTableRecord
100
AcDbViewportTableRecord
  2
*Active
 70
     0
 10
0.0
 20
0.0
 11
1.0
 21
1.0
 12
4.821428571428571
 22
-3.933463352259734
 13
0.0
 23
0.0
 14
0.5
 24
0.5
 15
0.5
 25
0.5
 16
0.0
 26
0.0
 36
1.0
 17
0.0
 27
0.0
 37
0.0
 40
13.77
 41
1.260582010582011
 42
50.0
 43
0.0
 44
0.0
 50
0.0
 51
0.0
 71
     0
 72
   100
 73
     1
 74
     3
 75
     0
 76
     0
 77
     0
 78
     0
281
     0
 65
     1
110
0.0
120
0.0
130
0.0
111
1.0
121
0.0
131
0.0
112
0.0
122
1.0
132
0.0
 79
     0
146
0.0
348
2F
 60
     3
 61
     5
292
     1
282
     1
141
0.0
142
0.0
 63
   250
361
6D
  0
ENDTAB
  0
TABLE
  2
LTYPE
  5
5
330
0
100
AcDbSymbolTable
 70
     3
  0
LTYPE
  5
14
330
5
100
AcDbSymbolTableRecord
100
AcDbLinetypeTableRecord
  2
ByBlock
 70
     0
  3

 72
    65
 73
     0
 40
0.0
  0
LTYPE
  5
15
330
5
100
AcDbSymbolTableRecord
100
AcDbLinetypeTableRecord
  2
ByLayer
 70
     0
  3

 72
    65
 73
     0
 40
0.0
  0
LTYPE
  5
16
330
5
100
AcDbSymbolTableRecord
100
AcDbLinetypeTableRecord
  2
Continuous
 70
     0
  3
Solid line
 72
    65
 73
     0
 40
0.0
  0
LTYPE
  5
9A
330
5
100
AcDbSymbolTableRecord
100
AcDbLinetypeTableRecord
  2
Dashed
 70
     0
  3

 72
    65
 73
     2
 40
2.0
 49
1.0
 74
     0
 49
-1.0
 74
     0
  0
LTYPE
  5
9F
330
5
100
AcDbSymbolTableRecord
100
AcDbLinetypeTableRecord
  2
Center
 70
     0
  3

 72
    65
 73
     4
 40
1.5
 49
0.45
 74
     0
 49
-0.5
 74
     0
 49
0.05
 74
     0
 49
-0.5
 74
     0
  0
ENDTAB
  0
TABLE
  2
LAYER
  5
2
330
0
100
AcDbSymbolTable
 70
     8
  0
LAYER
  5
10
330
2
100
AcDbSymbolTableRecord
100
AcDbLayerTableRecord
  2
0
 70
     0
 62
     7
  6
Continuous
370
    -3
390
F
347
46
348
0
  0
LAYER
  5
6E
330
2
100
AcDbSymbolTableRecord
100
AcDbLayerTableRecord
  2
AM_6
 70
     0
 62
    -2
  6
Continuous
370
    35
390
F
347
46
348
0
  0
LAYER
  5
9B
330
2
100
AcDbSymbolTableRecord
100
AcDbLayerTableRecord
  2
AM_9
 70
     0
 62
     6
  6
Dashed
370
    25
390
F
347
46
348
0
  0
LAYER
  5
9D
330
2
100
AcDbSymbolTableRecord
100
AcDbLayerTableRecord
  2
AM_5
 70
     0
 62
     3
  6
Continuous
370
    25
390
F
347
46
348
0
  0
LAYER
  5
A0
330
2
100
AcDbSymbolTableRecord
100
AcDbLayerTableRecord
  2
AM_7
 70
     0
 62
     7
  6
Center
370
    25
390
F
347
46
348
0
  0
LAYER
  5
A2
330
2
100
AcDbSymbolTableRecord
100
AcDbLayerTableRecord
  2
AM_4
 70
     0
 62
     3
  6
Continuous
370
    25
390
F
347
46
348
0
  0
LAYER
  5
A4
330
2
100
AcDbSymbolTableRecord
100
AcDbLayerTableRecord
  2
AM_0
 70
     0
 62
     7
  6
Continuous
370
    50
390
F
347
46
348
0
  0
LAYER
  5
1F7
330
2
100
AcDbSymbolTableRecord
100
AcDbLayerTableRecord
  2
ConnectionPoints
 70
     0
 62
     7
  6
Continuous
370
    50
390
F
347
46
348
0
  0
ENDTAB
  0
TABLE
  2
STYLE
  5
3
330
0
100
AcDbSymbolTable
 70
     1
  0
STYLE
  5
11
330
3
100
AcDbSymbolTableRecord
100
AcDbTextStyleTableRecord
  2
Standard
 70
     0
 40
0.0
 41
1.0
 50
0.0
 71
     0
 42
0.2
  3
txt
  4

  0
ENDTAB
  0
TABLE
  2
VIEW
  5
6
330
0
100
AcDbSymbolTable
 70
     0
  0
ENDTAB
  0
TABLE
  2
UCS
  5
7
330
0
100
AcDbSymbolTable
 70
     0
  0
ENDTAB
  0
TABLE
  2
APPID
  5
9
330
0
100
AcDbSymbolTable
 70
     1
  0
APPID
  5
12
330
9
100
AcDbSymbolTableRecord
100
AcDbRegAppTableRecord
  2
ACAD
 70
     0
  0
ENDTAB
  0
TABLE
  2
DIMSTYLE
  5
A
330
0
100
AcDbSymbolTable
 70
     1
100
AcDbDimStyleTable
  0
DIMSTYLE
105
27
330
A
100
AcDbSymbolTableRecord
100
AcDbDimStyleTableRecord
  2
Standard
 70
     0
178
     0
340
11
  0
ENDTAB
  0
TABLE
  2
BLOCK_RECORD
  5
1
330
0
100
AcDbSymbolTable
 70
     7
  0
BLOCK_RECORD
  5
1F
330
1
100
AcDbSymbolTableRecord
100
AcDbBlockTableRecord
  2
*Model_Space
340
22
 70
     0
280
     1
281
     0
  0
BLOCK_RECORD
  5
1B
330
1
100
AcDbSymbolTableRecord
100
AcDbBlockTableRecord
  2
*Paper_Space
340
1E
 70
     0
280
     1
281
     0
  0
BLOCK_RECORD
  5
23
330
1
100
AcDbSymbolTableRecord
100
AcDbBlockTableRecord
  2
*Paper_Space0
340
26
 70
     0
280
     1
281
     0
  0
BLOCK_RECORD
  5
8A
330
1
100
AcDbSymbolTableRecord
100
AcDbBlockTableRecord
  2
1_ASME_B18_3_10_1_0_in_069406_0
340
0
102
{BLKREFS
331
8B
102
}
 70
     0
280
     1
281
     0
  0
BLOCK_RECORD
  5
AD
330
1
100
AcDbSymbolTableRecord
100
AcDbBlockTableRecord
  2
2_ASME_B18_3_10_2_0_in_069406_0
340
0
102
{BLKREFS
331
AE
102
}
 70
     0
280
     1
281
     0
  0
BLOCK_RECORD
  5
C9
330
1
100
AcDbSymbolTableRecord
100
AcDbBlockTableRecord
  2
3_070886LW_0_in_069406_0
340
0
102
{BLKREFS
331
CA
102
}
 70
     0
280
     1
281
     0
  0
BLOCK_RECORD
  5
115
330
1
100
AcDbSymbolTableRecord
100
AcDbBlockTableRecord
  2
4_070886I_0_in_069406_0
340
0
102
{BLKREFS
331
116
102
}
 70
     0
280
     1
281
     0
  0
BLOCK_RECORD
  5
16F
330
1
100
AcDbSymbolTableRecord
100
AcDbBlockTableRecord
  2
5_405015E_Inch_0_in_069406_0
340
0
102
{BLKREFS
331
170
102
}
 70
     0
280
     1
281
     0
  0
BLOCK_RECORD
  5
1A4
330
1
100
AcDbSymbolTableRecord
100
AcDbBlockTableRecord
  2
6_069406H_0_in_069406_0
340
0
102
{BLKREFS
331
1A5
102
}
 70
     0
280
     1
281
     0
  0
ENDTAB
  0
ENDSEC
  0
SECTION
  2
BLOCKS
  0
BLOCK
  5
20
330
1F
100
AcDbEntity
  8
0
100
AcDbBlockBegin
  2
*Model_Space
 70
     0
 10
0.0
 20
0.0
 30
0.0
  3
*Model_Space
  1

  0
ENDBLK
  5
21
330
1F
100
AcDbEntity
  8
0
100
AcDbBlockEnd
  0
BLOCK
  5
1C
330
1B
100
AcDbEntity
 67
     1
  8
0
100
AcDbBlockBegin
  2
*Paper_Space
 70
     0
 10
0.0
 20
0.0
 30
0.0
  3
*Paper_Space
  1

  0
ENDBLK
  5
1D
330
1B
100
AcDbEntity
 67
     1
  8
0
100
AcDbBlockEnd
  0
BLOCK
  5
24
330
23
100
AcDbEntity
  8
0
100
AcDbBlockBegin
  2
*Paper_Space0
 70
     0
 10
0.0
 20
0.0
 30
0.0
  3
*Paper_Space0
  1

  0
ENDBLK
  5
25
330
23
100
AcDbEntity
  8
0
100
AcDbBlockEnd
  0
BLOCK
  5
8C
330
8A
100
AcDbEntity
  8
0
100
AcDbBlockBegin
  2
1_ASME_B18_3_10_1_0_in_069406_0
 70
     2
 10
0.0
 20
0.0
 30
0.0
  3
1_ASME_B18_3_10_1_0_in_069406_0
  1

  0
ATTDEF
  5
8E
330
8A
100
AcDbEntity
  8
AM_6
100
AcDbText
 10
5.189525
 20
-1.020888888888889
 30
0.0
 40
0.5
  1
ANSI/ASME B18.3-1998
100
AcDbAttributeDefinition
  3

  2
NN
 70
     8
280
     0
  0
ATTDEF
  5
8F
330
8A
100
AcDbEntity
  8
AM_6
100
AcDbText
 10
5.189525
 20
-1.520888888888889
 30
0.0
 40
0.5
  1
Socket Button Head Cap Screws
100
AcDbAttributeDefinition
  3

  2
NT
 70
     8
280
     0
  0
ATTDEF
  5
90
330
8A
100
AcDbEntity
  8
AM_6
100
AcDbText
 10
5.189525
 20
-2.020888888888889
 30
0.0
 40
0.5
  1
ASME B18.3-10
100
AcDbAttributeDefinition
  3

  2
NB
 70
     8
280
     0
  0
ATTDEF
  5
91
330
8A
100
AcDbEntity
  8
AM_6
100
AcDbText
 10
5.189525
 20
-2.520888888888889
 30
0.0
 40
0.5
  1
ASME B18.3-$NS.
100
AcDbAttributeDefinition
  3

  2
NBSYN
 70
     8
280
     0
  0
ATTDEF
  5
92
330
8A
100
AcDbEntity
  8
AM_6
100
AcDbText
 10
5.189525
 20
-3.020888888888889
 30
0.0
 40
0.5
  1
ASME B18.3-10
100
AcDbAttributeDefinition
  3

  2
LINA
 70
     8
280
     0
  0
ATTDEF
  5
93
330
8A
100
AcDbEntity
  8
AM_6
100
AcDbText
 10
5.189525
 20
-3.520888888888889
 30
0.0
 40
0.5
  1
10
100
AcDbAttributeDefinition
  3

  2
NS
 70
     8
280
     0
  0
ATTDEF
  5
94
330
8A
100
AcDbEntity
  8
AM_6
100
AcDbText
 10
5.189525
 20
-4.020888888888889
 30
0.0
 40
0.5
  1
0.361
100
AcDbAttributeDefinition
  3

  2
A
 70
     8
280
     0
  0
ATTDEF
  5
95
330
8A
100
AcDbEntity
  8
AM_6
100
AcDbText
 10
5.189525
 20
-4.520888888888889
 30
0.0
 40
0.5
  1
0.101
100
AcDbAttributeDefinition
  3

  2
H
 70
     8
280
     0
  0
ATTDEF
  5
96
330
8A
100
AcDbEntity
  8
AM_6
100
AcDbText
 10
5.189525
 20
-5.020888888888889
 30
0.0
 40
0.5
  1
0.800
100
AcDbAttributeDefinition
  3

  2
L
 70
     8
280
     0
  0
ATTDEF
  5
97
330
8A
100
AcDbEntity
  8
AM_6
100
AcDbText
 10
5.189525
 20
-5.520888888888889
 30
0.0
 40
0.5
  1
0.020
100
AcDbAttributeDefinition
  3

  2
S
 70
     8
280
     0
  0
ATTDEF
  5
98
330
8A
100
AcDbEntity
  8
AM_6
100
AcDbText
 10
5.189525
 20
-6.020888888888889
 30
0.0
 40
0.5
  1
0.125000
100
AcDbAttributeDefinition
  3

  2
J
 70
     8
280
     0
  0
ATTDEF
  5
99
330
8A
100
AcDbEntity
  8
AM_6
100
AcDbText
 10
5.189525
 20
-6.520888888888889
 30
0.0
 40
0.5
  1
baldor
100
AcDbAttributeDefinition
  3

  2
COMPANY
 70
     8
280
     0
  0
CIRCLE
  5
9C
330
8A
100
AcDbEntity
  8
AM_9
 48
0.0010688199922
100
AcDbCircle
 10
0.0
 20
-1.201388888888889
 30
0.0
 40
0.095
  0
ARC
  5
9E
330
8A
100
AcDbEntity
  8
AM_5
 48
0.0010688199922
100
AcDbCircle
 10
-0.0000000000000001
 20
-1.201388888888889
 30
0.0
 40
0.0702000000000003
100
AcDbArc
 50
75.0000000000001
 51
15.00000000000018
  0
LINE
  5
A1
330
8A
100
AcDbEntity
  8
AM_7
 48
0.0010688199922
100
AcDbLine
 10
-0.1895249999999999
 20
-1.201388888888889
 30
0.0
 11
0.1895249999999999
 21
-1.201388888888889
 31
0.0
  0
CIRCLE
  5
A3
330
8A
100
AcDbEntity
  8
AM_4
 48
0.0010688199922
100
AcDbCircle
 10
0.0
 20
-1.201388888888889
 30
0.0
 40
0.0995
  0
LINE
  5
A5
330
8A
100
AcDbEntity
  8
AM_0
 48
0.0010688199922
100
AcDbLine
 10
-0.0625
 20
-1.23747328071324
 30
0.0
 11
-0.0625
 21
-1.165304497064537
 31
0.0
  0
LINE
  5
A6
330
8A
100
AcDbEntity
  8
AM_0
 48
0.0010688199922
100
AcDbLine
 10
-0.0625
 20
-1.165304497064537
 30
0.0
 11
0.0
 21
-1.129220105240186
 31
0.0
  0
LINE
  5
A7
330
8A
100
AcDbEntity
  8
AM_0
 48
0.0010688199922
100
AcDbLine
 10
0.0
 20
-1.129220105240186
 30
0.0
 11
0.0625
 21
-1.165304497064537
 31
0.0
  0
LINE
  5
A8
330
8A
100
AcDbEntity
  8
AM_0
 48
0.0010688199922
100
AcDbLine
 10
0.0625
 20
-1.165304497064537
 30
0.0
 11
0.0625
 21
-1.23747328071324
 31
0.0
  0
LINE
  5
A9
330
8A
100
AcDbEntity
  8
AM_0
 48
0.0010688199922
100
AcDbLine
 10
0.0625
 20
-1.23747328071324
 30
0.0
 11
0.0
 21
-1.273557672537592
 31
0.0
  0
LINE
  5
AA
330
8A
100
AcDbEntity
  8
AM_0
 48
0.0010688199922
100
AcDbLine
 10
0.0
 20
-1.273557672537592
 30
0.0
 11
-0.0625
 21
-1.23747328071324
 31
0.0
  0
ARC
  5
AB
330
8A
100
AcDbEntity
  8
AM_5
 48
0.0010688199922
100
AcDbCircle
 10
0.0
 20
-1.201388888888889
 30
0.0
 40
0.0764
100
AcDbArc
 50
75.00000000000001
 51
15.00000000000005
  0
CIRCLE
  5
AC
330
8A
100
AcDbEntity
  8
AM_0
 48
0.0010688199922
100
AcDbCircle
 10
0.0
 20
-1.201388888888889
 30
0.0
 40
0.1804999999999999
  0
ENDBLK
  5
8D
330
8A
100
AcDbEntity
  8
0
100
AcDbBlockEnd
  0
BLOCK
  5
AF
330
AD
100
AcDbEntity
  8
0
100
AcDbBlockBegin
  2
2_ASME_B18_3_10_2_0_in_069406_0
 70
     2
 10
0.0
 20
0.0
 30
0.0
  3
2_ASME_B18_3_10_2_0_in_069406_0
  1

  0
ATTDEF
  5
B1
330
AD
100
AcDbEntity
  8
AM_6
100
AcDbText
 10
5.189525
 20
1.381888888888889
 30
0.0
 40
0.5
  1
ANSI/ASME B18.3-1998
100
AcDbAttributeDefinition
  3

  2
NN
 70
     8
280
     0
  0
ATTDEF
  5
B2
330
AD
100
AcDbEntity
  8
AM_6
100
AcDbText
 10
5.189525
 20
0.8818888888888887
 30
0.0
 40
0.5
  1
Socket Button Head Cap Screws
100
AcDbAttributeDefinition
  3

  2
NT
 70
     8
280
     0
  0
ATTDEF
  5
B3
330
AD
100
AcDbEntity
  8
AM_6
100
AcDbText
 10
5.189525
 20
0.3818888888888887
 30
0.0
 40
0.5
  1
ASME B18.3-10
100
AcDbAttributeDefinition
  3

  2
NB
 70
     8
280
     0
  0
ATTDEF
  5
B4
330
AD
100
AcDbEntity
  8
AM_6
100
AcDbText
 10
5.189525
 20
-0.1181111111111113
 30
0.0
 40
0.5
  1
ASME B18.3-$NS.
100
AcDbAttributeDefinition
  3

  2
NBSYN
 70
     8
280
     0
  0
ATTDEF
  5
B5
330
AD
100
AcDbEntity
  8
AM_6
100
AcDbText
 10
5.189525
 20
-0.6181111111111113
 30
0.0
 40
0.5
  1
ASME B18.3-10
100
AcDbAttributeDefinition
  3

  2
LINA
 70
     8
280
     0
  0
ATTDEF
  5
B6
330
AD
100
AcDbEntity
  8
AM_6
100
AcDbText
 10
5.189525
 20
-1.118111111111111
 30
0.0
 40
0.5
  1
10
100
AcDbAttributeDefinition
  3

  2
NS
 70
     8
280
     0
  0
ATTDEF
  5
B7
330
AD
100
AcDbEntity
  8
AM_6
100
AcDbText
 10
5.189525
 20
-1.618111111111111
 30
0.0
 40
0.5
  1
0.361
100
AcDbAttributeDefinition
  3

  2
A
 70
     8
280
     0
  0
ATTDEF
  5
B8
330
AD
100
AcDbEntity
  8
AM_6
100
AcDbText
 10
5.189525
 20
-2.118111111111111
 30
0.0
 40
0.5
  1
0.101
100
AcDbAttributeDefinition
  3

  2
H
 70
     8
280
     0
  0
ATTDEF
  5
B9
330
AD
100
AcDbEntity
  8
AM_6
100
AcDbText
 10
5.189525
 20
-2.618111111111111
 30
0.0
 40
0.5
  1
0.800
100
AcDbAttributeDefinition
  3

  2
L
 70
     8
280
     0
  0
ATTDEF
  5
BA
330
AD
100
AcDbEntity
  8
AM_6
100
AcDbText
 10
5.189525
 20
-3.118111111111111
 30
0.0
 40
0.5
  1
0.020
100
AcDbAttributeDefinition
  3

  2
S
 70
     8
280
     0
  0
ATTDEF
  5
BB
330
AD
100
AcDbEntity
  8
AM_6
100
AcDbText
 10
5.189525
 20
-3.618111111111111
 30
0.0
 40
0.5
  1
0.125000
100
AcDbAttributeDefinition
  3

  2
J
 70
     8
280
     0
  0
ATTDEF
  5
BC
330
AD
100
AcDbEntity
  8
AM_6
100
AcDbText
 10
5.189525
 20
-4.118111111111111
 30
0.0
 40
0.5
  1
baldor
100
AcDbAttributeDefinition
  3

  2
COMPANY
 70
     8
280
     0
  0
CIRCLE
  5
BD
330
AD
100
AcDbEntity
  8
AM_9
 48
0.0010688199922
100
AcDbCircle
 10
0.0
 20
1.201388888888889
 30
0.0
 40
0.095
  0
ARC
  5
BE
330
AD
100
AcDbEntity
  8
AM_5
 48
0.0010688199922
100
AcDbCircle
 10
-0.0000000000000001
 20
1.201388888888888
 30
0.0
 40
0.0702000000000003
100
AcDbArc
 50
75.00000000000013
 51
15.00000000000016
  0
LINE
  5
BF
330
AD
100
AcDbEntity
  8
AM_7
 48
0.0010688199922
100
AcDbLine
 10
-0.1895249999999999
 20
1.201388888888889
 30
0.0
 11
0.1895249999999999
 21
1.201388888888889
 31
0.0
  0
LINE
  5
C0
330
AD
100
AcDbEntity
  8
AM_0
 48
0.0010688199922
100
AcDbLine
 10
0.0625
 20
1.165304497064537
 30
0.0
 11
0.0
 21
1.129220105240186
 31
0.0
  0
CIRCLE
  5
C1
330
AD
100
AcDbEntity
  8
AM_4
 48
0.0010688199922
100
AcDbCircle
 10
0.0
 20
1.201388888888889
 30
0.0
 40
0.0995
  0
LINE
  5
C2
330
AD
100
AcDbEntity
  8
AM_0
 48
0.0010688199922
100
AcDbLine
 10
-0.0625
 20
1.165304497064537
 30
0.0
 11
-0.0625
 21
1.23747328071324
 31
0.0
  0
LINE
  5
C3
330
AD
100
AcDbEntity
  8
AM_0
 48
0.0010688199922
100
AcDbLine
 10
-0.0625
 20
1.23747328071324
 30
0.0
 11
0.0
 21
1.273557672537592
 31
0.0
  0
LINE
  5
C4
330
AD
100
AcDbEntity
  8
AM_0
 48
0.0010688199922
100
AcDbLine
 10
0.0
 20
1.273557672537592
 30
0.0
 11
0.0625
 21
1.23747328071324
 31
0.0
  0
LINE
  5
C5
330
AD
100
AcDbEntity
  8
AM_0
 48
0.0010688199922
100
AcDbLine
 10
0.0625
 20
1.23747328071324
 30
0.0
 11
0.0625
 21
1.165304497064537
 31
0.0
  0
LINE
  5
C6
330
AD
100
AcDbEntity
  8
AM_0
 48
0.0010688199922
100
AcDbLine
 10
0.0
 20
1.129220105240186
 30
0.0
 11
-0.0625
 21
1.165304497064537
 31
0.0
  0
ARC
  5
C7
330
AD
100
AcDbEntity
  8
AM_5
 48
0.0010688199922
100
AcDbCircle
 10
0.0
 20
1.201388888888889
 30
0.0
 40
0.0763999999999999
100
AcDbArc
 50
75.00000000000006
 51
14.99999999999992
  0
CIRCLE
  5
C8
330
AD
100
AcDbEntity
  8
AM_0
 48
0.0010688199922
100
AcDbCircle
 10
0.0
 20
1.201388888888889
 30
0.0
 40
0.1804999999999999
  0
ENDBLK
  5
B0
330
AD
100
AcDbEntity
  8
0
100
AcDbBlockEnd
  0
BLOCK
  5
CB
330
C9
100
AcDbEntity
  8
0
100
AcDbBlockBegin
  2
3_070886LW_0_in_069406_0
 70
     2
 10
0.0
 20
0.0
 30
0.0
  3
3_070886LW_0_in_069406_0
  1

  0
ATTDEF
  5
CD
330
C9
100
AcDbEntity
  8
AM_6
100
AcDbText
 10
6.5
 20
1.5
 30
0.0
 40
0.5
  1
Imperial Insert Lockwasher -Inch
100
AcDbAttributeDefinition
  3

  2
NN
 70
     8
280
     0
  0
ATTDEF
  5
CE
330
C9
100
AcDbEntity
  8
AM_6
100
AcDbText
 10
6.5
 20
0.9999999999999998
 30
0.0
 40
0.5
  1
Imperial Bearings
100
AcDbAttributeDefinition
  3

  2
NT
 70
     8
280
     0
  0
ATTDEF
  5
CF
330
C9
100
AcDbEntity
  8
AM_6
100
AcDbText
 10
6.5
 20
0.4999999999999998
 30
0.0
 40
0.5
  1
070886LW
100
AcDbAttributeDefinition
  3

  2
NB
 70
     8
280
     0
  0
ATTDEF
  5
D0
330
C9
100
AcDbEntity
  8
AM_6
100
AcDbText
 10
6.5
 20
-0.0000000000000002
 30
0.0
 40
0.5
  1
$PN.LW
100
AcDbAttributeDefinition
  3

  2
NBSYN
 70
     8
280
     0
  0
ATTDEF
  5
D1
330
C9
100
AcDbEntity
  8
AM_6
100
AcDbText
 10
6.5
 20
-0.5000000000000002
 30
0.0
 40
0.5
  1
070886
100
AcDbAttributeDefinition
  3

  2
LINA
 70
     8
280
     0
  0
ATTDEF
  5
D2
330
C9
100
AcDbEntity
  8
AM_6
100
AcDbText
 10
6.5
 20
-1.0
 30
0.0
 40
0.5
  1
1-5/8
100
AcDbAttributeDefinition
  3

  2
SS
 70
     8
280
     0
  0
ATTDEF
  5
D3
330
C9
100
AcDbEntity
  8
AM_6
100
AcDbText
 10
6.5
 20
-1.5
 30
0.0
 40
0.5
  1
1.625000
100
AcDbAttributeDefinition
  3

  2
SS1
 70
     8
280
     0
  0
ATTDEF
  5
D4
330
C9
100
AcDbEntity
  8
AM_6
100
AcDbText
 10
6.5
 20
-2.0
 30
0.0
 40
0.5
  1
070886
100
AcDbAttributeDefinition
  3

  2
PN
 70
     8
280
     0
  0
ATTDEF
  5
D5
330
C9
100
AcDbEntity
  8
AM_6
100
AcDbText
 10
6.5
 20
-2.5
 30
0.0
 40
0.5
  1
INS-IP-110R
100
AcDbAttributeDefinition
  3

  2
DESCRIPTION
 70
     8
280
     0
  0
ATTDEF
  5
D6
330
C9
100
AcDbEntity
  8
AM_6
100
AcDbText
 10
6.5
 20
-3.0
 30
0.0
 40
0.5
  1
3.3465
100
AcDbAttributeDefinition
  3

  2
A
 70
     8
280
     0
  0
ATTDEF
  5
D7
330
C9
100
AcDbEntity
  8
AM_6
100
AcDbText
 10
6.5
 20
-3.5
 30
0.0
 40
0.5
  1
61/64
100
AcDbAttributeDefinition
  3

  2
B
 70
     8
280
     0
  0
ATTDEF
  5
D8
330
C9
100
AcDbEntity
  8
AM_6
100
AcDbText
 10
6.5
 20
-4.0
 30
0.0
 40
0.5
  1
2-13/16
100
AcDbAttributeDefinition
  3

  2
C
 70
     8
280
     0
  0
ATTDEF
  5
D9
330
C9
100
AcDbEntity
  8
AM_6
100
AcDbText
 10
6.5
 20
-4.5
 30
0.0
 40
0.5
  1
0.954
100
AcDbAttributeDefinition
  3

  2
D
 70
     8
280
     0
  0
ATTDEF
  5
DA
330
C9
100
AcDbEntity
  8
AM_6
100
AcDbText
 10
6.5
 20
-5.0
 30
0.0
 40
0.5
  1
3
100
AcDbAttributeDefinition
  3

  2
E
 70
     8
280
     0
  0
ATTDEF
  5
DB
330
C9
100
AcDbEntity
  8
AM_6
100
AcDbText
 10
6.5
 20
-5.5
 30
0.0
 40
0.5
  1
0.1900
100
AcDbAttributeDefinition
  3

  2
NDM
 70
     8
280
     0
  0
ATTDEF
  5
DC
330
C9
100
AcDbEntity
  8
AM_6
100
AcDbText
 10
6.5
 20
-6.0
 30
0.0
 40
0.5
  1
0.1450
100
AcDbAttributeDefinition
  3

  2
KDM
 70
     8
280
     0
  0
ATTDEF
  5
DD
330
C9
100
AcDbEntity
  8
AM_6
100
AcDbText
 10
6.5
 20
-6.5
 30
0.0
 40
0.5
  1
2.42
100
AcDbAttributeDefinition
  3

  2
AL
 70
     8
280
     0
  0
ATTDEF
  5
DE
330
C9
100
AcDbEntity
  8
AM_6
100
AcDbText
 10
6.5
 20
-7.0
 30
0.0
 40
0.5
  1
0.38
100
AcDbAttributeDefinition
  3

  2
BL
 70
     8
280
     0
  0
ATTDEF
  5
DF
330
C9
100
AcDbEntity
  8
AM_6
100
AcDbText
 10
6.5
 20
-7.5
 30
0.0
 40
0.5
  1
0.07
100
AcDbAttributeDefinition
  3

  2
CL
 70
     8
280
     0
  0
ATTDEF
  5
E0
330
C9
100
AcDbEntity
  8
AM_6
100
AcDbText
 10
6.5
 20
-8.0
 30
0.0
 40
0.5
  1
0.44
100
AcDbAttributeDefinition
  3

  2
DL
 70
     8
280
     0
  0
ATTDEF
  5
E1
330
C9
100
AcDbEntity
  8
AM_6
100
AcDbText
 10
6.5
 20
-8.5
 30
0.0
 40
0.5
  1
baldor
100
AcDbAttributeDefinition
  3

  2
COMPANY
 70
     8
280
     0
  0
ARC
  5
E2
330
C9
100
AcDbEntity
  8
AM_9
 48
0.0099252813742386
100
AcDbCircle
 10
0.0000000000000036
 20
-0.0000000000000085
 30
0.0
 40
0.855263157894746
100
AcDbArc
 50
106.1226008225028
 51
118.8773991774972
  0
LINE
  5
E3
330
C9
100
AcDbEntity
  8
AM_9
 48
0.0099252813742386
100
AcDbLine
 10
-0.0949999999999999
 20
-1.201388888888889
 30
0.0
 11
-0.095
 21
-1.047911691885556
 31
0.0
  0
ARC
  5
E4
330
C9
100
AcDbEntity
  8
AM_9
 48
0.0099252813742386
100
AcDbCircle
 10
0.0000000000000001
 20
-1.201463316546224
 30
0.0
 40
0.0950000291551333
100
AcDbArc
 50
179.9551116866122
 51
0.0448883133878522
  0
LINE
  5
E5
330
C9
100
AcDbEntity
  8
AM_9
 48
0.0099252813742386
100
AcDbLine
 10
0.0950000000000001
 20
-1.047911691885556
 30
0.0
 11
0.0950000000000002
 21
-1.201388888888889
 31
0.0
  0
LINE
  5
E6
330
C9
100
AcDbEntity
  8
AM_9
 48
0.0099252813742386
100
AcDbLine
 10
-0.095
 20
1.047911691885556
 30
0.0
 11
-0.0949999999999999
 21
1.201388888888889
 31
0.0
  0
ARC
  5
E7
330
C9
100
AcDbEntity
  8
AM_9
 48
0.0099252813742386
100
AcDbCircle
 10
-0.0000000000000001
 20
1.201463316546224
 30
0.0
 40
0.0950000291551332
100
AcDbArc
 50
359.9551116866123
 51
180.0448883133877
  0
LINE
  5
E8
330
C9
100
AcDbEntity
  8
AM_9
 48
0.0099252813742386
100
AcDbLine
 10
0.0949999999999997
 20
1.201388888888889
 30
0.0
 11
0.0949999999999998
 21
1.047911691885555
 31
0.0
  0
LINE
  5
E9
330
C9
100
AcDbEntity
  8
AM_7
 48
0.0099252813742386
100
AcDbLine
 10
0.7498128278638245
 20
-0.8495628584767143
 30
0.0
 11
0.9493128890896045
 21
-0.8495628584767143
 31
0.0
  0
LINE
  5
EA
330
C9
100
AcDbEntity
  8
AM_7
 48
0.0099252813742386
100
AcDbLine
 10
0.8495628584767145
 20
-0.9493128890896043
 30
0.0
 11
0.8495628584767145
 21
-0.7498128278638243
 31
0.0
  0
LINE
  5
EB
330
C9
100
AcDbEntity
  8
AM_7
 48
0.0099252813742386
100
AcDbLine
 10
-1.201463316546224
 20
-0.09975003061289
 30
0.0
 11
-1.201463316546224
 21
0.0997500306128898
 31
0.0
  0
LINE
  5
EC
330
C9
100
AcDbEntity
  8
AM_7
 48
0.0099252813742386
100
AcDbLine
 10
-0.9493128890896043
 20
-0.8495628584767148
 30
0.0
 11
-0.749812827863825
 21
-0.8495628584767148
 31
0.0
  0
LINE
  5
ED
330
C9
100
AcDbEntity
  8
AM_7
 48
0.0099252813742386
100
AcDbLine
 10
-0.8495628584767146
 20
-0.9493128890896045
 30
0.0
 11
-0.8495628584767146
 21
-0.749812827863825
 31
0.0
  0
LINE
  5
EE
330
C9
100
AcDbEntity
  8
AM_7
 48
0.0099252813742386
100
AcDbLine
 10
-0.9493128890896041
 20
0.8495628584767139
 30
0.0
 11
-0.7498128278638241
 21
0.8495628584767139
 31
0.0
  0
LINE
  5
EF
330
C9
100
AcDbEntity
  8
AM_7
 48
0.0099252813742386
100
AcDbLine
 10
-0.8495628584767141
 20
0.7498128278638239
 30
0.0
 11
-0.8495628584767141
 21
0.9493128890896039
 31
0.0
  0
LINE
  5
F0
330
C9
100
AcDbEntity
  8
AM_7
 48
0.0099252813742386
100
AcDbLine
 10
0.7498128278638243
 20
0.8495628584767144
 30
0.0
 11
0.9493128890896043
 21
0.8495628584767144
 31
0.0
  0
LINE
  5
F1
330
C9
100
AcDbEntity
  8
AM_7
 48
0.0099252813742386
100
AcDbLine
 10
0.8495628584767143
 20
0.7498128278638244
 30
0.0
 11
0.8495628584767143
 21
0.9493128890896044
 31
0.0
  0
LINE
  5
F2
330
C9
100
AcDbEntity
  8
AM_0
 48
0.0099252813742386
100
AcDbLine
 10
-0.095
 20
-1.047911691885556
 30
0.0
 11
-0.0949999999999999
 21
-0.8732259590751007
 31
0.0
  0
ARC
  5
F3
330
C9
100
AcDbEntity
  8
AM_0
 48
0.0099252813742386
100
AcDbCircle
 10
-0.0000000000000013
 20
-0.0000000000000037
 30
0.0
 40
0.8783783783783745
100
AcDbArc
 50
231.2089038040587
 51
263.7910961959413
  0
ARC
  5
F4
330
C9
100
AcDbEntity
  8
AM_0
 48
0.0099252813742386
100
AcDbCircle
 10
0.8495628584767143
 20
0.8495628584767144
 30
0.0
 40
0.0950000291551333
100
AcDbArc
 50
314.955111686612
 51
135.0448883133879
  0
LINE
  5
F5
330
C9
100
AcDbEntity
  8
AM_0
 48
0.0099252813742386
100
AcDbLine
 10
0.0950000000000003
 20
-0.8732259590751008
 30
0.0
 11
0.0950000000000001
 21
-1.047911691885556
 31
0.0
  0
ARC
  5
F6
330
C9
100
AcDbEntity
  8
AM_0
 48
0.0099252813742386
100
AcDbCircle
 10
-0.8495628584767141
 20
0.849562858476714
 30
0.0
 40
0.0950000291551333
100
AcDbArc
 50
44.95511168661232
 51
225.0448883133876
  0
LINE
  5
F7
330
C9
100
AcDbEntity
  8
AM_0
 48
0.0099252813742386
100
AcDbLine
 10
-0.2375011219216766
 20
0.8216253929486493
 30
0.0
 11
-0.2464005516605847
 21
0.8431105169217075
 31
0.0
  0
CIRCLE
  5
F8
330
C9
100
AcDbEntity
  8
AM_0
 48
0.0099252813742386
100
AcDbCircle
 10
0.0
 20
0.0
 30
0.0
 40
1.5
  0
LINE
  5
F9
330
C9
100
AcDbEntity
  8
AM_0
 48
0.0099252813742386
100
AcDbLine
 10
-0.5502888529574079
 20
-0.6846391413828525
 30
0.0
 11
-0.7823350859627833
 21
-0.9166853743882272
 31
0.0
  0
LINE
  5
FA
330
C9
100
AcDbEntity
  8
AM_0
 48
0.0099252813742386
100
AcDbLine
 10
-0.782335085962783
 20
0.916685374388227
 30
0.0
 11
-0.5502888529574085
 21
0.6846391413828523
 31
0.0
  0
ARC
  5
FB
330
C9
100
AcDbEntity
  8
AM_0
 48
0.0099252813742386
100
AcDbCircle
 10
-0.0000000000000009
 20
0.0000000000000012
 30
0.0
 40
0.8783783783783797
100
AcDbArc
 50
276.2089038040588
 51
308.7910961959412
  0
LINE
  5
FC
330
C9
100
AcDbEntity
  8
AM_0
 48
0.0099252813742386
100
AcDbLine
 10
0.7823350859627833
 20
-0.9166853743882272
 30
0.0
 11
0.5502888529574084
 21
-0.6846391413828522
 31
0.0
  0
ARC
  5
FD
330
C9
100
AcDbEntity
  8
AM_0
 48
0.0099252813742386
100
AcDbCircle
 10
0.0000000000000028
 20
0.0000000000000009
 30
0.0
 40
0.8783783783783754
100
AcDbArc
 50
6.208903804058735
 51
38.79109619594131
  0
LINE
  5
FE
330
C9
100
AcDbEntity
  8
AM_0
 48
0.0099252813742386
100
AcDbLine
 10
0.9166853743882271
 20
0.7823350859627831
 30
0.0
 11
0.6846391413828522
 21
0.5502888529574083
 31
0.0
  0
ARC
  5
FF
330
C9
100
AcDbEntity
  8
AM_0
 48
0.0099252813742386
100
AcDbCircle
 10
0.0000000000000208
 20
-0.0000000000000321
 30
0.0
 40
0.8783783783784164
100
AcDbArc
 50
118.7089038040589
 51
128.791096195941
  0
ARC
  5
100
330
C9
100
AcDbEntity
  8
AM_0
 48
0.0099252813742386
100
AcDbCircle
 10
0.0000000000000036
 20
-0.0000000000000018
 30
0.0
 40
0.8783783783783746
100
AcDbArc
 50
321.2089038040587
 51
353.7910961959413
  0
ARC
  5
101
330
C9
100
AcDbEntity
  8
AM_0
 48
0.0099252813742386
100
AcDbCircle
 10
-0.0000000000000032
 20
-0.0000000000000011
 30
0.0
 40
0.878378378378375
100
AcDbArc
 50
186.2089038040587
 51
218.7910961959413
  0
LINE
  5
102
330
C9
100
AcDbEntity
  8
AM_0
 48
0.0099252813742386
100
AcDbLine
 10
0.8732259590751007
 20
0.0950000000000002
 30
0.0
 11
1.201388888888889
 21
0.0950000000000002
 31
0.0
  0
ARC
  5
103
330
C9
100
AcDbEntity
  8
AM_0
 48
0.0099252813742386
100
AcDbCircle
 10
0.0000000000000026
 20
-0.0000000000000078
 30
0.0
 40
0.8125000000000082
100
AcDbArc
 50
105.7854423579311
 51
119.2145576420688
  0
ARC
  5
104
330
C9
100
AcDbEntity
  8
AM_0
 48
0.0099252813742386
100
AcDbCircle
 10
0.8495628584767145
 20
-0.8495628584767144
 30
0.0
 40
0.0950000291551332
100
AcDbArc
 50
224.9551116866122
 51
45.04488831338788
  0
LINE
  5
105
330
C9
100
AcDbEntity
  8
AM_0
 48
0.0099252813742386
100
AcDbLine
 10
0.6846391413828526
 20
-0.5502888529574083
 30
0.0
 11
0.9166853743882273
 21
-0.7823350859627831
 31
0.0
  0
LINE
  5
106
330
C9
100
AcDbEntity
  8
AM_0
 48
0.0099252813742386
100
AcDbLine
 10
0.5502888529574083
 20
0.6846391413828522
 30
0.0
 11
0.782335085962783
 21
0.9166853743882272
 31
0.0
  0
LINE
  5
107
330
C9
100
AcDbEntity
  8
AM_0
 48
0.0099252813742386
100
AcDbLine
 10
-0.6846391413828525
 20
0.5502888529574084
 30
0.0
 11
-0.9166853743882271
 21
0.7823350859627829
 31
0.0
  0
ARC
  5
108
330
C9
100
AcDbEntity
  8
AM_0
 48
0.0099252813742386
100
AcDbCircle
 10
-0.8495628584767145
 20
-0.8495628584767148
 30
0.0
 40
0.0950000291551332
100
AcDbArc
 50
134.955111686612
 51
315.044888313388
  0
LINE
  5
109
330
C9
100
AcDbEntity
  8
AM_0
 48
0.0099252813742386
100
AcDbLine
 10
-0.0950000000000002
 20
0.8732259590751007
 30
0.0
 11
-0.095
 21
1.047911691885556
 31
0.0
  0
ARC
  5
10A
330
C9
100
AcDbEntity
  8
AM_0
 48
0.0099252813742386
100
AcDbCircle
 10
0.0000000000000124
 20
-0.0000000000000591
 30
0.0
 40
0.8783783783784384
100
AcDbArc
 50
96.20890380405916
 51
106.2910961959409
  0
ARC
  5
10B
330
C9
100
AcDbEntity
  8
AM_0
 48
0.0099252813742386
100
AcDbCircle
 10
1.197626929534267
 20
0.0000000000000002
 30
0.0
 40
0.0950744568124678
100
AcDbArc
 50
272.2677035018494
 51
87.73229649815059
  0
LINE
  5
10C
330
C9
100
AcDbEntity
  8
AM_0
 48
0.0099252813742386
100
AcDbLine
 10
1.201388888888889
 20
-0.0949999999999997
 30
0.0
 11
0.8732259590751007
 21
-0.0949999999999999
 31
0.0
  0
LINE
  5
10D
330
C9
100
AcDbEntity
  8
AM_0
 48
0.0099252813742386
100
AcDbLine
 10
-0.9166853743882271
 20
-0.7823350859627834
 30
0.0
 11
-0.6846391413828522
 21
-0.5502888529574083
 31
0.0
  0
LINE
  5
10E
330
C9
100
AcDbEntity
  8
AM_0
 48
0.0099252813742386
100
AcDbLine
 10
-0.8732259590751007
 20
-0.0950000000000001
 30
0.0
 11
-1.201388888888889
 21
-0.0950000000000002
 31
0.0
  0
ARC
  5
10F
330
C9
100
AcDbEntity
  8
AM_0
 48
0.0099252813742386
100
AcDbCircle
 10
-1.201463316546224
 20
-0.0000000000000001
 30
0.0
 40
0.0950000291551334
100
AcDbArc
 50
89.95511168661216
 51
270.0448883133878
  0
LINE
  5
110
330
C9
100
AcDbEntity
  8
AM_0
 48
0.0099252813742386
100
AcDbLine
 10
-1.201388888888889
 20
0.0949999999999999
 30
0.0
 11
-0.8732259590751007
 21
0.0949999999999999
 31
0.0
  0
ARC
  5
111
330
C9
100
AcDbEntity
  8
AM_0
 48
0.0099252813742386
100
AcDbCircle
 10
0.0000000000000021
 20
-0.0000000000000004
 30
0.0
 40
0.8783783783783804
100
AcDbArc
 50
141.2089038040588
 51
173.7910961959412
  0
LINE
  5
112
330
C9
100
AcDbEntity
  8
AM_0
 48
0.0099252813742386
100
AcDbLine
 10
-0.421937662837729
 20
0.7704006647723406
 30
0.0
 11
-0.4130382330988213
 21
0.7489155407992824
 31
0.0
  0
LINE
  5
113
330
C9
100
AcDbEntity
  8
AM_0
 48
0.0099252813742386
100
AcDbLine
 10
0.0949999999999998
 20
1.047911691885555
 30
0.0
 11
0.0949999999999999
 21
0.8732259590751007
 31
0.0
  0
ARC
  5
114
330
C9
100
AcDbEntity
  8
AM_0
 48
0.0099252813742386
100
AcDbCircle
 10
-0.0000000000000001
 20
0.0000000000000003
 30
0.0
 40
0.8783783783783778
100
AcDbArc
 50
51.20890380405875
 51
83.79109619594125
  0
ENDBLK
  5
CC
330
C9
100
AcDbEntity
  8
0
100
AcDbBlockEnd
  0
BLOCK
  5
117
330
115
100
AcDbEntity
  8
0
100
AcDbBlockBegin
  2
4_070886I_0_in_069406_0
 70
     2
 10
0.0
 20
0.0
 30
0.0
  3
4_070886I_0_in_069406_0
  1

  0
ATTDEF
  5
119
330
115
100
AcDbEntity
  8
AM_6
100
AcDbText
 10
6.62559375
 20
1.62559375
 30
0.0
 40
0.5
  1
Imperial Insert -Inch
100
AcDbAttributeDefinition
  3

  2
NN
 70
     8
280
     0
  0
ATTDEF
  5
11A
330
115
100
AcDbEntity
  8
AM_6
100
AcDbText
 10
6.62559375
 20
1.12559375
 30
0.0
 40
0.5
  1
Imperial Bearings
100
AcDbAttributeDefinition
  3

  2
NT
 70
     8
280
     0
  0
ATTDEF
  5
11B
330
115
100
AcDbEntity
  8
AM_6
100
AcDbText
 10
6.62559375
 20
0.6255937499999997
 30
0.0
 40
0.5
  1
070886I
100
AcDbAttributeDefinition
  3

  2
NB
 70
     8
280
     0
  0
ATTDEF
  5
11C
330
115
100
AcDbEntity
  8
AM_6
100
AcDbText
 10
6.62559375
 20
0.1255937499999997
 30
0.0
 40
0.5
  1
$PN.I
100
AcDbAttributeDefinition
  3

  2
NBSYN
 70
     8
280
     0
  0
ATTDEF
  5
11D
330
115
100
AcDbEntity
  8
AM_6
100
AcDbText
 10
6.62559375
 20
-0.3744062500000003
 30
0.0
 40
0.5
  1
070886
100
AcDbAttributeDefinition
  3

  2
LINA
 70
     8
280
     0
  0
ATTDEF
  5
11E
330
115
100
AcDbEntity
  8
AM_6
100
AcDbText
 10
6.62559375
 20
-0.8744062500000003
 30
0.0
 40
0.5
  1
1-5/8
100
AcDbAttributeDefinition
  3

  2
SS
 70
     8
280
     0
  0
ATTDEF
  5
11F
330
115
100
AcDbEntity
  8
AM_6
100
AcDbText
 10
6.62559375
 20
-1.37440625
 30
0.0
 40
0.5
  1
1.625000
100
AcDbAttributeDefinition
  3

  2
SS1
 70
     8
280
     0
  0
ATTDEF
  5
120
330
115
100
AcDbEntity
  8
AM_6
100
AcDbText
 10
6.62559375
 20
-1.87440625
 30
0.0
 40
0.5
  1
070886
100
AcDbAttributeDefinition
  3

  2
PN
 70
     8
280
     0
  0
ATTDEF
  5
121
330
115
100
AcDbEntity
  8
AM_6
100
AcDbText
 10
6.62559375
 20
-2.37440625
 30
0.0
 40
0.5
  1
INS-IP-110R
100
AcDbAttributeDefinition
  3

  2
DESCRIPTION
 70
     8
280
     0
  0
ATTDEF
  5
122
330
115
100
AcDbEntity
  8
AM_6
100
AcDbText
 10
6.62559375
 20
-2.87440625
 30
0.0
 40
0.5
  1
Contact Seal
100
AcDbAttributeDefinition
  3

  2
ST
 70
     8
280
     0
  0
ATTDEF
  5
123
330
115
100
AcDbEntity
  8
AM_6
100
AcDbText
 10
6.62559375
 20
-3.37440625
 30
0.0
 40
0.5
  1
3.3465
100
AcDbAttributeDefinition
  3

  2
A
 70
     8
280
     0
  0
ATTDEF
  5
124
330
115
100
AcDbEntity
  8
AM_6
100
AcDbText
 10
6.62559375
 20
-3.87440625
 30
0.0
 40
0.5
  1
61/64
100
AcDbAttributeDefinition
  3

  2
B
 70
     8
280
     0
  0
ATTDEF
  5
125
330
115
100
AcDbEntity
  8
AM_6
100
AcDbText
 10
6.62559375
 20
-4.37440625
 30
0.0
 40
0.5
  1
2-13/16
100
AcDbAttributeDefinition
  3

  2
C
 70
     8
280
     0
  0
ATTDEF
  5
126
330
115
100
AcDbEntity
  8
AM_6
100
AcDbText
 10
6.62559375
 20
-4.87440625
 30
0.0
 40
0.5
  1
0.954
100
AcDbAttributeDefinition
  3

  2
D
 70
     8
280
     0
  0
ATTDEF
  5
127
330
115
100
AcDbEntity
  8
AM_6
100
AcDbText
 10
6.62559375
 20
-5.37440625
 30
0.0
 40
0.5
  1
3
100
AcDbAttributeDefinition
  3

  2
E
 70
     8
280
     0
  0
ATTDEF
  5
128
330
115
100
AcDbEntity
  8
AM_6
100
AcDbText
 10
6.62559375
 20
-5.87440625
 30
0.0
 40
0.5
  1
0.1900
100
AcDbAttributeDefinition
  3

  2
NDM
 70
     8
280
     0
  0
ATTDEF
  5
129
330
115
100
AcDbEntity
  8
AM_6
100
AcDbText
 10
6.62559375
 20
-6.37440625
 30
0.0
 40
0.5
  1
0.101
100
AcDbAttributeDefinition
  3

  2
H
 70
     8
280
     0
  0
ATTDEF
  5
12A
330
115
100
AcDbEntity
  8
AM_6
100
AcDbText
 10
6.62559375
 20
-6.87440625
 30
0.0
 40
0.5
  1
0.1450
100
AcDbAttributeDefinition
  3

  2
KDM
 70
     8
280
     0
  0
ATTDEF
  5
12B
330
115
100
AcDbEntity
  8
AM_6
100
AcDbText
 10
6.62559375
 20
-7.37440625
 30
0.0
 40
0.5
  1
2.42
100
AcDbAttributeDefinition
  3

  2
AL
 70
     8
280
     0
  0
ATTDEF
  5
12C
330
115
100
AcDbEntity
  8
AM_6
100
AcDbText
 10
6.62559375
 20
-7.87440625
 30
0.0
 40
0.5
  1
0.38
100
AcDbAttributeDefinition
  3

  2
BL
 70
     8
280
     0
  0
ATTDEF
  5
12D
330
115
100
AcDbEntity
  8
AM_6
100
AcDbText
 10
6.62559375
 20
-8.37440625
 30
0.0
 40
0.5
  1
0.07
100
AcDbAttributeDefinition
  3

  2
CL
 70
     8
280
     0
  0
ATTDEF
  5
12E
330
115
100
AcDbEntity
  8
AM_6
100
AcDbText
 10
6.62559375
 20
-8.87440625
 30
0.0
 40
0.5
  1
0.44
100
AcDbAttributeDefinition
  3

  2
DL
 70
     8
280
     0
  0
ATTDEF
  5
12F
330
115
100
AcDbEntity
  8
AM_6
100
AcDbText
 10
6.62559375
 20
-9.37440625
 30
0.0
 40
0.5
  1
0.8000
100
AcDbAttributeDefinition
  3

  2
LL
 70
     8
280
     0
  0
ATTDEF
  5
130
330
115
100
AcDbEntity
  8
AM_6
100
AcDbText
 10
6.62559375
 20
-9.87440625
 30
0.0
 40
0.5
  1
0.020
100
AcDbAttributeDefinition
  3

  2
Y
 70
     8
280
     0
  0
ATTDEF
  5
131
330
115
100
AcDbEntity
  8
AM_6
100
AcDbText
 10
6.62559375
 20
-10.37440625
 30
0.0
 40
0.5
  1
0.020000
100
AcDbAttributeDefinition
  3

  2
Y1
 70
     8
280
     0
  0
ATTDEF
  5
132
330
115
100
AcDbEntity
  8
AM_6
100
AcDbText
 10
6.62559375
 20
-10.87440625
 30
0.0
 40
0.5
  1
2-5/64
100
AcDbAttributeDefinition
  3

  2
Z
 70
     8
280
     0
  0
ATTDEF
  5
133
330
115
100
AcDbEntity
  8
AM_6
100
AcDbText
 10
6.62559375
 20
-11.37440625
 30
0.0
 40
0.5
  1
2.078125
100
AcDbAttributeDefinition
  3

  2
Z1
 70
     8
280
     0
  0
ATTDEF
  5
134
330
115
100
AcDbEntity
  8
AM_6
100
AcDbText
 10
6.62559375
 20
-11.87440625
 30
0.0
 40
0.5
  1
baldor
100
AcDbAttributeDefinition
  3

  2
COMPANY
 70
     8
280
     0
  0
CIRCLE
  5
135
330
115
100
AcDbEntity
  8
AM_9
 48
0.0108869821382607
100
AcDbCircle
 10
0.0
 20
0.0
 30
0.0
 40
1.0390625
  0
CIRCLE
  5
136
330
115
100
AcDbEntity
  8
AM_9
 48
0.0108869821382607
100
AcDbCircle
 10
0.0
 20
0.0
 30
0.0
 40
1.127871260683761
  0
CIRCLE
  5
137
330
115
100
AcDbEntity
  8
AM_9
 48
0.0108869821382607
100
AcDbCircle
 10
0.0
 20
0.0
 30
0.0
 40
1.154513888888889
  0
CIRCLE
  5
138
330
115
100
AcDbEntity
  8
AM_9
 48
0.0108869821382607
100
AcDbCircle
 10
0.0
 20
0.0
 30
0.0
 40
1.305457578016765
  0
CIRCLE
  5
139
330
115
100
AcDbEntity
  8
AM_9
 48
0.0108869821382607
100
AcDbCircle
 10
0.0
 20
0.0
 30
0.0
 40
1.392060118395209
  0
CIRCLE
  5
13A
330
115
100
AcDbEntity
  8
AM_9
 48
0.0108869821382607
100
AcDbCircle
 10
0.0
 20
0.0
 30
0.0
 40
1.47325
  0
CIRCLE
  5
13B
330
115
100
AcDbEntity
  8
AM_9
 48
0.0108869821382607
100
AcDbCircle
 10
0.0
 20
0.0
 30
0.0
 40
1.62559375
  0
LINE
  5
13C
330
115
100
AcDbEntity
  8
AM_9
 48
0.0108869821382607
100
AcDbLine
 10
-0.9899494936611666
 20
0.7212489168102785
 30
0.0
 11
-1.187668414017759
 21
0.9189678371668707
 31
0.0
  0
LINE
  5
13D
330
115
100
AcDbEntity
  8
AM_9
 48
0.0108869821382607
100
AcDbLine
 10
-1.187668414017759
 20
-0.9189678371668708
 30
0.0
 11
-0.9899494936611667
 21
-0.7212489168102789
 31
0.0
  0
LINE
  5
13E
330
115
100
AcDbEntity
  8
AM_9
 48
0.0108869821382607
100
AcDbLine
 10
0.9189678371668708
 20
-1.187668414017759
 30
0.0
 11
0.7212489168102787
 21
-0.9899494936611667
 31
0.0
  0
LINE
  5
13F
330
115
100
AcDbEntity
  8
AM_9
 48
0.0108869821382607
100
AcDbLine
 10
-0.7212489168102785
 20
-0.9899494936611664
 30
0.0
 11
-0.9189678371668707
 21
-1.187668414017759
 31
0.0
  0
LINE
  5
140
330
115
100
AcDbEntity
  8
AM_9
 48
0.0108869821382607
100
AcDbLine
 10
1.187668414017759
 20
0.9189678371668707
 30
0.0
 11
0.9899494936611667
 21
0.7212489168102781
 31
0.0
  0
LINE
  5
141
330
115
100
AcDbEntity
  8
AM_9
 48
0.0108869821382607
100
AcDbLine
 10
0.9899494936611666
 20
-0.7212489168102785
 30
0.0
 11
1.187668414017759
 21
-0.9189678371668707
 31
0.0
  0
CIRCLE
  5
142
330
115
100
AcDbEntity
  8
AM_9
 48
0.0108869821382607
100
AcDbCircle
 10
0.0
 20
1.201388888888889
 30
0.0
 40
0.0724499999999998
  0
LINE
  5
143
330
115
100
AcDbEntity
  8
AM_9
 48
0.0108869821382607
100
AcDbLine
 10
0.7212489168102785
 20
0.9899494936611664
 30
0.0
 11
0.9189678371668707
 21
1.187668414017759
 31
0.0
  0
LINE
  5
144
330
115
100
AcDbEntity
  8
AM_9
 48
0.0108869821382607
100
AcDbLine
 10
-0.9189678371668707
 20
1.187668414017759
 30
0.0
 11
-0.7212489168102787
 21
0.9899494936611667
 31
0.0
  0
LINE
  5
145
330
115
100
AcDbEntity
  8
AM_9
 48
0.0108869821382607
100
AcDbLine
 10
-0.9225026078961487
 20
0.7886958025752964
 30
0.0
 11
-0.9899494936611666
 21
0.7212489168102785
 31
0.0
  0
LINE
  5
146
330
115
100
AcDbEntity
  8
AM_9
 48
0.0108869821382607
100
AcDbLine
 10
-0.7212489168102787
 20
0.9899494936611667
 30
0.0
 11
-0.7886958025752967
 21
0.9225026078961484
 31
0.0
  0
ARC
  5
147
330
115
100
AcDbEntity
  8
AM_9
 48
0.0108869821382607
100
AcDbCircle
 10
0.0000000000000002
 20
0.0000000000000001
 30
0.0
 40
1.451715561259647
100
AcDbArc
 50
142.5204258918104
 51
217.4795741081896
  0
LINE
  5
148
330
115
100
AcDbEntity
  8
AM_9
 48
0.0108869821382607
100
AcDbLine
 10
-0.7886958025752964
 20
-0.9225026078961487
 30
0.0
 11
-0.7212489168102785
 21
-0.9899494936611664
 31
0.0
  0
LINE
  5
149
330
115
100
AcDbEntity
  8
AM_9
 48
0.0108869821382607
100
AcDbLine
 10
-0.9899494936611667
 20
-0.7212489168102789
 30
0.0
 11
-0.9225026078961486
 21
-0.7886958025752967
 31
0.0
  0
ARC
  5
14A
330
115
100
AcDbEntity
  8
AM_9
 48
0.0108869821382607
100
AcDbCircle
 10
-0.0000000000000003
 20
0.0000000000000004
 30
0.0
 40
1.451715561259648
100
AcDbArc
 50
232.5204258918104
 51
307.4795741081896
  0
LINE
  5
14B
330
115
100
AcDbEntity
  8
AM_9
 48
0.0108869821382607
100
AcDbLine
 10
0.9225026078961487
 20
-0.7886958025752964
 30
0.0
 11
0.9899494936611666
 21
-0.7212489168102785
 31
0.0
  0
LINE
  5
14C
330
115
100
AcDbEntity
  8
AM_9
 48
0.0108869821382607
100
AcDbLine
 10
0.7212489168102787
 20
-0.9899494936611667
 30
0.0
 11
0.7886958025752967
 21
-0.9225026078961484
 31
0.0
  0
ARC
  5
14D
330
115
100
AcDbEntity
  8
AM_9
 48
0.0108869821382607
100
AcDbCircle
 10
-0.0000000000000002
 20
-0.0000000000000001
 30
0.0
 40
1.451715561259647
100
AcDbArc
 50
322.5204258918104
 51
37.47957410818961
  0
LINE
  5
14E
330
115
100
AcDbEntity
  8
AM_9
 48
0.0108869821382607
100
AcDbLine
 10
0.7886958025752964
 20
0.9225026078961486
 30
0.0
 11
0.7212489168102785
 21
0.9899494936611664
 31
0.0
  0
LINE
  5
14F
330
115
100
AcDbEntity
  8
AM_9
 48
0.0108869821382607
100
AcDbLine
 10
0.9899494936611667
 20
0.7212489168102781
 30
0.0
 11
0.9225026078961484
 21
0.7886958025752966
 31
0.0
  0
ARC
  5
150
330
115
100
AcDbEntity
  8
AM_9
 48
0.0108869821382607
100
AcDbCircle
 10
-0.0000000000000067
 20
0.0000000000000143
 30
0.0
 40
0.85751978891819
100
AcDbArc
 50
106.1394528279348
 51
118.8605471720651
  0
CIRCLE
  5
151
330
115
100
AcDbEntity
  8
AM_9
 48
0.0108869821382607
100
AcDbCircle
 10
0.0
 20
-1.201388888888889
 30
0.0
 40
0.0724499999999998
  0
ARC
  5
152
330
115
100
AcDbEntity
  8
AM_9
 48
0.0108869821382607
100
AcDbCircle
 10
0.0000000000000004
 20
-0.0000000000000002
 30
0.0
 40
1.451715561259647
100
AcDbArc
 50
52.5204258918104
 51
127.4795741081897
  0
ARC
  5
153
330
115
100
AcDbEntity
  8
AM_5
 48
0.0108869821382607
100
AcDbCircle
 10
0.0000000000000001
 20
1.201388888888889
 30
0.0
 40
0.0950000000000001
100
AcDbArc
 50
75.00000000000004
 51
14.99999999999994
  0
ARC
  5
154
330
115
100
AcDbEntity
  8
AM_5
 48
0.0108869821382607
100
AcDbCircle
 10
0.0000000000000001
 20
-1.201388888888889
 30
0.0
 40
0.0950000000000001
100
AcDbArc
 50
75.00000000000004
 51
14.99999999999994
  0
CIRCLE
  5
155
330
115
100
AcDbEntity
  8
AM_4
 48
0.0108869821382607
100
AcDbCircle
 10
0.0
 20
0.0
 30
0.0
 40
1.623249999999999
  0
LINE
  5
156
330
115
100
AcDbEntity
  8
AM_0
 48
0.0108869821382607
100
AcDbLine
 10
0.9287187364296169
 20
-1.197419313280505
 30
0.0
 11
0.9189678371668708
 21
-1.187668414017759
 31
0.0
  0
LINE
  5
157
330
115
100
AcDbEntity
  8
AM_0
 48
0.0108869821382607
100
AcDbLine
 10
0.9189678371668707
 20
1.187668414017759
 30
0.0
 11
0.9287187364296169
 21
1.197419313280505
 31
0.0
  0
LINE
  5
158
330
115
100
AcDbEntity
  8
AM_0
 48
0.0108869821382607
100
AcDbLine
 10
1.197419313280505
 20
0.9287187364296167
 30
0.0
 11
1.187668414017759
 21
0.9189678371668707
 31
0.0
  0
LINE
  5
159
330
115
100
AcDbEntity
  8
AM_0
 48
0.0108869821382607
100
AcDbLine
 10
1.187668414017759
 20
-0.9189678371668707
 30
0.0
 11
1.197419313280505
 21
-0.9287187364296168
 31
0.0
  0
LINE
  5
15A
330
115
100
AcDbEntity
  8
AM_0
 48
0.0108869821382607
100
AcDbLine
 10
-0.9287187364296169
 20
1.197419313280505
 30
0.0
 11
-0.9189678371668707
 21
1.187668414017759
 31
0.0
  0
LINE
  5
15B
330
115
100
AcDbEntity
  8
AM_0
 48
0.0108869821382607
100
AcDbLine
 10
-1.187668414017759
 20
0.9189678371668707
 30
0.0
 11
-1.197419313280505
 21
0.9287187364296168
 31
0.0
  0
LINE
  5
15C
330
115
100
AcDbEntity
  8
AM_0
 48
0.0108869821382607
100
AcDbLine
 10
-0.9189678371668707
 20
-1.187668414017759
 30
0.0
 11
-0.9287187364296169
 21
-1.197419313280505
 31
0.0
  0
LINE
  5
15D
330
115
100
AcDbEntity
  8
AM_0
 48
0.0108869821382607
100
AcDbLine
 10
-1.197419313280505
 20
-0.9287187364296171
 30
0.0
 11
-1.187668414017759
 21
-0.9189678371668708
 31
0.0
  0
CIRCLE
  5
15E
330
115
100
AcDbEntity
  8
AM_0
 48
0.0108869821382607
100
AcDbCircle
 10
0.0
 20
0.0
 30
0.0
 40
1.540261464675892
  0
ARC
  5
15F
330
115
100
AcDbEntity
  8
AM_0
 48
0.0108869821382607
100
AcDbCircle
 10
0.0000000000000178
 20
-0.0000000000000173
 30
0.0
 40
1.515365138576345
100
AcDbArc
 50
307.797165067374
 51
322.202834932626
  0
ARC
  5
160
330
115
100
AcDbEntity
  8
AM_0
 48
0.0108869821382607
100
AcDbCircle
 10
0.0000000000000009
 20
0.0000000000000013
 30
0.0
 40
1.515365138576371
100
AcDbArc
 50
217.7971650673741
 51
232.2028349326259
  0
ARC
  5
161
330
115
100
AcDbEntity
  8
AM_0
 48
0.0108869821382607
100
AcDbCircle
 10
-0.0000000000000189
 20
0.000000000000018
 30
0.0
 40
1.515365138576344
100
AcDbArc
 50
127.7971650673739
 51
142.202834932626
  0
ARC
  5
162
330
115
100
AcDbEntity
  8
AM_0
 48
0.0108869821382607
100
AcDbCircle
 10
0.0000000000000449
 20
0.0000000000000453
 30
0.0
 40
1.515365138576306
100
AcDbArc
 50
37.79716506737376
 51
52.20283493262622
  0
ARC
  5
163
330
115
100
AcDbEntity
  8
AM_4
 48
0.0108869821382607
100
AcDbCircle
 10
-0.0000000000000007
 20
0.0
 30
0.0
 40
1.501685102610602
100
AcDbArc
 50
142.2688039222539
 51
217.7311960777461
  0
ARC
  5
164
330
115
100
AcDbEntity
  8
AM_4
 48
0.0108869821382607
100
AcDbCircle
 10
0.0
 20
-0.0000000000000007
 30
0.0
 40
1.501685102610602
100
AcDbArc
 50
232.2688039222538
 51
307.7311960777462
  0
ARC
  5
165
330
115
100
AcDbEntity
  8
AM_4
 48
0.0108869821382607
100
AcDbCircle
 10
-0.0000000000000002
 20
0.0000000000000003
 30
0.0
 40
1.501685102610602
100
AcDbArc
 50
322.2688039222538
 51
37.73119607774613
  0
LINE
  5
166
330
115
100
AcDbEntity
  8
AM_0
 48
0.0108869821382607
100
AcDbLine
 10
-0.7886958025752967
 20
0.9225026078961484
 30
0.0
 11
-0.9225026078961487
 21
0.7886958025752964
 31
0.0
  0
LINE
  5
167
330
115
100
AcDbEntity
  8
AM_0
 48
0.0108869821382607
100
AcDbLine
 10
-0.9225026078961486
 20
-0.7886958025752967
 30
0.0
 11
-0.7886958025752964
 21
-0.9225026078961487
 31
0.0
  0
LINE
  5
168
330
115
100
AcDbEntity
  8
AM_0
 48
0.0108869821382607
100
AcDbLine
 10
0.7886958025752967
 20
-0.9225026078961484
 30
0.0
 11
0.9225026078961487
 21
-0.7886958025752964
 31
0.0
  0
LINE
  5
169
330
115
100
AcDbEntity
  8
AM_0
 48
0.0108869821382607
100
AcDbLine
 10
0.9225026078961484
 20
0.7886958025752966
 30
0.0
 11
0.7886958025752964
 21
0.9225026078961486
 31
0.0
  0
ARC
  5
16A
330
115
100
AcDbEntity
  8
AM_4
 48
0.0108869821382607
100
AcDbCircle
 10
0.0000000000000001
 20
0.0000000000000009
 30
0.0
 40
1.501685102610601
100
AcDbArc
 50
52.26880392225383
 51
127.7311960777462
  0
LINE
  5
16B
330
115
100
AcDbEntity
  8
AM_0
 48
0.0108869821382607
100
AcDbLine
 10
-0.2210290542487829
 20
0.7818583037724217
 30
0.0
 11
-0.2375011219216767
 21
0.8216253929486493
 31
0.0
  0
ARC
  5
16C
330
115
100
AcDbEntity
  8
AM_0
 48
0.0108869821382607
100
AcDbCircle
 10
-0.0000000000000011
 20
-0.0000000000000004
 30
0.0
 40
0.8124999999999999
100
AcDbArc
 50
119.2145576420688
 51
105.785442357931
  0
LINE
  5
16D
330
115
100
AcDbEntity
  8
AM_0
 48
0.0108869821382607
100
AcDbLine
 10
-0.413038233098821
 20
0.7489155407992824
 30
0.0
 11
-0.3965661654259274
 21
0.709148451623055
 31
0.0
  0
ARC
  5
16E
330
115
100
AcDbEntity
  8
AM_0
 48
0.0108869821382607
100
AcDbCircle
 10
-0.0000000000000009
 20
-0.0000000000000004
 30
0.0
 40
0.8552631578947368
100
AcDbArc
 50
118.8773991774972
 51
106.1226008225027
  0
ENDBLK
  5
118
330
115
100
AcDbEntity
  8
0
100
AcDbBlockEnd
  0
BLOCK
  5
171
330
16F
100
AcDbEntity
  8
0
100
AcDbBlockBegin
  2
5_405015E_Inch_0_in_069406_0
 70
     2
 10
0.0
 20
0.0
 30
0.0
  3
5_405015E_Inch_0_in_069406_0
  1

  0
ATTDEF
  5
173
330
16F
100
AcDbEntity
  8
AM_6
100
AcDbText
 10
6.396734171481428
 20
2.316536647740266
 30
0.0
 40
0.5
  1
405015E -Inch
100
AcDbAttributeDefinition
  3

  2
NN
 70
     8
280
     0
  0
ATTDEF
  5
174
330
16F
100
AcDbEntity
  8
AM_6
100
AcDbText
 10
6.396734171481428
 20
1.816536647740266
 30
0.0
 40
0.5
  1
Grease Fitting
100
AcDbAttributeDefinition
  3

  2
NT
 70
     8
280
     0
  0
ATTDEF
  5
175
330
16F
100
AcDbEntity
  8
AM_6
100
AcDbText
 10
6.396734171481428
 20
1.316536647740266
 30
0.0
 40
0.5
  1
405015E-Inch
100
AcDbAttributeDefinition
  3

  2
NB
 70
     8
280
     0
  0
ATTDEF
  5
176
330
16F
100
AcDbEntity
  8
AM_6
100
AcDbText
 10
6.396734171481428
 20
0.8165366477402665
 30
0.0
 40
0.5
  1
$MN.-Inch
100
AcDbAttributeDefinition
  3

  2
NBSYN
 70
     8
280
     0
  0
ATTDEF
  5
177
330
16F
100
AcDbEntity
  8
AM_6
100
AcDbText
 10
6.396734171481428
 20
0.3165366477402665
 30
0.0
 40
0.5
  1
405015E
100
AcDbAttributeDefinition
  3

  2
LINA
 70
     8
280
     0
  0
ATTDEF
  5
178
330
16F
100
AcDbEntity
  8
AM_6
100
AcDbText
 10
6.396734171481428
 20
-0.1834633522597335
 30
0.0
 40
0.5
  1
405015E
100
AcDbAttributeDefinition
  3

  2
MN
 70
     8
280
     0
  0
ATTDEF
  5
179
330
16F
100
AcDbEntity
  8
AM_6
100
AcDbText
 10
6.396734171481428
 20
-0.6834633522597335
 30
0.0
 40
0.5
  1
1/8 x 27PTF
100
AcDbAttributeDefinition
  3

  2
T
 70
     8
280
     0
  0
ATTDEF
  5
17A
330
16F
100
AcDbEntity
  8
AM_6
100
AcDbText
 10
6.396734171481428
 20
-1.183463352259734
 30
0.0
 40
0.5
  1
baldor
100
AcDbAttributeDefinition
  3

  2
COMPANY
 70
     8
280
     0
  0
LINE
  5
17B
330
16F
100
AcDbEntity
  8
AM_9
 48
0.0018382267275702
100
AcDbLine
 10
1.128024500506657
 20
1.629990002115497
 30
0.0
 11
1.178177787586382
 21
1.643428534886276
 31
0.0
  0
LINE
  5
17C
330
16F
100
AcDbEntity
  8
AM_9
 48
0.0018382267275702
100
AcDbLine
 10
0.8341619667225638
 20
1.842046161667491
 30
0.0
 11
0.8476004994933426
 21
1.791892874587767
 31
0.0
  0
LINE
  5
17D
330
16F
100
AcDbEntity
  8
AM_9
 48
0.0018382267275702
100
AcDbLine
 10
0.8476004994933426
 20
1.791892874587767
 30
0.0
 11
1.128024500506657
 21
1.629990002115497
 31
0.0
  0
LINE
  5
17E
330
16F
100
AcDbEntity
  8
AM_9
 48
0.0018382267275702
100
AcDbLine
 10
1.178177787586382
 20
1.643428534886276
 30
0.0
 11
1.298498869872023
 21
1.837562221742973
 31
0.0
  0
LINE
  5
17F
330
16F
100
AcDbEntity
  8
AM_9
 48
0.0018382267275702
100
AcDbLine
 10
0.9421261301279766
 20
2.043314118966043
 30
0.0
 11
0.8341619667225638
 21
1.842046161667491
 31
0.0
  0
LINE
  5
180
330
16F
100
AcDbEntity
  8
AM_9
 48
0.0018382267275702
100
AcDbLine
 10
0.8341619667225638
 20
1.842046161667491
 30
0.0
 11
1.178177787586382
 21
1.643428534886276
 31
0.0
  0
LINE
  5
181
330
16F
100
AcDbEntity
  8
AM_5
 48
0.0018382267275702
100
AcDbLine
 10
1.233368957620486
 20
1.799959449372252
 30
0.0
 11
1.128024500506657
 21
1.629990002115497
 31
0.0
  0
LINE
  5
182
330
16F
100
AcDbEntity
  8
AM_5
 48
0.0018382267275702
100
AcDbLine
 10
1.298498869872023
 20
1.837562221742974
 30
0.0
 11
1.233368957620486
 21
1.799959449372252
 31
0.0
  0
LINE
  5
183
330
16F
100
AcDbEntity
  8
AM_5
 48
0.0018382267275702
100
AcDbLine
 10
0.9113238920436926
 20
1.985892254674204
 30
0.0
 11
1.26417119570477
 21
1.782175768922648
 31
0.0
  0
LINE
  5
184
330
16F
100
AcDbEntity
  8
AM_5
 48
0.0018382267275702
100
AcDbLine
 10
0.9421261301279766
 20
1.9681085742246
 30
0.0
 11
0.8476004994933426
 21
1.791892874587767
 31
0.0
  0
LINE
  5
185
330
16F
100
AcDbEntity
  8
AM_5
 48
0.0018382267275702
100
AcDbLine
 10
0.9421261301279766
 20
2.043314118966043
 30
0.0
 11
0.9421261301279766
 21
1.9681085742246
 31
0.0
  0
LINE
  5
186
330
16F
100
AcDbEntity
  8
AM_0
 48
0.0018382267275702
100
AcDbLine
 10
1.313745167397366
 20
2.065473378130318
 30
0.0
 11
1.328745167397366
 21
2.091454140243851
 31
0.0
  0
LINE
  5
187
330
16F
100
AcDbEntity
  8
AM_0
 48
0.0018382267275702
100
AcDbLine
 10
1.146879832602634
 20
2.196454140243851
 30
0.0
 11
1.131879832602634
 21
2.170473378130318
 31
0.0
  0
LINE
  5
188
330
16F
100
AcDbEntity
  8
AM_0
 48
0.0018382267275702
100
AcDbLine
 10
1.131879832602634
 20
2.170473378130318
 30
0.0
 11
1.103787843752893
 21
2.149456807626704
 31
0.0
  0
LINE
  5
189
330
16F
100
AcDbEntity
  8
AM_0
 48
0.0018382267275702
100
AcDbLine
 10
1.309590277865679
 20
2.030636716891806
 30
0.0
 11
1.313745167397366
 21
2.065473378130318
 31
0.0
  0
LINE
  5
18A
330
16F
100
AcDbEntity
  8
AM_0
 48
0.0018382267275702
100
AcDbLine
 10
1.131879832602634
 20
2.170473378130318
 30
0.0
 11
1.313745167397366
 21
2.065473378130318
 31
0.0
  0
LINE
  5
18B
330
16F
100
AcDbEntity
  8
AM_0
 48
0.0018382267275702
100
AcDbLine
 10
1.328745167397366
 20
2.091454140243851
 30
0.0
 11
1.384725929510899
 21
2.128415664470917
 31
0.0
  0
LINE
  5
18C
330
16F
100
AcDbEntity
  8
AM_0
 48
0.0018382267275702
100
AcDbLine
 10
1.150899070489101
 20
2.263415664470918
 30
0.0
 11
1.146879832602634
 21
2.196454140243851
 31
0.0
  0
LINE
  5
18D
330
16F
100
AcDbEntity
  8
AM_0
 48
0.0018382267275702
100
AcDbLine
 10
1.146879832602634
 20
2.196454140243851
 30
0.0
 11
1.328745167397366
 21
2.091454140243851
 31
0.0
  0
LINE
  5
18E
330
16F
100
AcDbEntity
  8
AM_0
 48
0.0018382267275702
100
AcDbLine
 10
1.218890828518572
 20
2.316536647740266
 30
0.0
 11
1.150899070489101
 21
2.263415664470918
 31
0.0
  0
LINE
  5
18F
330
16F
100
AcDbEntity
  8
AM_0
 48
0.0018382267275702
100
AcDbLine
 10
1.384725929510899
 20
2.128415664470917
 30
0.0
 11
1.396734171481427
 21
2.213858745807079
 31
0.0
  0
LINE
  5
190
330
16F
100
AcDbEntity
  8
AM_0
 48
0.0018382267275702
100
AcDbLine
 10
1.218890828518572
 20
2.316536647740266
 30
0.0
 11
1.396734171481427
 21
2.213858745807079
 31
0.0
  0
LINE
  5
191
330
16F
100
AcDbEntity
  8
AM_0
 48
0.0018382267275702
100
AcDbLine
 10
1.150899070489101
 20
2.263415664470918
 30
0.0
 11
1.384725929510899
 21
2.128415664470917
 31
0.0
  0
LINE
  5
192
330
16F
100
AcDbEntity
  8
AM_0
 48
0.0018382267275702
100
AcDbLine
 10
1.103787843752893
 20
2.149456807626704
 30
0.0
 11
1.030052726109451
 21
2.129171762662431
 31
0.0
  0
LINE
  5
193
330
16F
100
AcDbEntity
  8
AM_0
 48
0.0018382267275702
100
AcDbLine
 10
1.32889047243143
 20
1.956637709379415
 30
0.0
 11
1.309590277865679
 21
2.030636716891806
 31
0.0
  0
LINE
  5
194
330
16F
100
AcDbEntity
  8
AM_0
 48
0.0018382267275702
100
AcDbLine
 10
1.103787843752893
 20
2.149456807626704
 30
0.0
 11
1.309590277865679
 21
2.030636716891806
 31
0.0
  0
LINE
  5
195
330
16F
100
AcDbEntity
  8
AM_0
 48
0.0018382267275702
100
AcDbLine
 10
0.980869442922154
 20
2.136415710732952
 30
0.0
 11
1.359755557077846
 21
1.917665710732952
 31
0.0
  0
LINE
  5
196
330
16F
100
AcDbEntity
  8
AM_0
 48
0.0018382267275702
100
AcDbLine
 10
1.309755557077846
 20
1.831063170354508
 30
0.0
 11
1.359755557077846
 21
1.917665710732952
 31
0.0
  0
LINE
  5
197
330
16F
100
AcDbEntity
  8
AM_0
 48
0.0018382267275702
100
AcDbLine
 10
0.980869442922154
 20
2.136415710732952
 30
0.0
 11
0.9308694429221539
 21
2.049813170354508
 31
0.0
  0
LINE
  5
198
330
16F
100
AcDbEntity
  8
AM_0
 48
0.0018382267275702
100
AcDbLine
 10
1.030052726109451
 20
2.129171762662431
 30
0.0
 11
0.985199569941076
 21
2.133915710732952
 31
0.0
  0
LINE
  5
199
330
16F
100
AcDbEntity
  8
AM_0
 48
0.0018382267275702
100
AcDbLine
 10
1.355425430058924
 20
1.920165710732952
 30
0.0
 11
1.32889047243143
 21
1.956637709379415
 31
0.0
  0
LINE
  5
19A
330
16F
100
AcDbEntity
  8
AM_0
 48
0.0018382267275702
100
AcDbLine
 10
1.030052726109451
 20
2.129171762662431
 30
0.0
 11
1.32889047243143
 21
1.956637709379415
 31
0.0
  0
LWPOLYLINE
  5
19B
330
16F
100
AcDbEntity
  8
AM_0
 48
0.0018382267275702
100
AcDbPolyline
 90
        3
 70
     0
 43
0.0
 10
0.9763356430738467
 20
2.128562939044336
 10
1.026809997967689
 20
2.107103865651435
 10
1.075590971461077
 20
2.081728210732952
  0
LWPOLYLINE
  5
19C
330
16F
100
AcDbEntity
  8
AM_0
 48
0.0018382267275702
100
AcDbPolyline
 90
        3
 70
     0
 43
0.0
 10
1.025590971461077
 20
1.995125670354508
 10
0.9794268975841326
 20
2.024542148915278
 10
0.9354032427704612
 20
2.057665942043124
  0
LWPOLYLINE
  5
19D
330
16F
100
AcDbEntity
  8
AM_0
 48
0.0018382267275702
100
AcDbPolyline
 90
        3
 70
     0
 43
0.0
 10
1.124846299848307
 20
1.948290942043124
 10
1.074371944954464
 20
1.969750015436025
 10
1.025590971461077
 20
1.995125670354508
  0
LWPOLYLINE
  5
19E
330
16F
100
AcDbEntity
  8
AM_0
 48
0.0018382267275702
100
AcDbPolyline
 90
        3
 70
     0
 43
0.0
 10
1.075590971461077
 20
2.081728210732952
 10
1.121755045338021
 20
2.052311732172182
 10
1.165778700151693
 20
2.019187939044336
  0
LWPOLYLINE
  5
19F
330
16F
100
AcDbEntity
  8
AM_0
 48
0.0018382267275702
100
AcDbPolyline
 90
        3
 70
     0
 43
0.0
 10
1.265034028538923
 20
1.972353210732952
 10
1.311198102415867
 20
1.942936732172182
 10
1.355221757229538
 20
1.909812939044336
  0
LWPOLYLINE
  5
1A0
330
16F
100
AcDbEntity
  8
AM_0
 48
0.0018382267275702
100
AcDbPolyline
 90
        3
 70
     0
 43
0.0
 10
1.165778700151693
 20
2.019187939044336
 10
1.216253055045535
 20
1.997728865651435
 10
1.265034028538923
 20
1.972353210732952
  0
LINE
  5
1A1
330
16F
100
AcDbEntity
  8
AM_0
 48
0.0018382267275702
100
AcDbLine
 10
1.165778700151693
 20
2.019187939044336
 30
0.0
 11
1.124846299848307
 21
1.948290942043124
 31
0.0
  0
LWPOLYLINE
  5
1A2
330
16F
100
AcDbEntity
  8
AM_0
 48
0.0018382267275702
100
AcDbPolyline
 90
        3
 70
     0
 43
0.0
 10
1.215034028538923
 20
1.885750670354508
 10
1.168869954661979
 20
1.915167148915278
 10
1.124846299848307
 20
1.948290942043124
  0
LWPOLYLINE
  5
1A3
330
16F
100
AcDbEntity
  8
AM_0
 48
0.0018382267275702
100
AcDbPolyline
 90
        3
 70
     0
 43
0.0
 10
1.314289356926153
 20
1.838915942043124
 10
1.26381500203231
 20
1.860375015436025
 10
1.215034028538923
 20
1.885750670354508
  0
ENDBLK
  5
172
330
16F
100
AcDbEntity
  8
0
100
AcDbBlockEnd
  0
BLOCK
  5
1A6
330
1A4
100
AcDbEntity
  8
0
100
AcDbBlockBegin
  2
6_069406H_0_in_069406_0
 70
     2
 10
0.0
 20
0.0
 30
0.0
  3
6_069406H_0_in_069406_0
  1

  0
ATTDEF
  5
1A8
330
1A4
100
AcDbEntity
  8
AM_6
100
AcDbText
 10
8.6875
 20
2.292910509694775
 30
0.0
 40
0.5
  1
P2B-IP -(Contact Seal)-Housing -Inch
100
AcDbAttributeDefinition
  3

  2
NN
 70
     8
280
     0
  0
ATTDEF
  5
1A9
330
1A4
100
AcDbEntity
  8
AM_6
100
AcDbText
 10
8.6875
 20
1.792910509694775
 30
0.0
 40
0.5
  1
Imperial 2 Bolt Piliow Block Bearings
100
AcDbAttributeDefinition
  3

  2
NT
 70
     8
280
     0
  0
ATTDEF
  5
1AA
330
1A4
100
AcDbEntity
  8
AM_6
100
AcDbText
 10
8.6875
 20
1.292910509694775
 30
0.0
 40
0.5
  1
069406H
100
AcDbAttributeDefinition
  3

  2
NB
 70
     8
280
     0
  0
ATTDEF
  5
1AB
330
1A4
100
AcDbEntity
  8
AM_6
100
AcDbText
 10
8.6875
 20
0.7929105096947748
 30
0.0
 40
0.5
  1
$PN.H
100
AcDbAttributeDefinition
  3

  2
NBSYN
 70
     8
280
     0
  0
ATTDEF
  5
1AC
330
1A4
100
AcDbEntity
  8
AM_6
100
AcDbText
 10
8.6875
 20
0.2929105096947748
 30
0.0
 40
0.5
  1
069406
100
AcDbAttributeDefinition
  3

  2
LINA
 70
     8
280
     0
  0
ATTDEF
  5
1AD
330
1A4
100
AcDbEntity
  8
AM_6
100
AcDbText
 10
8.6875
 20
-0.2070894903052252
 30
0.0
 40
0.5
  1
1-5/8
100
AcDbAttributeDefinition
  3

  2
SS
 70
     8
280
     0
  0
ATTDEF
  5
1AE
330
1A4
100
AcDbEntity
  8
AM_6
100
AcDbText
 10
8.6875
 20
-0.7070894903052252
 30
0.0
 40
0.5
  1
069406
100
AcDbAttributeDefinition
  3

  2
PN
 70
     8
280
     0
  0
ATTDEF
  5
1AF
330
1A4
100
AcDbEntity
  8
AM_6
100
AcDbText
 10
8.6875
 20
-1.207089490305225
 30
0.0
 40
0.5
  1
P2B-IP-110R
100
AcDbAttributeDefinition
  3

  2
DESCRIPTION
 70
     8
280
     0
  0
ATTDEF
  5
1B0
330
1A4
100
AcDbEntity
  8
AM_6
100
AcDbText
 10
8.6875
 20
-1.707089490305225
 30
0.0
 40
0.5
  1
Non-Expansion Type
100
AcDbAttributeDefinition
  3

  2
EF
 70
     8
280
     0
  0
ATTDEF
  5
1B1
330
1A4
100
AcDbEntity
  8
AM_6
100
AcDbText
 10
8.6875
 20
-2.207089490305225
 30
0.0
 40
0.5
  1
Contact  Seal
100
AcDbAttributeDefinition
  3

  2
ST
 70
     8
280
     0
  0
ATTDEF
  5
1B2
330
1A4
100
AcDbEntity
  8
AM_6
100
AcDbText
 10
8.6875
 20
-2.707089490305225
 30
0.0
 40
0.5
  1
2-13/16
100
AcDbAttributeDefinition
  3

  2
A
 70
     8
280
     0
  0
ATTDEF
  5
1B3
330
1A4
100
AcDbEntity
  8
AM_6
100
AcDbText
 10
8.6875
 20
-3.207089490305225
 30
0.0
 40
0.5
  1
7-3/8
100
AcDbAttributeDefinition
  3

  2
B
 70
     8
280
     0
  0
ATTDEF
  5
1B4
330
1A4
100
AcDbEntity
  8
AM_6
100
AcDbText
 10
8.6875
 20
-3.707089490305225
 30
0.0
 40
0.5
  1
2-1/16
100
AcDbAttributeDefinition
  3

  2
C
 70
     8
280
     0
  0
ATTDEF
  5
1B5
330
1A4
100
AcDbEntity
  8
AM_6
100
AcDbText
 10
8.6875
 20
-4.207089490305226
 30
0.0
 40
0.5
  1
5-5/16
100
AcDbAttributeDefinition
  3

  2
DMIN
 70
     8
280
     0
  0
ATTDEF
  5
1B6
330
1A4
100
AcDbEntity
  8
AM_6
100
AcDbText
 10
8.6875
 20
-4.707089490305226
 30
0.0
 40
0.5
  1
5-45/64
100
AcDbAttributeDefinition
  3

  2
DMAX
 70
     8
280
     0
  0
ATTDEF
  5
1B7
330
1A4
100
AcDbEntity
  8
AM_6
100
AcDbText
 10
8.6875
 20
-5.207089490305226
 30
0.0
 40
0.5
  1
1/2
100
AcDbAttributeDefinition
  3

  2
F
 70
     8
280
     0
  0
ATTDEF
  5
1B8
330
1A4
100
AcDbEntity
  8
AM_6
100
AcDbText
 10
8.6875
 20
-5.707089490305226
 30
0.0
 40
0.5
  1
13/16
100
AcDbAttributeDefinition
  3

  2
G
 70
     8
280
     0
  0
ATTDEF
  5
1B9
330
1A4
100
AcDbEntity
  8
AM_6
100
AcDbText
 10
8.6875
 20
-6.207089490305226
 30
0.0
 40
0.5
  1
1-1/4
100
AcDbAttributeDefinition
  3

  2
H
 70
     8
280
     0
  0
ATTDEF
  5
1BA
330
1A4
100
AcDbEntity
  8
AM_6
100
AcDbText
 10
8.6875
 20
-6.707089490305226
 30
0.0
 40
0.5
  1
4-17/64
100
AcDbAttributeDefinition
  3

  2
J
 70
     8
280
     0
  0
ATTDEF
  5
1BB
330
1A4
100
AcDbEntity
  8
AM_6
100
AcDbText
 10
8.6875
 20
-7.207089490305226
 30
0.0
 40
0.5
  1
3
100
AcDbAttributeDefinition
  3

  2
L
 70
     8
280
     0
  0
ATTDEF
  5
1BC
330
1A4
100
AcDbEntity
  8
AM_6
100
AcDbText
 10
8.6875
 20
-7.707089490305226
 30
0.0
 40
0.5
  1
2-1/8
100
AcDbAttributeDefinition
  3

  2
M
 70
     8
280
     0
  0
ATTDEF
  5
1BD
330
1A4
100
AcDbEntity
  8
AM_6
100
AcDbText
 10
8.6875
 20
-8.207089490305226
 30
0.0
 40
0.5
  1
13/16
100
AcDbAttributeDefinition
  3

  2
R
 70
     8
280
     0
  0
ATTDEF
  5
1BE
330
1A4
100
AcDbEntity
  8
AM_6
100
AcDbText
 10
8.6875
 20
-8.707089490305226
 30
0.0
 40
0.5
  1
2
100
AcDbAttributeDefinition
  3

  2
S
 70
     8
280
     0
  0
ATTDEF
  5
1BF
330
1A4
100
AcDbEntity
  8
AM_6
100
AcDbText
 10
8.6875
 20
-9.207089490305226
 30
0.0
 40
0.5
  1
1/4
100
AcDbAttributeDefinition
  3

  2
X
 70
     8
280
     0
  0
ATTDEF
  5
1C0
330
1A4
100
AcDbEntity
  8
AM_6
100
AcDbText
 10
8.6875
 20
-9.707089490305226
 30
0.0
 40
0.5
  1
0.020
100
AcDbAttributeDefinition
  3

  2
Y
 70
     8
280
     0
  0
ATTDEF
  5
1C1
330
1A4
100
AcDbEntity
  8
AM_6
100
AcDbText
 10
8.6875
 20
-10.20708949030523
 30
0.0
 40
0.5
  1
2-5/64
100
AcDbAttributeDefinition
  3

  2
Z
 70
     8
280
     0
  0
ATTDEF
  5
1C2
330
1A4
100
AcDbEntity
  8
AM_6
100
AcDbText
 10
8.6875
 20
-10.70708949030523
 30
0.0
 40
0.5
  1
baldor
100
AcDbAttributeDefinition
  3

  2
COMPANY
 70
     8
280
     0
  0
LINE
  5
1C3
330
1A4
100
AcDbEntity
  8
AM_9
 48
0.023106702024953
100
AcDbLine
 10
-2.8515625
 20
-0.8749999999999998
 30
0.0
 11
-2.8515625
 21
-2.125
 31
0.0
  0
LINE
  5
1C4
330
1A4
100
AcDbEntity
  8
AM_9
 48
0.023106702024953
100
AcDbLine
 10
-3.1015625
 20
-0.8749999999999998
 30
0.0
 11
-3.1015625
 21
-2.125
 31
0.0
  0
LINE
  5
1C5
330
1A4
100
AcDbEntity
  8
AM_9
 48
0.023106702024953
100
AcDbLine
 10
-2.65625
 20
-0.875
 30
0.0
 11
-2.65625
 21
-2.125
 31
0.0
  0
LINE
  5
1C6
330
1A4
100
AcDbEntity
  8
AM_9
 48
0.023106702024953
100
AcDbLine
 10
-2.40625
 20
-2.125
 30
0.0
 11
-2.40625
 21
-0.8749999999999998
 31
0.0
  0
LINE
  5
1C7
330
1A4
100
AcDbEntity
  8
AM_9
 48
0.023106702024953
100
AcDbLine
 10
2.8515625
 20
-0.875
 30
0.0
 11
2.8515625
 21
-2.125
 31
0.0
  0
LINE
  5
1C8
330
1A4
100
AcDbEntity
  8
AM_9
 48
0.023106702024953
100
AcDbLine
 10
3.1015625
 20
-2.125
 30
0.0
 11
3.1015625
 21
-0.8749999999999998
 31
0.0
  0
LINE
  5
1C9
330
1A4
100
AcDbEntity
  8
AM_9
 48
0.023106702024953
100
AcDbLine
 10
2.65625
 20
-0.8749999999999998
 30
0.0
 11
2.65625
 21
-2.125
 31
0.0
  0
LINE
  5
1CA
330
1A4
100
AcDbEntity
  8
AM_9
 48
0.023106702024953
100
AcDbLine
 10
2.40625
 20
-0.8749999999999998
 30
0.0
 11
2.40625
 21
-2.125
 31
0.0
  0
LINE
  5
1CB
330
1A4
100
AcDbEntity
  8
AM_9
 48
0.023106702024953
100
AcDbLine
 10
2.115625
 20
0.326199708767498
 30
0.0
 11
2.115625
 21
-0.8125
 31
0.0
  0
ARC
  5
1CC
330
1A4
100
AcDbEntity
  8
AM_9
 48
0.023106702024953
100
AcDbCircle
 10
2.178125000000001
 20
-0.8125
 30
0.0
 40
0.0625000000000004
100
AcDbArc
 50
180.0
 51
269.9999999999996
  0
LINE
  5
1CD
330
1A4
100
AcDbEntity
  8
AM_9
 48
0.023106702024953
100
AcDbLine
 10
-2.115625
 20
-0.8125
 30
0.0
 11
-2.115625
 21
0.3261997087674992
 31
0.0
  0
LINE
  5
1CE
330
1A4
100
AcDbEntity
  8
AM_9
 48
0.023106702024953
100
AcDbLine
 10
2.178125
 20
-0.8750000000000001
 30
0.0
 11
2.376072162032803
 21
-0.875
 31
0.0
  0
ARC
  5
1CF
330
1A4
100
AcDbEntity
  8
AM_9
 48
0.023106702024953
100
AcDbCircle
 10
-2.178125000000001
 20
-0.8124999999999997
 30
0.0
 40
0.0625000000000003
100
AcDbArc
 50
270.0000000000004
 51
359.9999999999997
  0
LINE
  5
1D0
330
1A4
100
AcDbEntity
  8
AM_9
 48
0.023106702024953
100
AcDbLine
 10
-2.376072162032804
 20
-0.875
 30
0.0
 11
-2.178125
 21
-0.875
 31
0.0
  0
LINE
  5
1D1
330
1A4
100
AcDbEntity
  8
AM_7
 48
0.023106702024953
100
AcDbLine
 10
-1.7569125
 20
0.0
 30
0.0
 11
1.7569125
 21
0.0
 31
0.0
  0
LINE
  5
1D2
330
1A4
100
AcDbEntity
  8
AM_7
 48
0.023106702024953
100
AcDbLine
 10
0.0
 20
-1.7569125
 30
0.0
 11
0.0
 21
1.7569125
 31
0.0
  0
LINE
  5
1D3
330
1A4
100
AcDbEntity
  8
AM_7
 48
0.023106702024953
100
AcDbLine
 10
0.7920264752249095
 20
1.371830096029236
 30
0.0
 11
1.3238125
 21
2.292910509694775
 31
0.0
  0
LINE
  5
1D4
330
1A4
100
AcDbEntity
  8
AM_0
 48
0.023106702024953
100
AcDbLine
 10
0.773902338486224
 20
2.140438170354508
 30
0.0
 11
1.466722661476197
 21
1.740438170376205
 31
0.0
  0
ARC
  5
1D5
330
1A4
100
AcDbEntity
  8
AM_0
 48
0.023106702024953
100
AcDbCircle
 10
1.416722661513775
 20
1.653835629976065
 30
0.0
 40
0.1000000000000002
100
AcDbArc
 50
330.0000000000003
 51
59.99999999999986
  0
ARC
  5
1D6
330
1A4
100
AcDbEntity
  8
AM_0
 48
0.023106702024953
100
AcDbCircle
 10
0.7239023384862247
 20
2.053835629976063
 30
0.0
 40
0.1000000000000012
100
AcDbArc
 50
60.0000000000008
 51
149.9999999999993
  0
LINE
  5
1D7
330
1A4
100
AcDbEntity
  8
AM_4
 48
0.023106702024953
100
AcDbLine
 10
0.6372997981077805
 20
2.103835629976064
 30
0.0
 11
1.50332520189222
 21
1.603835629976065
 31
0.0
  0
LINE
  5
1D8
330
1A4
100
AcDbEntity
  8
AM_0
 48
0.023106702024953
100
AcDbLine
 10
1.473784412757292
 20
1.552669482298692
 30
0.0
 11
1.503325201892219
 21
1.603835629976064
 31
0.0
  0
LINE
  5
1D9
330
1A4
100
AcDbEntity
  8
AM_0
 48
0.023106702024953
100
AcDbLine
 10
0.6372997981077801
 20
2.103835629976063
 30
0.0
 11
0.6076932352755522
 21
2.052555558913164
 31
0.0
  0
ARC
  5
1DA
330
1A4
100
AcDbEntity
  8
AM_0
 48
0.023106702024953
100
AcDbCircle
 10
2.376072162032805
 20
-0.7500000000000012
 30
0.0
 40
0.1250000000000009
100
AcDbArc
 50
187.073831592597
 51
207.9230518234342
  0
ARC
  5
1DB
330
1A4
100
AcDbEntity
  8
AM_0
 48
0.023106702024953
100
AcDbCircle
 10
-2.37607216203278
 20
-0.7500000000000053
 30
0.0
 40
0.1249999999999762
100
AcDbArc
 50
332.0769481765643
 51
352.9261684074033
  0
LINE
  5
1DC
330
1A4
100
AcDbEntity
  8
AM_0
 48
0.023106702024953
100
AcDbLine
 10
0.55775
 20
2.078125
 30
0.0
 11
0.55775
 21
2.066685831984387
 31
0.0
  0
ARC
  5
1DD
330
1A4
100
AcDbEntity
  8
AM_0
 48
0.023106702024953
100
AcDbCircle
 10
-0.4952499999999998
 20
2.078125
 30
0.0
 40
0.0625
100
AcDbArc
 50
90.0000000000003
 51
180.0
  0
ARC
  5
1DE
330
1A4
100
AcDbEntity
  8
AM_0
 48
0.023106702024953
100
AcDbCircle
 10
0.4952500000000006
 20
2.078125
 30
0.0
 40
0.0624999999999994
100
AcDbArc
 50
359.9999999999996
 51
90.00000000000092
  0
LINE
  5
1DF
330
1A4
100
AcDbEntity
  8
AM_0
 48
0.023106702024953
100
AcDbLine
 10
2.124331175259876
 20
0.2636142037978912
 30
0.0
 11
2.252023626251205
 21
-0.765393530148782
 31
0.0
  0
ARC
  5
1E0
330
1A4
100
AcDbEntity
  8
AM_0
 48
0.023106702024953
100
AcDbCircle
 10
0.0000000000000004
 20
-0.0000000000000001
 30
0.0
 40
2.140625
100
AcDbArc
 50
7.073831592597668
 51
74.89701874068243
  0
LINE
  5
1E1
330
1A4
100
AcDbEntity
  8
AM_0
 48
0.023106702024953
100
AcDbLine
 10
-2.252023626251205
 20
-0.7653935301487822
 30
0.0
 11
-2.124331175259876
 21
0.2636142037978915
 31
0.0
  0
LINE
  5
1E2
330
1A4
100
AcDbEntity
  8
AM_0
 48
0.023106702024953
100
AcDbLine
 10
-0.4952500000000001
 20
2.140625
 30
0.0
 11
0.4952499999999996
 21
2.140625
 31
0.0
  0
LINE
  5
1E3
330
1A4
100
AcDbEntity
  8
AM_0
 48
0.023106702024953
100
AcDbLine
 10
-0.55775
 20
2.066685831984387
 30
0.0
 11
-0.55775
 21
2.078125
 31
0.0
  0
ARC
  5
1E4
330
1A4
100
AcDbEntity
  8
AM_0
 48
0.023106702024953
100
AcDbCircle
 10
-0.0000000000000009
 20
0.0000000000000002
 30
0.0
 40
2.140624999999999
100
AcDbArc
 50
105.1029812593176
 51
172.9261684074023
  0
CIRCLE
  5
1E5
330
1A4
100
AcDbEntity
  8
AM_0
 48
0.023106702024953
100
AcDbCircle
 10
0.0
 20
0.0
 30
0.0
 40
1.67325
  0
LWPOLYLINE
  5
1E6
330
1A4
100
AcDbEntity
  8
AM_0
 48
0.023106702024953
100
AcDbPolyline
 90
       13
 70
     0
 43
0.0
 10
-2.265625
 20
-0.8085356677496687
 10
-2.271147004396397
 20
-0.81793902630282
 10
-2.27746755259795
 20
-0.826825327843101
 10
-2.284538541416393
 20
-0.8351269422500948
 10
-2.292306156357238
 20
-0.8427806892255123
 10
-2.300711281180571
 20
-0.8497283191334118
 10
-2.309689947811334
 20
-0.8559169563151006
 10
-2.319173823174999
 20
-0.8612995015048245
 10
-2.329090729253528
 20
-0.8658349902836203
 10
-2.339365192403672
 20
-0.8694889048432782
 10
-2.349919017756969
 20
-0.8722334366877056
 10
-2.360671884329904
 20
-0.8740476982723725
 10
-2.36875
 20
-0.8747853594904681
  0
LINE
  5
1E7
330
1A4
100
AcDbEntity
  8
AM_0
 48
0.023106702024953
100
AcDbLine
 10
-2.265625
 20
-0.8085356677496673
 30
0.0
 11
-2.265625
 21
-2.125
 31
0.0
  0
LWPOLYLINE
  5
1E8
330
1A4
100
AcDbEntity
  8
AM_0
 48
0.023106702024953
100
AcDbPolyline
 90
       13
 70
     0
 43
0.0
 10
2.36875
 20
-0.8747853594904682
 10
2.357902102346731
 20
-0.8736723450533892
 10
2.347192489819054
 20
-0.8716181093950505
 10
2.336702669034948
 20
-0.868638286489193
 10
2.326512473864504
 20
-0.8647555545873967
 10
2.31669945784598
 20
-0.8599994636238921
 10
2.307338303956536
 20
-0.8544062103227177
 10
2.298500256229691
 20
-0.8480183627187938
 10
2.290252577545204
 20
-0.8408845361894743
 10
2.282658037717951
 20
-0.8330590234621696
 10
2.275774435781723
 20
-0.8246013814139083
 10
2.269654160103689
 20
-0.8155759778075414
 10
2.265625000000001
 20
-0.8085356677496714
  0
LINE
  5
1E9
330
1A4
100
AcDbEntity
  8
AM_0
 48
0.023106702024953
100
AcDbLine
 10
2.265625000000001
 20
-0.8085356677496718
 30
0.0
 11
2.265625000000001
 21
-2.125
 31
0.0
  0
LINE
  5
1EA
330
1A4
100
AcDbEntity
  8
AM_0
 48
0.023106702024953
100
AcDbLine
 10
-2.376072162032804
 20
-0.875
 30
0.0
 11
-3.5625
 21
-0.875
 31
0.0
  0
ARC
  5
1EB
330
1A4
100
AcDbEntity
  8
AM_0
 48
0.023106702024953
100
AcDbCircle
 10
-2.376072162032809
 20
-0.7499999999998008
 30
0.0
 40
0.1250000000001992
100
AcDbArc
 50
270.0000000000023
 51
273.3581541937191
  0
LINE
  5
1EC
330
1A4
100
AcDbEntity
  8
AM_0
 48
0.023106702024953
100
AcDbLine
 10
-2.36875
 20
-0.8747853594904681
 30
0.0
 11
-2.36875
 21
-2.125
 31
0.0
  0
LINE
  5
1ED
330
1A4
100
AcDbEntity
  8
AM_0
 48
0.023106702024953
100
AcDbLine
 10
3.5625
 20
-0.875
 30
0.0
 11
2.376072162032804
 21
-0.875
 31
0.0
  0
ARC
  5
1EE
330
1A4
100
AcDbEntity
  8
AM_0
 48
0.023106702024953
100
AcDbCircle
 10
2.376072162032786
 20
-0.7500000000013498
 30
0.0
 40
0.1249999999986504
100
AcDbArc
 50
266.6418458062499
 51
270.0000000000084
  0
LINE
  5
1EF
330
1A4
100
AcDbEntity
  8
AM_0
 48
0.023106702024953
100
AcDbLine
 10
2.36875
 20
-2.125
 30
0.0
 11
2.36875
 21
-0.8747853594904671
 31
0.0
  0
LINE
  5
1F0
330
1A4
100
AcDbEntity
  8
AM_0
 48
0.023106702024953
100
AcDbLine
 10
-3.6875
 20
-2.125
 30
0.0
 11
3.6875
 21
-2.125
 31
0.0
  0
LINE
  5
1F1
330
1A4
100
AcDbEntity
  8
AM_0
 48
0.023106702024953
100
AcDbLine
 10
3.48125
 20
-0.875
 30
0.0
 11
3.48125
 21
-2.125
 31
0.0
  0
LINE
  5
1F2
330
1A4
100
AcDbEntity
  8
AM_0
 48
0.023106702024953
100
AcDbLine
 10
3.6875
 20
-1.000000000000001
 30
0.0
 11
3.6875
 21
-2.125
 31
0.0
  0
LWPOLYLINE
  5
1F3
330
1A4
100
AcDbEntity
  8
AM_0
 48
0.023106702024953
100
AcDbPolyline
 90
       19
 70
     0
 43
0.0
 10
3.5625
 20
-0.8749999999999998
 10
3.573394467843457
 20
-0.8754756627385316
 10
3.584206022208366
 20
-0.876899030873474
 10
3.594852380637815
 20
-0.8792592717138665
 10
3.605252517915709
 20
-0.8825384224017617
 10
3.615327282717588
 20
-0.8867115266204191
 10
3.625
 20
-0.8917468245269456
 10
3.634197054543881
 20
-0.8976059944638766
 10
3.642848451210817
 20
-0.9042444446101284
 10
3.650888347648319
 20
-0.9116116523516823
 10
3.658255555389873
 20
-0.9196515487891834
 10
3.664894005536124
 20
-0.9283029454561202
 10
3.670753175473055
 20
-0.9375000000000011
 10
3.675788473379582
 20
-0.9471727172824138
 10
3.679961577598239
 20
-0.9572474820842928
 10
3.683240728286134
 20
-0.9676476193621864
 10
3.685600969126526
 20
-0.9782939777916352
 10
3.687024337261468
 20
-0.9891055321565443
 10
3.6875
 20
-1.000000000000001
  0
LINE
  5
1F4
330
1A4
100
AcDbEntity
  8
AM_0
 48
0.023106702024953
100
AcDbLine
 10
-3.6875
 20
-0.9999999999999987
 30
0.0
 11
-3.6875
 21
-2.125
 31
0.0
  0
LINE
  5
1F5
330
1A4
100
AcDbEntity
  8
AM_0
 48
0.023106702024953
100
AcDbLine
 10
-3.48125
 20
-2.125
 30
0.0
 11
-3.48125
 21
-0.8749999999999988
 31
0.0
  0
LWPOLYLINE
  5
1F6
330
1A4
100
AcDbEntity
  8
AM_0
 48
0.023106702024953
100
AcDbPolyline
 90
       19
 70
     0
 43
0.0
 10
-3.6875
 20
-1.0
 10
-3.687024337261468
 20
-0.9891055321565431
 10
-3.685600969126525
 20
-0.9782939777916341
 10
-3.683240728286133
 20
-0.9676476193621852
 10
-3.679961577598238
 20
-0.9572474820842917
 10
-3.675788473379581
 20
-0.9471727172824127
 10
-3.670753175473054
 20
-0.9375000000000002
 10
-3.664894005536123
 20
-0.9283029454561194
 10
-3.658255555389871
 20
-0.9196515487891826
 10
-3.650888347648317
 20
-0.9116116523516816
 10
-3.642848451210817
 20
-0.9042444446101278
 10
-3.63419705454388
 20
-0.897605994463876
 10
-3.624999999999999
 20
-0.8917468245269452
 10
-3.615327282717587
 20
-0.8867115266204187
 10
-3.605252517915707
 20
-0.8825384224017614
 10
-3.594852380637814
 20
-0.8792592717138664
 10
-3.584206022208365
 20
-0.876899030873474
 10
-3.573394467843456
 20
-0.8754756627385318
 10
-3.5625
 20
-0.875
  0
ENDBLK
  5
1A7
330
1A4
100
AcDbEntity
  8
0
100
AcDbBlockEnd
  0
ENDSEC
  0
SECTION
  2
ENTITIES
  0
ATTDEF
  5
6F
330
1F
100
AcDbEntity
  8
AM_6
100
AcDbText
 10
8.6875
 20
2.316536647740266
 30
0.0
 40
0.5
  1
Imperial -IP Pillow Block 1-1/8 thru 2-1/4  2-Bolt Inch Bore (Contact Seal)
100
AcDbAttributeDefinition
  3

  2
NN
 70
     8
280
     0
  0
ATTDEF
  5
70
330
1F
100
AcDbEntity
  8
AM_6
100
AcDbText
 10
8.6875
 20
1.816536647740266
 30
0.0
 40
0.5
  1
Imperial 2 Bolt Piliow Block Bearings
100
AcDbAttributeDefinition
  3

  2
NT
 70
     8
280
     0
  0
ATTDEF
  5
71
330
1F
100
AcDbEntity
  8
AM_6
100
AcDbText
 10
8.6875
 20
1.316536647740266
 30
0.0
 40
0.5
  1
069406
100
AcDbAttributeDefinition
  3

  2
NB
 70
     8
280
     0
  0
ATTDEF
  5
72
330
1F
100
AcDbEntity
  8
AM_6
100
AcDbText
 10
8.6875
 20
0.8165366477402665
 30
0.0
 40
0.5
  1
$PN.
100
AcDbAttributeDefinition
  3

  2
NBSYN
 70
     8
280
     0
  0
ATTDEF
  5
73
330
1F
100
AcDbEntity
  8
AM_6
100
AcDbText
 10
8.6875
 20
0.3165366477402665
 30
0.0
 40
0.5
  1
069406
100
AcDbAttributeDefinition
  3

  2
LINA
 70
     8
280
     0
  0
ATTDEF
  5
74
330
1F
100
AcDbEntity
  8
AM_6
100
AcDbText
 10
8.6875
 20
-0.1834633522597335
 30
0.0
 40
0.5
  1
1-5/8
100
AcDbAttributeDefinition
  3

  2
SS
 70
     8
280
     0
  0
ATTDEF
  5
75
330
1F
100
AcDbEntity
  8
AM_6
100
AcDbText
 10
8.6875
 20
-0.6834633522597335
 30
0.0
 40
0.5
  1
069406
100
AcDbAttributeDefinition
  3

  2
PN
 70
     8
280
     0
  0
ATTDEF
  5
76
330
1F
100
AcDbEntity
  8
AM_6
100
AcDbText
 10
8.6875
 20
-1.183463352259734
 30
0.0
 40
0.5
  1
P2B-IP-110R
100
AcDbAttributeDefinition
  3

  2
DESCRIPTION
 70
     8
280
     0
  0
ATTDEF
  5
77
330
1F
100
AcDbEntity
  8
AM_6
100
AcDbText
 10
8.6875
 20
-1.683463352259734
 30
0.0
 40
0.5
  1
Non-Expansion Type
100
AcDbAttributeDefinition
  3

  2
EF
 70
     8
280
     0
  0
ATTDEF
  5
78
330
1F
100
AcDbEntity
  8
AM_6
100
AcDbText
 10
8.6875
 20
-2.183463352259734
 30
0.0
 40
0.5
  1
Contact  Seal
100
AcDbAttributeDefinition
  3

  2
ST
 70
     8
280
     0
  0
ATTDEF
  5
79
330
1F
100
AcDbEntity
  8
AM_6
100
AcDbText
 10
8.6875
 20
-2.683463352259734
 30
0.0
 40
0.5
  1
2-13/16
100
AcDbAttributeDefinition
  3

  2
A
 70
     8
280
     0
  0
ATTDEF
  5
7A
330
1F
100
AcDbEntity
  8
AM_6
100
AcDbText
 10
8.6875
 20
-3.183463352259734
 30
0.0
 40
0.5
  1
7-3/8
100
AcDbAttributeDefinition
  3

  2
B
 70
     8
280
     0
  0
ATTDEF
  5
7B
330
1F
100
AcDbEntity
  8
AM_6
100
AcDbText
 10
8.6875
 20
-3.683463352259734
 30
0.0
 40
0.5
  1
2-1/16
100
AcDbAttributeDefinition
  3

  2
C
 70
     8
280
     0
  0
ATTDEF
  5
7C
330
1F
100
AcDbEntity
  8
AM_6
100
AcDbText
 10
8.6875
 20
-4.183463352259734
 30
0.0
 40
0.5
  1
5-5/16
100
AcDbAttributeDefinition
  3

  2
DMIN
 70
     8
280
     0
  0
ATTDEF
  5
7D
330
1F
100
AcDbEntity
  8
AM_6
100
AcDbText
 10
8.6875
 20
-4.683463352259734
 30
0.0
 40
0.5
  1
5-45/64
100
AcDbAttributeDefinition
  3

  2
DMAX
 70
     8
280
     0
  0
ATTDEF
  5
7E
330
1F
100
AcDbEntity
  8
AM_6
100
AcDbText
 10
8.6875
 20
-5.183463352259734
 30
0.0
 40
0.5
  1
1/2
100
AcDbAttributeDefinition
  3

  2
F
 70
     8
280
     0
  0
ATTDEF
  5
7F
330
1F
100
AcDbEntity
  8
AM_6
100
AcDbText
 10
8.6875
 20
-5.683463352259734
 30
0.0
 40
0.5
  1
13/16
100
AcDbAttributeDefinition
  3

  2
G
 70
     8
280
     0
  0
ATTDEF
  5
80
330
1F
100
AcDbEntity
  8
AM_6
100
AcDbText
 10
8.6875
 20
-6.183463352259734
 30
0.0
 40
0.5
  1
1-1/4
100
AcDbAttributeDefinition
  3

  2
H
 70
     8
280
     0
  0
ATTDEF
  5
81
330
1F
100
AcDbEntity
  8
AM_6
100
AcDbText
 10
8.6875
 20
-6.683463352259734
 30
0.0
 40
0.5
  1
4-17/64
100
AcDbAttributeDefinition
  3

  2
J
 70
     8
280
     0
  0
ATTDEF
  5
82
330
1F
100
AcDbEntity
  8
AM_6
100
AcDbText
 10
8.6875
 20
-7.183463352259734
 30
0.0
 40
0.5
  1
3
100
AcDbAttributeDefinition
  3

  2
L
 70
     8
280
     0
  0
ATTDEF
  5
83
330
1F
100
AcDbEntity
  8
AM_6
100
AcDbText
 10
8.6875
 20
-7.683463352259734
 30
0.0
 40
0.5
  1
2-1/8
100
AcDbAttributeDefinition
  3

  2
M
 70
     8
280
     0
  0
ATTDEF
  5
84
330
1F
100
AcDbEntity
  8
AM_6
100
AcDbText
 10
8.6875
 20
-8.183463352259734
 30
0.0
 40
0.5
  1
13/16
100
AcDbAttributeDefinition
  3

  2
R
 70
     8
280
     0
  0
ATTDEF
  5
85
330
1F
100
AcDbEntity
  8
AM_6
100
AcDbText
 10
8.6875
 20
-8.683463352259734
 30
0.0
 40
0.5
  1
2
100
AcDbAttributeDefinition
  3

  2
S
 70
     8
280
     0
  0
ATTDEF
  5
86
330
1F
100
AcDbEntity
  8
AM_6
100
AcDbText
 10
8.6875
 20
-9.183463352259734
 30
0.0
 40
0.5
  1
1/4
100
AcDbAttributeDefinition
  3

  2
X
 70
     8
280
     0
  0
ATTDEF
  5
87
330
1F
100
AcDbEntity
  8
AM_6
100
AcDbText
 10
8.6875
 20
-9.683463352259734
 30
0.0
 40
0.5
  1
0.020
100
AcDbAttributeDefinition
  3

  2
Y
 70
     8
280
     0
  0
ATTDEF
  5
88
330
1F
100
AcDbEntity
  8
AM_6
100
AcDbText
 10
8.6875
 20
-10.18346335225973
 30
0.0
 40
0.5
  1
2-5/64
100
AcDbAttributeDefinition
  3

  2
Z
 70
     8
280
     0
  0
ATTDEF
  5
89
330
1F
100
AcDbEntity
  8
AM_6
100
AcDbText
 10
8.6875
 20
-10.68346335225973
 30
0.0
 40
0.5
  1
baldor
100
AcDbAttributeDefinition
  3

  2
COMPANY
 70
     8
280
     0
  0
INSERT
  5
8B
330
1F
100
AcDbEntity
  8
0
100
AcDbBlockReference
  2
1_ASME_B18_3_10_1_0_in_069406_0
 10
0.0
 20
0.0
 30
0.0
  0
INSERT
  5
AE
330
1F
100
AcDbEntity
  8
0
100
AcDbBlockReference
  2
2_ASME_B18_3_10_2_0_in_069406_0
 10
0.0
 20
0.0
 30
0.0
  0
INSERT
  5
CA
330
1F
100
AcDbEntity
  8
0
100
AcDbBlockReference
  2
3_070886LW_0_in_069406_0
 10
0.0
 20
0.0
 30
0.0
  0
INSERT
  5
116
330
1F
100
AcDbEntity
  8
0
100
AcDbBlockReference
  2
4_070886I_0_in_069406_0
 10
0.0
 20
0.0
 30
0.0
  0
INSERT
  5
170
330
1F
100
AcDbEntity
  8
0
100
AcDbBlockReference
  2
5_405015E_Inch_0_in_069406_0
 10
0.0
 20
0.0
 30
0.0
  0
INSERT
  5
1A5
330
1F
100
AcDbEntity
  8
0
100
AcDbBlockReference
  2
6_069406H_0_in_069406_0
 10
0.0
 20
0.0
 30
0.0
  0
POINT
  5
1F8
330
1F
100
AcDbEntity
  8
ConnectionPoints
100
AcDbPoint
 10
0.0
 20
1.201388888888889
 30
1.841
  0
POINT
  5
1F9
330
1F
100
AcDbEntity
  8
ConnectionPoints
100
AcDbPoint
 10
0.0
 20
0.0
 30
1.771
  0
POINT
  5
1FA
330
1F
100
AcDbEntity
  8
ConnectionPoints
100
AcDbPoint
 10
0.0
 20
0.0
 30
2.0
  0
POINT
  5
1FB
330
1F
100
AcDbEntity
  8
ConnectionPoints
100
AcDbPoint
 10
0.0
 20
0.0
 30
1.97
  0
POINT
  5
1FC
330
1F
100
AcDbEntity
  8
ConnectionPoints
100
AcDbPoint
 10
0.0
 20
1.201388888888889
 30
1.771
  0
POINT
  5
1FD
330
1F
100
AcDbEntity
  8
ConnectionPoints
100
AcDbPoint
 10
0.0
 20
1.201388888888889
 30
1.899
  0
POINT
  5
1FE
330
1F
100
AcDbEntity
  8
ConnectionPoints
100
AcDbPoint
 10
0.0
 20
-1.201388888888889
 30
1.771
  0
POINT
  5
1FF
330
1F
100
AcDbEntity
  8
ConnectionPoints
100
AcDbPoint
 10
0.0
 20
-1.201388888888889
 30
1.899
  0
POINT
  5
200
330
1F
100
AcDbEntity
  8
ConnectionPoints
100
AcDbPoint
 10
0.0
 20
0.0
 30
1.771
  0
POINT
  5
201
330
1F
100
AcDbEntity
  8
ConnectionPoints
100
AcDbPoint
 10
1.1203125
 20
1.940438170354508
 30
0.0
  0
POINT
  5
202
330
1F
100
AcDbEntity
  8
ConnectionPoints
100
AcDbPoint
 10
1.1203125
 20
1.940438170354508
 30
0.0
  0
POINT
  5
203
330
1F
100
AcDbEntity
  8
ConnectionPoints
100
AcDbPoint
 10
0.0
 20
0.0
 30
1.75
  0
POINT
  5
204
330
1F
100
AcDbEntity
  8
ConnectionPoints
100
AcDbPoint
 10
0.0
 20
0.0
 30
2.0
  0
ENDSEC
  0
SECTION
  2
OBJECTS
  0
DICTIONARY
  5
C
330
0
100
AcDbDictionary
281
     1
  3
ACAD_DETAILVIEWSTYLE
350
20C
  3
ACAD_GROUP
350
D
  3
ACAD_LAYOUT
350
1A
  3
ACAD_MATERIAL
350
43
  3
ACAD_MLEADERSTYLE
350
6B
  3
ACAD_MLINESTYLE
350
17
  3
ACAD_PLOTSETTINGS
350
19
  3
ACAD_PLOTSTYLENAME
350
E
  3
ACAD_SCALELIST
350
47
  3
ACAD_SECTIONVIEWSTYLE
350
20D
  3
ACAD_TABLESTYLE
350
69
  3
ACAD_VISUALSTYLE
350
2A
  3
ACDB_RECOMPOSE_DATA
350
209
  3
AcDbVariableDictionary
350
205
  0
SUN
  5
6D
330
29
100
AcDbSun
 90
        1
290
     0
 63
     7
421
 16777215
 40
1.0
291
     1
 91
  2455826
 92
 54000000
292
     0
 70
     2
 71
   256
280
     1
  0
DICTIONARY
  5
20C
102
{ACAD_REACTORS
330
C
102
}
330
C
100
AcDbDictionary
281
     1
  0
DICTIONARY
  5
D
102
{ACAD_REACTORS
330
C
102
}
330
C
100
AcDbDictionary
281
     1
  0
DICTIONARY
  5
1A
102
{ACAD_REACTORS
330
C
102
}
330
C
100
AcDbDictionary
281
     1
  3
Layout1
350
1E
  3
Layout2
350
26
  3
Model
350
22
  0
DICTIONARY
  5
43
102
{ACAD_REACTORS
330
C
102
}
330
C
100
AcDbDictionary
281
     1
  3
ByBlock
350
45
  3
ByLayer
350
44
  3
Global
350
46
  0
DICTIONARY
  5
6B
102
{ACAD_REACTORS
330
C
102
}
330
C
100
AcDbDictionary
281
     1
  3
Standard
350
6C
  0
DICTIONARY
  5
17
102
{ACAD_REACTORS
330
C
102
}
330
C
100
AcDbDictionary
281
     1
  3
Standard
350
18
  0
DICTIONARY
  5
19
102
{ACAD_REACTORS
330
C
102
}
330
C
100
AcDbDictionary
281
     1
  0
ACDBDICTIONARYWDFLT
  5
E
102
{ACAD_REACTORS
330
C
102
}
330
C
100
AcDbDictionary
281
     1
  3
Normal
350
F
100
AcDbDictionaryWithDefault
340
F
  0
DICTIONARY
  5
47
102
{ACAD_REACTORS
330
C
102
}
330
C
100
AcDbDictionary
281
     1
  3
A0
350
48
  3
A1
350
49
  3
A2
350
4A
  3
A3
350
4B
  3
A4
350
4C
  3
A5
350
4D
  3
A6
350
4E
  3
A7
350
4F
  3
A8
350
50
  3
A9
350
51
  3
B0
350
52
  3
B1
350
53
  3
B2
350
54
  3
B3
350
55
  3
B4
350
56
  3
B5
350
57
  3
B6
350
58
  3
B7
350
59
  3
B8
350
5A
  3
B9
350
5B
  3
C0
350
5C
  3
C1
350
5D
  3
C2
350
5E
  3
C3
350
5F
  3
C4
350
60
  3
C5
350
61
  3
C6
350
62
  3
C7
350
63
  3
C8
350
64
  3
C9
350
65
  3
D0
350
66
  3
D1
350
67
  3
D2
350
68
  0
DICTIONARY
  5
20D
102
{ACAD_REACTORS
330
C
102
}
330
C
100
AcDbDictionary
281
     1
  0
DICTIONARY
  5
69
102
{ACAD_REACTORS
330
C
102
}
330
C
100
AcDbDictionary
281
     1
  3
Standard
350
6A
  0
DICTIONARY
  5
2A
102
{ACAD_REACTORS
330
C
102
}
330
C
100
AcDbDictionary
281
     1
  3
2dWireframe
350
2F
  3
Basic
350
32
  3
Brighten
350
36
  3
ColorChange
350
3A
  3
Conceptual
350
34
  3
Dim
350
35
  3
EdgeColorOff
350
3D
  3
Facepattern
350
39
  3
Flat
350
2B
  3
FlatWithEdges
350
2C
  3
Gouraud
350
2D
  3
GouraudWithEdges
350
2E
  3
Hidden
350
31
  3
JitterOff
350
3B
  3
Linepattern
350
38
  3
OverhangOff
350
3C
  3
Realistic
350
33
  3
Shaded
350
42
  3
Shaded with edges
350
41
  3
Shades of Gray
350
3E
  3
Sketchy
350
3F
  3
Thicken
350
37
  3
Wireframe
350
30
  3
X-Ray
350
40
  0
XRECORD
  5
209
102
{ACAD_REACTORS
330
C
102
}
330
C
100
AcDbXrecord
280
     1
 90
        1
330
6A
  0
DICTIONARY
  5
205
102
{ACAD_REACTORS
330
C
102
}
330
C
100
AcDbDictionary
281
     1
  3
CANNOSCALE
350
206
  3
CMLEADERSTYLE
350
20B
  3
CTABLESTYLE
350
20A
  0
LAYOUT
  5
1E
102
{ACAD_REACTORS
330
1A
102
}
330
1A
100
AcDbPlotSettings
  1

  2
none_device
  4

  6

 40
0.0
 41
0.0
 42
0.0
 43
0.0
 44
0.0
 45
0.0
 46
0.0
 47
0.0
 48
0.0
 49
0.0
140
0.0
141
0.0
142
1.0
143
1.0
 70
   688
 72
     0
 73
     0
 74
     5
  7

 75
    16
 76
     0
 77
     2
 78
   300
147
1.0
148
0.0
149
0.0
100
AcDbLayout
  1
Layout1
 70
     1
 71
     1
 10
0.0
 20
0.0
 11
12.0
 21
9.0
 12
0.0
 22
0.0
 32
0.0
 14
1.000000000000000E+20
 24
1.000000000000000E+20
 34
1.000000000000000E+20
 15
-1.000000000000000E+20
 25
-1.000000000000000E+20
 35
-1.000000000000000E+20
146
0.0
 13
0.0
 23
0.0
 33
0.0
 16
1.0
 26
0.0
 36
0.0
 17
0.0
 27
1.0
 37
0.0
 76
     0
330
1B
  0
LAYOUT
  5
26
102
{ACAD_REACTORS
330
1A
102
}
330
1A
100
AcDbPlotSettings
  1

  2
none_device
  4

  6

 40
0.0
 41
0.0
 42
0.0
 43
0.0
 44
0.0
 45
0.0
 46
0.0
 47
0.0
 48
0.0
 49
0.0
140
0.0
141
0.0
142
1.0
143
1.0
 70
   688
 72
     0
 73
     0
 74
     5
  7

 75
    16
 76
     0
 77
     2
 78
   300
147
1.0
148
0.0
149
0.0
100
AcDbLayout
  1
Layout2
 70
     1
 71
     2
 10
0.0
 20
0.0
 11
0.0
 21
0.0
 12
0.0
 22
0.0
 32
0.0
 14
0.0
 24
0.0
 34
0.0
 15
0.0
 25
0.0
 35
0.0
146
0.0
 13
0.0
 23
0.0
 33
0.0
 16
1.0
 26
0.0
 36
0.0
 17
0.0
 27
1.0
 37
0.0
 76
     0
330
23
  0
LAYOUT
  5
22
102
{ACAD_REACTORS
330
1A
102
}
330
1A
100
AcDbPlotSettings
  1

  2
none_device
  4
Letter_(8.50_x_11.00_Inches)
  6

 40
6.35
 41
6.35
 42
6.35000508
 43
6.35000508
 44
215.9
 45
279.4
 46
0.0
 47
0.0
 48
0.0
 49
0.0
140
0.0
141
0.0
142
1.0
143
1.0
 70
  1712
 72
     0
 73
     0
 74
     0
  7

 75
     0
 76
     0
 77
     2
 78
   300
147
1.0
148
0.0
149
0.0
100
AcDbLayout
  1
Model
 70
     1
 71
     0
 10
0.0
 20
0.0
 11
12.0
 21
9.0
 12
0.0
 22
0.0
 32
0.0
 14
1.000000000000000E+20
 24
1.000000000000000E+20
 34
1.000000000000000E+20
 15
-1.000000000000000E+20
 25
-1.000000000000000E+20
 35
-1.000000000000000E+20
146
0.0
 13
0.0
 23
0.0
 33
0.0
 16
1.0
 26
0.0
 36
0.0
 17
0.0
 27
1.0
 37
0.0
 76
     0
330
1F
331
29
  0
MATERIAL
  5
45
102
{ACAD_REACTORS
330
43
102
}
330
43
100
AcDbMaterial
  1
ByBlock
 72
     1
 94
      127
  0
MATERIAL
  5
44
102
{ACAD_REACTORS
330
43
102
}
330
43
100
AcDbMaterial
  1
ByLayer
 72
     1
 94
      127
  0
MATERIAL
  5
46
102
{ACAD_REACTORS
330
43
102
}
330
43
100
AcDbMaterial
  1
Global
 72
     1
 94
      127
  0
MLEADERSTYLE
  5
6C
102
{ACAD_REACTORS
330
6B
102
}
330
6B
100
AcDbMLeaderStyle
179
     2
170
     2
171
     1
172
     0
 90
        2
 40
0.0
 41
0.0
173
     1
 91
-1056964608
340
14
 92
       -2
290
     1
 42
0.09
291
     1
 43
0.36
  3
Standard
341
0
 44
0.18
300

342
11
174
     1
178
     6
175
     1
176
     0
 93
-1056964608
 45
0.18
292
     0
297
     0
 46
0.18
343
0
 94
-1056964608
 47
1.0
 49
1.0
140
1.0
293
     1
141
0.0
294
     1
177
     0
142
1.0
295
     0
296
     0
143
0.125
271
     0
272
     9
273
     9
298
     0
  0
MLINESTYLE
  5
18
102
{ACAD_REACTORS
330
17
102
}
330
17
100
AcDbMlineStyle
  2
Standard
 70
     0
  3

 62
   256
 51
90.0
 52
90.0
 71
     2
 49
0.5
 62
   256
  6
BYLAYER
 49
-0.5
 62
   256
  6
BYLAYER
  0
ACDBPLACEHOLDER
  5
F
102
{ACAD_REACTORS
330
E
102
}
330
E
  0
SCALE
  5
48
102
{ACAD_REACTORS
330
47
102
}
330
47
100
AcDbScale
 70
     0
300
1:1
140
1.0
141
1.0
290
     1
  0
SCALE
  5
49
102
{ACAD_REACTORS
330
47
102
}
330
47
100
AcDbScale
 70
     0
300
1:2
140
1.0
141
2.0
290
     0
  0
SCALE
  5
4A
102
{ACAD_REACTORS
330
47
102
}
330
47
100
AcDbScale
 70
     0
300
1:4
140
1.0
141
4.0
290
     0
  0
SCALE
  5
4B
102
{ACAD_REACTORS
330
47
102
}
330
47
100
AcDbScale
 70
     0
300
1:5
140
1.0
141
5.0
290
     0
  0
SCALE
  5
4C
102
{ACAD_REACTORS
330
47
102
}
330
47
100
AcDbScale
 70
     0
300
1:8
140
1.0
141
8.0
290
     0
  0
SCALE
  5
4D
102
{ACAD_REACTORS
330
47
102
}
330
47
100
AcDbScale
 70
     0
300
1:10
140
1.0
141
10.0
290
     0
  0
SCALE
  5
4E
102
{ACAD_REACTORS
330
47
102
}
330
47
100
AcDbScale
 70
     0
300
1:16
140
1.0
141
16.0
290
     0
  0
SCALE
  5
4F
102
{ACAD_REACTORS
330
47
102
}
330
47
100
AcDbScale
 70
     0
300
1:20
140
1.0
141
20.0
290
     0
  0
SCALE
  5
50
102
{ACAD_REACTORS
330
47
102
}
330
47
100
AcDbScale
 70
     0
300
1:30
140
1.0
141
30.0
290
     0
  0
SCALE
  5
51
102
{ACAD_REACTORS
330
47
102
}
330
47
100
AcDbScale
 70
     0
300
1:40
140
1.0
141
40.0
290
     0
  0
SCALE
  5
52
102
{ACAD_REACTORS
330
47
102
}
330
47
100
AcDbScale
 70
     0
300
1:50
140
1.0
141
50.0
290
     0
  0
SCALE
  5
53
102
{ACAD_REACTORS
330
47
102
}
330
47
100
AcDbScale
 70
     0
300
1:100
140
1.0
141
100.0
290
     0
  0
SCALE
  5
54
102
{ACAD_REACTORS
330
47
102
}
330
47
100
AcDbScale
 70
     0
300
2:1
140
2.0
141
1.0
290
     0
  0
SCALE
  5
55
102
{ACAD_REACTORS
330
47
102
}
330
47
100
AcDbScale
 70
     0
300
4:1
140
4.0
141
1.0
290
     0
  0
SCALE
  5
56
102
{ACAD_REACTORS
330
47
102
}
330
47
100
AcDbScale
 70
     0
300
8:1
140
8.0
141
1.0
290
     0
  0
SCALE
  5
57
102
{ACAD_REACTORS
330
47
102
}
330
47
100
AcDbScale
 70
     0
300
10:1
140
10.0
141
1.0
290
     0
  0
SCALE
  5
58
102
{ACAD_REACTORS
330
47
102
}
330
47
100
AcDbScale
 70
     0
300
100:1
140
100.0
141
1.0
290
     0
  0
SCALE
  5
59
102
{ACAD_REACTORS
330
47
102
}
330
47
100
AcDbScale
 70
     0
300
1/128" = 1'-0"
140
0.0078125
141
12.0
290
     0
  0
SCALE
  5
5A
102
{ACAD_REACTORS
330
47
102
}
330
47
100
AcDbScale
 70
     0
300
1/64" = 1'-0"
140
0.015625
141
12.0
290
     0
  0
SCALE
  5
5B
102
{ACAD_REACTORS
330
47
102
}
330
47
100
AcDbScale
 70
     0
300
1/32" = 1'-0"
140
0.03125
141
12.0
290
     0
  0
SCALE
  5
5C
102
{ACAD_REACTORS
330
47
102
}
330
47
100
AcDbScale
 70
     0
300
1/16" = 1'-0"
140
0.0625
141
12.0
290
     0
  0
SCALE
  5
5D
102
{ACAD_REACTORS
330
47
102
}
330
47
100
AcDbScale
 70
     0
300
3/32" = 1'-0"
140
0.09375
141
12.0
290
     0
  0
SCALE
  5
5E
102
{ACAD_REACTORS
330
47
102
}
330
47
100
AcDbScale
 70
     0
300
1/8" = 1'-0"
140
0.125
141
12.0
290
     0
  0
SCALE
  5
5F
102
{ACAD_REACTORS
330
47
102
}
330
47
100
AcDbScale
 70
     0
300
3/16" = 1'-0"
140
0.1875
141
12.0
290
     0
  0
SCALE
  5
60
102
{ACAD_REACTORS
330
47
102
}
330
47
100
AcDbScale
 70
     0
300
1/4" = 1'-0"
140
0.25
141
12.0
290
     0
  0
SCALE
  5
61
102
{ACAD_REACTORS
330
47
102
}
330
47
100
AcDbScale
 70
     0
300
3/8" = 1'-0"
140
0.375
141
12.0
290
     0
  0
SCALE
  5
62
102
{ACAD_REACTORS
330
47
102
}
330
47
100
AcDbScale
 70
     0
300
1/2" = 1'-0"
140
0.5
141
12.0
290
     0
  0
SCALE
  5
63
102
{ACAD_REACTORS
330
47
102
}
330
47
100
AcDbScale
 70
     0
300
3/4" = 1'-0"
140
0.75
141
12.0
290
     0
  0
SCALE
  5
64
102
{ACAD_REACTORS
330
47
102
}
330
47
100
AcDbScale
 70
     0
300
1" = 1'-0"
140
1.0
141
12.0
290
     0
  0
SCALE
  5
65
102
{ACAD_REACTORS
330
47
102
}
330
47
100
AcDbScale
 70
     0
300
1-1/2" = 1'-0"
140
1.5
141
12.0
290
     0
  0
SCALE
  5
66
102
{ACAD_REACTORS
330
47
102
}
330
47
100
AcDbScale
 70
     0
300
3" = 1'-0"
140
3.0
141
12.0
290
     0
  0
SCALE
  5
67
102
{ACAD_REACTORS
330
47
102
}
330
47
100
AcDbScale
 70
     0
300
6" = 1'-0"
140
6.0
141
12.0
290
     0
  0
SCALE
  5
68
102
{ACAD_REACTORS
330
47
102
}
330
47
100
AcDbScale
 70
     0
300
1'-0" = 1'-0"
140
12.0
141
12.0
290
     0
  0
TABLESTYLE
  5
6A
102
{ACAD_REACTORS
330
69
102
}
102
{ACAD_XDICTIONARY
360
207
102
}
330
69
100
AcDbTableStyle
  3
Standard
 70
     0
 71
     0
 40
0.06
 41
0.06
280
     0
281
     0
  7
Standard
140
0.18
170
     2
 62
     0
 63
   257
283
     0
 90
        4
 91
        0
  1

274
    -2
284
     1
 64
     0
275
    -2
285
     1
 65
     0
276
    -2
286
     1
 66
     0
277
    -2
287
     1
 67
     0
278
    -2
288
     1
 68
     0
279
    -2
289
     1
 69
     0
  7
Standard
140
0.25
170
     5
 62
     0
 63
   257
283
     0
 90
        4
 91
        0
  1

274
    -2
284
     1
 64
     0
275
    -2
285
     1
 65
     0
276
    -2
286
     1
 66
     0
277
    -2
287
     1
 67
     0
278
    -2
288
     1
 68
     0
279
    -2
289
     1
 69
     0
  7
Standard
140
0.18
170
     5
 62
     0
 63
   257
283
     0
 90
        4
 91
        0
  1

274
    -2
284
     1
 64
     0
275
    -2
285
     1
 65
     0
276
    -2
286
     1
 66
     0
277
    -2
287
     1
 67
     0
278
    -2
288
     1
 68
     0
279
    -2
289
     1
 69
     0
  0
VISUALSTYLE
  5
2F
102
{ACAD_REACTORS
330
2A
102
}
330
2A
100
AcDbVisualStyle
  2
2dWireframe
 70
     4
177
     3
291
     0
 70
    58
 90
        0
176
     1
 90
        2
176
     1
 90
        0
176
     1
 90
        0
176
     1
 40
0.6
176
     1
 40
30.0
176
     1
 62
     7
420
 16777215
176
     1
 90
        1
176
     1
 90
        4
176
     1
 62
     7
176
     1
 62
   257
176
     1
 90
        1
176
     1
 90
        1
176
     1
 40
1.0
176
     1
 90
        0
176
     1
 62
   257
176
     1
 40
1.0
176
     1
 90
        1
176
     1
 90
        6
176
     1
 90
        2
176
     1
 62
     7
176
     1
 90
        5
176
     1
 90
        0
176
     1
 90
        0
176
     1
290
     0
176
     1
 90
        1
176
     1
 40
0.0
176
     1
 90
        0
176
     1
290
     1
176
     1
290
     1
176
     1
290
     0
176
     1
290
     0
176
     1
290
     0
176
     1
290
     0
176
     1
290
     0
176
     1
290
     0
176
     1
290
     0
176
     1
 90
       50
176
     1
 40
0.0
176
     1
 40
1.0
176
     1
 90
        0
176
     1
 62
    18
420
        0
176
     1
 90
       50
176
     1
 90
        3
176
     1
 62
     5
420
      255
176
     1
290
     0
176
     1
 90
       50
176
     1
 90
       50
176
     1
 90
       50
176
     1
290
     0
176
     1
 90
       50
176
     1
 62
   256
176
     0
 40
1.0
176
     0
 90
        2
176
     1
  1
strokes_ogs.tif
176
     1
290
     0
176
     1
 40
1.0
176
     1
 40
1.0
176
     1
  0
VISUALSTYLE
  5
32
102
{ACAD_REACTORS
330
2A
102
}
330
2A
100
AcDbVisualStyle
  2
Basic
 70
     7
177
     3
291
     1
 70
    58
 90
        1
176
     1
 90
        0
176
     1
 90
        1
176
     1
 90
        0
176
     1
 40
0.6
176
     1
 40
30.0
176
     1
 62
     7
420
 16777215
176
     1
 90
        0
176
     1
 90
        4
176
     1
 62
     7
176
     1
 62
   257
176
     1
 90
        1
176
     1
 90
        1
176
     1
 40
1.0
176
     1
 90
        8
176
     1
 62
     7
176
     1
 40
1.0
176
     1
 90
        1
176
     1
 90
        6
176
     1
 90
        2
176
     1
 62
     7
176
     1
 90
        5
176
     1
 90
        0
176
     1
 90
        0
176
     1
290
     0
176
     1
 90
        1
176
     1
 40
0.0
176
     1
 90
        0
176
     1
290
     0
176
     1
290
     1
176
     1
290
     1
176
     1
290
     0
176
     1
290
     0
176
     1
290
     0
176
     1
290
     0
176
     1
290
     0
176
     1
290
     0
176
     1
 90
       50
176
     1
 40
0.0
176
     1
 40
1.0
176
     1
 90
        0
176
     1
 62
    18
420
        0
176
     1
 90
       50
176
     1
 90
        3
176
     1
 62
     5
420
      255
176
     1
290
     0
176
     1
 90
       50
176
     1
 90
       50
176
     1
 90
       50
176
     1
290
     0
176
     1
 90
       50
176
     1
 62
   256
176
     0
 40
1.0
176
     0
 90
        2
176
     1
  1
strokes_ogs.tif
176
     1
290
     0
176
     1
 40
1.0
176
     1
 40
1.0
176
     1
  0
VISUALSTYLE
  5
36
102
{ACAD_REACTORS
330
2A
102
}
330
2A
100
AcDbVisualStyle
  2
Brighten
 70
    12
177
     3
291
     1
 70
    58
 90
        2
176
     1
 90
        2
176
     1
 90
        0
176
     1
 90
        0
176
     1
 40
0.6
176
     1
 40
30.0
176
     1
 62
     7
420
 16777215
176
     1
 90
        1
176
     1
 90
        4
176
     1
 62
     7
176
     1
 62
   257
176
     1
 90
        1
176
     1
 90
        1
176
     1
 40
1.0
176
     1
 90
        8
176
     1
 62
     7
176
     1
 40
1.0
176
     1
 90
        1
176
     1
 90
        6
176
     1
 90
        2
176
     1
 62
     7
176
     1
 90
        5
176
     1
 90
        0
176
     1
 90
        0
176
     1
290
     0
176
     1
 90
        1
176
     1
 40
50.0
176
     1
 90
        0
176
     1
290
     0
176
     1
290
     1
176
     1
290
     1
176
     1
290
     0
176
     1
290
     0
176
     1
290
     0
176
     1
290
     0
176
     1
290
     0
176
     1
290
     0
176
     1
 90
       50
176
     1
 40
0.0
176
     1
 40
1.0
176
     1
 90
        0
176
     1
 62
    18
420
        0
176
     1
 90
       50
176
     1
 90
        3
176
     1
 62
     5
420
      255
176
     1
290
     0
176
     1
 90
       50
176
     1
 90
       50
176
     1
 90
       50
176
     1
290
     0
176
     1
 90
       50
176
     1
 62
   256
176
     0
 40
1.0
176
     0
 90
        2
176
     1
  1
strokes_ogs.tif
176
     1
290
     0
176
     1
 40
1.0
176
     1
 40
1.0
176
     1
  0
VISUALSTYLE
  5
3A
102
{ACAD_REACTORS
330
2A
102
}
330
2A
100
AcDbVisualStyle
  2
ColorChange
 70
    16
177
     3
291
     1
 70
    58
 90
        2
176
     1
 90
        2
176
     1
 90
        3
176
     1
 90
        0
176
     1
 40
0.6
176
     1
 40
30.0
176
     1
 62
     8
420
  8421504
176
     1
 90
        1
176
     1
 90
        4
176
     1
 62
     7
176
     1
 62
   257
176
     1
 90
        1
176
     1
 90
        1
176
     1
 40
1.0
176
     1
 90
        8
176
     1
 62
     8
420
  8421504
176
     1
 40
1.0
176
     1
 90
        1
176
     1
 90
        6
176
     1
 90
        2
176
     1
 62
     7
176
     1
 90
        5
176
     1
 90
        0
176
     1
 90
        0
176
     1
290
     0
176
     1
 90
        1
176
     1
 40
0.0
176
     1
 90
        0
176
     1
290
     0
176
     1
290
     1
176
     1
290
     1
176
     1
290
     0
176
     1
290
     0
176
     1
290
     0
176
     1
290
     0
176
     1
290
     0
176
     1
290
     0
176
     1
 90
       50
176
     1
 40
0.0
176
     1
 40
1.0
176
     1
 90
        0
176
     1
 62
    18
420
        0
176
     1
 90
       50
176
     1
 90
        3
176
     1
 62
     5
420
      255
176
     1
290
     0
176
     1
 90
       50
176
     1
 90
       50
176
     1
 90
       50
176
     1
290
     0
176
     1
 90
       50
176
     1
 62
   256
176
     0
 40
1.0
176
     0
 90
        2
176
     1
  1
strokes_ogs.tif
176
     1
290
     0
176
     1
 40
1.0
176
     1
 40
1.0
176
     1
  0
VISUALSTYLE
  5
34
102
{ACAD_REACTORS
330
2A
102
}
330
2A
100
AcDbVisualStyle
  2
Conceptual
 70
     9
177
     3
291
     0
 70
    58
 90
        3
176
     1
 90
        2
176
     1
 90
        0
176
     1
 90
        0
176
     1
 40
0.6
176
     1
 40
30.0
176
     1
 62
     7
420
 16777215
176
     1
 90
        2
176
     1
 90
        2
176
     1
 62
     7
176
     1
 62
   257
176
     1
 90
        1
176
     1
 90
        1
176
     1
 40
179.0
176
     1
 90
        8
176
     1
 62
     7
176
     1
 40
1.0
176
     1
 90
        1
176
     1
 90
        6
176
     1
 90
        2
176
     1
 62
     7
176
     1
 90
        3
176
     1
 90
        0
176
     1
 90
        0
176
     1
290
     0
176
     1
 90
        1
176
     1
 40
0.0
176
     1
 90
        0
176
     1
290
     0
176
     1
290
     1
176
     1
290
     1
176
     1
290
     0
176
     1
290
     0
176
     1
290
     0
176
     1
290
     0
176
     1
290
     0
176
     1
290
     0
176
     1
 90
       50
176
     1
 40
0.0
176
     1
 40
1.0
176
     1
 90
        0
176
     1
 62
    18
420
        0
176
     1
 90
       50
176
     1
 90
        3
176
     1
 62
     5
420
      255
176
     1
290
     0
176
     1
 90
       50
176
     1
 90
       50
176
     1
 90
       50
176
     1
290
     0
176
     1
 90
       50
176
     1
 62
   256
176
     0
 40
1.0
176
     0
 90
        2
176
     1
  1
strokes_ogs.tif
176
     1
290
     0
176
     1
 40
1.0
176
     1
 40
1.0
176
     1
  0
VISUALSTYLE
  5
35
102
{ACAD_REACTORS
330
2A
102
}
330
2A
100
AcDbVisualStyle
  2
Dim
 70
    11
177
     3
291
     1
 70
    58
 90
        2
176
     1
 90
        2
176
     1
 90
        0
176
     1
 90
        0
176
     1
 40
0.6
176
     1
 40
30.0
176
     1
 62
     7
420
 16777215
176
     1
 90
        1
176
     1
 90
        4
176
     1
 62
     7
176
     1
 62
   257
176
     1
 90
        1
176
     1
 90
        1
176
     1
 40
1.0
176
     1
 90
        8
176
     1
 62
     7
176
     1
 40
1.0
176
     1
 90
        1
176
     1
 90
        6
176
     1
 90
        2
176
     1
 62
     7
176
     1
 90
        5
176
     1
 90
        0
176
     1
 90
        0
176
     1
290
     0
176
     1
 90
        1
176
     1
 40
-50.0
176
     1
 90
        0
176
     1
290
     0
176
     1
290
     1
176
     1
290
     1
176
     1
290
     0
176
     1
290
     0
176
     1
290
     0
176
     1
290
     0
176
     1
290
     0
176
     1
290
     0
176
     1
 90
       50
176
     1
 40
0.0
176
     1
 40
1.0
176
     1
 90
        0
176
     1
 62
    18
420
        0
176
     1
 90
       50
176
     1
 90
        3
176
     1
 62
     5
420
      255
176
     1
290
     0
176
     1
 90
       50
176
     1
 90
       50
176
     1
 90
       50
176
     1
290
     0
176
     1
 90
       50
176
     1
 62
   256
176
     0
 40
1.0
176
     0
 90
        2
176
     1
  1
strokes_ogs.tif
176
     1
290
     0
176
     1
 40
1.0
176
     1
 40
1.0
176
     1
  0
VISUALSTYLE
  5
3D
102
{ACAD_REACTORS
330
2A
102
}
330
2A
100
AcDbVisualStyle
  2
EdgeColorOff
 70
    22
177
     3
291
     1
 70
    58
 90
        2
176
     0
 90
        2
176
     0
 90
        0
176
     0
 90
        0
176
     0
 40
0.6
176
     0
 40
30.0
176
     0
 62
     7
420
 16777215
176
     0
 90
        1
176
     0
 90
        4
176
     0
 62
     7
176
     0
 62
   257
176
     0
 90
        1
176
     0
 90
        1
176
     0
 40
1.0
176
     0
 90
        8
176
     2
 62
     7
176
     0
 40
1.0
176
     0
 90
        1
176
     0
 90
        6
176
     0
 90
        2
176
     0
 62
     7
176
     0
 90
        5
176
     0
 90
        0
176
     0
 90
        0
176
     0
290
     0
176
     0
 90
        1
176
     0
 40
0.0
176
     0
 90
        0
176
     0
290
     0
176
     0
290
     1
176
     0
290
     1
176
     0
290
     0
176
     0
290
     0
176
     0
290
     0
176
     0
290
     0
176
     0
290
     0
176
     0
290
     0
176
     0
 90
       50
176
     0
 40
0.0
176
     0
 40
1.0
176
     0
 90
        0
176
     0
 62
    18
420
        0
176
     0
 90
       50
176
     0
 90
        3
176
     0
 62
     5
420
      255
176
     0
290
     0
176
     0
 90
       50
176
     0
 90
       50
176
     0
 90
       50
176
     0
290
     0
176
     0
 90
       50
176
     0
 62
   256
176
     0
 40
1.0
176
     0
 90
        2
176
     0
  1
strokes_ogs.tif
176
     0
290
     0
176
     0
 40
1.0
176
     0
 40
1.0
176
     0
  0
VISUALSTYLE
  5
39
102
{ACAD_REACTORS
330
2A
102
}
330
2A
100
AcDbVisualStyle
  2
Facepattern
 70
    15
177
     3
291
     1
 70
    58
 90
        2
176
     1
 90
        2
176
     1
 90
        0
176
     1
 90
        0
176
     1
 40
0.6
176
     1
 40
30.0
176
     1
 62
     7
420
 16777215
176
     1
 90
        1
176
     1
 90
        4
176
     1
 62
     7
176
     1
 62
   257
176
     1
 90
        1
176
     1
 90
        1
176
     1
 40
1.0
176
     1
 90
        8
176
     1
 62
     7
176
     1
 40
1.0
176
     1
 90
        1
176
     1
 90
        6
176
     1
 90
        2
176
     1
 62
     7
176
     1
 90
        5
176
     1
 90
        0
176
     1
 90
        0
176
     1
290
     0
176
     1
 90
        1
176
     1
 40
0.0
176
     1
 90
        0
176
     1
290
     0
176
     1
290
     1
176
     1
290
     1
176
     1
290
     0
176
     1
290
     0
176
     1
290
     0
176
     1
290
     0
176
     1
290
     0
176
     1
290
     0
176
     1
 90
       50
176
     1
 40
0.0
176
     1
 40
1.0
176
     1
 90
        0
176
     1
 62
    18
420
        0
176
     1
 90
       50
176
     1
 90
        3
176
     1
 62
     5
420
      255
176
     1
290
     0
176
     1
 90
       50
176
     1
 90
       50
176
     1
 90
       50
176
     1
290
     0
176
     1
 90
       50
176
     1
 62
   256
176
     0
 40
1.0
176
     0
 90
        2
176
     1
  1
strokes_ogs.tif
176
     1
290
     0
176
     1
 40
1.0
176
     1
 40
1.0
176
     1
  0
VISUALSTYLE
  5
2B
102
{ACAD_REACTORS
330
2A
102
}
330
2A
100
AcDbVisualStyle
  2
Flat
 70
     0
177
     3
291
     1
 70
    58
 90
        2
176
     1
 90
        1
176
     1
 90
        1
176
     1
 90
        2
176
     1
 40
0.6
176
     1
 40
30.0
176
     1
 62
     7
420
 16777215
176
     1
 90
        0
176
     1
 90
        0
176
     1
 62
     7
176
     1
 62
   257
176
     1
 90
        1
176
     1
 90
        1
176
     1
 40
1.0
176
     1
 90
        8
176
     1
 62
     7
176
     1
 40
1.0
176
     1
 90
        1
176
     1
 90
        6
176
     1
 90
        2
176
     1
 62
     7
176
     1
 90
        5
176
     1
 90
        0
176
     1
 90
        0
176
     1
290
     0
176
     1
 90
       13
176
     1
 40
0.0
176
     1
 90
        0
176
     1
290
     0
176
     1
290
     1
176
     1
290
     1
176
     1
290
     0
176
     1
290
     0
176
     1
290
     0
176
     1
290
     0
176
     1
290
     0
176
     1
290
     0
176
     1
 90
       50
176
     1
 40
0.0
176
     1
 40
1.0
176
     1
 90
        0
176
     1
 62
    18
420
        0
176
     1
 90
       50
176
     1
 90
        3
176
     1
 62
     5
420
      255
176
     1
290
     0
176
     1
 90
       50
176
     1
 90
       50
176
     1
 90
       50
176
     1
290
     0
176
     1
 90
       50
176
     1
 62
   256
176
     0
 40
1.0
176
     0
 90
        2
176
     1
  1
strokes_ogs.tif
176
     1
290
     0
176
     1
 40
1.0
176
     1
 40
1.0
176
     1
  0
VISUALSTYLE
  5
2C
102
{ACAD_REACTORS
330
2A
102
}
330
2A
100
AcDbVisualStyle
  2
FlatWithEdges
 70
     1
177
     3
291
     1
 70
    58
 90
        2
176
     1
 90
        1
176
     1
 90
        1
176
     1
 90
        2
176
     1
 40
0.6
176
     1
 40
30.0
176
     1
 62
     7
420
 16777215
176
     1
 90
        1
176
     1
 90
        0
176
     1
 62
     7
176
     1
 62
   257
176
     1
 90
        1
176
     1
 90
        1
176
     1
 40
1.0
176
     1
 90
        0
176
     1
 62
   257
176
     1
 40
1.0
176
     1
 90
        1
176
     1
 90
        6
176
     1
 90
        2
176
     1
 62
     7
176
     1
 90
        5
176
     1
 90
        0
176
     1
 90
        0
176
     1
290
     0
176
     1
 90
       13
176
     1
 40
0.0
176
     1
 90
        0
176
     1
290
     0
176
     1
290
     1
176
     1
290
     1
176
     1
290
     0
176
     1
290
     0
176
     1
290
     0
176
     1
290
     0
176
     1
290
     0
176
     1
290
     0
176
     1
 90
       50
176
     1
 40
0.0
176
     1
 40
1.0
176
     1
 90
        0
176
     1
 62
    18
420
        0
176
     1
 90
       50
176
     1
 90
        3
176
     1
 62
     5
420
      255
176
     1
290
     0
176
     1
 90
       50
176
     1
 90
       50
176
     1
 90
       50
176
     1
290
     0
176
     1
 90
       50
176
     1
 62
   256
176
     0
 40
1.0
176
     0
 90
        2
176
     1
  1
strokes_ogs.tif
176
     1
290
     0
176
     1
 40
1.0
176
     1
 40
1.0
176
     1
  0
VISUALSTYLE
  5
2D
102
{ACAD_REACTORS
330
2A
102
}
330
2A
100
AcDbVisualStyle
  2
Gouraud
 70
     2
177
     3
291
     1
 70
    58
 90
        2
176
     1
 90
        2
176
     1
 90
        1
176
     1
 90
        2
176
     1
 40
0.6
176
     1
 40
30.0
176
     1
 62
     7
420
 16777215
176
     1
 90
        0
176
     1
 90
        0
176
     1
 62
     7
176
     1
 62
   257
176
     1
 90
        1
176
     1
 90
        1
176
     1
 40
1.0
176
     1
 90
        0
176
     1
 62
     7
176
     1
 40
1.0
176
     1
 90
        1
176
     1
 90
        6
176
     1
 90
        2
176
     1
 62
     7
176
     1
 90
        5
176
     1
 90
        0
176
     1
 90
        0
176
     1
290
     0
176
     1
 90
       13
176
     1
 40
0.0
176
     1
 90
        0
176
     1
290
     0
176
     1
290
     1
176
     1
290
     1
176
     1
290
     0
176
     1
290
     0
176
     1
290
     0
176
     1
290
     0
176
     1
290
     0
176
     1
290
     0
176
     1
 90
       50
176
     1
 40
0.0
176
     1
 40
1.0
176
     1
 90
        0
176
     1
 62
    18
420
        0
176
     1
 90
       50
176
     1
 90
        3
176
     1
 62
     5
420
      255
176
     1
290
     0
176
     1
 90
       50
176
     1
 90
       50
176
     1
 90
       50
176
     1
290
     0
176
     1
 90
       50
176
     1
 62
   256
176
     0
 40
1.0
176
     0
 90
        2
176
     1
  1
strokes_ogs.tif
176
     1
290
     0
176
     1
 40
1.0
176
     1
 40
1.0
176
     1
  0
VISUALSTYLE
  5
2E
102
{ACAD_REACTORS
330
2A
102
}
330
2A
100
AcDbVisualStyle
  2
GouraudWithEdges
 70
     3
177
     3
291
     1
 70
    58
 90
        2
176
     1
 90
        2
176
     1
 90
        1
176
     1
 90
        2
176
     1
 40
0.6
176
     1
 40
30.0
176
     1
 62
     7
420
 16777215
176
     1
 90
        1
176
     1
 90
        0
176
     1
 62
     7
176
     1
 62
   257
176
     1
 90
        1
176
     1
 90
        1
176
     1
 40
1.0
176
     1
 90
        0
176
     1
 62
   257
176
     1
 40
1.0
176
     1
 90
        1
176
     1
 90
        6
176
     1
 90
        2
176
     1
 62
     7
176
     1
 90
        5
176
     1
 90
        0
176
     1
 90
        0
176
     1
290
     0
176
     1
 90
       13
176
     1
 40
0.0
176
     1
 90
        0
176
     1
290
     0
176
     1
290
     1
176
     1
290
     1
176
     1
290
     0
176
     1
290
     0
176
     1
290
     0
176
     1
290
     0
176
     1
290
     0
176
     1
290
     0
176
     1
 90
       50
176
     1
 40
0.0
176
     1
 40
1.0
176
     1
 90
        0
176
     1
 62
    18
420
        0
176
     1
 90
       50
176
     1
 90
        3
176
     1
 62
     5
420
      255
176
     1
290
     0
176
     1
 90
       50
176
     1
 90
       50
176
     1
 90
       50
176
     1
290
     0
176
     1
 90
       50
176
     1
 62
   256
176
     0
 40
1.0
176
     0
 90
        2
176
     1
  1
strokes_ogs.tif
176
     1
290
     0
176
     1
 40
1.0
176
     1
 40
1.0
176
     1
  0
VISUALSTYLE
  5
31
102
{ACAD_REACTORS
330
2A
102
}
330
2A
100
AcDbVisualStyle
  2
Hidden
 70
     6
177
     3
291
     0
 70
    58
 90
        1
176
     1
 90
        2
176
     1
 90
        2
176
     1
 90
        0
176
     1
 40
0.6
176
     1
 40
30.0
176
     1
 62
     7
420
 16777215
176
     1
 90
        2
176
     1
 90
        2
176
     1
 62
     7
176
     1
 62
   257
176
     1
 90
        2
176
     1
 90
        1
176
     1
 40
40.0
176
     1
 90
        0
176
     1
 62
   257
176
     1
 40
1.0
176
     1
 90
        1
176
     1
 90
        6
176
     1
 90
        2
176
     1
 62
     7
176
     1
 90
        3
176
     1
 90
        0
176
     1
 90
        0
176
     1
290
     0
176
     1
 90
        1
176
     1
 40
0.0
176
     1
 90
        0
176
     1
290
     0
176
     1
290
     1
176
     1
290
     1
176
     1
290
     0
176
     1
290
     0
176
     1
290
     0
176
     1
290
     0
176
     1
290
     0
176
     1
290
     0
176
     1
 90
       50
176
     1
 40
0.0
176
     1
 40
1.0
176
     1
 90
        0
176
     1
 62
    18
420
        0
176
     1
 90
       50
176
     1
 90
        3
176
     1
 62
     5
420
      255
176
     1
290
     0
176
     1
 90
       50
176
     1
 90
       50
176
     1
 90
       50
176
     1
290
     0
176
     1
 90
       50
176
     1
 62
   256
176
     0
 40
1.0
176
     0
 90
        2
176
     1
  1
strokes_ogs.tif
176
     1
290
     0
176
     1
 40
1.0
176
     1
 40
1.0
176
     1
  0
VISUALSTYLE
  5
3B
102
{ACAD_REACTORS
330
2A
102
}
330
2A
100
AcDbVisualStyle
  2
JitterOff
 70
    20
177
     3
291
     1
 70
    58
 90
        2
176
     0
 90
        2
176
     0
 90
        0
176
     0
 90
        0
176
     0
 40
0.6
176
     0
 40
30.0
176
     0
 62
     7
420
 16777215
176
     0
 90
        1
176
     0
 90
        4
176
     0
 62
     7
176
     0
 62
   257
176
     0
 90
        1
176
     0
 90
        1
176
     0
 40
1.0
176
     0
 90
       10
176
     2
 62
     7
176
     0
 40
1.0
176
     0
 90
        1
176
     0
 90
        6
176
     0
 90
        2
176
     0
 62
     7
176
     0
 90
        5
176
     0
 90
        0
176
     0
 90
        0
176
     0
290
     0
176
     0
 90
        1
176
     0
 40
0.0
176
     0
 90
        0
176
     0
290
     0
176
     0
290
     1
176
     0
290
     1
176
     0
290
     0
176
     0
290
     0
176
     0
290
     0
176
     0
290
     0
176
     0
290
     0
176
     0
290
     0
176
     0
 90
       50
176
     0
 40
0.0
176
     0
 40
1.0
176
     0
 90
        0
176
     0
 62
    18
420
        0
176
     0
 90
       50
176
     0
 90
        3
176
     0
 62
     5
420
      255
176
     0
290
     0
176
     0
 90
       50
176
     0
 90
       50
176
     0
 90
       50
176
     0
290
     0
176
     0
 90
       50
176
     0
 62
   256
176
     0
 40
1.0
176
     0
 90
        2
176
     0
  1
strokes_ogs.tif
176
     0
290
     0
176
     0
 40
1.0
176
     0
 40
1.0
176
     0
  0
VISUALSTYLE
  5
38
102
{ACAD_REACTORS
330
2A
102
}
330
2A
100
AcDbVisualStyle
  2
Linepattern
 70
    14
177
     3
291
     1
 70
    58
 90
        2
176
     1
 90
        2
176
     1
 90
        0
176
     1
 90
        0
176
     1
 40
0.6
176
     1
 40
30.0
176
     1
 62
     7
420
 16777215
176
     1
 90
        1
176
     1
 90
        4
176
     1
 62
     7
176
     1
 62
   257
176
     1
 90
        7
176
     1
 90
        7
176
     1
 40
1.0
176
     1
 90
        8
176
     1
 62
     7
176
     1
 40
1.0
176
     1
 90
        1
176
     1
 90
        6
176
     1
 90
        2
176
     1
 62
     7
176
     1
 90
        5
176
     1
 90
        0
176
     1
 90
        0
176
     1
290
     0
176
     1
 90
        1
176
     1
 40
0.0
176
     1
 90
        0
176
     1
290
     0
176
     1
290
     1
176
     1
290
     1
176
     1
290
     0
176
     1
290
     0
176
     1
290
     0
176
     1
290
     0
176
     1
290
     0
176
     1
290
     0
176
     1
 90
       50
176
     1
 40
0.0
176
     1
 40
1.0
176
     1
 90
        0
176
     1
 62
    18
420
        0
176
     1
 90
       50
176
     1
 90
        3
176
     1
 62
     5
420
      255
176
     1
290
     0
176
     1
 90
       50
176
     1
 90
       50
176
     1
 90
       50
176
     1
290
     0
176
     1
 90
       50
176
     1
 62
   256
176
     0
 40
1.0
176
     0
 90
        2
176
     1
  1
strokes_ogs.tif
176
     1
290
     0
176
     1
 40
1.0
176
     1
 40
1.0
176
     1
  0
VISUALSTYLE
  5
3C
102
{ACAD_REACTORS
330
2A
102
}
330
2A
100
AcDbVisualStyle
  2
OverhangOff
 70
    21
177
     3
291
     1
 70
    58
 90
        2
176
     0
 90
        2
176
     0
 90
        0
176
     0
 90
        0
176
     0
 40
0.6
176
     0
 40
30.0
176
     0
 62
     7
420
 16777215
176
     0
 90
        1
176
     0
 90
        4
176
     0
 62
     7
176
     0
 62
   257
176
     0
 90
        1
176
     0
 90
        1
176
     0
 40
1.0
176
     0
 90
        9
176
     2
 62
     7
176
     0
 40
1.0
176
     0
 90
        1
176
     0
 90
        6
176
     0
 90
        2
176
     0
 62
     7
176
     0
 90
        5
176
     0
 90
        0
176
     0
 90
        0
176
     0
290
     0
176
     0
 90
        1
176
     0
 40
0.0
176
     0
 90
        0
176
     0
290
     0
176
     0
290
     1
176
     0
290
     1
176
     0
290
     0
176
     0
290
     0
176
     0
290
     0
176
     0
290
     0
176
     0
290
     0
176
     0
290
     0
176
     0
 90
       50
176
     0
 40
0.0
176
     0
 40
1.0
176
     0
 90
        0
176
     0
 62
    18
420
        0
176
     0
 90
       50
176
     0
 90
        3
176
     0
 62
     5
420
      255
176
     0
290
     0
176
     0
 90
       50
176
     0
 90
       50
176
     0
 90
       50
176
     0
290
     0
176
     0
 90
       50
176
     0
 62
   256
176
     0
 40
1.0
176
     0
 90
        2
176
     0
  1
strokes_ogs.tif
176
     0
290
     0
176
     0
 40
1.0
176
     0
 40
1.0
176
     0
  0
VISUALSTYLE
  5
33
102
{ACAD_REACTORS
330
2A
102
}
330
2A
100
AcDbVisualStyle
  2
Realistic
 70
     8
177
     3
291
     0
 70
    58
 90
        2
176
     1
 90
        3
176
     1
 90
        0
176
     1
 90
        2
176
     1
 40
0.6
176
     1
 40
30.0
176
     1
 62
     7
420
 16777215
176
     1
 90
        0
176
     1
 90
        0
176
     1
 62
     7
176
     1
 62
   257
176
     1
 90
        1
176
     1
 90
        1
176
     1
 40
1.0
176
     1
 90
        8
176
     1
 62
   257
176
     1
 40
1.0
176
     1
 90
        1
176
     1
 90
        6
176
     1
 90
        2
176
     1
 62
     7
176
     1
 90
        3
176
     1
 90
        0
176
     1
 90
        0
176
     1
290
     0
176
     1
 90
       13
176
     1
 40
0.0
176
     1
 90
        0
176
     1
290
     0
176
     1
290
     1
176
     1
290
     1
176
     1
290
     0
176
     1
290
     0
176
     1
290
     0
176
     1
290
     0
176
     1
290
     0
176
     1
290
     0
176
     1
 90
       50
176
     1
 40
0.0
176
     1
 40
1.0
176
     1
 90
        0
176
     1
 62
    18
420
        0
176
     1
 90
       50
176
     1
 90
        3
176
     1
 62
     5
420
      255
176
     1
290
     0
176
     1
 90
       50
176
     1
 90
       50
176
     1
 90
       50
176
     1
290
     0
176
     1
 90
       50
176
     1
 62
   256
176
     0
 40
1.0
176
     0
 90
        2
176
     1
  1
strokes_ogs.tif
176
     1
290
     0
176
     1
 40
1.0
176
     1
 40
1.0
176
     1
  0
VISUALSTYLE
  5
42
102
{ACAD_REACTORS
330
2A
102
}
330
2A
100
AcDbVisualStyle
  2
Shaded
 70
    27
177
     3
291
     0
 70
    58
 90
        2
176
     1
 90
        2
176
     1
 90
        1
176
     1
 90
        2
176
     1
 40
0.6
176
     1
 40
30.0
176
     1
 62
     7
420
 16777215
176
     1
 90
        0
176
     1
 90
        4
176
     1
 62
     7
176
     1
 62
   257
176
     1
 90
        1
176
     1
 90
        1
176
     1
 40
1.0
176
     1
 90
        8
176
     1
 62
   257
176
     1
 40
1.0
176
     1
 90
        1
176
     1
 90
        6
176
     1
 90
        2
176
     1
 62
     8
420
  7895160
176
     1
 90
        3
176
     1
 90
        0
176
     1
 90
        0
176
     1
290
     0
176
     1
 90
        5
176
     1
 40
0.0
176
     1
 90
        0
176
     1
290
     0
176
     1
290
     1
176
     1
290
     1
176
     1
290
     0
176
     1
290
     0
176
     1
290
     0
176
     1
290
     0
176
     1
290
     0
176
     1
290
     0
176
     1
 90
       50
176
     1
 40
0.0
176
     1
 40
1.0
176
     1
 90
        0
176
     1
 62
    18
420
        0
176
     1
 90
       50
176
     1
 90
        3
176
     1
 62
     5
420
      255
176
     1
290
     0
176
     1
 90
       50
176
     1
 90
       50
176
     1
 90
       50
176
     1
290
     0
176
     1
 90
       50
176
     1
 62
   256
176
     0
 40
1.0
176
     0
 90
        2
176
     1
  1
strokes_ogs.tif
176
     1
290
     0
176
     1
 40
1.0
176
     1
 40
1.0
176
     1
  0
VISUALSTYLE
  5
41
102
{ACAD_REACTORS
330
2A
102
}
330
2A
100
AcDbVisualStyle
  2
Shaded with edges
 70
    26
177
     3
291
     0
 70
    58
 90
        2
176
     1
 90
        2
176
     1
 90
        1
176
     1
 90
        2
176
     1
 40
0.6
176
     1
 40
30.0
176
     1
 62
     7
420
 16777215
176
     1
 90
        1
176
     1
 90
       10
176
     1
 62
     7
176
     1
 62
   257
176
     1
 90
        2
176
     1
 90
        1
176
     1
 40
1.0
176
     1
 90
        8
176
     1
 62
   257
176
     1
 40
1.0
176
     1
 90
        1
176
     1
 90
        6
176
     1
 90
        2
176
     1
 62
     7
176
     1
 90
        3
176
     1
 90
        0
176
     1
 90
        0
176
     1
290
     0
176
     1
 90
        5
176
     1
 40
0.0
176
     1
 90
        0
176
     1
290
     0
176
     1
290
     1
176
     1
290
     1
176
     1
290
     0
176
     1
290
     0
176
     1
290
     0
176
     1
290
     0
176
     1
290
     0
176
     1
290
     0
176
     1
 90
       50
176
     1
 40
0.0
176
     1
 40
1.0
176
     1
 90
        0
176
     1
 62
    18
420
        0
176
     1
 90
       50
176
     1
 90
        3
176
     1
 62
     5
420
      255
176
     1
290
     0
176
     1
 90
       50
176
     1
 90
       50
176
     1
 90
       50
176
     1
290
     0
176
     1
 90
       50
176
     1
 62
   256
176
     0
 40
1.0
176
     0
 90
        2
176
     1
  1
strokes_ogs.tif
176
     1
290
     0
176
     1
 40
1.0
176
     1
 40
1.0
176
     1
  0
VISUALSTYLE
  5
3E
102
{ACAD_REACTORS
330
2A
102
}
330
2A
100
AcDbVisualStyle
  2
Shades of Gray
 70
    23
177
     3
291
     0
 70
    58
 90
        2
176
     1
 90
        2
176
     1
 90
        3
176
     1
 90
        0
176
     1
 40
0.6
176
     1
 40
30.0
176
     1
 62
     7
420
 16777215
176
     1
 90
        2
176
     1
 90
        2
176
     1
 62
     7
176
     1
 62
     7
176
     1
 90
        1
176
     1
 90
        1
176
     1
 40
40.0
176
     1
 90
        8
176
     1
 62
     7
176
     1
 40
1.0
176
     1
 90
        1
176
     1
 90
        6
176
     1
 90
        2
176
     1
 62
     7
176
     1
 90
        3
176
     1
 90
        0
176
     1
 90
        0
176
     1
290
     0
176
     1
 90
        1
176
     1
 40
0.0
176
     1
 90
        0
176
     1
290
     0
176
     1
290
     1
176
     1
290
     1
176
     1
290
     0
176
     1
290
     0
176
     1
290
     0
176
     1
290
     0
176
     1
290
     0
176
     1
290
     0
176
     1
 90
       50
176
     1
 40
0.0
176
     1
 40
1.0
176
     1
 90
        0
176
     1
 62
    18
420
        0
176
     1
 90
       50
176
     1
 90
        3
176
     1
 62
     5
420
      255
176
     1
290
     0
176
     1
 90
       50
176
     1
 90
       50
176
     1
 90
       50
176
     1
290
     0
176
     1
 90
       50
176
     1
 62
   256
176
     0
 40
1.0
176
     0
 90
        2
176
     1
  1
strokes_ogs.tif
176
     1
290
     0
176
     1
 40
1.0
176
     1
 40
1.0
176
     1
  0
VISUALSTYLE
  5
3F
102
{ACAD_REACTORS
330
2A
102
}
330
2A
100
AcDbVisualStyle
  2
Sketchy
 70
    24
177
     3
291
     0
 70
    58
 90
        1
176
     1
 90
        2
176
     1
 90
        2
176
     1
 90
        0
176
     1
 40
0.6
176
     1
 40
30.0
176
     1
 62
     7
420
 16777215
176
     1
 90
        2
176
     1
 90
        2
176
     1
 62
     7
176
     1
 62
     7
176
     1
 90
        1
176
     1
 90
        1
176
     1
 40
40.0
176
     1
 90
       11
176
     1
 62
     7
176
     1
 40
1.0
176
     1
 90
        1
176
     1
 90
        6
176
     1
 90
        2
176
     1
 62
     7
176
     1
 90
        6
176
     1
 90
        0
176
     1
 90
        0
176
     1
290
     0
176
     1
 90
        1
176
     1
 40
0.0
176
     1
 90
        0
176
     1
290
     0
176
     1
290
     1
176
     1
290
     1
176
     1
290
     0
176
     1
290
     0
176
     1
290
     0
176
     1
290
     0
176
     1
290
     0
176
     1
290
     0
176
     1
 90
       50
176
     1
 40
0.0
176
     1
 40
1.0
176
     1
 90
        0
176
     1
 62
    18
420
        0
176
     1
 90
       50
176
     1
 90
        3
176
     1
 62
     5
420
      255
176
     1
290
     0
176
     1
 90
       50
176
     1
 90
       50
176
     1
 90
       50
176
     1
290
     0
176
     1
 90
       50
176
     1
 62
   256
176
     0
 40
1.0
176
     0
 90
        2
176
     1
  1
strokes_ogs.tif
176
     1
290
     0
176
     1
 40
1.0
176
     1
 40
1.0
176
     1
  0
VISUALSTYLE
  5
37
102
{ACAD_REACTORS
330
2A
102
}
330
2A
100
AcDbVisualStyle
  2
Thicken
 70
    13
177
     3
291
     1
 70
    58
 90
        2
176
     1
 90
        2
176
     1
 90
        0
176
     1
 90
        0
176
     1
 40
0.6
176
     1
 40
30.0
176
     1
 62
     7
420
 16777215
176
     1
 90
        1
176
     1
 90
        4
176
     1
 62
     7
176
     1
 62
   257
176
     1
 90
        1
176
     1
 90
        1
176
     1
 40
1.0
176
     1
 90
       12
176
     1
 62
     7
176
     1
 40
1.0
176
     1
 90
        1
176
     1
 90
        6
176
     1
 90
        2
176
     1
 62
     7
176
     1
 90
        5
176
     1
 90
        0
176
     1
 90
        0
176
     1
290
     0
176
     1
 90
        1
176
     1
 40
0.0
176
     1
 90
        0
176
     1
290
     0
176
     1
290
     1
176
     1
290
     1
176
     1
290
     0
176
     1
290
     0
176
     1
290
     0
176
     1
290
     0
176
     1
290
     0
176
     1
290
     0
176
     1
 90
       50
176
     1
 40
0.0
176
     1
 40
1.0
176
     1
 90
        0
176
     1
 62
    18
420
        0
176
     1
 90
       50
176
     1
 90
        3
176
     1
 62
     5
420
      255
176
     1
290
     0
176
     1
 90
       50
176
     1
 90
       50
176
     1
 90
       50
176
     1
290
     0
176
     1
 90
       50
176
     1
 62
   256
176
     0
 40
1.0
176
     0
 90
        2
176
     1
  1
strokes_ogs.tif
176
     1
290
     0
176
     1
 40
1.0
176
     1
 40
1.0
176
     1
  0
VISUALSTYLE
  5
30
102
{ACAD_REACTORS
330
2A
102
}
330
2A
100
AcDbVisualStyle
  2
Wireframe
 70
     5
177
     3
291
     0
 70
    58
 90
        0
176
     1
 90
        2
176
     1
 90
        0
176
     1
 90
        0
176
     1
 40
0.6
176
     1
 40
30.0
176
     1
 62
     7
420
 16777215
176
     1
 90
        1
176
     1
 90
        4
176
     1
 62
     7
176
     1
 62
   257
176
     1
 90
        1
176
     1
 90
        1
176
     1
 40
1.0
176
     1
 90
        0
176
     1
 62
   257
176
     1
 40
1.0
176
     1
 90
        1
176
     1
 90
        6
176
     1
 90
        2
176
     1
 62
     7
176
     1
 90
        3
176
     1
 90
        0
176
     1
 90
        0
176
     1
290
     0
176
     1
 90
        1
176
     1
 40
0.0
176
     1
 90
        0
176
     1
290
     0
176
     1
290
     1
176
     1
290
     1
176
     1
290
     0
176
     1
290
     0
176
     1
290
     0
176
     1
290
     0
176
     1
290
     0
176
     1
290
     0
176
     1
 90
       50
176
     1
 40
0.0
176
     1
 40
1.0
176
     1
 90
        0
176
     1
 62
    18
420
        0
176
     1
 90
       50
176
     1
 90
        3
176
     1
 62
     5
420
      255
176
     1
290
     0
176
     1
 90
       50
176
     1
 90
       50
176
     1
 90
       50
176
     1
290
     0
176
     1
 90
       50
176
     1
 62
   256
176
     0
 40
1.0
176
     0
 90
        2
176
     1
  1
strokes_ogs.tif
176
     1
290
     0
176
     1
 40
1.0
176
     1
 40
1.0
176
     1
  0
VISUALSTYLE
  5
40
102
{ACAD_REACTORS
330
2A
102
}
330
2A
100
AcDbVisualStyle
  2
X-Ray
 70
    25
177
     3
291
     0
 70
    58
 90
        2
176
     1
 90
        2
176
     1
 90
        1
176
     1
 90
        1
176
     1
 40
0.5
176
     1
 40
30.0
176
     1
 62
     7
420
 16777215
176
     1
 90
        1
176
     1
 90
        0
176
     1
 62
     7
176
     1
 62
   257
176
     1
 90
        1
176
     1
 90
        1
176
     1
 40
1.0
176
     1
 90
        8
176
     1
 62
     7
176
     1
 40
1.0
176
     1
 90
        1
176
     1
 90
        6
176
     1
 90
        2
176
     1
 62
     7
176
     1
 90
        3
176
     1
 90
        0
176
     1
 90
        0
176
     1
290
     0
176
     1
 90
       13
176
     1
 40
0.0
176
     1
 90
        0
176
     1
290
     0
176
     1
290
     1
176
     1
290
     1
176
     1
290
     0
176
     1
290
     0
176
     1
290
     0
176
     1
290
     0
176
     1
290
     0
176
     1
290
     0
176
     1
 90
       50
176
     1
 40
0.0
176
     1
 40
1.0
176
     1
 90
        0
176
     1
 62
    18
420
        0
176
     1
 90
       50
176
     1
 90
        3
176
     1
 62
     5
420
      255
176
     1
290
     0
176
     1
 90
       50
176
     1
 90
       50
176
     1
 90
       50
176
     1
290
     0
176
     1
 90
       50
176
     1
 62
   256
176
     0
 40
1.0
176
     0
 90
        2
176
     1
  1
strokes_ogs.tif
176
     1
290
     0
176
     1
 40
1.0
176
     1
 40
1.0
176
     1
  0
DICTIONARYVAR
  5
206
102
{ACAD_REACTORS
330
205
102
}
330
205
100
DictionaryVariables
280
     0
  1
1:1
  0
DICTIONARYVAR
  5
20B
102
{ACAD_REACTORS
330
205
102
}
330
205
100
DictionaryVariables
280
     0
  1
Standard
  0
DICTIONARYVAR
  5
20A
102
{ACAD_REACTORS
330
205
102
}
330
205
100
DictionaryVariables
280
     0
  1
Standard
  0
DICTIONARY
  5
207
330
6A
100
AcDbDictionary
280
     1
281
     1
  3
ACAD_ROUNDTRIP_2008_TABLESTYLE_CELLSTYLEMAP
360
208
  0
CELLSTYLEMAP
  5
208
102
{ACAD_REACTORS
330
207
102
}
330
207
100
AcDbCellStyleMap
 90
        3
300
CELLSTYLE
  1
TABLEFORMAT_BEGIN
 90
        5
170
     1
 91
        0
 92
    32768
 62
   257
 93
        1
300
CONTENTFORMAT
  1
CONTENTFORMAT_BEGIN
 90
        0
 91
        0
 92
        4
 93
        0
300

 40
0.0
140
1.0
 94
        5
 62
     0
340
11
144
0.25
309
CONTENTFORMAT_END
171
     1
301
MARGIN
  1
CELLMARGIN_BEGIN
 40
0.06
 40
0.06
 40
0.06
 40
0.06
 40
0.06
 40
0.06
309
CELLMARGIN_END
 94
        6
 95
        1
302
GRIDFORMAT
  1
GRIDFORMAT_BEGIN
 90
        0
 91
        1
 62
     0
 92
       -2
340
14
 93
        0
 40
0.045
309
GRIDFORMAT_END
 95
        2
302
GRIDFORMAT
  1
GRIDFORMAT_BEGIN
 90
        0
 91
        1
 62
     0
 92
       -2
340
14
 93
        0
 40
0.045
309
GRIDFORMAT_END
 95
        4
302
GRIDFORMAT
  1
GRIDFORMAT_BEGIN
 90
        0
 91
        1
 62
     0
 92
       -2
340
14
 93
        0
 40
0.045
309
GRIDFORMAT_END
 95
        8
302
GRIDFORMAT
  1
GRIDFORMAT_BEGIN
 90
        0
 91
        1
 62
     0
 92
       -2
340
14
 93
        0
 40
0.045
309
GRIDFORMAT_END
 95
       16
302
GRIDFORMAT
  1
GRIDFORMAT_BEGIN
 90
        0
 91
        1
 62
     0
 92
       -2
340
14
 93
        0
 40
0.045
309
GRIDFORMAT_END
 95
       32
302
GRIDFORMAT
  1
GRIDFORMAT_BEGIN
 90
        0
 91
        1
 62
     0
 92
       -2
340
14
 93
        0
 40
0.045
309
GRIDFORMAT_END
309
TABLEFORMAT_END
  1
CELLSTYLE_BEGIN
 90
        1
 91
        1
300
_TITLE
309
CELLSTYLE_END
300
CELLSTYLE
  1
TABLEFORMAT_BEGIN
 90
        5
170
     1
 91
        0
 92
        0
 62
   257
 93
        1
300
CONTENTFORMAT
  1
CONTENTFORMAT_BEGIN
 90
        0
 91
        0
 92
        4
 93
        0
300

 40
0.0
140
1.0
 94
        5
 62
     0
340
11
144
0.18
309
CONTENTFORMAT_END
171
     1
301
MARGIN
  1
CELLMARGIN_BEGIN
 40
0.06
 40
0.06
 40
0.06
 40
0.06
 40
0.06
 40
0.06
309
CELLMARGIN_END
 94
        6
 95
        1
302
GRIDFORMAT
  1
GRIDFORMAT_BEGIN
 90
        0
 91
        1
 62
     0
 92
       -2
340
14
 93
        0
 40
0.045
309
GRIDFORMAT_END
 95
        2
302
GRIDFORMAT
  1
GRIDFORMAT_BEGIN
 90
        0
 91
        1
 62
     0
 92
       -2
340
14
 93
        0
 40
0.045
309
GRIDFORMAT_END
 95
        4
302
GRIDFORMAT
  1
GRIDFORMAT_BEGIN
 90
        0
 91
        1
 62
     0
 92
       -2
340
14
 93
        0
 40
0.045
309
GRIDFORMAT_END
 95
        8
302
GRIDFORMAT
  1
GRIDFORMAT_BEGIN
 90
        0
 91
        1
 62
     0
 92
       -2
340
14
 93
        0
 40
0.045
309
GRIDFORMAT_END
 95
       16
302
GRIDFORMAT
  1
GRIDFORMAT_BEGIN
 90
        0
 91
        1
 62
     0
 92
       -2
340
14
 93
        0
 40
0.045
309
GRIDFORMAT_END
 95
       32
302
GRIDFORMAT
  1
GRIDFORMAT_BEGIN
 90
        0
 91
        1
 62
     0
 92
       -2
340
14
 93
        0
 40
0.045
309
GRIDFORMAT_END
309
TABLEFORMAT_END
  1
CELLSTYLE_BEGIN
 90
        2
 91
        1
300
_HEADER
309
CELLSTYLE_END
300
CELLSTYLE
  1
TABLEFORMAT_BEGIN
 90
        5
170
     1
 91
        0
 92
        0
 62
   257
 93
        1
300
CONTENTFORMAT
  1
CONTENTFORMAT_BEGIN
 90
        0
 91
        0
 92
        4
 93
        0
300

 40
0.0
140
1.0
 94
        2
 62
     0
340
11
144
0.18
309
CONTENTFORMAT_END
171
     1
301
MARGIN
  1
CELLMARGIN_BEGIN
 40
0.06
 40
0.06
 40
0.06
 40
0.06
 40
0.06
 40
0.06
309
CELLMARGIN_END
 94
        6
 95
        1
302
GRIDFORMAT
  1
GRIDFORMAT_BEGIN
 90
        0
 91
        1
 62
     0
 92
       -2
340
14
 93
        0
 40
0.045
309
GRIDFORMAT_END
 95
        2
302
GRIDFORMAT
  1
GRIDFORMAT_BEGIN
 90
        0
 91
        1
 62
     0
 92
       -2
340
14
 93
        0
 40
0.045
309
GRIDFORMAT_END
 95
        4
302
GRIDFORMAT
  1
GRIDFORMAT_BEGIN
 90
        0
 91
        1
 62
     0
 92
       -2
340
14
 93
        0
 40
0.045
309
GRIDFORMAT_END
 95
        8
302
GRIDFORMAT
  1
GRIDFORMAT_BEGIN
 90
        0
 91
        1
 62
     0
 92
       -2
340
14
 93
        0
 40
0.045
309
GRIDFORMAT_END
 95
       16
302
GRIDFORMAT
  1
GRIDFORMAT_BEGIN
 90
        0
 91
        1
 62
     0
 92
       -2
340
14
 93
        0
 40
0.045
309
GRIDFORMAT_END
 95
       32
302
GRIDFORMAT
  1
GRIDFORMAT_BEGIN
 90
        0
 91
        1
 62
     0
 92
       -2
340
14
 93
        0
 40
0.045
309
GRIDFORMAT_END
309
TABLEFORMAT_END
  1
CELLSTYLE_BEGIN
 90
        3
 91
        2
300
_DATA
309
CELLSTYLE_END
  0
ENDSEC
  0
EOF