0
SECTION
  2
HEADER
  9
$ACADVER
  1
AC1027
  9
$ACADMAINTVER
 70
     8
  9
$DWGCODEPAGE
  3
ANSI_1252
  9
$REQUIREDVERSIONS
160
                 0
  9
$COMMENTS
  1
File was created by Cadenas
  9
$CUSTOMPROPERTYTAG
  1
NN
  9
$CUSTOMPROPERTY
  1
Imperial - IP Wide Slot Take-Up
  9
$CUSTOMPROPERTYTAG
  1
NT
  9
$CUSTOMPROPERTY
  1
Imperial Wide Slot Take-Up Bearings
  9
$CUSTOMPROPERTYTAG
  1
NB
  9
$CUSTOMPROPERTY
  1
069395
  9
$CUSTOMPROPERTYTAG
  1
NBSYN
  9
$CUSTOMPROPERTY
  1
$PN.
  9
$CUSTOMPROPERTYTAG
  1
LINA
  9
$CUSTOMPROPERTY
  1
069395
  9
$CUSTOMPROPERTYTAG
  1
SS
  9
$CUSTOMPROPERTY
  1
4
  9
$CUSTOMPROPERTYTAG
  1
PN
  9
$CUSTOMPROPERTY
  1
069395
  9
$CUSTOMPROPERTYTAG
  1
DESCRIPTION
  9
$CUSTOMPROPERTY
  1
WSTU-IP-400RE
  9
$CUSTOMPROPERTYTAG
  1
EF
  9
$CUSTOMPROPERTY
  1
Expansion
  9
$CUSTOMPROPERTYTAG
  1
ST
  9
$CUSTOMPROPERTY
  1
Contact Seal
  9
$CUSTOMPROPERTYTAG
  1
A
  9
$CUSTOMPROPERTY
  1
4-45/64
  9
$CUSTOMPROPERTYTAG
  1
B
  9
$CUSTOMPROPERTY
  1
12-9/16
  9
$CUSTOMPROPERTYTAG
  1
C
  9
$CUSTOMPROPERTY
  1
2-1/16
  9
$CUSTOMPROPERTYTAG
  1
D
  9
$CUSTOMPROPERTY
  1
7
  9
$CUSTOMPROPERTYTAG
  1
E
  9
$CUSTOMPROPERTY
  1
8-3/8
  9
$CUSTOMPROPERTYTAG
  1
F
  9
$CUSTOMPROPERTY
  1
2-1/8
  9
$CUSTOMPROPERTYTAG
  1
G
  9
$CUSTOMPROPERTY
  1
2-1/16
  9
$CUSTOMPROPERTYTAG
  1
H
  9
$CUSTOMPROPERTY
  1
2-1/8
  9
$CUSTOMPROPERTYTAG
  1
J
  9
$CUSTOMPROPERTY
  1
6
  9
$CUSTOMPROPERTYTAG
  1
K
  9
$CUSTOMPROPERTY
  1
3-3/8
  9
$CUSTOMPROPERTYTAG
  1
L
  9
$CUSTOMPROPERTY
  1
5-9/16
  9
$CUSTOMPROPERTYTAG
  1
M
  9
$CUSTOMPROPERTY
  1
8-5/8
  9
$CUSTOMPROPERTYTAG
  1
N
  9
$CUSTOMPROPERTY
  1
9-7/16
  9
$CUSTOMPROPERTYTAG
  1
R
  9
$CUSTOMPROPERTY
  1
4-51/64
  9
$CUSTOMPROPERTYTAG
  1
S
  9
$CUSTOMPROPERTY
  1
3-3/64
  9
$CUSTOMPROPERTYTAG
  1
T
  9
$CUSTOMPROPERTY
  1
3-7/16
  9
$CUSTOMPROPERTYTAG
  1
X
  9
$CUSTOMPROPERTY
  1
5/16
  9
$CUSTOMPROPERTYTAG
  1
Y
  9
$CUSTOMPROPERTY
  1
0.025
  9
$CUSTOMPROPERTYTAG
  1
Z
  9
$CUSTOMPROPERTY
  1
4-1/2
  9
$CUSTOMPROPERTYTAG
  1
COMPANY
  9
$CUSTOMPROPERTY
  1
baldor
  9
$INSBASE
 10
0.0
 20
0.0
 30
0.0
  9
$EXTMIN
 10
1.000000000000000E+20
 20
1.000000000000000E+20
 30
1.000000000000000E+20
  9
$EXTMAX
 10
-1.000000000000000E+20
 20
-1.000000000000000E+20
 30
-1.000000000000000E+20
  9
$LIMMIN
 10
0.0
 20
0.0
  9
$LIMMAX
 10
12.0
 20
9.0
  9
$ORTHOMODE
 70
     0
  9
$REGENMODE
 70
     1
  9
$FILLMODE
 70
     1
  9
$QTEXTMODE
 70
     0
  9
$MIRRTEXT
 70
     1
  9
$LTSCALE
 40
1.0
  9
$ATTMODE
 70
     1
  9
$TEXTSIZE
 40
0.2
  9
$TRACEWID
 40
0.05
  9
$TEXTSTYLE
  7
Standard
  9
$CLAYER
  8
0
  9
$CELTYPE
  6
ByLayer
  9
$CECOLOR
 62
   256
  9
$CELTSCALE
 40
1.0
  9
$DISPSILH
 70
     0
  9
$DIMSCALE
 40
1.0
  9
$DIMASZ
 40
0.18
  9
$DIMEXO
 40
0.0625
  9
$DIMDLI
 40
0.38
  9
$DIMRND
 40
0.0
  9
$DIMDLE
 40
0.0
  9
$DIMEXE
 40
0.18
  9
$DIMTP
 40
0.0
  9
$DIMTM
 40
0.0
  9
$DIMTXT
 40
0.18
  9
$DIMCEN
 40
0.09
  9
$DIMTSZ
 40
0.0
  9
$DIMTOL
 70
     0
  9
$DIMLIM
 70
     0
  9
$DIMTIH
 70
     1
  9
$DIMTOH
 70
     1
  9
$DIMSE1
 70
     0
  9
$DIMSE2
 70
     0
  9
$DIMTAD
 70
     0
  9
$DIMZIN
 70
     0
  9
$DIMBLK
  1

  9
$DIMASO
 70
     1
  9
$DIMSHO
 70
     1
  9
$DIMPOST
  1

  9
$DIMAPOST
  1

  9
$DIMALT
 70
     0
  9
$DIMALTD
 70
     2
  9
$DIMALTF
 40
25.4
  9
$DIMLFAC
 40
1.0
  9
$DIMTOFL
 70
     0
  9
$DIMTVP
 40
0.0
  9
$DIMTIX
 70
     0
  9
$DIMSOXD
 70
     0
  9
$DIMSAH
 70
     0
  9
$DIMBLK1
  1

  9
$DIMBLK2
  1

  9
$DIMSTYLE
  2
Standard
  9
$DIMCLRD
 70
     0
  9
$DIMCLRE
 70
     0
  9
$DIMCLRT
 70
     0
  9
$DIMTFAC
 40
1.0
  9
$DIMGAP
 40
0.09
  9
$DIMJUST
 70
     0
  9
$DIMSD1
 70
     0
  9
$DIMSD2
 70
     0
  9
$DIMTOLJ
 70
     1
  9
$DIMTZIN
 70
     0
  9
$DIMALTZ
 70
     0
  9
$DIMALTTZ
 70
     0
  9
$DIMUPT
 70
     0
  9
$DIMDEC
 70
     4
  9
$DIMTDEC
 70
     4
  9
$DIMALTU
 70
     2
  9
$DIMALTTD
 70
     2
  9
$DIMTXSTY
  7
Standard
  9
$DIMAUNIT
 70
     0
  9
$DIMADEC
 70
     0
  9
$DIMALTRND
 40
0.0
  9
$DIMAZIN
 70
     0
  9
$DIMDSEP
 70
    46
  9
$DIMATFIT
 70
     3
  9
$DIMFRAC
 70
     0
  9
$DIMLDRBLK
  1

  9
$DIMLUNIT
 70
     2
  9
$DIMLWD
 70
    -2
  9
$DIMLWE
 70
    -2
  9
$DIMTMOVE
 70
     0
  9
$DIMFXL
 40
1.0
  9
$DIMFXLON
 70
     0
  9
$DIMJOGANG
 40
0.7853981633974483
  9
$DIMTFILL
 70
     0
  9
$DIMTFILLCLR
 70
     0
  9
$DIMARCSYM
 70
     0
  9
$DIMLTYPE
  6

  9
$DIMLTEX1
  6

  9
$DIMLTEX2
  6

  9
$DIMTXTDIRECTION
 70
     0
  9
$LUNITS
 70
     2
  9
$LUPREC
 70
     4
  9
$SKETCHINC
 40
0.1
  9
$FILLETRAD
 40
0.5
  9
$AUNITS
 70
     0
  9
$AUPREC
 70
     0
  9
$MENU
  1
.
  9
$ELEVATION
 40
0.0
  9
$PELEVATION
 40
0.0
  9
$THICKNESS
 40
0.0
  9
$LIMCHECK
 70
     0
  9
$CHAMFERA
 40
0.0
  9
$CHAMFERB
 40
0.0
  9
$CHAMFERC
 40
0.0
  9
$CHAMFERD
 40
0.0
  9
$SKPOLY
 70
     0
  9
$TDCREATE
 40
2458168.987990035
  9
$TDUCREATE
 40
2458168.946323368
  9
$TDUPDATE
 40
2458168.98799022
  9
$TDUUPDATE
 40
2458168.946323553
  9
$TDINDWG
 40
0.0000000116
  9
$TDUSRTIMER
 40
0.0000000116
  9
$USRTIMER
 70
     1
  9
$ANGBASE
 50
0.0
  9
$ANGDIR
 70
     0
  9
$PDMODE
 70
     0
  9
$PDSIZE
 40
0.0
  9
$PLINEWID
 40
0.0
  9
$SPLFRAME
 70
     0
  9
$SPLINETYPE
 70
     6
  9
$SPLINESEGS
 70
     8
  9
$HANDSEED
  5
29E
  9
$SURFTAB1
 70
     6
  9
$SURFTAB2
 70
     6
  9
$SURFTYPE
 70
     6
  9
$SURFU
 70
     6
  9
$SURFV
 70
     6
  9
$UCSBASE
  2

  9
$UCSNAME
  2

  9
$UCSORG
 10
0.0
 20
0.0
 30
0.0
  9
$UCSXDIR
 10
1.0
 20
0.0
 30
0.0
  9
$UCSYDIR
 10
0.0
 20
1.0
 30
0.0
  9
$UCSORTHOREF
  2

  9
$UCSORTHOVIEW
 70
     0
  9
$UCSORGTOP
 10
0.0
 20
0.0
 30
0.0
  9
$UCSORGBOTTOM
 10
0.0
 20
0.0
 30
0.0
  9
$UCSORGLEFT
 10
0.0
 20
0.0
 30
0.0
  9
$UCSORGRIGHT
 10
0.0
 20
0.0
 30
0.0
  9
$UCSORGFRONT
 10
0.0
 20
0.0
 30
0.0
  9
$UCSORGBACK
 10
0.0
 20
0.0
 30
0.0
  9
$PUCSBASE
  2

  9
$PUCSNAME
  2

  9
$PUCSORG
 10
0.0
 20
0.0
 30
0.0
  9
$PUCSXDIR
 10
1.0
 20
0.0
 30
0.0
  9
$PUCSYDIR
 10
0.0
 20
1.0
 30
0.0
  9
$PUCSORTHOREF
  2

  9
$PUCSORTHOVIEW
 70
     0
  9
$PUCSORGTOP
 10
0.0
 20
0.0
 30
0.0
  9
$PUCSORGBOTTOM
 10
0.0
 20
0.0
 30
0.0
  9
$PUCSORGLEFT
 10
0.0
 20
0.0
 30
0.0
  9
$PUCSORGRIGHT
 10
0.0
 20
0.0
 30
0.0
  9
$PUCSORGFRONT
 10
0.0
 20
0.0
 30
0.0
  9
$PUCSORGBACK
 10
0.0
 20
0.0
 30
0.0
  9
$USERI1
 70
     0
  9
$USERI2
 70
     0
  9
$USERI3
 70
     0
  9
$USERI4
 70
     0
  9
$USERI5
 70
     0
  9
$USERR1
 40
0.0
  9
$USERR2
 40
0.0
  9
$USERR3
 40
0.0
  9
$USERR4
 40
0.0
  9
$USERR5
 40
0.0
  9
$WORLDVIEW
 70
     1
  9
$SHADEDGE
 70
     3
  9
$SHADEDIF
 70
    70
  9
$TILEMODE
 70
     1
  9
$MAXACTVP
 70
    64
  9
$PINSBASE
 10
0.0
 20
0.0
 30
0.0
  9
$PLIMCHECK
 70
     0
  9
$PEXTMIN
 10
1.000000000000000E+20
 20
1.000000000000000E+20
 30
1.000000000000000E+20
  9
$PEXTMAX
 10
-1.000000000000000E+20
 20
-1.000000000000000E+20
 30
-1.000000000000000E+20
  9
$PLIMMIN
 10
0.0
 20
0.0
  9
$PLIMMAX
 10
12.0
 20
9.0
  9
$UNITMODE
 70
     0
  9
$VISRETAIN
 70
     1
  9
$PLINEGEN
 70
     0
  9
$PSLTSCALE
 70
     1
  9
$TREEDEPTH
 70
  3020
  9
$CMLSTYLE
  2
Standard
  9
$CMLJUST
 70
     0
  9
$CMLSCALE
 40
1.0
  9
$PROXYGRAPHICS
 70
     1
  9
$MEASUREMENT
 70
     0
  9
$CELWEIGHT
370
    -1
  9
$ENDCAPS
280
     0
  9
$JOINSTYLE
280
     0
  9
$LWDISPLAY
290
     0
  9
$INSUNITS
 70
     1
  9
$HYPERLINKBASE
  1

  9
$STYLESHEET
  1

  9
$XEDIT
290
     1
  9
$CEPSNTYPE
380
     0
  9
$PSTYLEMODE
290
     1
  9
$FINGERPRINTGUID
  2
{3D77ED1F-1AF6-49E6-A83B-6D48FC0316FF}
  9
$VERSIONGUID
  2
{FAEB1C32-E019-11D5-929B-00C0DF256EC4}
  9
$EXTNAMES
290
     1
  9
$PSVPSCALE
 40
0.0
  9
$OLESTARTUP
290
     0
  9
$SORTENTS
280
   127
  9
$INDEXCTL
280
     0
  9
$HIDETEXT
280
     1
  9
$XCLIPFRAME
280
     2
  9
$HALOGAP
280
     0
  9
$OBSCOLOR
 70
   257
  9
$OBSLTYPE
280
     0
  9
$INTERSECTIONDISPLAY
280
     0
  9
$INTERSECTIONCOLOR
 70
   257
  9
$DIMASSOC
280
     2
  9
$PROJECTNAME
  1

  9
$CAMERADISPLAY
290
     0
  9
$LENSLENGTH
 40
50.0
  9
$CAMERAHEIGHT
 40
0.0
  9
$STEPSPERSEC
 40
2.0
  9
$STEPSIZE
 40
6.0
  9
$3DDWFPREC
 40
2.0
  9
$PSOLWIDTH
 40
0.25
  9
$PSOLHEIGHT
 40
4.0
  9
$LOFTANG1
 40
1.570796326794897
  9
$LOFTANG2
 40
1.570796326794897
  9
$LOFTMAG1
 40
0.0
  9
$LOFTMAG2
 40
0.0
  9
$LOFTPARAM
 70
     7
  9
$LOFTNORMALS
280
     1
  9
$LATITUDE
 40
37.795
  9
$LONGITUDE
 40
-122.394
  9
$NORTHDIRECTION
 40
0.0
  9
$TIMEZONE
 70
 -8000
  9
$LIGHTGLYPHDISPLAY
280
     1
  9
$TILEMODELIGHTSYNCH
280
     1
  9
$CMATERIAL
347
44
  9
$SOLIDHIST
280
     0
  9
$SHOWHIST
280
     1
  9
$DWFFRAME
280
     2
  9
$DGNFRAME
280
     2
  9
$REALWORLDSCALE
290
     1
  9
$INTERFERECOLOR
 62
   256
  9
$CSHADOW
280
     0
  9
$SHADOWPLANELOCATION
 40
0.0
  0
ENDSEC
  0
SECTION
  2
CLASSES
  0
CLASS
  1
ACDBDICTIONARYWDFLT
  2
AcDbDictionaryWithDefault
  3
ObjectDBX Classes
 90
        0
 91
        4
280
     0
281
     0
  0
CLASS
  1
VISUALSTYLE
  2
AcDbVisualStyle
  3
ObjectDBX Classes
 90
     4095
 91
        4
280
     0
281
     0
  0
CLASS
  1
MATERIAL
  2
AcDbMaterial
  3
ObjectDBX Classes
 90
     1153
 91
        4
280
     0
281
     0
  0
CLASS
  1
SCALE
  2
AcDbScale
  3
ObjectDBX Classes
 90
     1153
 91
        4
280
     0
281
     0
  0
CLASS
  1
TABLESTYLE
  2
AcDbTableStyle
  3
ObjectDBX Classes
 90
     4095
 91
        4
280
     0
281
     0
  0
CLASS
  1
MLEADERSTYLE
  2
AcDbMLeaderStyle
  3
ACDB_MLEADERSTYLE_CLASS
 90
     4095
 91
        4
280
     0
281
     0
  0
CLASS
  1
SUN
  2
AcDbSun
  3
SCENEOE
 90
     1153
 91
        4
280
     0
281
     0
  0
CLASS
  1
DICTIONARYVAR
  2
AcDbDictionaryVar
  3
ObjectDBX Classes
 90
        0
 91
        4
280
     0
281
     0
  0
CLASS
  1
CELLSTYLEMAP
  2
AcDbCellStyleMap
  3
ObjectDBX Classes
 90
     1152
 91
        4
280
     0
281
     0
  0
ENDSEC
  0
SECTION
  2
TABLES
  0
TABLE
  2
VPORT
  5
8
330
0
100
AcDbSymbolTable
 70
     1
  0
VPORT
  5
29
330
8
100
AcDbSymbolTableRecord
100
AcDbViewportTableRecord
  2
*Active
 70
     0
 10
0.0
 20
0.0
 11
1.0
 21
1.0
 12
-0.4083593749999999
 22
0.0
 13
0.0
 23
0.0
 14
0.5
 24
0.5
 15
0.5
 25
0.5
 16
0.0
 26
0.0
 36
1.0
 17
0.0
 27
0.0
 37
0.0
 40
9.62625
 41
0.5591556291390728
 42
50.0
 43
0.0
 44
0.0
 50
0.0
 51
0.0
 71
     0
 72
   100
 73
     1
 74
     3
 75
     0
 76
     0
 77
     0
 78
     0
281
     0
 65
     1
110
0.0
120
0.0
130
0.0
111
1.0
121
0.0
131
0.0
112
0.0
122
1.0
132
0.0
 79
     0
146
0.0
348
2F
 60
     3
 61
     5
292
     1
282
     1
141
0.0
142
0.0
 63
   250
361
6D
  0
ENDTAB
  0
TABLE
  2
LTYPE
  5
5
330
0
100
AcDbSymbolTable
 70
     3
  0
LTYPE
  5
14
330
5
100
AcDbSymbolTableRecord
100
AcDbLinetypeTableRecord
  2
ByBlock
 70
     0
  3

 72
    65
 73
     0
 40
0.0
  0
LTYPE
  5
15
330
5
100
AcDbSymbolTableRecord
100
AcDbLinetypeTableRecord
  2
ByLayer
 70
     0
  3

 72
    65
 73
     0
 40
0.0
  0
LTYPE
  5
16
330
5
100
AcDbSymbolTableRecord
100
AcDbLinetypeTableRecord
  2
Continuous
 70
     0
  3
Solid line
 72
    65
 73
     0
 40
0.0
  0
LTYPE
  5
A2
330
5
100
AcDbSymbolTableRecord
100
AcDbLinetypeTableRecord
  2
Dashed
 70
     0
  3

 72
    65
 73
     2
 40
2.0
 49
1.0
 74
     0
 49
-1.0
 74
     0
  0
LTYPE
  5
1F5
330
5
100
AcDbSymbolTableRecord
100
AcDbLinetypeTableRecord
  2
Center
 70
     0
  3

 72
    65
 73
     4
 40
1.5
 49
0.45
 74
     0
 49
-0.5
 74
     0
 49
0.05
 74
     0
 49
-0.5
 74
     0
  0
ENDTAB
  0
TABLE
  2
LAYER
  5
2
330
0
100
AcDbSymbolTable
 70
     7
  0
LAYER
  5
10
330
2
100
AcDbSymbolTableRecord
100
AcDbLayerTableRecord
  2
0
 70
     0
 62
     7
  6
Continuous
370
    -3
390
F
347
46
348
0
  0
LAYER
  5
72
330
2
100
AcDbSymbolTableRecord
100
AcDbLayerTableRecord
  2
AM_6
 70
     0
 62
    -2
  6
Continuous
370
    35
390
F
347
46
348
0
  0
LAYER
  5
A3
330
2
100
AcDbSymbolTableRecord
100
AcDbLayerTableRecord
  2
AM_9
 70
     0
 62
     6
  6
Dashed
370
    25
390
F
347
46
348
0
  0
LAYER
  5
124
330
2
100
AcDbSymbolTableRecord
100
AcDbLayerTableRecord
  2
AM_5
 70
     0
 62
     3
  6
Continuous
370
    25
390
F
347
46
348
0
  0
LAYER
  5
128
330
2
100
AcDbSymbolTableRecord
100
AcDbLayerTableRecord
  2
AM_4
 70
     0
 62
     7
  6
Continuous
370
    50
390
F
347
46
348
0
  0
LAYER
  5
1F6
330
2
100
AcDbSymbolTableRecord
100
AcDbLayerTableRecord
  2
AM_7
 70
     0
 62
     7
  6
Center
370
    25
390
F
347
46
348
0
  0
LAYER
  5
287
330
2
100
AcDbSymbolTableRecord
100
AcDbLayerTableRecord
  2
ConnectionPoints
 70
     0
 62
     7
  6
Continuous
370
    50
390
F
347
46
348
0
  0
ENDTAB
  0
TABLE
  2
STYLE
  5
3
330
0
100
AcDbSymbolTable
 70
     1
  0
STYLE
  5
11
330
3
100
AcDbSymbolTableRecord
100
AcDbTextStyleTableRecord
  2
Standard
 70
     0
 40
0.0
 41
1.0
 50
0.0
 71
     0
 42
0.2
  3
txt
  4

  0
ENDTAB
  0
TABLE
  2
VIEW
  5
6
330
0
100
AcDbSymbolTable
 70
     0
  0
ENDTAB
  0
TABLE
  2
UCS
  5
7
330
0
100
AcDbSymbolTable
 70
     0
  0
ENDTAB
  0
TABLE
  2
APPID
  5
9
330
0
100
AcDbSymbolTable
 70
     1
  0
APPID
  5
12
330
9
100
AcDbSymbolTableRecord
100
AcDbRegAppTableRecord
  2
ACAD
 70
     0
  0
ENDTAB
  0
TABLE
  2
DIMSTYLE
  5
A
330
0
100
AcDbSymbolTable
 70
     1
100
AcDbDimStyleTable
  0
DIMSTYLE
105
27
330
A
100
AcDbSymbolTableRecord
100
AcDbDimStyleTableRecord
  2
Standard
 70
     0
178
     0
340
11
  0
ENDTAB
  0
TABLE
  2
BLOCK_RECORD
  5
1
330
0
100
AcDbSymbolTable
 70
     8
  0
BLOCK_RECORD
  5
1F
330
1
100
AcDbSymbolTableRecord
100
AcDbBlockTableRecord
  2
*Model_Space
340
22
 70
     0
280
     1
281
     0
  0
BLOCK_RECORD
  5
1B
330
1
100
AcDbSymbolTableRecord
100
AcDbBlockTableRecord
  2
*Paper_Space
340
1E
 70
     0
280
     1
281
     0
  0
BLOCK_RECORD
  5
23
330
1
100
AcDbSymbolTableRecord
100
AcDbBlockTableRecord
  2
*Paper_Space0
340
26
 70
     0
280
     1
281
     0
  0
BLOCK_RECORD
  5
6E
330
1
100
AcDbSymbolTableRecord
100
AcDbBlockTableRecord
  2
1_069395_2
340
0
102
{BLKREFS
331
6F
102
}
 70
     0
280
     1
281
     0
  0
BLOCK_RECORD
  5
91
330
1
100
AcDbSymbolTableRecord
100
AcDbBlockTableRecord
  2
2_405016_Inch_0_in_069395_2
340
0
102
{BLKREFS
331
92
102
}
 70
     0
280
     1
281
     0
  0
BLOCK_RECORD
  5
109
330
1
100
AcDbSymbolTableRecord
100
AcDbBlockTableRecord
  2
3_ASME_B18_3_1_4_1_0_in_069395_2
340
0
102
{BLKREFS
331
10A
102
}
 70
     0
280
     1
281
     0
  0
BLOCK_RECORD
  5
12F
330
1
100
AcDbSymbolTableRecord
100
AcDbBlockTableRecord
  2
4_ASME_B18_3_1_4_2_0_in_069395_2
340
0
102
{BLKREFS
331
130
102
}
 70
     0
280
     1
281
     0
  0
BLOCK_RECORD
  5
153
330
1
100
AcDbSymbolTableRecord
100
AcDbBlockTableRecord
  2
5_070907LW_0_in_069395_2
340
0
102
{BLKREFS
331
154
102
}
 70
     0
280
     1
281
     0
  0
BLOCK_RECORD
  5
188
330
1
100
AcDbSymbolTableRecord
100
AcDbBlockTableRecord
  2
6_070907I_0_in_069395_2
340
0
102
{BLKREFS
331
189
102
}
 70
     0
280
     1
281
     0
  0
BLOCK_RECORD
  5
218
330
1
100
AcDbSymbolTableRecord
100
AcDbBlockTableRecord
  2
7_069395H_0_in_069395_2
340
0
102
{BLKREFS
331
219
102
}
 70
     0
280
     1
281
     0
  0
ENDTAB
  0
ENDSEC
  0
SECTION
  2
BLOCKS
  0
BLOCK
  5
20
330
1F
100
AcDbEntity
  8
0
100
AcDbBlockBegin
  2
*Model_Space
 70
     0
 10
0.0
 20
0.0
 30
0.0
  3
*Model_Space
  1

  0
ENDBLK
  5
21
330
1F
100
AcDbEntity
  8
0
100
AcDbBlockEnd
  0
BLOCK
  5
1C
330
1B
100
AcDbEntity
 67
     1
  8
0
100
AcDbBlockBegin
  2
*Paper_Space
 70
     0
 10
0.0
 20
0.0
 30
0.0
  3
*Paper_Space
  1

  0
ENDBLK
  5
1D
330
1B
100
AcDbEntity
 67
     1
  8
0
100
AcDbBlockEnd
  0
BLOCK
  5
24
330
23
100
AcDbEntity
  8
0
100
AcDbBlockBegin
  2
*Paper_Space0
 70
     0
 10
0.0
 20
0.0
 30
0.0
  3
*Paper_Space0
  1

  0
ENDBLK
  5
25
330
23
100
AcDbEntity
  8
0
100
AcDbBlockEnd
  0
BLOCK
  5
70
330
6E
100
AcDbEntity
  8
0
100
AcDbBlockBegin
  2
1_069395_2
 70
     2
 10
0.0
 20
0.0
 30
0.0
  3
1_069395_2
  1

  0
ATTDEF
  5
73
330
6E
100
AcDbEntity
  8
AM_6
100
AcDbText
 10
7.23015625
 20
4.71875
 30
0.0
 40
0.5
  1
Imperial - IP Wide Slot Take-Up
100
AcDbAttributeDefinition
  3

  2
NN
 70
     8
280
     0
  0
ATTDEF
  5
74
330
6E
100
AcDbEntity
  8
AM_6
100
AcDbText
 10
7.23015625
 20
4.21875
 30
0.0
 40
0.5
  1
Imperial Wide Slot Take-Up Bearings
100
AcDbAttributeDefinition
  3

  2
NT
 70
     8
280
     0
  0
ATTDEF
  5
75
330
6E
100
AcDbEntity
  8
AM_6
100
AcDbText
 10
7.23015625
 20
3.71875
 30
0.0
 40
0.5
  1
069395
100
AcDbAttributeDefinition
  3

  2
NB
 70
     8
280
     0
  0
ATTDEF
  5
76
330
6E
100
AcDbEntity
  8
AM_6
100
AcDbText
 10
7.23015625
 20
3.21875
 30
0.0
 40
0.5
  1
$PN.
100
AcDbAttributeDefinition
  3

  2
NBSYN
 70
     8
280
     0
  0
ATTDEF
  5
77
330
6E
100
AcDbEntity
  8
AM_6
100
AcDbText
 10
7.23015625
 20
2.71875
 30
0.0
 40
0.5
  1
069395
100
AcDbAttributeDefinition
  3

  2
LINA
 70
     8
280
     0
  0
ATTDEF
  5
78
330
6E
100
AcDbEntity
  8
AM_6
100
AcDbText
 10
7.23015625
 20
2.21875
 30
0.0
 40
0.5
  1
4
100
AcDbAttributeDefinition
  3

  2
SS
 70
     8
280
     0
  0
ATTDEF
  5
79
330
6E
100
AcDbEntity
  8
AM_6
100
AcDbText
 10
7.23015625
 20
1.71875
 30
0.0
 40
0.5
  1
069395
100
AcDbAttributeDefinition
  3

  2
PN
 70
     8
280
     0
  0
ATTDEF
  5
7A
330
6E
100
AcDbEntity
  8
AM_6
100
AcDbText
 10
7.23015625
 20
1.21875
 30
0.0
 40
0.5
  1
WSTU-IP-400RE
100
AcDbAttributeDefinition
  3

  2
DESCRIPTION
 70
     8
280
     0
  0
ATTDEF
  5
7B
330
6E
100
AcDbEntity
  8
AM_6
100
AcDbText
 10
7.23015625
 20
0.71875
 30
0.0
 40
0.5
  1
Expansion
100
AcDbAttributeDefinition
  3

  2
EF
 70
     8
280
     0
  0
ATTDEF
  5
7C
330
6E
100
AcDbEntity
  8
AM_6
100
AcDbText
 10
7.23015625
 20
0.21875
 30
0.0
 40
0.5
  1
Contact Seal
100
AcDbAttributeDefinition
  3

  2
ST
 70
     8
280
     0
  0
ATTDEF
  5
7D
330
6E
100
AcDbEntity
  8
AM_6
100
AcDbText
 10
7.23015625
 20
-0.28125
 30
0.0
 40
0.5
  1
4-45/64
100
AcDbAttributeDefinition
  3

  2
A
 70
     8
280
     0
  0
ATTDEF
  5
7E
330
6E
100
AcDbEntity
  8
AM_6
100
AcDbText
 10
7.23015625
 20
-0.78125
 30
0.0
 40
0.5
  1
12-9/16
100
AcDbAttributeDefinition
  3

  2
B
 70
     8
280
     0
  0
ATTDEF
  5
7F
330
6E
100
AcDbEntity
  8
AM_6
100
AcDbText
 10
7.23015625
 20
-1.28125
 30
0.0
 40
0.5
  1
2-1/16
100
AcDbAttributeDefinition
  3

  2
C
 70
     8
280
     0
  0
ATTDEF
  5
80
330
6E
100
AcDbEntity
  8
AM_6
100
AcDbText
 10
7.23015625
 20
-1.78125
 30
0.0
 40
0.5
  1
7
100
AcDbAttributeDefinition
  3

  2
D
 70
     8
280
     0
  0
ATTDEF
  5
81
330
6E
100
AcDbEntity
  8
AM_6
100
AcDbText
 10
7.23015625
 20
-2.28125
 30
0.0
 40
0.5
  1
8-3/8
100
AcDbAttributeDefinition
  3

  2
E
 70
     8
280
     0
  0
ATTDEF
  5
82
330
6E
100
AcDbEntity
  8
AM_6
100
AcDbText
 10
7.23015625
 20
-2.78125
 30
0.0
 40
0.5
  1
2-1/8
100
AcDbAttributeDefinition
  3

  2
F
 70
     8
280
     0
  0
ATTDEF
  5
83
330
6E
100
AcDbEntity
  8
AM_6
100
AcDbText
 10
7.23015625
 20
-3.28125
 30
0.0
 40
0.5
  1
2-1/16
100
AcDbAttributeDefinition
  3

  2
G
 70
     8
280
     0
  0
ATTDEF
  5
84
330
6E
100
AcDbEntity
  8
AM_6
100
AcDbText
 10
7.23015625
 20
-3.78125
 30
0.0
 40
0.5
  1
2-1/8
100
AcDbAttributeDefinition
  3

  2
H
 70
     8
280
     0
  0
ATTDEF
  5
85
330
6E
100
AcDbEntity
  8
AM_6
100
AcDbText
 10
7.23015625
 20
-4.28125
 30
0.0
 40
0.5
  1
6
100
AcDbAttributeDefinition
  3

  2
J
 70
     8
280
     0
  0
ATTDEF
  5
86
330
6E
100
AcDbEntity
  8
AM_6
100
AcDbText
 10
7.23015625
 20
-4.78125
 30
0.0
 40
0.5
  1
3-3/8
100
AcDbAttributeDefinition
  3

  2
K
 70
     8
280
     0
  0
ATTDEF
  5
87
330
6E
100
AcDbEntity
  8
AM_6
100
AcDbText
 10
7.23015625
 20
-5.28125
 30
0.0
 40
0.5
  1
5-9/16
100
AcDbAttributeDefinition
  3

  2
L
 70
     8
280
     0
  0
ATTDEF
  5
88
330
6E
100
AcDbEntity
  8
AM_6
100
AcDbText
 10
7.23015625
 20
-5.78125
 30
0.0
 40
0.5
  1
8-5/8
100
AcDbAttributeDefinition
  3

  2
M
 70
     8
280
     0
  0
ATTDEF
  5
89
330
6E
100
AcDbEntity
  8
AM_6
100
AcDbText
 10
7.23015625
 20
-6.28125
 30
0.0
 40
0.5
  1
9-7/16
100
AcDbAttributeDefinition
  3

  2
N
 70
     8
280
     0
  0
ATTDEF
  5
8A
330
6E
100
AcDbEntity
  8
AM_6
100
AcDbText
 10
7.23015625
 20
-6.78125
 30
0.0
 40
0.5
  1
4-51/64
100
AcDbAttributeDefinition
  3

  2
R
 70
     8
280
     0
  0
ATTDEF
  5
8B
330
6E
100
AcDbEntity
  8
AM_6
100
AcDbText
 10
7.23015625
 20
-7.28125
 30
0.0
 40
0.5
  1
3-3/64
100
AcDbAttributeDefinition
  3

  2
S
 70
     8
280
     0
  0
ATTDEF
  5
8C
330
6E
100
AcDbEntity
  8
AM_6
100
AcDbText
 10
7.23015625
 20
-7.78125
 30
0.0
 40
0.5
  1
3-7/16
100
AcDbAttributeDefinition
  3

  2
T
 70
     8
280
     0
  0
ATTDEF
  5
8D
330
6E
100
AcDbEntity
  8
AM_6
100
AcDbText
 10
7.23015625
 20
-8.28125
 30
0.0
 40
0.5
  1
5/16
100
AcDbAttributeDefinition
  3

  2
X
 70
     8
280
     0
  0
ATTDEF
  5
8E
330
6E
100
AcDbEntity
  8
AM_6
100
AcDbText
 10
7.23015625
 20
-8.78125
 30
0.0
 40
0.5
  1
0.025
100
AcDbAttributeDefinition
  3

  2
Y
 70
     8
280
     0
  0
ATTDEF
  5
8F
330
6E
100
AcDbEntity
  8
AM_6
100
AcDbText
 10
7.23015625
 20
-9.28125
 30
0.0
 40
0.5
  1
4-1/2
100
AcDbAttributeDefinition
  3

  2
Z
 70
     8
280
     0
  0
ATTDEF
  5
90
330
6E
100
AcDbEntity
  8
AM_6
100
AcDbText
 10
7.23015625
 20
-9.78125
 30
0.0
 40
0.5
  1
baldor
100
AcDbAttributeDefinition
  3

  2
COMPANY
 70
     8
280
     0
  0
INSERT
  5
92
330
6E
100
AcDbEntity
  8
0
100
AcDbBlockReference
  2
2_405016_Inch_0_in_069395_2
 10
0.0
 20
0.0
 30
0.0
  0
INSERT
  5
10A
330
6E
100
AcDbEntity
  8
0
100
AcDbBlockReference
  2
3_ASME_B18_3_1_4_1_0_in_069395_2
 10
0.0
 20
0.0
 30
0.0
  0
INSERT
  5
130
330
6E
100
AcDbEntity
  8
0
100
AcDbBlockReference
  2
4_ASME_B18_3_1_4_2_0_in_069395_2
 10
0.0
 20
0.0
 30
0.0
  0
INSERT
  5
154
330
6E
100
AcDbEntity
  8
0
100
AcDbBlockReference
  2
5_070907LW_0_in_069395_2
 10
0.0
 20
0.0
 30
0.0
  0
INSERT
  5
189
330
6E
100
AcDbEntity
  8
0
100
AcDbBlockReference
  2
6_070907I_0_in_069395_2
 10
0.0
 20
0.0
 30
0.0
  0
INSERT
  5
219
330
6E
100
AcDbEntity
  8
0
100
AcDbBlockReference
  2
7_069395H_0_in_069395_2
 10
0.0
 20
0.0
 30
0.0
  0
ENDBLK
  5
71
330
6E
100
AcDbEntity
  8
0
100
AcDbBlockEnd
  0
BLOCK
  5
93
330
91
100
AcDbEntity
  8
0
100
AcDbBlockBegin
  2
2_405016_Inch_0_in_069395_2
 70
     2
 10
0.0
 20
0.0
 30
0.0
  3
2_405016_Inch_0_in_069395_2
  1

  0
ATTDEF
  5
95
330
91
100
AcDbEntity
  8
AM_6
100
AcDbText
 10
5.21875
 20
-1.361162900652375
 30
0.0
 40
0.5
  1
405016 -Inch
100
AcDbAttributeDefinition
  3

  2
NN
 70
     8
280
     0
  0
ATTDEF
  5
96
330
91
100
AcDbEntity
  8
AM_6
100
AcDbText
 10
5.21875
 20
-1.861162900652375
 30
0.0
 40
0.5
  1
Grease Fitting
100
AcDbAttributeDefinition
  3

  2
NT
 70
     8
280
     0
  0
ATTDEF
  5
97
330
91
100
AcDbEntity
  8
AM_6
100
AcDbText
 10
5.21875
 20
-2.361162900652375
 30
0.0
 40
0.5
  1
405016-Inch
100
AcDbAttributeDefinition
  3

  2
NB
 70
     8
280
     0
  0
ATTDEF
  5
98
330
91
100
AcDbEntity
  8
AM_6
100
AcDbText
 10
5.21875
 20
-2.861162900652375
 30
0.0
 40
0.5
  1
$MN.-Inch
100
AcDbAttributeDefinition
  3

  2
NBSYN
 70
     8
280
     0
  0
ATTDEF
  5
99
330
91
100
AcDbEntity
  8
AM_6
100
AcDbText
 10
5.21875
 20
-3.361162900652375
 30
0.0
 40
0.5
  1
405016
100
AcDbAttributeDefinition
  3

  2
LINA
 70
     8
280
     0
  0
ATTDEF
  5
9A
330
91
100
AcDbEntity
  8
AM_6
100
AcDbText
 10
5.21875
 20
-3.861162900652375
 30
0.0
 40
0.5
  1
405016
100
AcDbAttributeDefinition
  3

  2
MN
 70
     8
280
     0
  0
ATTDEF
  5
9B
330
91
100
AcDbEntity
  8
AM_6
100
AcDbText
 10
5.21875
 20
-4.361162900652374
 30
0.0
 40
0.5
  1
7/16 HEX
100
AcDbAttributeDefinition
  3

  2
H
 70
     8
280
     0
  0
ATTDEF
  5
9C
330
91
100
AcDbEntity
  8
AM_6
100
AcDbText
 10
5.21875
 20
-4.861162900652374
 30
0.0
 40
0.5
  1
0.383
100
AcDbAttributeDefinition
  3

  2
NDR
 70
     8
280
     0
  0
ATTDEF
  5
9D
330
91
100
AcDbEntity
  8
AM_6
100
AcDbText
 10
5.21875
 20
-5.361162900652374
 30
0.0
 40
0.5
  1
0.337
100
AcDbAttributeDefinition
  3

  2
KDR
 70
     8
280
     0
  0
ATTDEF
  5
9E
330
91
100
AcDbEntity
  8
AM_6
100
AcDbText
 10
5.21875
 20
-5.861162900652374
 30
0.0
 40
0.5
  1
0.1575
100
AcDbAttributeDefinition
  3

  2
BZE
 70
     8
280
     0
  0
ATTDEF
  5
9F
330
91
100
AcDbEntity
  8
AM_6
100
AcDbText
 10
5.21875
 20
-6.361162900652374
 30
0.0
 40
0.5
  1
0.4375
100
AcDbAttributeDefinition
  3

  2
HEX
 70
     8
280
     0
  0
ATTDEF
  5
A0
330
91
100
AcDbEntity
  8
AM_6
100
AcDbText
 10
5.21875
 20
-6.861162900652374
 30
0.0
 40
0.5
  1
0.281250
100
AcDbAttributeDefinition
  3

  2
HEX2
 70
     8
280
     0
  0
ATTDEF
  5
A1
330
91
100
AcDbEntity
  8
AM_6
100
AcDbText
 10
5.21875
 20
-7.361162900652374
 30
0.0
 40
0.5
  1
baldor
100
AcDbAttributeDefinition
  3

  2
COMPANY
 70
     8
280
     0
  0
LWPOLYLINE
  5
A4
330
91
100
AcDbEntity
  8
AM_9
100
AcDbPolyline
 90
        5
 70
     0
 43
0.0
 10
-0.1791093260592889
 20
-1.888505952583745
 10
-0.1842540823997056
 20
-1.85271642929838
 10
-0.1862220679364953
 20
-1.815784912173752
 10
-0.1844124966919383
 20
-1.777179111706395
 10
-0.1791093260592889
 20
-1.737950057827442
  0
LINE
  5
A5
330
91
100
AcDbEntity
  8
AM_9
100
AcDbLine
 10
-0.1510741298357572
 20
-1.88360871058718
 30
0.0
 11
-0.1791093260592889
 21
-1.888505952583745
 31
0.0
  0
LINE
  5
A6
330
91
100
AcDbEntity
  8
AM_9
100
AcDbLine
 10
-0.1510741298357572
 20
-1.733052815830877
 30
0.0
 11
-0.1791093260592889
 21
-1.737950057827442
 31
0.0
  0
LWPOLYLINE
  5
A7
330
91
100
AcDbEntity
  8
AM_9
100
AcDbPolyline
 90
        4
 70
     0
 43
0.0
 10
-0.2123043791457619
 20
-1.685386367492127
 10
-0.2156330920108727
 20
-1.678814953841045
 10
-0.2290462109660023
 20
-1.647225062443048
 10
-0.2389369657326278
 20
-1.614998014625867
  0
LWPOLYLINE
  5
A8
330
91
100
AcDbEntity
  8
AM_9
100
AcDbPolyline
 90
        3
 70
     0
 43
0.0
 10
-0.1791093260592889
 20
-1.737950057827442
 10
-0.1988355121406941
 20
-1.708901089930565
 10
-0.2123043791457619
 20
-1.685386367492127
  0
LWPOLYLINE
  5
A9
330
91
100
AcDbEntity
  8
AM_9
100
AcDbPolyline
 90
        5
 70
     0
 43
0.0
 10
-0.2389369657326278
 20
-1.916109804138472
 10
-0.2295338871417798
 20
-1.910287208713219
 10
-0.2166871171046322
 20
-1.903795964099541
 10
-0.199640205705468
 20
-1.896455359057871
 10
-0.1791093260592889
 20
-1.888505952583745
  0
LWPOLYLINE
  5
AA
330
91
100
AcDbEntity
  8
AM_9
100
AcDbPolyline
 90
        3
 70
     0
 43
0.0
 10
-0.2813919000363602
 20
-1.632595789188319
 10
-0.2911775952746245
 20
-1.637795428726973
 10
-0.298767568988972
 20
-1.642602383864973
  0
LWPOLYLINE
  5
AB
330
91
100
AcDbEntity
  8
AM_9
100
AcDbPolyline
 90
        3
 70
     0
 43
0.0
 10
-0.2389369657326278
 20
-1.614998014625867
 10
-0.2560939713202355
 20
-1.621583917155624
 10
-0.2711532636537958
 20
-1.627852182081654
  0
LINE
  5
AC
330
91
100
AcDbEntity
  8
AM_9
100
AcDbLine
 10
-0.2099962668917055
 20
-1.609942597690538
 30
0.0
 11
-0.2389369657326278
 21
-1.614998014625867
 31
0.0
  0
LINE
  5
AD
330
91
100
AcDbEntity
  8
AM_9
100
AcDbLine
 10
-0.4592308244157304
 20
-1.906415818859227
 30
0.0
 11
-0.3866303050106363
 21
-1.92921858138913
 31
0.0
  0
LINE
  5
AE
330
91
100
AcDbEntity
  8
AM_9
100
AcDbLine
 10
-0.4335647160356819
 20
-1.660533590194912
 30
0.0
 11
-0.4941352239355603
 21
-1.706598923902977
 31
0.0
  0
LWPOLYLINE
  5
AF
330
91
100
AcDbEntity
  8
AM_9
100
AcDbPolyline
 90
        7
 70
     0
 43
0.0
 10
-0.3686074471132302
 20
-1.668801480934108
 10
-0.3788295909533381
 20
-1.660426705780742
 10
-0.3901243165154969
 20
-1.654492897496976
 10
-0.4016390293705138
 20
-1.651620248052292
 10
-0.4132465639470525
 20
-1.651803908563013
 10
-0.4250205943549388
 20
-1.655362344747968
 10
-0.4345824734592609
 20
-1.661328877838874
  0
LWPOLYLINE
  5
B0
330
91
100
AcDbEntity
  8
AM_9
100
AcDbPolyline
 90
        8
 70
     0
 43
0.0
 10
-0.3870985760658894
 20
-1.92906892621248
 10
-0.3825555815047995
 20
-1.930305043551829
 10
-0.3709416731438224
 20
-1.931316429018935
 10
-0.3585737151077437
 20
-1.92890253671828
 10
-0.3479464600233202
 20
-1.923452660761341
 10
-0.3390749085377134
 20
-1.915637770764369
 10
-0.3315560351918645
 20
-1.905409719527803
 10
-0.3280705859100636
 20
-1.898895805604348
  0
LWPOLYLINE
  5
B1
330
91
100
AcDbEntity
  8
AM_9
100
AcDbPolyline
 90
        6
 70
     0
 43
0.0
 10
-0.1510741298357572
 20
-1.88360871058718
 10
-0.1564222384464445
 20
-1.887617714809624
 10
-0.1639940363880807
 20
-1.892070758871433
 10
-0.1744063212866124
 20
-1.897114298456128
 10
-0.187675956281386
 20
-1.902681831575895
 10
-0.2099962668917055
 20
-1.911054387203144
  0
LINE
  5
B2
330
91
100
AcDbEntity
  8
AM_9
100
AcDbLine
 10
-0.1420313275620761
 20
-1.800262840827618
 30
0.0
 11
-0.1419585098156052
 21
-1.806743733829972
 31
0.0
  0
LWPOLYLINE
  5
B3
330
91
100
AcDbEntity
  8
AM_9
100
AcDbPolyline
 90
        3
 70
     0
 43
0.0
 10
-0.1510741298357572
 20
-1.733052815830877
 10
-0.1458778226760522
 20
-1.759065703480832
 10
-0.1442511812939258
 20
-1.770397138687771
  0
LWPOLYLINE
  5
B4
330
91
100
AcDbEntity
  8
AM_9
100
AcDbPolyline
 90
        5
 70
     0
 43
0.0
 10
-0.2099962668917055
 20
-1.609942597690538
 10
-0.1943573015029061
 20
-1.63085957656693
 10
-0.1805491420332305
 20
-1.652516500757224
 10
-0.1688997677199811
 20
-1.675259443719335
 10
-0.1621906923040182
 20
-1.691892657707612
  0
LWPOLYLINE
  5
B5
330
91
100
AcDbEntity
  8
AM_9
100
AcDbPolyline
 90
        4
 70
     0
 43
0.0
 10
-0.2258378743019629
 20
-1.619936402714352
 10
-0.2189176876709016
 20
-1.616199788846325
 10
-0.2138633349839129
 20
-1.612959452185883
 10
-0.2099962668917055
 20
-1.609942597690538
  0
LINE
  5
B6
330
91
100
AcDbEntity
  8
AM_9
100
AcDbLine
 10
-0.1616639617440821
 20
-1.693354332689383
 30
0.0
 11
-0.1622160969803522
 21
-1.691822154957014
 31
0.0
  0
LWPOLYLINE
  5
B7
330
91
100
AcDbEntity
  8
AM_9
100
AcDbPolyline
 90
        5
 70
     0
 43
0.0
 10
-0.1419651073782004
 20
-1.808692060448733
 10
-0.1420496512545708
 20
-1.814013802888487
 10
-0.1441228263802216
 20
-1.842796237648654
 10
-0.1470795994472239
 20
-1.863176572146297
 10
-0.1510741298357572
 20
-1.88360871058718
  0
LINE
  5
B8
330
91
100
AcDbEntity
  8
AM_9
100
AcDbLine
 10
-0.1419585098156052
 20
-1.806743733829972
 30
0.0
 11
-0.1419651073782004
 21
-1.808692060448733
 31
0.0
  0
LWPOLYLINE
  5
B9
330
91
100
AcDbEntity
  8
AM_9
100
AcDbPolyline
 90
        3
 70
     0
 43
0.0
 10
-0.1564114726985165
 20
-1.710112681705942
 10
-0.1549033058439658
 20
-1.71580499832846
 10
-0.1510741298357572
 20
-1.733052815830877
  0
LWPOLYLINE
  5
BA
330
91
100
AcDbEntity
  8
AM_9
100
AcDbPolyline
 90
        3
 70
     0
 43
0.0
 10
-0.1621906923040182
 20
-1.691892657707612
 10
-0.1598729403210873
 20
-1.698635292669272
 10
-0.1564114726985165
 20
-1.710112681705942
  0
ELLIPSE
  5
BB
330
91
100
AcDbEntity
  8
AM_9
100
AcDbEllipse
 10
-0.2013892028241934
 20
-1.758418517193393
 30
0.0
 11
-0.02419822997670424
 21
0.1385273846248327
 31
0.0
210
0.0
220
0.0
230
1.0
 40
0.3918448289310767
 41
2.298273319621196
 42
6.287803854599693
  0
LWPOLYLINE
  5
BC
330
91
100
AcDbEntity
  8
AM_9
100
AcDbPolyline
 90
        3
 70
     0
 43
0.0
 10
-0.2689146070947224
 20
-1.637387611064929
 10
-0.2512755937295762
 20
-1.630857000714478
 10
-0.2360765106845276
 20
-1.624680009821017
  0
LWPOLYLINE
  5
BD
330
91
100
AcDbEntity
  8
AM_9
100
AcDbPolyline
 90
        4
 70
     0
 43
0.0
 10
-0.260230468443121
 20
-1.69283078134013
 10
-0.2616913382589205
 20
-1.677029580969531
 10
-0.2647402074337709
 20
-1.657041211809996
 10
-0.2689146070947224
 20
-1.637387611064929
  0
LINE
  5
BE
330
91
100
AcDbEntity
  8
AM_9
100
AcDbLine
 10
-0.2689146070947224
 20
-1.637387611064929
 30
0.0
 11
-0.298767568988972
 21
-1.642602383864973
 31
0.0
  0
LWPOLYLINE
  5
BF
330
91
100
AcDbEntity
  8
AM_9
100
AcDbPolyline
 90
        3
 70
     0
 43
0.0
 10
-0.298767568988972
 20
-1.642602383864973
 10
-0.3030606061861225
 20
-1.671662822409968
 10
-0.3055458577949633
 20
-1.700746560707437
  0
LWPOLYLINE
  5
C0
330
91
100
AcDbEntity
  8
AM_9
100
AcDbPolyline
 90
        3
 70
     0
 43
0.0
 10
-0.3055458577949633
 20
-1.737382190829509
 10
-0.3030753670497811
 20
-1.765478763519678
 10
-0.298767568988972
 20
-1.793158278621276
  0
LINE
  5
C1
330
91
100
AcDbEntity
  8
AM_9
100
AcDbLine
 10
-0.2711532636537958
 20
-1.627852182081654
 30
0.0
 11
-0.2813919000363602
 21
-1.632595789188319
 31
0.0
  0
ELLIPSE
  5
C2
330
91
100
AcDbEntity
  8
AM_9
100
AcDbEllipse
 10
-0.2467045921760211
 20
-1.766334296560693
 30
0.0
 11
-0.02419822997670312
 21
0.1385273846248274
 31
0.0
210
0.0
220
0.0
230
1.0
 40
0.391844828931056
 41
2.298273319621113
 42
4.567476857121052
  0
ELLIPSE
  5
C3
330
91
100
AcDbEntity
  8
AM_9
100
AcDbEllipse
 10
-0.2467045921760214
 20
-1.766334296560695
 30
0.0
 11
-0.02419822997670267
 21
0.1385273846248274
 31
0.0
210
0.0
220
0.0
230
1.0
 40
0.3918448289310577
 41
4.941135962600934
 42
6.287803854599789
  0
ELLIPSE
  5
C4
330
91
100
AcDbEntity
  8
AM_9
100
AcDbEllipse
 10
-0.2467045921760188
 20
-1.766334296560693
 30
0.0
 11
-0.0241982299767037
 21
0.1385273846248296
 31
0.0
210
0.0
220
0.0
230
1.0
 40
0.3918448289310609
 41
1.292402194102659
 42
2.099013649813397
  0
LWPOLYLINE
  5
C5
330
91
100
AcDbEntity
  8
AM_9
100
AcDbPolyline
 90
        3
 70
     0
 43
0.0
 10
-0.3055458577949633
 20
-1.700746560707437
 10
-0.3064767622622304
 20
-1.719130431104436
 10
-0.3055458577949633
 20
-1.737382190829509
  0
ELLIPSE
  5
C6
330
91
100
AcDbEntity
  8
AM_9
100
AcDbEllipse
 10
-0.246704592176032
 20
-1.76633429656069
 30
0.0
 11
-0.02419822997669583
 21
0.1385273846248176
 31
0.0
210
0.0
220
0.0
230
1.0
 40
0.3918448289310171
 41
0.203878217227861
 42
1.010489672938701
  0
LWPOLYLINE
  5
C7
330
91
100
AcDbEntity
  8
AM_9
100
AcDbPolyline
 90
       11
 70
     0
 43
0.0
 10
-0.3285177615505788
 20
-1.899811534752411
 10
-0.3281355596383762
 20
-1.899188351303785
 10
-0.3258845054732715
 20
-1.896265422691537
 10
-0.3203960116972744
 20
-1.891058609354997
 10
-0.3112236008295781
 20
-1.885191356289236
 10
-0.2986044984039162
 20
-1.880549473613316
 10
-0.2844485421117812
 20
-1.878856331388583
 10
-0.2718337874614642
 20
-1.880272917272891
 10
-0.2629599576391248
 20
-1.883206394922282
 10
-0.2580069737904911
 20
-1.88586422749959
 10
-0.2562428076002038
 20
-1.887147167657944
  0
LWPOLYLINE
  5
C8
330
91
100
AcDbEntity
  8
AM_9
100
AcDbPolyline
 90
        3
 70
     0
 43
0.0
 10
-0.2562052408762748
 20
-1.887179844561977
 10
-0.2569551485022936
 20
-1.886421372788575
 10
-0.2586401435540494
 20
-1.88446904328045
  0
LWPOLYLINE
  5
C9
330
91
100
AcDbEntity
  8
AM_9
100
AcDbPolyline
 90
        4
 70
     0
 43
0.0
 10
-0.2981639428779817
 20
-1.659768829186106
 10
-0.2977384917765847
 20
-1.658556821258467
 10
-0.2967069383888564
 20
-1.656055314696581
 10
-0.2966115558929841
 20
-1.65586618455542
  0
LWPOLYLINE
  5
CA
330
91
100
AcDbEntity
  8
AM_9
100
AcDbPolyline
 90
       11
 70
     0
 43
0.0
 10
-0.2969375676592972
 20
-1.656402773243904
 10
-0.299074487307726
 20
-1.659215748637333
 10
-0.3044058516205904
 20
-1.664354905112745
 10
-0.3134064412778975
 20
-1.670230431244823
 10
-0.3258954616443879
 20
-1.674971650202978
 10
-0.3400464043829863
 20
-1.676818620130405
 10
-0.3527984816248508
 20
-1.675516757595449
 10
-0.3618568538594425
 20
-1.672609066421404
 10
-0.3669735108129498
 20
-1.669909811634623
 10
-0.3688647073516008
 20
-1.668549141008385
 10
-0.3689240765672882
 20
-1.668497874745854
  0
ARC
  5
CB
330
91
100
AcDbEntity
  8
AM_9
100
AcDbCircle
 10
0.0000000000000002
 20
-1.727872912130894
 30
0.0
 40
0.1999999999999998
100
AcDbArc
 50
215.7742143583141
 51
0.0
  0
LWPOLYLINE
  5
CC
330
91
100
AcDbEntity
  8
AM_9
100
AcDbPolyline
 90
        6
 70
     0
 43
0.0
 10
-0.162165639976884
 20
-1.844929713021761
 10
-0.1606047421316797
 20
-1.847013484726404
 10
-0.1538031670974779
 20
-1.854228723074776
 10
-0.1472336073736395
 20
-1.858330756425002
 10
-0.1407130262602578
 20
-1.859429728683148
 10
-0.1395613906673451
 20
-1.859283962098276
  0
LWPOLYLINE
  5
CD
330
91
100
AcDbEntity
  8
AM_9
100
AcDbPolyline
 90
        4
 70
     0
 43
0.0
 10
-0.1093750000000002
 20
-1.497204024840579
 10
-0.0820312500000002
 20
-1.482339104892885
 10
-0.0546875000000002
 20
-1.467032691304225
 10
-0.0000000000000003
 20
-1.43525772758032
  0
LWPOLYLINE
  5
CE
330
91
100
AcDbEntity
  8
AM_9
100
AcDbPolyline
 90
        4
 70
     0
 43
0.0
 10
-0.0000000000000003
 20
-1.43525772758032
 10
0.0544416102741493
 20
-1.466893143368983
 10
0.0818700010907648
 20
-1.482250109146949
 10
0.1093749999999997
 20
-1.497204024840579
  0
LWPOLYLINE
  5
CF
330
91
100
AcDbEntity
  8
AM_9
100
AcDbPolyline
 90
        4
 70
     0
 43
0.0
 10
-0.179037373850178
 20
-1.810520412337169
 10
-0.1733931390117469
 20
-1.824774604081898
 10
-0.1670729780242513
 20
-1.837287960252479
 10
-0.162165639976884
 20
-1.844929713021761
  0
LINE
  5
D0
330
91
100
AcDbEntity
  8
AM_9
100
AcDbLine
 10
-0.1719571631012918
 20
-1.641611625114104
 30
0.0
 11
-0.2203175960504094
 21
-1.650059318553528
 31
0.0
  0
LINE
  5
D1
330
91
100
AcDbEntity
  8
AM_9
100
AcDbLine
 10
-0.1824608095979671
 20
-1.866777715833256
 30
0.0
 11
-0.1395503959082025
 21
-1.859282042240107
 31
0.0
  0
LWPOLYLINE
  5
D2
330
91
100
AcDbEntity
  8
AM_9
100
AcDbPolyline
 90
       20
 70
     0
 43
0.0
 10
-0.1395613906673451
 20
-1.859283962098276
 10
-0.1347930597680669
 20
-1.857432747385054
 10
-0.1293028157827819
 20
-1.852280356255121
 10
-0.1247141396218194
 20
-1.844418578588086
 10
-0.1208880884981783
 20
-1.83361165860646
 10
-0.1181545989145991
 20
-1.82079768663295
 10
-0.116427887539613
 20
-1.805584889002558
 10
-0.1158549073091556
 20
-1.78928318896175
 10
-0.1164156227038169
 20
-1.771397169805786
 10
-0.1180609686233503
 20
-1.753442507356898
 10
-0.1208367673933814
 20
-1.734890232595328
 10
-0.1245107513506025
 20
-1.717284490046957
 10
-0.1291842652280564
 20
-1.700130073045321
 10
-0.1344729790611521
 20
-1.684836201249839
 10
-0.1405186270901961
 20
-1.670992088211356
 10
-0.1468270783017122
 20
-1.659731929812935
 10
-0.1535654953592167
 20
-1.650762167197293
 10
-0.1601799433259585
 20
-1.644824841865195
 10
-0.1668493358980663
 20
-1.641766593259484
 10
-0.1719564264904962
 20
-1.641611497147555
  0
LWPOLYLINE
  5
D3
330
91
100
AcDbEntity
  8
AM_9
100
AcDbPolyline
 90
        3
 70
     0
 43
0.0
 10
-0.1719564264904962
 20
-1.641611497147555
 10
-0.1731116383367608
 20
-1.641871343366221
 10
-0.1790373738502118
 20
-1.645225411924629
  0
LWPOLYLINE
  5
D4
330
91
100
AcDbEntity
  8
AM_9
100
AcDbPolyline
 90
        3
 70
     0
 43
0.0
 10
-0.2689146070947224
 20
-1.787943505821232
 10
-0.263430848399753
 20
-1.758779885097843
 10
-0.2602304684431307
 20
-1.729466411462207
  0
LINE
  5
D5
330
91
100
AcDbEntity
  8
AM_9
100
AcDbLine
 10
-0.2360765106845276
 20
-1.624680009821017
 30
0.0
 11
-0.2258378743019629
 21
-1.619936402714352
 31
0.0
  0
ELLIPSE
  5
D6
330
91
100
AcDbEntity
  8
AM_9
100
AcDbEllipse
 10
-0.2013892028241891
 20
-1.758418517193396
 30
0.0
 11
-0.02419822997670471
 21
0.1385273846248298
 31
0.0
210
0.0
220
0.0
230
1.0
 40
0.3918448289309522
 41
0.2038782172279179
 42
1.010489672938631
  0
LINE
  5
D7
330
91
100
AcDbEntity
  8
AM_9
100
AcDbLine
 10
-0.2602304684431307
 20
-1.729466411462207
 30
0.0
 11
-0.260230468443121
 21
-1.69283078134013
 31
0.0
  0
ELLIPSE
  5
D8
330
91
100
AcDbEntity
  8
AM_9
100
AcDbEllipse
 10
-0.2013892028241872
 20
-1.758418517193391
 30
0.0
 11
-0.02419822997670306
 21
0.1385273846248278
 31
0.0
210
0.0
220
0.0
230
1.0
 40
0.3918448289310597
 41
1.292402194102655
 42
2.099013649813401
  0
LWPOLYLINE
  5
D9
330
91
100
AcDbEntity
  8
AM_9
100
AcDbPolyline
 90
        3
 70
     0
 43
0.0
 10
-0.2099962668917055
 20
-1.911054387203144
 10
-0.2163479371246915
 20
-1.884369859140255
 10
-0.2258378743019631
 20
-1.857619125672418
  0
LINE
  5
DA
330
91
100
AcDbEntity
  8
AM_9
100
AcDbLine
 10
-0.2258378743019631
 20
-1.857619125672418
 30
0.0
 11
-0.2360765106845279
 21
-1.836425174551794
 31
0.0
  0
LWPOLYLINE
  5
DB
330
91
100
AcDbEntity
  8
AM_9
100
AcDbPolyline
 90
        4
 70
     0
 43
0.0
 10
-0.2360765106845279
 20
-1.836425174551794
 10
-0.2462091938631853
 20
-1.819337049911836
 10
-0.2570505402207576
 20
-1.803492991848703
 10
-0.2689146070947224
 20
-1.787943505821232
  0
LINE
  5
DC
330
91
100
AcDbEntity
  8
AM_9
100
AcDbLine
 10
-0.2689146070947224
 20
-1.787943505821232
 30
0.0
 11
-0.298767568988972
 21
-1.793158278621276
 31
0.0
  0
LWPOLYLINE
  5
DD
330
91
100
AcDbEntity
  8
AM_9
100
AcDbPolyline
 90
        3
 70
     0
 43
0.0
 10
-0.298767568988972
 20
-1.793158278621276
 10
-0.2912216284034027
 20
-1.818774834595837
 10
-0.2813919000363601
 20
-1.844340953919096
  0
LINE
  5
DE
330
91
100
AcDbEntity
  8
AM_9
100
AcDbLine
 10
-0.2813919000363601
 20
-1.844340953919096
 30
0.0
 11
-0.2711532636537958
 21
-1.86553490503972
 31
0.0
  0
LWPOLYLINE
  5
DF
330
91
100
AcDbEntity
  8
AM_9
100
AcDbPolyline
 90
        3
 70
     0
 43
0.0
 10
-0.2711532636537958
 20
-1.86553490503972
 10
-0.2561815527589923
 20
-1.89105871716962
 10
-0.2389369657326278
 20
-1.916109804138472
  0
LINE
  5
E0
330
91
100
AcDbEntity
  8
AM_9
100
AcDbLine
 10
-0.2099962668917055
 20
-1.911054387203144
 30
0.0
 11
-0.2389369657326278
 21
-1.916109804138472
 31
0.0
  0
LWPOLYLINE
  5
E1
330
91
100
AcDbEntity
  8
AM_9
100
AcDbPolyline
 90
        4
 70
     0
 43
0.0
 10
0.1093749999999997
 20
-1.497204024840579
 10
0.1367187499999997
 20
-1.511613862206611
 10
0.1640624999999997
 20
-1.525582205931676
 10
0.2187499999999998
 20
-1.552356756835222
  0
LWPOLYLINE
  5
E2
330
91
100
AcDbEntity
  8
AM_9
100
AcDbPolyline
 90
        4
 70
     0
 43
0.0
 10
-0.2187500000000002
 20
-1.552356756835222
 10
-0.1643083897258506
 20
-1.525705912379985
 10
-0.1368799989092351
 20
-1.511697502718867
 10
-0.1093750000000002
 20
-1.497204024840579
  0
LWPOLYLINE
  5
E3
330
91
100
AcDbEntity
  8
AM_9
100
AcDbPolyline
 90
        4
 70
     0
 43
0.0
 10
-0.0000000000000003
 20
-1.404590633504345
 10
-0.0544416102741498
 20
-1.431241477959582
 10
-0.0818700010907653
 20
-1.4452498876207
 10
-0.1093750000000002
 20
-1.459743365498988
  0
LWPOLYLINE
  5
E4
330
91
100
AcDbEntity
  8
AM_9
100
AcDbPolyline
 90
        4
 70
     0
 43
0.0
 10
0.1017704834945475
 20
-1.455690275963777
 10
0.0820312499999998
 20
-1.445333528132956
 10
0.0546874999999997
 20
-1.431365184407891
 10
-0.0000000000000003
 20
-1.404590633504345
  0
LINE
  5
E5
330
91
100
AcDbEntity
  8
AM_9
100
AcDbLine
 10
0.1093749999999997
 20
-1.459743365498988
 30
0.0
 11
0.1017704834945475
 21
-1.455690275963777
 31
0.0
  0
LINE
  5
E6
330
91
100
AcDbEntity
  8
AM_9
100
AcDbLine
 10
-0.0000000000000003
 20
-1.43525772758032
 30
0.0
 11
-0.0000000000000003
 21
-1.404590633504345
 31
0.0
  0
ELLIPSE
  5
E7
330
91
100
AcDbEntity
  8
AM_9
100
AcDbEllipse
 10
-0.0000000000000003
 20
-1.727872912130895
 30
0.0
 11
-0.2000000000000001
 21
2.449293598294707E-17
 31
0.0
210
0.0
220
0.0
230
1.0
 40
0.9271838545667896
 41
0.4619460205669652
 42
5.821239286612619
  0
LWPOLYLINE
  5
E8
330
91
100
AcDbEntity
  8
AM_9
100
AcDbPolyline
 90
        7
 70
     0
 43
0.0
 10
-0.1790373738501786
 20
-1.810520412337169
 10
-0.1842628795203943
 20
-1.795370897738282
 10
-0.1891729979031395
 20
-1.779763763782262
 10
-0.1936098952159725
 20
-1.763093531034676
 10
-0.1971856748420373
 20
-1.74536780130169
 10
-0.1994144431868156
 20
-1.7272280695199
 10
-0.199999999969953
 20
-1.712706043423113
  0
LINE
  5
E9
330
91
100
AcDbEntity
  8
AM_9
100
AcDbLine
 10
-0.2000000000000002
 20
-1.672852568722932
 30
0.0
 11
-0.2000000000000002
 21
-1.712773932923695
 31
0.0
  0
LINE
  5
EA
330
91
100
AcDbEntity
  8
AM_9
100
AcDbLine
 10
0.1999999999999997
 20
-1.727872912130894
 30
0.0
 11
0.1999999999999997
 21
-1.672852568722932
 31
0.0
  0
LWPOLYLINE
  5
EB
330
91
100
AcDbEntity
  8
AM_9
100
AcDbPolyline
 90
        8
 70
     0
 43
0.0
 10
-0.199999999969953
 20
-1.712706043423113
 10
-0.1999786710855129
 20
-1.710013438290804
 10
-0.1988321115509054
 20
-1.693378290033977
 10
-0.1961649429984261
 20
-1.678849385696643
 10
-0.192069430057496
 20
-1.665897610526414
 10
-0.1870948030566197
 20
-1.655550049006013
 10
-0.1815005947613932
 20
-1.647701542626588
 10
-0.1790373738501786
 20
-1.645225411924619
  0
LWPOLYLINE
  5
EC
330
91
100
AcDbEntity
  8
AM_9
100
AcDbPolyline
 90
        4
 70
     0
 43
0.0
 10
0.2187499999999998
 20
-1.521689662759247
 10
0.1643083897258502
 20
-1.490054246970584
 10
0.1368799989092346
 20
-1.474697281192618
 10
0.1093749999999997
 20
-1.459743365498988
  0
LWPOLYLINE
  5
ED
330
91
100
AcDbEntity
  8
AM_9
100
AcDbPolyline
 90
        4
 70
     0
 43
0.0
 10
-0.1093750000000002
 20
-1.459743365498988
 10
-0.1367187500000002
 20
-1.474608285446682
 10
-0.1640625000000002
 20
-1.489914699035342
 10
-0.2187500000000002
 20
-1.521689662759247
  0
LINE
  5
EE
330
91
100
AcDbEntity
  8
AM_9
100
AcDbLine
 10
-0.2187500000000002
 20
-1.786554815345027
 30
0.0
 11
-0.2187500000000002
 21
-1.521689662759247
 31
0.0
  0
LWPOLYLINE
  5
EF
330
91
100
AcDbEntity
  8
AM_9
100
AcDbPolyline
 90
        4
 70
     0
 43
0.0
 10
-0.1093750000000002
 20
-1.848501112605285
 10
-0.1367187500000002
 20
-1.833636192657591
 10
-0.1640625000000002
 20
-1.818329779068931
 10
-0.2187500000000002
 20
-1.786554815345027
  0
LWPOLYLINE
  5
F0
330
91
100
AcDbEntity
  8
AM_9
100
AcDbPolyline
 90
        4
 70
     0
 43
0.0
 10
-0.0000000000000002
 20
-1.903653844599928
 10
-0.0544416102741498
 20
-1.877003000144691
 10
-0.0818700010907653
 20
-1.862994590483573
 10
-0.1093750000000002
 20
-1.848501112605285
  0
LWPOLYLINE
  5
F1
330
91
100
AcDbEntity
  8
AM_9
100
AcDbPolyline
 90
        4
 70
     0
 43
0.0
 10
-0.1093750000000002
 20
-1.811040453263694
 10
-0.0820312500000002
 20
-1.825905373211388
 10
-0.0546875000000003
 20
-1.841211786800049
 10
-0.0000000000000002
 20
-1.872986750523953
  0
LWPOLYLINE
  5
F2
330
91
100
AcDbEntity
  8
AM_9
100
AcDbPolyline
 90
        4
 70
     0
 43
0.0
 10
-0.2187500000000002
 20
-1.755887721269051
 10
-0.1643083897258506
 20
-1.782538565724288
 10
-0.1368799989092351
 20
-1.796546975385406
 10
-0.1093750000000002
 20
-1.811040453263694
  0
LINE
  5
F3
330
91
100
AcDbEntity
  8
AM_9
100
AcDbLine
 10
-0.0000000000000002
 20
-1.903653844599928
 30
0.0
 11
-0.0000000000000002
 21
-1.872986750523953
 31
0.0
  0
LWPOLYLINE
  5
F4
330
91
100
AcDbEntity
  8
AM_9
100
AcDbPolyline
 90
        4
 70
     0
 43
0.0
 10
0.1093749999999997
 20
-1.848501112605285
 10
0.0820312499999997
 20
-1.862910949971317
 10
0.0546874999999997
 20
-1.876879293696382
 10
-0.0000000000000002
 20
-1.903653844599928
  0
LWPOLYLINE
  5
F5
330
91
100
AcDbEntity
  8
AM_9
100
AcDbPolyline
 90
        4
 70
     0
 43
0.0
 10
0.2187499999999998
 20
-1.786554815345027
 10
0.1643083897258502
 20
-1.81819023113369
 10
0.1368799989092346
 20
-1.833547196911655
 10
0.1093749999999997
 20
-1.848501112605285
  0
LINE
  5
F6
330
91
100
AcDbEntity
  8
AM_9
100
AcDbLine
 10
0.2187499999999998
 20
-1.786554815345027
 30
0.0
 11
0.2187499999999998
 21
-1.521689662759247
 31
0.0
  0
LWPOLYLINE
  5
F7
330
91
100
AcDbEntity
  8
AM_9
100
AcDbPolyline
 90
        4
 70
     0
 43
0.0
 10
0.1093749999999997
 20
-1.811040453263694
 10
0.1367187499999997
 20
-1.796630615897663
 10
0.1640624999999997
 20
-1.782662272172598
 10
0.2187499999999998
 20
-1.755887721269051
  0
LWPOLYLINE
  5
F8
330
91
100
AcDbEntity
  8
AM_9
100
AcDbPolyline
 90
        4
 70
     0
 43
0.0
 10
-0.0000000000000002
 20
-1.872986750523953
 10
0.0544416102741493
 20
-1.84135133473529
 10
0.0818700010907648
 20
-1.825994368957325
 10
0.1093749999999997
 20
-1.811040453263694
  0
LINE
  5
F9
330
91
100
AcDbEntity
  8
AM_9
100
AcDbLine
 10
-0.2000000000000001
 20
-1.606125769270723
 30
0.0
 11
-0.2000000000000001
 21
-1.635391909381341
 31
0.0
  0
LINE
  5
FA
330
91
100
AcDbEntity
  8
AM_9
100
AcDbLine
 10
0.1999999999999997
 20
-1.635391909381341
 30
0.0
 11
0.1999999999999997
 21
-1.606125769270723
 31
0.0
  0
LINE
  5
FB
330
91
100
AcDbEntity
  8
AM_9
100
AcDbLine
 10
-0.1848617759197331
 20
-1.519781066038041
 30
0.0
 11
-0.1909374614401158
 21
-1.59239097106773
 31
0.0
  0
LINE
  5
FC
330
91
100
AcDbEntity
  8
AM_9
100
AcDbLine
 10
0.1909374614401153
 20
-1.59239097106773
 30
0.0
 11
0.1848617759197326
 21
-1.519781066038041
 31
0.0
  0
ELLIPSE
  5
FD
330
91
100
AcDbEntity
  8
AM_9
100
AcDbEllipse
 10
-0.0000000000000002
 20
-1.524180576960992
 30
0.0
 11
0.1616637258772237
 21
0.0
 31
0.0
210
0.0
220
0.0
230
1.0
 40
0.9271838545667872
 41
0.0
 42
6.283185307179586
  0
ELLIPSE
  5
FE
330
91
100
AcDbEntity
  8
AM_9
100
AcDbEllipse
 10
-0.4687499999999992
 20
-1.805121615460475
 30
0.0
 11
-0.01780691014293364
 21
0.1019390547459398
 31
0.0
210
0.0
220
0.0
230
1.0
 40
0.391844828931055
 41
0.0
 42
6.283185307179586
  0
ELLIPSE
  5
FF
330
91
100
AcDbEntity
  8
AM_9
100
AcDbEllipse
 10
-0.399430321788976
 20
-1.793012720747674
 30
0.0
 11
-0.02394416896528294
 21
0.13707296388905
 31
0.0
210
0.0
220
0.0
230
1.0
 40
0.3918448289310556
 41
0.0
 42
6.283185307179586
  0
ELLIPSE
  5
100
330
91
100
AcDbEntity
  8
AM_9
100
AcDbEllipse
 10
-0.3729962569746584
 20
-1.78839516746514
 30
0.0
 11
-0.02291951316939751
 21
0.1312071262769205
 31
0.0
210
0.0
220
0.0
230
1.0
 40
0.3918448289310359
 41
0.0
 42
6.283185307179586
  0
ELLIPSE
  5
101
330
91
100
AcDbEntity
  8
AM_9
100
AcDbEllipse
 10
-0.2013892028241886
 20
-1.758418517193392
 30
0.0
 11
-0.0189283932262212
 21
0.1083591986398647
 31
0.0
210
0.0
220
0.0
230
1.0
 40
0.3918448289310549
 41
0.0
 42
6.283185307179586
  0
ELLIPSE
  5
102
330
91
100
AcDbEntity
  8
AM_9
100
AcDbEllipse
 10
-0.0000000000000003
 20
-1.672852568722932
 30
0.0
 11
-0.1999999999999999
 21
2.449293598294705E-17
 31
0.0
210
0.0
220
0.0
230
1.0
 40
0.9271838545667881
 41
0.0
 42
6.283185307179586
  0
ELLIPSE
  5
103
330
91
100
AcDbEntity
  8
AM_9
100
AcDbEllipse
 10
-0.0000000000000002
 20
-1.672852568722934
 30
0.0
 11
-0.218749999999999
 21
3.259629037943309E-9
 31
0.0
210
0.0
220
0.0
230
1.0
 40
0.9271838545667846
 41
0.0
 42
6.283185307179586
  0
ELLIPSE
  5
104
330
91
100
AcDbEntity
  8
AM_9
100
AcDbEllipse
 10
-0.0000000000000002
 20
-1.635391909381344
 30
0.0
 11
-0.2187499999999979
 21
2.678914873134809E-17
 31
0.0
210
0.0
220
0.0
230
1.0
 40
0.9271838545667858
 41
0.0
 42
6.283185307179586
  0
ELLIPSE
  5
105
330
91
100
AcDbEntity
  8
AM_9
100
AcDbEllipse
 10
-0.0000000000000001
 20
-1.635391909381341
 30
0.0
 11
-0.2000000000000001
 21
2.449293598294708E-17
 31
0.0
210
0.0
220
0.0
230
1.0
 40
0.9271838545667871
 41
0.0
 42
6.283185307179586
  0
ELLIPSE
  5
106
330
91
100
AcDbEntity
  8
AM_9
100
AcDbEllipse
 10
-0.0000000000000002
 20
-1.606125769270723
 30
0.0
 11
-0.2
 21
2.449293598294706E-17
 31
0.0
210
0.0
220
0.0
230
1.0
 40
0.9271838545667868
 41
0.0
 42
6.283185307179586
  0
ELLIPSE
  5
107
330
91
100
AcDbEntity
  8
AM_9
100
AcDbEllipse
 10
0.0
 20
-1.606125769270723
 30
0.0
 11
-0.1915112338502296
 21
2.345336195354440E-17
 31
0.0
210
0.0
220
0.0
230
1.0
 40
0.9271838545667874
 41
0.0
 42
6.283185307179586
  0
ELLIPSE
  5
108
330
91
100
AcDbEntity
  8
AM_9
100
AcDbEllipse
 10
-0.0000000000000002
 20
-1.533078818970097
 30
0.0
 11
-0.1854172907249859
 21
2.270706915929281E-17
 31
0.0
210
0.0
220
0.0
230
1.0
 40
0.9271838545667815
 41
0.0
 42
6.283185307179586
  0
ENDBLK
  5
94
330
91
100
AcDbEntity
  8
0
100
AcDbBlockEnd
  0
BLOCK
  5
10B
330
109
100
AcDbEntity
  8
0
100
AcDbBlockBegin
  2
3_ASME_B18_3_1_4_1_0_in_069395_2
 70
     2
 10
0.0
 20
0.0
 30
0.0
  3
3_ASME_B18_3_1_4_1_0_in_069395_2
  1

  0
ATTDEF
  5
10D
330
109
100
AcDbEntity
  8
AM_6
100
AcDbText
 10
3.339958333333334
 20
-2.283236111111111
 30
0.0
 40
0.5
  1
ANSI/ASME B18.3-1998
100
AcDbAttributeDefinition
  3

  2
NN
 70
     8
280
     0
  0
ATTDEF
  5
10E
330
109
100
AcDbEntity
  8
AM_6
100
AcDbText
 10
3.339958333333334
 20
-2.783236111111111
 30
0.0
 40
0.5
  1
Socket Button Head Cap Screws
100
AcDbAttributeDefinition
  3

  2
NT
 70
     8
280
     0
  0
ATTDEF
  5
10F
330
109
100
AcDbEntity
  8
AM_6
100
AcDbText
 10
3.339958333333334
 20
-3.283236111111111
 30
0.0
 40
0.5
  1
ASME B18.3-1/4
100
AcDbAttributeDefinition
  3

  2
NB
 70
     8
280
     0
  0
ATTDEF
  5
110
330
109
100
AcDbEntity
  8
AM_6
100
AcDbText
 10
3.339958333333334
 20
-3.783236111111111
 30
0.0
 40
0.5
  1
ASME B18.3-$NS.
100
AcDbAttributeDefinition
  3

  2
NBSYN
 70
     8
280
     0
  0
ATTDEF
  5
111
330
109
100
AcDbEntity
  8
AM_6
100
AcDbText
 10
3.339958333333334
 20
-4.283236111111111
 30
0.0
 40
0.5
  1
ASME B18.3-1/4
100
AcDbAttributeDefinition
  3

  2
LINA
 70
     8
280
     0
  0
ATTDEF
  5
112
330
109
100
AcDbEntity
  8
AM_6
100
AcDbText
 10
3.339958333333334
 20
-4.783236111111111
 30
0.0
 40
0.5
  1
1/4
100
AcDbAttributeDefinition
  3

  2
NS
 70
     8
280
     0
  0
ATTDEF
  5
113
330
109
100
AcDbEntity
  8
AM_6
100
AcDbText
 10
3.339958333333334
 20
-5.283236111111111
 30
0.0
 40
0.5
  1
0.437
100
AcDbAttributeDefinition
  3

  2
A
 70
     8
280
     0
  0
ATTDEF
  5
114
330
109
100
AcDbEntity
  8
AM_6
100
AcDbText
 10
3.339958333333334
 20
-5.783236111111111
 30
0.0
 40
0.5
  1
0.132
100
AcDbAttributeDefinition
  3

  2
H
 70
     8
280
     0
  0
ATTDEF
  5
115
330
109
100
AcDbEntity
  8
AM_6
100
AcDbText
 10
3.339958333333334
 20
-6.283236111111111
 30
0.0
 40
0.5
  1
0.800
100
AcDbAttributeDefinition
  3

  2
L
 70
     8
280
     0
  0
ATTDEF
  5
116
330
109
100
AcDbEntity
  8
AM_6
100
AcDbText
 10
3.339958333333334
 20
-6.783236111111111
 30
0.0
 40
0.5
  1
0.031
100
AcDbAttributeDefinition
  3

  2
S
 70
     8
280
     0
  0
ATTDEF
  5
117
330
109
100
AcDbEntity
  8
AM_6
100
AcDbText
 10
3.339958333333334
 20
-7.283236111111111
 30
0.0
 40
0.5
  1
0.156250
100
AcDbAttributeDefinition
  3

  2
J
 70
     8
280
     0
  0
ATTDEF
  5
118
330
109
100
AcDbEntity
  8
AM_6
100
AcDbText
 10
3.339958333333334
 20
-7.783236111111111
 30
0.0
 40
0.5
  1
baldor
100
AcDbAttributeDefinition
  3

  2
COMPANY
 70
     8
280
     0
  0
LINE
  5
119
330
109
100
AcDbEntity
  8
AM_9
100
AcDbLine
 10
-2.522041666666667
 20
-2.591947090671991
 30
0.0
 11
-2.592041666666667
 21
-2.591947090671991
 31
0.0
  0
LINE
  5
11A
330
109
100
AcDbEntity
  8
AM_9
100
AcDbLine
 10
-2.522041666666667
 20
-2.411525131550232
 30
0.0
 11
-2.592041666666667
 21
-2.411525131550232
 31
0.0
  0
LINE
  5
11B
330
109
100
AcDbEntity
  8
AM_9
100
AcDbLine
 10
-2.522041666666667
 20
-2.546841600891551
 30
0.0
 11
-2.592041666666667
 21
-2.546841600891551
 31
0.0
  0
LINE
  5
11C
330
109
100
AcDbEntity
  8
AM_9
100
AcDbLine
 10
-2.522041666666667
 20
-2.411525131550232
 30
0.0
 11
-2.522041666666667
 21
-2.591947090671991
 31
0.0
  0
LINE
  5
11D
330
109
100
AcDbEntity
  8
AM_9
100
AcDbLine
 10
-2.522041666666667
 20
-2.456630621330671
 30
0.0
 11
-2.592041666666667
 21
-2.456630621330671
 31
0.0
  0
LINE
  5
11E
330
109
100
AcDbEntity
  8
AM_9
100
AcDbLine
 10
-1.660041666666666
 20
-2.395336111111111
 30
0.0
 11
-1.660041666666666
 21
-2.608136111111111
 31
0.0
  0
LINE
  5
11F
330
109
100
AcDbEntity
  8
AM_9
100
AcDbLine
 10
-1.660041666666666
 20
-2.395336111111111
 30
0.0
 11
-1.678641666666667
 21
-2.376736111111111
 31
0.0
  0
LINE
  5
120
330
109
100
AcDbEntity
  8
AM_9
100
AcDbLine
 10
-1.678641666666667
 20
-2.626736111111111
 30
0.0
 11
-1.660041666666666
 21
-2.608136111111111
 31
0.0
  0
LINE
  5
121
330
109
100
AcDbEntity
  8
AM_9
100
AcDbLine
 10
-1.678641666666667
 20
-2.376736111111111
 30
0.0
 11
-1.678641666666667
 21
-2.626736111111111
 31
0.0
  0
LINE
  5
122
330
109
100
AcDbEntity
  8
AM_9
100
AcDbLine
 10
-2.460041666666667
 20
-2.626736111111111
 30
0.0
 11
-1.678641666666667
 21
-2.626736111111111
 31
0.0
  0
LINE
  5
123
330
109
100
AcDbEntity
  8
AM_9
100
AcDbLine
 10
-1.678641666666667
 20
-2.376736111111111
 30
0.0
 11
-2.460041666666667
 21
-2.376736111111111
 31
0.0
  0
LINE
  5
125
330
109
100
AcDbEntity
  8
AM_5
100
AcDbLine
 10
-2.380041666666667
 20
-2.608136111111111
 30
0.0
 11
-2.412257811687448
 21
-2.626736111111111
 31
0.0
  0
LINE
  5
126
330
109
100
AcDbEntity
  8
AM_5
100
AcDbLine
 10
-2.380041666666666
 20
-2.376736140134962
 30
0.0
 11
-2.380041666666667
 21
-2.626736323244928
 31
0.0
  0
LINE
  5
127
330
109
100
AcDbEntity
  8
AM_5
100
AcDbLine
 10
-2.380041666666666
 20
-2.395336111111111
 30
0.0
 11
-2.412257811687448
 21
-2.376736111111111
 31
0.0
  0
LINE
  5
129
330
109
100
AcDbEntity
  8
AM_4
100
AcDbLine
 10
-2.491041666666667
 20
-2.720236111111111
 30
0.0
 11
-2.460041666666667
 21
-2.720236111111111
 31
0.0
  0
LINE
  5
12A
330
109
100
AcDbEntity
  8
AM_4
100
AcDbLine
 10
-2.460041666666667
 20
-2.283236111111111
 30
0.0
 11
-2.491041666666667
 21
-2.283236111111111
 31
0.0
  0
LINE
  5
12B
330
109
100
AcDbEntity
  8
AM_4
100
AcDbLine
 10
-2.592041666666667
 20
-2.384236111111111
 30
0.0
 11
-2.592041666666667
 21
-2.619236111111111
 31
0.0
  0
LINE
  5
12C
330
109
100
AcDbEntity
  8
AM_4
100
AcDbLine
 10
-2.491041666666667
 20
-2.283236111111111
 30
0.0
 11
-2.491041666666667
 21
-2.720236111111111
 31
0.0
  0
ARC
  5
12D
330
109
100
AcDbEntity
  8
AM_4
100
AcDbCircle
 10
-2.491041666666667
 20
-2.619236111111111
 30
0.0
 40
0.101
100
AcDbArc
 50
180.0
 51
270.0
  0
ARC
  5
12E
330
109
100
AcDbEntity
  8
AM_4
100
AcDbCircle
 10
-2.491041666666666
 20
-2.384236111111111
 30
0.0
 40
0.1010000000000004
100
AcDbArc
 50
90.0
 51
180.0
  0
ENDBLK
  5
10C
330
109
100
AcDbEntity
  8
0
100
AcDbBlockEnd
  0
BLOCK
  5
131
330
12F
100
AcDbEntity
  8
0
100
AcDbBlockBegin
  2
4_ASME_B18_3_1_4_2_0_in_069395_2
 70
     2
 10
0.0
 20
0.0
 30
0.0
  3
4_ASME_B18_3_1_4_2_0_in_069395_2
  1

  0
ATTDEF
  5
133
330
12F
100
AcDbEntity
  8
AM_6
100
AcDbText
 10
3.339958333333334
 20
2.720236111111111
 30
0.0
 40
0.5
  1
ANSI/ASME B18.3-1998
100
AcDbAttributeDefinition
  3

  2
NN
 70
     8
280
     0
  0
ATTDEF
  5
134
330
12F
100
AcDbEntity
  8
AM_6
100
AcDbText
 10
3.339958333333334
 20
2.220236111111111
 30
0.0
 40
0.5
  1
Socket Button Head Cap Screws
100
AcDbAttributeDefinition
  3

  2
NT
 70
     8
280
     0
  0
ATTDEF
  5
135
330
12F
100
AcDbEntity
  8
AM_6
100
AcDbText
 10
3.339958333333334
 20
1.720236111111111
 30
0.0
 40
0.5
  1
ASME B18.3-1/4
100
AcDbAttributeDefinition
  3

  2
NB
 70
     8
280
     0
  0
ATTDEF
  5
136
330
12F
100
AcDbEntity
  8
AM_6
100
AcDbText
 10
3.339958333333334
 20
1.220236111111111
 30
0.0
 40
0.5
  1
ASME B18.3-$NS.
100
AcDbAttributeDefinition
  3

  2
NBSYN
 70
     8
280
     0
  0
ATTDEF
  5
137
330
12F
100
AcDbEntity
  8
AM_6
100
AcDbText
 10
3.339958333333334
 20
0.7202361111111109
 30
0.0
 40
0.5
  1
ASME B18.3-1/4
100
AcDbAttributeDefinition
  3

  2
LINA
 70
     8
280
     0
  0
ATTDEF
  5
138
330
12F
100
AcDbEntity
  8
AM_6
100
AcDbText
 10
3.339958333333334
 20
0.2202361111111109
 30
0.0
 40
0.5
  1
1/4
100
AcDbAttributeDefinition
  3

  2
NS
 70
     8
280
     0
  0
ATTDEF
  5
139
330
12F
100
AcDbEntity
  8
AM_6
100
AcDbText
 10
3.339958333333334
 20
-0.2797638888888891
 30
0.0
 40
0.5
  1
0.437
100
AcDbAttributeDefinition
  3

  2
A
 70
     8
280
     0
  0
ATTDEF
  5
13A
330
12F
100
AcDbEntity
  8
AM_6
100
AcDbText
 10
3.339958333333334
 20
-0.7797638888888891
 30
0.0
 40
0.5
  1
0.132
100
AcDbAttributeDefinition
  3

  2
H
 70
     8
280
     0
  0
ATTDEF
  5
13B
330
12F
100
AcDbEntity
  8
AM_6
100
AcDbText
 10
3.339958333333334
 20
-1.279763888888889
 30
0.0
 40
0.5
  1
0.800
100
AcDbAttributeDefinition
  3

  2
L
 70
     8
280
     0
  0
ATTDEF
  5
13C
330
12F
100
AcDbEntity
  8
AM_6
100
AcDbText
 10
3.339958333333334
 20
-1.779763888888889
 30
0.0
 40
0.5
  1
0.031
100
AcDbAttributeDefinition
  3

  2
S
 70
     8
280
     0
  0
ATTDEF
  5
13D
330
12F
100
AcDbEntity
  8
AM_6
100
AcDbText
 10
3.339958333333334
 20
-2.279763888888889
 30
0.0
 40
0.5
  1
0.156250
100
AcDbAttributeDefinition
  3

  2
J
 70
     8
280
     0
  0
ATTDEF
  5
13E
330
12F
100
AcDbEntity
  8
AM_6
100
AcDbText
 10
3.339958333333334
 20
-2.779763888888889
 30
0.0
 40
0.5
  1
baldor
100
AcDbAttributeDefinition
  3

  2
COMPANY
 70
     8
280
     0
  0
LINE
  5
13F
330
12F
100
AcDbEntity
  8
AM_9
100
AcDbLine
 10
-2.522041666666667
 20
2.411525131550232
 30
0.0
 11
-2.592041666666667
 21
2.411525131550232
 31
0.0
  0
LINE
  5
140
330
12F
100
AcDbEntity
  8
AM_9
100
AcDbLine
 10
-2.522041666666667
 20
2.591947090671991
 30
0.0
 11
-2.592041666666667
 21
2.591947090671991
 31
0.0
  0
LINE
  5
141
330
12F
100
AcDbEntity
  8
AM_9
100
AcDbLine
 10
-2.522041666666667
 20
2.456630621330671
 30
0.0
 11
-2.592041666666667
 21
2.456630621330671
 31
0.0
  0
LINE
  5
142
330
12F
100
AcDbEntity
  8
AM_9
100
AcDbLine
 10
-2.522041666666667
 20
2.546841600891551
 30
0.0
 11
-2.592041666666667
 21
2.546841600891551
 31
0.0
  0
LINE
  5
143
330
12F
100
AcDbEntity
  8
AM_9
100
AcDbLine
 10
-2.522041666666667
 20
2.591947090671991
 30
0.0
 11
-2.522041666666667
 21
2.411525131550232
 31
0.0
  0
LINE
  5
144
330
12F
100
AcDbEntity
  8
AM_9
100
AcDbLine
 10
-1.660041666666666
 20
2.608136111111111
 30
0.0
 11
-1.660041666666666
 21
2.395336111111111
 31
0.0
  0
LINE
  5
145
330
12F
100
AcDbEntity
  8
AM_9
100
AcDbLine
 10
-1.660041666666666
 20
2.608136111111111
 30
0.0
 11
-1.678641666666667
 21
2.626736111111111
 31
0.0
  0
LINE
  5
146
330
12F
100
AcDbEntity
  8
AM_9
100
AcDbLine
 10
-1.678641666666667
 20
2.376736111111111
 30
0.0
 11
-1.660041666666666
 21
2.395336111111111
 31
0.0
  0
LINE
  5
147
330
12F
100
AcDbEntity
  8
AM_9
100
AcDbLine
 10
-1.678641666666667
 20
2.626736111111111
 30
0.0
 11
-1.678641666666667
 21
2.376736111111111
 31
0.0
  0
LINE
  5
148
330
12F
100
AcDbEntity
  8
AM_9
100
AcDbLine
 10
-2.460041666666667
 20
2.376736111111111
 30
0.0
 11
-1.678641666666667
 21
2.376736111111111
 31
0.0
  0
LINE
  5
149
330
12F
100
AcDbEntity
  8
AM_9
100
AcDbLine
 10
-1.678641666666667
 20
2.626736111111111
 30
0.0
 11
-2.460041666666667
 21
2.626736111111111
 31
0.0
  0
LINE
  5
14A
330
12F
100
AcDbEntity
  8
AM_5
100
AcDbLine
 10
-2.380041666666667
 20
2.395336111111111
 30
0.0
 11
-2.412257811687447
 21
2.376736111111111
 31
0.0
  0
LINE
  5
14B
330
12F
100
AcDbEntity
  8
AM_5
100
AcDbLine
 10
-2.380041666666666
 20
2.626736323244927
 30
0.0
 11
-2.380041666666667
 21
2.376736140134962
 31
0.0
  0
LINE
  5
14C
330
12F
100
AcDbEntity
  8
AM_5
100
AcDbLine
 10
-2.380041666666666
 20
2.608136111111111
 30
0.0
 11
-2.412257811687448
 21
2.626736111111111
 31
0.0
  0
LINE
  5
14D
330
12F
100
AcDbEntity
  8
AM_4
100
AcDbLine
 10
-2.491041666666667
 20
2.283236111111111
 30
0.0
 11
-2.460041666666667
 21
2.283236111111111
 31
0.0
  0
LINE
  5
14E
330
12F
100
AcDbEntity
  8
AM_4
100
AcDbLine
 10
-2.460041666666667
 20
2.720236111111111
 30
0.0
 11
-2.491041666666667
 21
2.720236111111111
 31
0.0
  0
LINE
  5
14F
330
12F
100
AcDbEntity
  8
AM_4
100
AcDbLine
 10
-2.592041666666667
 20
2.619236111111111
 30
0.0
 11
-2.592041666666667
 21
2.384236111111111
 31
0.0
  0
LINE
  5
150
330
12F
100
AcDbEntity
  8
AM_4
100
AcDbLine
 10
-2.491041666666667
 20
2.720236111111111
 30
0.0
 11
-2.491041666666667
 21
2.283236111111111
 31
0.0
  0
ARC
  5
151
330
12F
100
AcDbEntity
  8
AM_4
100
AcDbCircle
 10
-2.491041666666666
 20
2.384236111111111
 30
0.0
 40
0.1010000000000004
100
AcDbArc
 50
180.0
 51
270.0
  0
ARC
  5
152
330
12F
100
AcDbEntity
  8
AM_4
100
AcDbCircle
 10
-2.491041666666667
 20
2.619236111111111
 30
0.0
 40
0.101
100
AcDbArc
 50
90.0
 51
180.0
  0
ENDBLK
  5
132
330
12F
100
AcDbEntity
  8
0
100
AcDbBlockEnd
  0
BLOCK
  5
155
330
153
100
AcDbEntity
  8
0
100
AcDbBlockBegin
  2
5_070907LW_0_in_069395_2
 70
     2
 10
0.0
 20
0.0
 30
0.0
  3
5_070907LW_0_in_069395_2
  1

  0
ATTDEF
  5
157
330
153
100
AcDbEntity
  8
AM_6
100
AcDbText
 10
3.039958333333334
 20
2.781249999999999
 30
0.0
 40
0.5
  1
Imperial Insert Lockwasher -Inch
100
AcDbAttributeDefinition
  3

  2
NN
 70
     8
280
     0
  0
ATTDEF
  5
158
330
153
100
AcDbEntity
  8
AM_6
100
AcDbText
 10
3.039958333333334
 20
2.281249999999999
 30
0.0
 40
0.5
  1
Imperial Bearings
100
AcDbAttributeDefinition
  3

  2
NT
 70
     8
280
     0
  0
ATTDEF
  5
159
330
153
100
AcDbEntity
  8
AM_6
100
AcDbText
 10
3.039958333333334
 20
1.781249999999999
 30
0.0
 40
0.5
  1
070907LW
100
AcDbAttributeDefinition
  3

  2
NB
 70
     8
280
     0
  0
ATTDEF
  5
15A
330
153
100
AcDbEntity
  8
AM_6
100
AcDbText
 10
3.039958333333334
 20
1.281249999999999
 30
0.0
 40
0.5
  1
$PN.LW
100
AcDbAttributeDefinition
  3

  2
NBSYN
 70
     8
280
     0
  0
ATTDEF
  5
15B
330
153
100
AcDbEntity
  8
AM_6
100
AcDbText
 10
3.039958333333334
 20
0.7812499999999991
 30
0.0
 40
0.5
  1
070907
100
AcDbAttributeDefinition
  3

  2
LINA
 70
     8
280
     0
  0
ATTDEF
  5
15C
330
153
100
AcDbEntity
  8
AM_6
100
AcDbText
 10
3.039958333333334
 20
0.2812499999999991
 30
0.0
 40
0.5
  1
4
100
AcDbAttributeDefinition
  3

  2
SS
 70
     8
280
     0
  0
ATTDEF
  5
15D
330
153
100
AcDbEntity
  8
AM_6
100
AcDbText
 10
3.039958333333334
 20
-0.2187500000000009
 30
0.0
 40
0.5
  1
4.000000
100
AcDbAttributeDefinition
  3

  2
SS1
 70
     8
280
     0
  0
ATTDEF
  5
15E
330
153
100
AcDbEntity
  8
AM_6
100
AcDbText
 10
3.039958333333334
 20
-0.7187500000000009
 30
0.0
 40
0.5
  1
070907
100
AcDbAttributeDefinition
  3

  2
PN
 70
     8
280
     0
  0
ATTDEF
  5
15F
330
153
100
AcDbEntity
  8
AM_6
100
AcDbText
 10
3.039958333333334
 20
-1.218750000000001
 30
0.0
 40
0.5
  1
INS-IP-400R
100
AcDbAttributeDefinition
  3

  2
DESCRIPTION
 70
     8
280
     0
  0
ATTDEF
  5
160
330
153
100
AcDbEntity
  8
AM_6
100
AcDbText
 10
3.039958333333334
 20
-1.718750000000001
 30
0.0
 40
0.5
  1
7.0866
100
AcDbAttributeDefinition
  3

  2
A
 70
     8
280
     0
  0
ATTDEF
  5
161
330
153
100
AcDbEntity
  8
AM_6
100
AcDbText
 10
3.039958333333334
 20
-2.218750000000001
 30
0.0
 40
0.5
  1
1-7/8
100
AcDbAttributeDefinition
  3

  2
B
 70
     8
280
     0
  0
ATTDEF
  5
162
330
153
100
AcDbEntity
  8
AM_6
100
AcDbText
 10
3.039958333333334
 20
-2.718750000000001
 30
0.0
 40
0.5
  1
4-45/64
100
AcDbAttributeDefinition
  3

  2
C
 70
     8
280
     0
  0
ATTDEF
  5
163
330
153
100
AcDbEntity
  8
AM_6
100
AcDbText
 10
3.039958333333334
 20
-3.218750000000001
 30
0.0
 40
0.5
  1
1.646
100
AcDbAttributeDefinition
  3

  2
D
 70
     8
280
     0
  0
ATTDEF
  5
164
330
153
100
AcDbEntity
  8
AM_6
100
AcDbText
 10
3.039958333333334
 20
-3.718750000000001
 30
0.0
 40
0.5
  1
5-9/16
100
AcDbAttributeDefinition
  3

  2
E
 70
     8
280
     0
  0
ATTDEF
  5
165
330
153
100
AcDbEntity
  8
AM_6
100
AcDbText
 10
3.039958333333334
 20
-4.218750000000001
 30
0.0
 40
0.5
  1
0.2500
100
AcDbAttributeDefinition
  3

  2
NDM
 70
     8
280
     0
  0
ATTDEF
  5
166
330
153
100
AcDbEntity
  8
AM_6
100
AcDbText
 10
3.039958333333334
 20
-4.718750000000001
 30
0.0
 40
0.5
  1
0.1960
100
AcDbAttributeDefinition
  3

  2
KDM
 70
     8
280
     0
  0
ATTDEF
  5
167
330
153
100
AcDbEntity
  8
AM_6
100
AcDbText
 10
3.039958333333334
 20
-5.218750000000001
 30
0.0
 40
0.5
  1
4.83
100
AcDbAttributeDefinition
  3

  2
AL
 70
     8
280
     0
  0
ATTDEF
  5
168
330
153
100
AcDbEntity
  8
AM_6
100
AcDbText
 10
3.039958333333334
 20
-5.718750000000001
 30
0.0
 40
0.5
  1
0.50
100
AcDbAttributeDefinition
  3

  2
BL
 70
     8
280
     0
  0
ATTDEF
  5
169
330
153
100
AcDbEntity
  8
AM_6
100
AcDbText
 10
3.039958333333334
 20
-6.218750000000001
 30
0.0
 40
0.5
  1
0.07
100
AcDbAttributeDefinition
  3

  2
CL
 70
     8
280
     0
  0
ATTDEF
  5
16A
330
153
100
AcDbEntity
  8
AM_6
100
AcDbText
 10
3.039958333333334
 20
-6.718750000000001
 30
0.0
 40
0.5
  1
0.50
100
AcDbAttributeDefinition
  3

  2
DL
 70
     8
280
     0
  0
ATTDEF
  5
16B
330
153
100
AcDbEntity
  8
AM_6
100
AcDbText
 10
3.039958333333334
 20
-7.218750000000001
 30
0.0
 40
0.5
  1
baldor
100
AcDbAttributeDefinition
  3

  2
COMPANY
 70
     8
280
     0
  0
LINE
  5
16C
330
153
100
AcDbEntity
  8
AM_9
100
AcDbLine
 10
-2.390041666666666
 20
1.946400907948465
 30
0.0
 11
-2.460041666666667
 21
1.946400907948464
 31
0.0
  0
LINE
  5
16D
330
153
100
AcDbEntity
  8
AM_9
100
AcDbLine
 10
-1.960041666666667
 20
1.893742626878188
 30
0.0
 11
-2.460041666666667
 21
1.894022183899045
 31
0.0
  0
LINE
  5
16E
330
153
100
AcDbEntity
  8
AM_9
100
AcDbLine
 10
-1.960041666666667
 20
1.796311200332048
 30
0.0
 11
-1.960041666666666
 21
1.989413484969461
 31
0.0
  0
LINE
  5
16F
330
153
100
AcDbEntity
  8
AM_9
100
AcDbLine
 10
-1.960041666666667
 20
1.796311200332048
 30
0.0
 11
-2.460041666666667
 21
1.796311200332048
 31
0.0
  0
LINE
  5
170
330
153
100
AcDbEntity
  8
AM_9
100
AcDbLine
 10
-2.390041666666666
 20
1.989413484969461
 30
0.0
 11
-1.960041666666666
 21
1.989413484969461
 31
0.0
  0
LINE
  5
171
330
153
100
AcDbEntity
  8
AM_9
100
AcDbLine
 10
-1.960041666666666
 20
1.89198205842332
 30
0.0
 11
-2.460041666666667
 21
1.89198205842332
 31
0.0
  0
LINE
  5
172
330
153
100
AcDbEntity
  8
AM_9
100
AcDbLine
 10
-2.390041666666666
 20
2.042071766039737
 30
0.0
 11
-2.460041666666667
 21
2.042071766039737
 31
0.0
  0
LINE
  5
173
330
153
100
AcDbEntity
  8
AM_9
100
AcDbLine
 10
-2.390041666666666
 20
2.501736111111112
 30
0.0
 11
-2.460041666666667
 21
2.501736111111112
 31
0.0
  0
LINE
  5
174
330
153
100
AcDbEntity
  8
AM_9
100
AcDbLine
 10
-2.390041666666666
 20
2.626775162083024
 30
0.0
 11
-2.460041666666667
 21
2.626775162083024
 31
0.0
  0
LINE
  5
175
330
153
100
AcDbEntity
  8
AM_9
100
AcDbLine
 10
-2.390041666666666
 20
-2.501736111111111
 30
0.0
 11
-2.460041666666667
 21
-2.501736111111111
 31
0.0
  0
LINE
  5
176
330
153
100
AcDbEntity
  8
AM_9
100
AcDbLine
 10
-2.460041666666667
 20
-2.629899944948514
 30
0.0
 11
-2.390041666666666
 21
-2.629899944948514
 31
0.0
  0
LINE
  5
177
330
153
100
AcDbEntity
  8
AM_9
100
AcDbLine
 10
-2.390041666666666
 20
2.158545856702089
 30
0.0
 11
-2.460041666666667
 21
2.158545856702089
 31
0.0
  0
LINE
  5
178
330
153
100
AcDbEntity
  8
AM_9
100
AcDbLine
 10
-2.390041666666666
 20
-2.158545856702089
 30
0.0
 11
-2.460041666666667
 21
-2.158545856702089
 31
0.0
  0
LINE
  5
179
330
153
100
AcDbEntity
  8
AM_9
100
AcDbLine
 10
-2.390041666666666
 20
1.614710760424492
 30
0.0
 11
-2.460041666666667
 21
1.614710760424494
 31
0.0
  0
LINE
  5
17A
330
153
100
AcDbEntity
  8
AM_9
100
AcDbLine
 10
-2.390041666666666
 20
-1.61471076042449
 30
0.0
 11
-2.460041666666667
 21
-1.61471076042449
 31
0.0
  0
LINE
  5
17B
330
153
100
AcDbEntity
  8
AM_9
100
AcDbLine
 10
-2.390041666666666
 20
1.437934065127855
 30
0.0
 11
-2.460041666666667
 21
1.437934065127855
 31
0.0
  0
LINE
  5
17C
330
153
100
AcDbEntity
  8
AM_9
100
AcDbLine
 10
-2.390041666666666
 20
-1.437934065127853
 30
0.0
 11
-2.460041666666667
 21
-1.437934065127853
 31
0.0
  0
LINE
  5
17D
330
153
100
AcDbEntity
  8
AM_9
100
AcDbLine
 10
-2.390041666666666
 20
1.857382916554247
 30
0.0
 11
-2.460041666666667
 21
1.857382916554247
 31
0.0
  0
LINE
  5
17E
330
153
100
AcDbEntity
  8
AM_9
100
AcDbLine
 10
-2.390041666666666
 20
1.680606221257611
 30
0.0
 11
-2.460041666666667
 21
1.680606221257611
 31
0.0
  0
LINE
  5
17F
330
153
100
AcDbEntity
  8
AM_9
100
AcDbLine
 10
-2.390041666666666
 20
-1.680606221257609
 30
0.0
 11
-2.460041666666667
 21
-1.680606221257609
 31
0.0
  0
LINE
  5
180
330
153
100
AcDbEntity
  8
AM_9
100
AcDbLine
 10
-2.390041666666666
 20
-1.857382916554249
 30
0.0
 11
-2.460041666666667
 21
-1.857382916554249
 31
0.0
  0
LINE
  5
181
330
153
100
AcDbEntity
  8
AM_9
100
AcDbLine
 10
-2.460041666666667
 20
-1.894022183899044
 30
0.0
 11
-2.390041666666666
 21
-1.894022183899044
 31
0.0
  0
LINE
  5
182
330
153
100
AcDbEntity
  8
AM_9
100
AcDbLine
 10
-2.390041666666666
 20
0.1250000000000009
 30
0.0
 11
-2.460041666666666
 21
0.1250000000000009
 31
0.0
  0
LINE
  5
183
330
153
100
AcDbEntity
  8
AM_9
100
AcDbLine
 10
-2.390041666666666
 20
-0.1249999999999987
 30
0.0
 11
-2.460041666666666
 21
-0.1249999999999987
 31
0.0
  0
LINE
  5
184
330
153
100
AcDbEntity
  8
AM_4
100
AcDbLine
 10
-2.390041666666666
 20
2.781249999999999
 30
0.0
 11
-2.460041666666667
 21
2.781249999999999
 31
0.0
  0
LINE
  5
185
330
153
100
AcDbEntity
  8
AM_4
100
AcDbLine
 10
-2.460041666666667
 20
-2.781249999999999
 30
0.0
 11
-2.390041666666666
 21
-2.781249999999999
 31
0.0
  0
LINE
  5
186
330
153
100
AcDbEntity
  8
AM_4
100
AcDbLine
 10
-2.460041666666667
 20
2.781249999999999
 30
0.0
 11
-2.460041666666667
 21
-2.781249999999999
 31
0.0
  0
LINE
  5
187
330
153
100
AcDbEntity
  8
AM_4
100
AcDbLine
 10
-2.390041666666666
 20
2.781249999999999
 30
0.0
 11
-2.390041666666666
 21
-2.781249999999999
 31
0.0
  0
ENDBLK
  5
156
330
153
100
AcDbEntity
  8
0
100
AcDbBlockEnd
  0
BLOCK
  5
18A
330
188
100
AcDbEntity
  8
0
100
AcDbBlockBegin
  2
6_070907I_0_in_069395_2
 70
     2
 10
0.0
 20
0.0
 30
0.0
  3
6_070907I_0_in_069395_2
  1

  0
ATTDEF
  5
18C
330
188
100
AcDbEntity
  8
AM_6
100
AcDbText
 10
7.23015625
 20
3.5433
 30
0.0
 40
0.5
  1
Imperial Insert -Inch
100
AcDbAttributeDefinition
  3

  2
NN
 70
     8
280
     0
  0
ATTDEF
  5
18D
330
188
100
AcDbEntity
  8
AM_6
100
AcDbText
 10
7.23015625
 20
3.0433
 30
0.0
 40
0.5
  1
Imperial Bearings
100
AcDbAttributeDefinition
  3

  2
NT
 70
     8
280
     0
  0
ATTDEF
  5
18E
330
188
100
AcDbEntity
  8
AM_6
100
AcDbText
 10
7.23015625
 20
2.5433
 30
0.0
 40
0.5
  1
070907I
100
AcDbAttributeDefinition
  3

  2
NB
 70
     8
280
     0
  0
ATTDEF
  5
18F
330
188
100
AcDbEntity
  8
AM_6
100
AcDbText
 10
7.23015625
 20
2.0433
 30
0.0
 40
0.5
  1
$PN.I
100
AcDbAttributeDefinition
  3

  2
NBSYN
 70
     8
280
     0
  0
ATTDEF
  5
190
330
188
100
AcDbEntity
  8
AM_6
100
AcDbText
 10
7.23015625
 20
1.5433
 30
0.0
 40
0.5
  1
070907
100
AcDbAttributeDefinition
  3

  2
LINA
 70
     8
280
     0
  0
ATTDEF
  5
191
330
188
100
AcDbEntity
  8
AM_6
100
AcDbText
 10
7.23015625
 20
1.0433
 30
0.0
 40
0.5
  1
4
100
AcDbAttributeDefinition
  3

  2
SS
 70
     8
280
     0
  0
ATTDEF
  5
192
330
188
100
AcDbEntity
  8
AM_6
100
AcDbText
 10
7.23015625
 20
0.5432999999999999
 30
0.0
 40
0.5
  1
4.000000
100
AcDbAttributeDefinition
  3

  2
SS1
 70
     8
280
     0
  0
ATTDEF
  5
193
330
188
100
AcDbEntity
  8
AM_6
100
AcDbText
 10
7.23015625
 20
0.0432999999999999
 30
0.0
 40
0.5
  1
070907
100
AcDbAttributeDefinition
  3

  2
PN
 70
     8
280
     0
  0
ATTDEF
  5
194
330
188
100
AcDbEntity
  8
AM_6
100
AcDbText
 10
7.23015625
 20
-0.4567000000000001
 30
0.0
 40
0.5
  1
INS-IP-400R
100
AcDbAttributeDefinition
  3

  2
DESCRIPTION
 70
     8
280
     0
  0
ATTDEF
  5
195
330
188
100
AcDbEntity
  8
AM_6
100
AcDbText
 10
7.23015625
 20
-0.9567000000000001
 30
0.0
 40
0.5
  1
Contact Seal
100
AcDbAttributeDefinition
  3

  2
ST
 70
     8
280
     0
  0
ATTDEF
  5
196
330
188
100
AcDbEntity
  8
AM_6
100
AcDbText
 10
7.23015625
 20
-1.4567
 30
0.0
 40
0.5
  1
7.0866
100
AcDbAttributeDefinition
  3

  2
A
 70
     8
280
     0
  0
ATTDEF
  5
197
330
188
100
AcDbEntity
  8
AM_6
100
AcDbText
 10
7.23015625
 20
-1.9567
 30
0.0
 40
0.5
  1
1-7/8
100
AcDbAttributeDefinition
  3

  2
B
 70
     8
280
     0
  0
ATTDEF
  5
198
330
188
100
AcDbEntity
  8
AM_6
100
AcDbText
 10
7.23015625
 20
-2.4567
 30
0.0
 40
0.5
  1
4-45/64
100
AcDbAttributeDefinition
  3

  2
C
 70
     8
280
     0
  0
ATTDEF
  5
199
330
188
100
AcDbEntity
  8
AM_6
100
AcDbText
 10
7.23015625
 20
-2.9567
 30
0.0
 40
0.5
  1
1.646
100
AcDbAttributeDefinition
  3

  2
D
 70
     8
280
     0
  0
ATTDEF
  5
19A
330
188
100
AcDbEntity
  8
AM_6
100
AcDbText
 10
7.23015625
 20
-3.4567
 30
0.0
 40
0.5
  1
5-9/16
100
AcDbAttributeDefinition
  3

  2
E
 70
     8
280
     0
  0
ATTDEF
  5
19B
330
188
100
AcDbEntity
  8
AM_6
100
AcDbText
 10
7.23015625
 20
-3.9567
 30
0.0
 40
0.5
  1
0.2500
100
AcDbAttributeDefinition
  3

  2
NDM
 70
     8
280
     0
  0
ATTDEF
  5
19C
330
188
100
AcDbEntity
  8
AM_6
100
AcDbText
 10
7.23015625
 20
-4.4567
 30
0.0
 40
0.5
  1
0.132
100
AcDbAttributeDefinition
  3

  2
H
 70
     8
280
     0
  0
ATTDEF
  5
19D
330
188
100
AcDbEntity
  8
AM_6
100
AcDbText
 10
7.23015625
 20
-4.9567
 30
0.0
 40
0.5
  1
0.1960
100
AcDbAttributeDefinition
  3

  2
KDM
 70
     8
280
     0
  0
ATTDEF
  5
19E
330
188
100
AcDbEntity
  8
AM_6
100
AcDbText
 10
7.23015625
 20
-5.4567
 30
0.0
 40
0.5
  1
4.83
100
AcDbAttributeDefinition
  3

  2
AL
 70
     8
280
     0
  0
ATTDEF
  5
19F
330
188
100
AcDbEntity
  8
AM_6
100
AcDbText
 10
7.23015625
 20
-5.9567
 30
0.0
 40
0.5
  1
0.50
100
AcDbAttributeDefinition
  3

  2
BL
 70
     8
280
     0
  0
ATTDEF
  5
1A0
330
188
100
AcDbEntity
  8
AM_6
100
AcDbText
 10
7.23015625
 20
-6.4567
 30
0.0
 40
0.5
  1
0.07
100
AcDbAttributeDefinition
  3

  2
CL
 70
     8
280
     0
  0
ATTDEF
  5
1A1
330
188
100
AcDbEntity
  8
AM_6
100
AcDbText
 10
7.23015625
 20
-6.9567
 30
0.0
 40
0.5
  1
0.50
100
AcDbAttributeDefinition
  3

  2
DL
 70
     8
280
     0
  0
ATTDEF
  5
1A2
330
188
100
AcDbEntity
  8
AM_6
100
AcDbText
 10
7.23015625
 20
-7.4567
 30
0.0
 40
0.5
  1
0.8000
100
AcDbAttributeDefinition
  3

  2
LL
 70
     8
280
     0
  0
ATTDEF
  5
1A3
330
188
100
AcDbEntity
  8
AM_6
100
AcDbText
 10
7.23015625
 20
-7.9567
 30
0.0
 40
0.5
  1
0.025
100
AcDbAttributeDefinition
  3

  2
Y
 70
     8
280
     0
  0
ATTDEF
  5
1A4
330
188
100
AcDbEntity
  8
AM_6
100
AcDbText
 10
7.23015625
 20
-8.4567
 30
0.0
 40
0.5
  1
0.025000
100
AcDbAttributeDefinition
  3

  2
Y1
 70
     8
280
     0
  0
ATTDEF
  5
1A5
330
188
100
AcDbEntity
  8
AM_6
100
AcDbText
 10
7.23015625
 20
-8.9567
 30
0.0
 40
0.5
  1
4-1/2
100
AcDbAttributeDefinition
  3

  2
Z
 70
     8
280
     0
  0
ATTDEF
  5
1A6
330
188
100
AcDbEntity
  8
AM_6
100
AcDbText
 10
7.23015625
 20
-9.4567
 30
0.0
 40
0.5
  1
4.500000
100
AcDbAttributeDefinition
  3

  2
Z1
 70
     8
280
     0
  0
ATTDEF
  5
1A7
330
188
100
AcDbEntity
  8
AM_6
100
AcDbText
 10
7.23015625
 20
-9.9567
 30
0.0
 40
0.5
  1
baldor
100
AcDbAttributeDefinition
  3

  2
COMPANY
 70
     8
280
     0
  0
LINE
  5
1A8
330
188
100
AcDbEntity
  8
AM_9
100
AcDbLine
 10
1.26025
 20
1.994554482391468
 30
0.0
 11
-2.390041666666666
 21
1.994554482391468
 31
0.0
  0
LINE
  5
1A9
330
188
100
AcDbEntity
  8
AM_9
100
AcDbLine
 10
1.26025
 20
1.898883624300195
 30
0.0
 11
-2.390041666666666
 21
1.898883624300195
 31
0.0
  0
LINE
  5
1AA
330
188
100
AcDbEntity
  8
AM_9
100
AcDbLine
 10
-1.550041666666662
 20
-2.501736111111111
 30
0.0
 11
-1.595716501782954
 21
-2.403786111111111
 31
0.0
  0
LINE
  5
1AB
330
188
100
AcDbEntity
  8
AM_9
100
AcDbLine
 10
-1.595716501782954
 20
-2.599686111111111
 30
0.0
 11
-1.550041666666662
 21
-2.501736111111111
 31
0.0
  0
LINE
  5
1AC
330
188
100
AcDbEntity
  8
AM_9
100
AcDbLine
 10
-1.550041666666667
 20
2.501736111111111
 30
0.0
 11
-1.595716501782949
 21
2.599686111111111
 31
0.0
  0
LINE
  5
1AD
330
188
100
AcDbEntity
  8
AM_9
100
AcDbLine
 10
-1.595716501782949
 20
2.403786111111111
 30
0.0
 11
-1.550041666666667
 21
2.501736111111111
 31
0.0
  0
LINE
  5
1AE
330
188
100
AcDbEntity
  8
AM_9
100
AcDbLine
 10
-2.362991666666664
 20
-2.599686111111111
 30
0.0
 11
-1.595716501782954
 21
-2.599686111111111
 31
0.0
  0
LINE
  5
1AF
330
188
100
AcDbEntity
  8
AM_9
100
AcDbLine
 10
-1.595716501782954
 20
-2.403786111111111
 30
0.0
 11
-2.362991666666664
 21
-2.403786111111111
 31
0.0
  0
LINE
  5
1B0
330
188
100
AcDbEntity
  8
AM_9
100
AcDbLine
 10
-1.595716501782954
 20
-2.403786111111111
 30
0.0
 11
-1.595716501782954
 21
-2.599686111111111
 31
0.0
  0
LINE
  5
1B1
330
188
100
AcDbEntity
  8
AM_9
100
AcDbLine
 10
-1.595716501782949
 20
2.403786111111111
 30
0.0
 11
-1.595716501782949
 21
2.599686111111111
 31
0.0
  0
LINE
  5
1B2
330
188
100
AcDbEntity
  8
AM_9
100
AcDbLine
 10
-1.595716501782949
 20
2.599686111111111
 30
0.0
 11
-2.362991666666667
 21
2.599686111111111
 31
0.0
  0
LINE
  5
1B3
330
188
100
AcDbEntity
  8
AM_9
100
AcDbLine
 10
-2.362991666666667
 20
2.403786111111111
 30
0.0
 11
-1.595716501782949
 21
2.403786111111111
 31
0.0
  0
LINE
  5
1B4
330
188
100
AcDbEntity
  8
AM_9
100
AcDbLine
 10
-2.362991666666667
 20
2.403786111111111
 30
0.0
 11
-2.362991666666667
 21
2.599686111111111
 31
0.0
  0
LINE
  5
1B5
330
188
100
AcDbEntity
  8
AM_9
100
AcDbLine
 10
-2.362991666666667
 20
2.599686111111111
 30
0.0
 11
-2.390041666666667
 21
2.626736111111111
 31
0.0
  0
LINE
  5
1B6
330
188
100
AcDbEntity
  8
AM_9
100
AcDbLine
 10
-2.390041666666667
 20
2.376736111111111
 30
0.0
 11
-2.362991666666667
 21
2.403786111111111
 31
0.0
  0
LINE
  5
1B7
330
188
100
AcDbEntity
  8
AM_9
100
AcDbLine
 10
-2.362991666666664
 20
-2.403786111111111
 30
0.0
 11
-2.390041666666683
 21
-2.376736111111111
 31
0.0
  0
LINE
  5
1B8
330
188
100
AcDbEntity
  8
AM_9
100
AcDbLine
 10
-2.390041666666683
 20
-2.626736111111111
 30
0.0
 11
-2.362991666666664
 21
-2.599686111111111
 31
0.0
  0
LINE
  5
1B9
330
188
100
AcDbEntity
  8
AM_9
100
AcDbLine
 10
-2.362991666666664
 20
-2.403786111111111
 30
0.0
 11
-2.362991666666664
 21
-2.599686111111111
 31
0.0
  0
LINE
  5
1BA
330
188
100
AcDbEntity
  8
AM_9
100
AcDbLine
 10
-1.890041666666667
 20
-1.530886181268876
 30
0.0
 11
-2.390041666666667
 21
-1.530886181268876
 31
0.0
  0
LINE
  5
1BB
330
188
100
AcDbEntity
  8
AM_9
100
AcDbLine
 10
-1.890041666666667
 20
1.530886181268875
 30
0.0
 11
-2.390041666666667
 21
1.530886181268875
 31
0.0
  0
LINE
  5
1BC
330
188
100
AcDbEntity
  8
AM_9
100
AcDbLine
 10
1.26025
 20
1.89198205842332
 30
0.0
 11
-2.734375
 21
1.891982058423321
 31
0.0
  0
LINE
  5
1BD
330
188
100
AcDbEntity
  8
AM_9
100
AcDbLine
 10
-2.734375
 20
1.796311200332048
 30
0.0
 11
1.26025
 21
1.796311200332047
 31
0.0
  0
LINE
  5
1BE
330
188
100
AcDbEntity
  8
AM_9
100
AcDbLine
 10
1.26025
 20
1.999999999999999
 30
0.0
 11
-2.734374999999999
 21
1.999999999999999
 31
0.0
  0
LINE
  5
1BF
330
188
100
AcDbEntity
  8
AM_9
100
AcDbLine
 10
-2.734374999999999
 20
-1.999999999999999
 30
0.0
 11
1.26025
 21
-1.999999999999999
 31
0.0
  0
LINE
  5
1C0
330
188
100
AcDbEntity
  8
AM_9
100
AcDbLine
 10
1.96875
 20
2.105263157894736
 30
0.0
 11
1.26025
 21
2.105263157894736
 31
0.0
  0
LINE
  5
1C1
330
188
100
AcDbEntity
  8
AM_9
100
AcDbLine
 10
1.26025
 20
-2.105263157894736
 30
0.0
 11
1.96875
 21
-2.105263157894736
 31
0.0
  0
LINE
  5
1C2
330
188
100
AcDbEntity
  8
AM_9
100
AcDbLine
 10
-2.734375
 20
1.98941348496946
 30
0.0
 11
-2.390041666666667
 21
1.989413484969461
 31
0.0
  0
LINE
  5
1C3
330
188
100
AcDbEntity
  8
AM_9
100
AcDbLine
 10
-2.390041666666667
 20
1.893742626878189
 30
0.0
 11
-2.734375
 21
1.893742626878188
 31
0.0
  0
LINE
  5
1C4
330
188
100
AcDbEntity
  8
AM_9
100
AcDbLine
 10
-2.390041666666667
 20
2.105263157894737
 30
0.0
 11
-2.460041666666667
 21
2.105263157894737
 31
0.0
  0
LINE
  5
1C5
330
188
100
AcDbEntity
  8
AM_9
100
AcDbLine
 10
-2.460041666666667
 20
-2.105263157894737
 30
0.0
 11
-2.390041666666667
 21
-2.105263157894737
 31
0.0
  0
LINE
  5
1C6
330
188
100
AcDbEntity
  8
AM_9
100
AcDbLine
 10
-1.890041666666667
 20
-1.530886181268876
 30
0.0
 11
-1.890041666666667
 21
-1.794299129942517
 31
0.0
  0
LINE
  5
1C7
330
188
100
AcDbEntity
  8
AM_9
100
AcDbLine
 10
-1.890041666666667
 20
1.794299129942516
 30
0.0
 11
-1.890041666666667
 21
1.530886181268875
 31
0.0
  0
LINE
  5
1C8
330
188
100
AcDbEntity
  8
AM_9
100
AcDbLine
 10
1.96875
 20
-2.25
 30
0.0
 11
1.96875
 21
2.25
 31
0.0
  0
LINE
  5
1C9
330
188
100
AcDbEntity
  8
AM_9
100
AcDbLine
 10
1.993749999999999
 20
2.25
 30
0.0
 11
1.96875
 21
2.25
 31
0.0
  0
LINE
  5
1CA
330
188
100
AcDbEntity
  8
AM_9
100
AcDbLine
 10
1.96875
 20
-2.25
 30
0.0
 11
1.993749999999999
 21
-2.25
 31
0.0
  0
LINE
  5
1CB
330
188
100
AcDbEntity
  8
AM_9
100
AcDbLine
 10
1.99375
 20
-0.6844681907156565
 30
0.0
 11
1.99375
 21
0.6844681907156565
 31
0.0
  0
LINE
  5
1CC
330
188
100
AcDbEntity
  8
AM_9
100
AcDbLine
 10
1.936057692307692
 20
-0.8337963652222163
 30
0.0
 11
1.936057692307692
 21
0.8337963652222163
 31
0.0
  0
LINE
  5
1CD
330
188
100
AcDbEntity
  8
AM_9
100
AcDbLine
 10
1.71875
 20
2.5
 30
0.0
 11
1.63525
 21
2.5
 31
0.0
  0
LINE
  5
1CE
330
188
100
AcDbEntity
  8
AM_9
100
AcDbLine
 10
1.63525
 20
-2.5
 30
0.0
 11
1.71875
 21
-2.5
 31
0.0
  0
LINE
  5
1CF
330
188
100
AcDbEntity
  8
AM_9
100
AcDbLine
 10
-1.71875
 20
-2.804692021553401
 30
0.0
 11
-0.61475
 21
-2.843244551072289
 31
0.0
  0
LINE
  5
1D0
330
188
100
AcDbEntity
  8
AM_9
100
AcDbLine
 10
-0.61475
 20
2.843244551072289
 30
0.0
 11
-1.71875
 21
2.804692021553401
 31
0.0
  0
LINE
  5
1D1
330
188
100
AcDbEntity
  8
AM_9
100
AcDbLine
 10
1.63525
 20
-3.069058622134927
 30
0.0
 11
1.63525
 21
3.069058622134927
 31
0.0
  0
ARC
  5
1D2
330
188
100
AcDbEntity
  8
AM_9
100
AcDbCircle
 10
1.535249999999998
 20
3.069058622134926
 30
0.0
 40
0.1000000000000023
100
AcDbArc
 50
0.0
 51
59.99999999999936
  0
ARC
  5
1D3
330
188
100
AcDbEntity
  8
AM_9
100
AcDbCircle
 10
1.535249999999998
 20
-3.069058622134926
 30
0.0
 40
0.1000000000000022
100
AcDbArc
 50
300.0000000000006
 51
0.0
  0
LINE
  5
1D4
330
188
100
AcDbEntity
  8
AM_9
100
AcDbLine
 10
1.58525
 20
3.155661162513371
 30
0.0
 11
1.26025
 21
3.3433
 31
0.0
  0
LINE
  5
1D5
330
188
100
AcDbEntity
  8
AM_9
100
AcDbLine
 10
1.26025
 20
-3.3433
 30
0.0
 11
1.58525
 21
-3.155661162513371
 31
0.0
  0
LINE
  5
1D6
330
188
100
AcDbEntity
  8
AM_9
100
AcDbLine
 10
1.58525
 20
-3.155661162513371
 30
0.0
 11
1.58525
 21
3.155661162513371
 31
0.0
  0
LINE
  5
1D7
330
188
100
AcDbEntity
  8
AM_9
100
AcDbLine
 10
0.3768765877365273
 20
3.44955
 30
0.0
 11
0.2686234122634728
 21
3.44955
 31
0.0
  0
LINE
  5
1D8
330
188
100
AcDbEntity
  8
AM_9
100
AcDbLine
 10
0.2686234122634728
 20
-3.44955
 30
0.0
 11
0.3768765877365273
 21
-3.44955
 31
0.0
  0
LINE
  5
1D9
330
188
100
AcDbEntity
  8
AM_9
100
AcDbLine
 10
0.214496824526945
 20
3.5433
 30
0.0
 11
-0.5647499999999992
 21
3.5433
 31
0.0
  0
LINE
  5
1DA
330
188
100
AcDbEntity
  8
AM_9
100
AcDbLine
 10
-0.5647499999999992
 20
-3.5433
 30
0.0
 11
0.214496824526945
 21
-3.5433
 31
0.0
  0
LINE
  5
1DB
330
188
100
AcDbEntity
  8
AM_9
100
AcDbLine
 10
0.2686234122634728
 20
3.44955
 30
0.0
 11
0.214496824526945
 21
3.5433
 31
0.0
  0
LINE
  5
1DC
330
188
100
AcDbEntity
  8
AM_9
100
AcDbLine
 10
0.214496824526945
 20
-3.5433
 30
0.0
 11
0.2686234122634728
 21
-3.44955
 31
0.0
  0
LINE
  5
1DD
330
188
100
AcDbEntity
  8
AM_9
100
AcDbLine
 10
0.2686234122634728
 20
-3.44955
 30
0.0
 11
0.2686234122634728
 21
3.44955
 31
0.0
  0
LINE
  5
1DE
330
188
100
AcDbEntity
  8
AM_9
100
AcDbLine
 10
0.214496824526945
 20
-3.5433
 30
0.0
 11
0.214496824526945
 21
3.5433
 31
0.0
  0
LINE
  5
1DF
330
188
100
AcDbEntity
  8
AM_9
100
AcDbLine
 10
0.3768765877365273
 20
-3.44955
 30
0.0
 11
0.4310031754730551
 21
-3.5433
 31
0.0
  0
LINE
  5
1E0
330
188
100
AcDbEntity
  8
AM_9
100
AcDbLine
 10
0.4310031754730551
 20
3.5433
 30
0.0
 11
0.3768765877365273
 21
3.44955
 31
0.0
  0
LINE
  5
1E1
330
188
100
AcDbEntity
  8
AM_9
100
AcDbLine
 10
0.3768765877365273
 20
-3.44955
 30
0.0
 11
0.3768765877365273
 21
3.44955
 31
0.0
  0
LINE
  5
1E2
330
188
100
AcDbEntity
  8
AM_9
100
AcDbLine
 10
-0.61475
 20
-3.493300000000001
 30
0.0
 11
-0.61475
 21
3.493300000000001
 31
0.0
  0
ARC
  5
1E3
330
188
100
AcDbEntity
  8
AM_9
100
AcDbCircle
 10
-0.564749999999998
 20
3.493299999999998
 30
0.0
 40
0.050000000000002
100
AcDbArc
 50
90.0
 51
180.0
  0
ARC
  5
1E4
330
188
100
AcDbEntity
  8
AM_9
100
AcDbCircle
 10
-0.564749999999998
 20
-3.493299999999998
 30
0.0
 40
0.050000000000002
100
AcDbArc
 50
180.0
 51
270.0
  0
LINE
  5
1E5
330
188
100
AcDbEntity
  8
AM_9
100
AcDbLine
 10
-0.5647499999999992
 20
-3.5433
 30
0.0
 11
-0.5647499999999992
 21
3.5433
 31
0.0
  0
LINE
  5
1E6
330
188
100
AcDbEntity
  8
AM_9
100
AcDbLine
 10
1.21025
 20
3.5433
 30
0.0
 11
0.4310031754730551
 21
3.5433
 31
0.0
  0
LINE
  5
1E7
330
188
100
AcDbEntity
  8
AM_9
100
AcDbLine
 10
0.4310031754730551
 20
-3.5433
 30
0.0
 11
1.21025
 21
-3.5433
 31
0.0
  0
LINE
  5
1E8
330
188
100
AcDbEntity
  8
AM_9
100
AcDbLine
 10
0.4310031754730551
 20
-3.5433
 30
0.0
 11
0.4310031754730551
 21
3.5433
 31
0.0
  0
LINE
  5
1E9
330
188
100
AcDbEntity
  8
AM_9
100
AcDbLine
 10
1.260249999999999
 20
-3.493300000000001
 30
0.0
 11
1.260249999999999
 21
3.493300000000001
 31
0.0
  0
ARC
  5
1EA
330
188
100
AcDbEntity
  8
AM_9
100
AcDbCircle
 10
1.210250000000001
 20
3.493300000000002
 30
0.0
 40
0.049999999999998
100
AcDbArc
 50
0.0
 51
90.0
  0
ARC
  5
1EB
330
188
100
AcDbEntity
  8
AM_9
100
AcDbCircle
 10
1.210250000000001
 20
-3.493300000000002
 30
0.0
 40
0.049999999999998
100
AcDbArc
 50
270.0
 51
0.0
  0
LINE
  5
1EC
330
188
100
AcDbEntity
  8
AM_9
100
AcDbLine
 10
1.21025
 20
-3.5433
 30
0.0
 11
1.21025
 21
3.5433
 31
0.0
  0
LINE
  5
1ED
330
188
100
AcDbEntity
  8
AM_5
100
AcDbLine
 10
-1.630041666666667
 20
2.599686111111111
 30
0.0
 11
-1.630041666666667
 21
2.626736111111111
 31
0.0
  0
LINE
  5
1EE
330
188
100
AcDbEntity
  8
AM_5
100
AcDbLine
 10
-1.630041666666667
 20
2.626736111111111
 30
0.0
 11
-1.614424341885087
 21
2.599686111111111
 31
0.0
  0
LINE
  5
1EF
330
188
100
AcDbEntity
  8
AM_5
100
AcDbLine
 10
-1.630041666666667
 20
2.403786111111111
 30
0.0
 11
-1.630041666666667
 21
2.376736111111111
 31
0.0
  0
LINE
  5
1F0
330
188
100
AcDbEntity
  8
AM_5
100
AcDbLine
 10
-1.630041666666667
 20
2.376736111111111
 30
0.0
 11
-1.614424341885087
 21
2.403786111111111
 31
0.0
  0
LINE
  5
1F1
330
188
100
AcDbEntity
  8
AM_5
100
AcDbLine
 10
-1.630041666666687
 20
-2.599686111111111
 30
0.0
 11
-1.630041666666687
 21
-2.626736111111111
 31
0.0
  0
LINE
  5
1F2
330
188
100
AcDbEntity
  8
AM_5
100
AcDbLine
 10
-1.630041666666687
 20
-2.626736111111111
 30
0.0
 11
-1.614424341885106
 21
-2.599686111111111
 31
0.0
  0
LINE
  5
1F3
330
188
100
AcDbEntity
  8
AM_5
100
AcDbLine
 10
-1.630041666666687
 20
-2.403786111111111
 30
0.0
 11
-1.630041666666687
 21
-2.376736111111111
 31
0.0
  0
LINE
  5
1F4
330
188
100
AcDbEntity
  8
AM_5
100
AcDbLine
 10
-1.630041666666687
 20
-2.376736111111111
 30
0.0
 11
-1.614424341885106
 21
-2.403786111111111
 31
0.0
  0
LINE
  5
1F7
330
188
100
AcDbEntity
  8
AM_7
100
AcDbLine
 10
2.23015625
 20
0.0
 30
0.0
 11
-2.970781249999999
 21
0.0
 31
0.0
  0
LINE
  5
1F8
330
188
100
AcDbEntity
  8
AM_7
100
AcDbLine
 10
-1.508041666666667
 20
2.501736111111111
 30
0.0
 11
-2.638641666666667
 21
2.501736111111111
 31
0.0
  0
LINE
  5
1F9
330
188
100
AcDbEntity
  8
AM_7
100
AcDbLine
 10
-1.508041666666661
 20
-2.501736111111111
 30
0.0
 11
-2.638641666666667
 21
-2.501736111111111
 31
0.0
  0
ARC
  5
1FA
330
188
100
AcDbEntity
  8
AM_4
100
AcDbCircle
 10
-2.340041666666667
 20
-2.73296556125965
 30
0.0
 40
0.0499999999999994
100
AcDbArc
 50
180.0
 51
268.0000000000005
  0
ARC
  5
1FB
330
188
100
AcDbEntity
  8
AM_4
100
AcDbCircle
 10
-2.340041666666667
 20
2.73296556125965
 30
0.0
 40
0.0499999999999994
100
AcDbArc
 50
91.99999999999952
 51
180.0
  0
LWPOLYLINE
  5
1FC
330
188
100
AcDbEntity
  8
AM_4
100
AcDbPolyline
 90
        6
 70
     0
 43
0.0
 10
-2.341786641501792
 20
-2.136652684401853
 10
-2.358173890176766
 20
-2.134257803231375
 10
-2.37252424865749
 20
-2.128162669148618
 10
-2.383246508438446
 20
-2.119042286506945
 10
-2.389139060913803
 20
-2.107888383254296
 10
-2.390041666666667
 20
-2.101172803044632
  0
LWPOLYLINE
  5
1FD
330
188
100
AcDbEntity
  8
AM_4
100
AcDbPolyline
 90
        6
 70
     0
 43
0.0
 10
-2.390041666666667
 20
2.101172803044632
 10
-2.389496249552766
 20
2.106402560521313
 10
-2.384234169704142
 20
2.117780018141493
 10
-2.373945136382742
 20
2.127266852350878
 10
-2.359830918800179
 20
2.133775567744502
 10
-2.341786641501792
 20
2.136652684401852
  0
LINE
  5
1FE
330
188
100
AcDbEntity
  8
AM_4
100
AcDbLine
 10
-1.890041666666667
 20
-1.884439571862149
 30
0.0
 11
-2.390041666666667
 21
-1.884439571862149
 31
0.0
  0
LINE
  5
1FF
330
188
100
AcDbEntity
  8
AM_4
100
AcDbLine
 10
-1.890041666666667
 20
1.884439571862148
 30
0.0
 11
-2.390041666666667
 21
1.884439571862148
 31
0.0
  0
LINE
  5
200
330
188
100
AcDbEntity
  8
AM_4
100
AcDbLine
 10
-2.460041666666667
 20
2.105263157894737
 30
0.0
 11
-2.734375
 21
2.105263157894737
 31
0.0
  0
LINE
  5
201
330
188
100
AcDbEntity
  8
AM_4
100
AcDbLine
 10
-2.734375
 20
-2.105263157894737
 30
0.0
 11
-2.460041666666667
 21
-2.105263157894737
 31
0.0
  0
LINE
  5
202
330
188
100
AcDbEntity
  8
AM_4
100
AcDbLine
 10
-2.734375
 20
-2.105263157894737
 30
0.0
 11
-2.734375
 21
2.105263157894737
 31
0.0
  0
LINE
  5
203
330
188
100
AcDbEntity
  8
AM_4
100
AcDbLine
 10
1.99375
 20
0.6844681907156565
 30
0.0
 11
1.99375
 21
2.442307692307693
 31
0.0
  0
LINE
  5
204
330
188
100
AcDbEntity
  8
AM_4
100
AcDbLine
 10
1.99375
 20
-2.442307692307693
 30
0.0
 11
1.99375
 21
-0.6844681907156565
 31
0.0
  0
ARC
  5
205
330
188
100
AcDbEntity
  8
AM_4
100
AcDbCircle
 10
1.936057692307692
 20
2.442307692307692
 30
0.0
 40
0.0576923076923084
100
AcDbArc
 50
0.0
 51
90.0
  0
ARC
  5
206
330
188
100
AcDbEntity
  8
AM_4
100
AcDbCircle
 10
1.936057692307692
 20
-2.442307692307692
 30
0.0
 40
0.0576923076923084
100
AcDbArc
 50
270.0
 51
0.0
  0
LINE
  5
207
330
188
100
AcDbEntity
  8
AM_4
100
AcDbLine
 10
1.936057692307692
 20
0.8337963652222163
 30
0.0
 11
1.936057692307691
 21
2.5
 31
0.0
  0
LINE
  5
208
330
188
100
AcDbEntity
  8
AM_4
100
AcDbLine
 10
1.936057692307691
 20
2.5
 30
0.0
 11
1.71875
 21
2.5
 31
0.0
  0
LINE
  5
209
330
188
100
AcDbEntity
  8
AM_4
100
AcDbLine
 10
1.71875
 20
-2.5
 30
0.0
 11
1.936057692307691
 21
-2.5
 31
0.0
  0
LINE
  5
20A
330
188
100
AcDbEntity
  8
AM_4
100
AcDbLine
 10
1.936057692307691
 20
-2.5
 30
0.0
 11
1.936057692307692
 21
-0.8337963652222163
 31
0.0
  0
LWPOLYLINE
  5
20B
330
188
100
AcDbEntity
  8
AM_4
100
AcDbPolyline
 90
        6
 70
     0
 43
0.0
 10
-2.341786641501792
 20
1.783099293808579
 10
-2.358173890176766
 20
1.780704412638101
 10
-2.372524248657491
 20
1.774609278555344
 10
-2.383246508438446
 20
1.765488895913672
 10
-2.389139060913803
 20
1.754334992661022
 10
-2.390041666666667
 20
1.747619412451358
  0
LWPOLYLINE
  5
20C
330
188
100
AcDbEntity
  8
AM_4
100
AcDbPolyline
 90
        6
 70
     0
 43
0.0
 10
-2.390041666666667
 20
-1.747619412451359
 10
-2.389496249552766
 20
-1.75284916992804
 10
-2.384234169704142
 20
-1.76422662754822
 10
-2.373945136382742
 20
-1.773713461757605
 10
-2.359830918800178
 20
-1.780222177151229
 10
-2.341786641501792
 20
-1.783099293808579
  0
LINE
  5
20D
330
188
100
AcDbEntity
  8
AM_4
100
AcDbLine
 10
-2.341786641501792
 20
-1.783099293808579
 30
0.0
 11
-2.341786641501792
 21
1.783099293808579
 31
0.0
  0
LINE
  5
20E
330
188
100
AcDbEntity
  8
AM_4
100
AcDbLine
 10
-2.341786641501792
 20
-1.783099293808579
 30
0.0
 11
-1.890041666666667
 21
-1.794299129942517
 31
0.0
  0
LINE
  5
20F
330
188
100
AcDbEntity
  8
AM_4
100
AcDbLine
 10
-1.890041666666667
 20
-1.794299129942517
 30
0.0
 11
-1.890041666666667
 21
-2.147852520535789
 31
0.0
  0
LINE
  5
210
330
188
100
AcDbEntity
  8
AM_4
100
AcDbLine
 10
-1.890041666666667
 20
-2.147852520535789
 30
0.0
 11
-2.341786641501792
 21
-2.136652684401853
 31
0.0
  0
LINE
  5
211
330
188
100
AcDbEntity
  8
AM_4
100
AcDbLine
 10
-2.341786641501792
 20
2.136652684401852
 30
0.0
 11
-2.341786641501792
 21
2.782935102610605
 31
0.0
  0
LINE
  5
212
330
188
100
AcDbEntity
  8
AM_4
100
AcDbLine
 10
-2.341786641501792
 20
2.136652684401852
 30
0.0
 11
-1.890041666666667
 21
2.147852520535789
 31
0.0
  0
LINE
  5
213
330
188
100
AcDbEntity
  8
AM_4
100
AcDbLine
 10
-1.890041666666667
 20
2.147852520535789
 30
0.0
 11
-1.890041666666667
 21
1.794299129942516
 31
0.0
  0
LINE
  5
214
330
188
100
AcDbEntity
  8
AM_4
100
AcDbLine
 10
-1.890041666666667
 20
1.794299129942516
 30
0.0
 11
-2.341786641501792
 21
1.783099293808579
 31
0.0
  0
LINE
  5
215
330
188
100
AcDbEntity
  8
AM_4
100
AcDbLine
 10
-2.341786641501792
 20
-2.782935102610605
 30
0.0
 11
-1.71875
 21
-2.804692021553401
 31
0.0
  0
LINE
  5
216
330
188
100
AcDbEntity
  8
AM_4
100
AcDbLine
 10
-1.71875
 20
2.804692021553401
 30
0.0
 11
-2.341786641501792
 21
2.782935102610605
 31
0.0
  0
LINE
  5
217
330
188
100
AcDbEntity
  8
AM_4
100
AcDbLine
 10
-2.341786641501792
 20
-2.782935102610605
 30
0.0
 11
-2.341786641501792
 21
-2.136652684401853
 31
0.0
  0
ENDBLK
  5
18B
330
188
100
AcDbEntity
  8
0
100
AcDbBlockEnd
  0
BLOCK
  5
21A
330
218
100
AcDbEntity
  8
0
100
AcDbBlockBegin
  2
7_069395H_0_in_069395_2
 70
     2
 10
0.0
 20
0.0
 30
0.0
  3
7_069395H_0_in_069395_2
  1

  0
ATTDEF
  5
21C
330
218
100
AcDbEntity
  8
AM_6
100
AcDbText
 10
7.107969583889095
 20
4.71875
 30
0.0
 40
0.5
  1
WSTU-IP -Housing -Inch
100
AcDbAttributeDefinition
  3

  2
NN
 70
     8
280
     0
  0
ATTDEF
  5
21D
330
218
100
AcDbEntity
  8
AM_6
100
AcDbText
 10
7.107969583889095
 20
4.21875
 30
0.0
 40
0.5
  1
Imperial Wide Slot Take-Up Bearings
100
AcDbAttributeDefinition
  3

  2
NT
 70
     8
280
     0
  0
ATTDEF
  5
21E
330
218
100
AcDbEntity
  8
AM_6
100
AcDbText
 10
7.107969583889095
 20
3.71875
 30
0.0
 40
0.5
  1
069395H
100
AcDbAttributeDefinition
  3

  2
NB
 70
     8
280
     0
  0
ATTDEF
  5
21F
330
218
100
AcDbEntity
  8
AM_6
100
AcDbText
 10
7.107969583889095
 20
3.21875
 30
0.0
 40
0.5
  1
$PN.H
100
AcDbAttributeDefinition
  3

  2
NBSYN
 70
     8
280
     0
  0
ATTDEF
  5
220
330
218
100
AcDbEntity
  8
AM_6
100
AcDbText
 10
7.107969583889095
 20
2.71875
 30
0.0
 40
0.5
  1
069395
100
AcDbAttributeDefinition
  3

  2
LINA
 70
     8
280
     0
  0
ATTDEF
  5
221
330
218
100
AcDbEntity
  8
AM_6
100
AcDbText
 10
7.107969583889095
 20
2.21875
 30
0.0
 40
0.5
  1
4
100
AcDbAttributeDefinition
  3

  2
SS
 70
     8
280
     0
  0
ATTDEF
  5
222
330
218
100
AcDbEntity
  8
AM_6
100
AcDbText
 10
7.107969583889095
 20
1.71875
 30
0.0
 40
0.5
  1
069395
100
AcDbAttributeDefinition
  3

  2
PN
 70
     8
280
     0
  0
ATTDEF
  5
223
330
218
100
AcDbEntity
  8
AM_6
100
AcDbText
 10
7.107969583889095
 20
1.21875
 30
0.0
 40
0.5
  1
WSTU-IP-400RE
100
AcDbAttributeDefinition
  3

  2
DESCRIPTION
 70
     8
280
     0
  0
ATTDEF
  5
224
330
218
100
AcDbEntity
  8
AM_6
100
AcDbText
 10
7.107969583889095
 20
0.71875
 30
0.0
 40
0.5
  1
Expansion
100
AcDbAttributeDefinition
  3

  2
EF
 70
     8
280
     0
  0
ATTDEF
  5
225
330
218
100
AcDbEntity
  8
AM_6
100
AcDbText
 10
7.107969583889095
 20
0.21875
 30
0.0
 40
0.5
  1
Contact Seal
100
AcDbAttributeDefinition
  3

  2
ST
 70
     8
280
     0
  0
ATTDEF
  5
226
330
218
100
AcDbEntity
  8
AM_6
100
AcDbText
 10
7.107969583889095
 20
-0.28125
 30
0.0
 40
0.5
  1
4-45/64
100
AcDbAttributeDefinition
  3

  2
A
 70
     8
280
     0
  0
ATTDEF
  5
227
330
218
100
AcDbEntity
  8
AM_6
100
AcDbText
 10
7.107969583889095
 20
-0.78125
 30
0.0
 40
0.5
  1
12-9/16
100
AcDbAttributeDefinition
  3

  2
B
 70
     8
280
     0
  0
ATTDEF
  5
228
330
218
100
AcDbEntity
  8
AM_6
100
AcDbText
 10
7.107969583889095
 20
-1.28125
 30
0.0
 40
0.5
  1
2-1/16
100
AcDbAttributeDefinition
  3

  2
C
 70
     8
280
     0
  0
ATTDEF
  5
229
330
218
100
AcDbEntity
  8
AM_6
100
AcDbText
 10
7.107969583889095
 20
-1.78125
 30
0.0
 40
0.5
  1
7
100
AcDbAttributeDefinition
  3

  2
D
 70
     8
280
     0
  0
ATTDEF
  5
22A
330
218
100
AcDbEntity
  8
AM_6
100
AcDbText
 10
7.107969583889095
 20
-2.28125
 30
0.0
 40
0.5
  1
8-3/8
100
AcDbAttributeDefinition
  3

  2
E
 70
     8
280
     0
  0
ATTDEF
  5
22B
330
218
100
AcDbEntity
  8
AM_6
100
AcDbText
 10
7.107969583889095
 20
-2.78125
 30
0.0
 40
0.5
  1
2-1/8
100
AcDbAttributeDefinition
  3

  2
F
 70
     8
280
     0
  0
ATTDEF
  5
22C
330
218
100
AcDbEntity
  8
AM_6
100
AcDbText
 10
7.107969583889095
 20
-3.28125
 30
0.0
 40
0.5
  1
2-1/16
100
AcDbAttributeDefinition
  3

  2
G
 70
     8
280
     0
  0
ATTDEF
  5
22D
330
218
100
AcDbEntity
  8
AM_6
100
AcDbText
 10
7.107969583889095
 20
-3.78125
 30
0.0
 40
0.5
  1
2-1/8
100
AcDbAttributeDefinition
  3

  2
H
 70
     8
280
     0
  0
ATTDEF
  5
22E
330
218
100
AcDbEntity
  8
AM_6
100
AcDbText
 10
7.107969583889095
 20
-4.28125
 30
0.0
 40
0.5
  1
6
100
AcDbAttributeDefinition
  3

  2
J
 70
     8
280
     0
  0
ATTDEF
  5
22F
330
218
100
AcDbEntity
  8
AM_6
100
AcDbText
 10
7.107969583889095
 20
-4.78125
 30
0.0
 40
0.5
  1
3-3/8
100
AcDbAttributeDefinition
  3

  2
K
 70
     8
280
     0
  0
ATTDEF
  5
230
330
218
100
AcDbEntity
  8
AM_6
100
AcDbText
 10
7.107969583889095
 20
-5.28125
 30
0.0
 40
0.5
  1
5-9/16
100
AcDbAttributeDefinition
  3

  2
L
 70
     8
280
     0
  0
ATTDEF
  5
231
330
218
100
AcDbEntity
  8
AM_6
100
AcDbText
 10
7.107969583889095
 20
-5.78125
 30
0.0
 40
0.5
  1
8-5/8
100
AcDbAttributeDefinition
  3

  2
M
 70
     8
280
     0
  0
ATTDEF
  5
232
330
218
100
AcDbEntity
  8
AM_6
100
AcDbText
 10
7.107969583889095
 20
-6.28125
 30
0.0
 40
0.5
  1
9-7/16
100
AcDbAttributeDefinition
  3

  2
N
 70
     8
280
     0
  0
ATTDEF
  5
233
330
218
100
AcDbEntity
  8
AM_6
100
AcDbText
 10
7.107969583889095
 20
-6.78125
 30
0.0
 40
0.5
  1
4-51/64
100
AcDbAttributeDefinition
  3

  2
R
 70
     8
280
     0
  0
ATTDEF
  5
234
330
218
100
AcDbEntity
  8
AM_6
100
AcDbText
 10
7.107969583889095
 20
-7.28125
 30
0.0
 40
0.5
  1
3-3/64
100
AcDbAttributeDefinition
  3

  2
S
 70
     8
280
     0
  0
ATTDEF
  5
235
330
218
100
AcDbEntity
  8
AM_6
100
AcDbText
 10
7.107969583889095
 20
-7.78125
 30
0.0
 40
0.5
  1
3-7/16
100
AcDbAttributeDefinition
  3

  2
T
 70
     8
280
     0
  0
ATTDEF
  5
236
330
218
100
AcDbEntity
  8
AM_6
100
AcDbText
 10
7.107969583889095
 20
-8.28125
 30
0.0
 40
0.5
  1
5/16
100
AcDbAttributeDefinition
  3

  2
X
 70
     8
280
     0
  0
ATTDEF
  5
237
330
218
100
AcDbEntity
  8
AM_6
100
AcDbText
 10
7.107969583889095
 20
-8.78125
 30
0.0
 40
0.5
  1
0.025
100
AcDbAttributeDefinition
  3

  2
Y
 70
     8
280
     0
  0
ATTDEF
  5
238
330
218
100
AcDbEntity
  8
AM_6
100
AcDbText
 10
7.107969583889095
 20
-9.28125
 30
0.0
 40
0.5
  1
4-1/2
100
AcDbAttributeDefinition
  3

  2
Z
 70
     8
280
     0
  0
ATTDEF
  5
239
330
218
100
AcDbEntity
  8
AM_6
100
AcDbText
 10
7.107969583889095
 20
-9.78125
 30
0.0
 40
0.5
  1
baldor
100
AcDbAttributeDefinition
  3

  2
COMPANY
 70
     8
280
     0
  0
LWPOLYLINE
  5
23A
330
218
100
AcDbEntity
  8
AM_9
100
AcDbPolyline
 90
        4
 70
     0
 43
0.0
 10
0.4738961582736987
 20
-1.419693549124221
 10
0.4928055719315967
 20
-1.490266678724688
 10
0.4999999496989333
 20
-1.56845715982317
 10
0.4999999999999997
 20
-1.568665109929132
  0
LWPOLYLINE
  5
23B
330
218
100
AcDbEntity
  8
AM_9
100
AcDbPolyline
 90
       16
 70
     0
 43
0.0
 10
-0.4319652623864672
 20
-1.332356446503592
 10
-0.4082536655516688
 20
-1.297363430900446
 10
-0.3543921398185773
 20
-1.236061150070991
 10
-0.2900912497322046
 20
-1.183698653992015
 10
-0.2175804511145848
 20
-1.14217776925525
 10
-0.1387637957763407
 20
-1.1129826653192
 10
-0.055981133573793
 20
-1.096906786048862
 10
0.0279084226592379
 20
-1.094660383475866
 10
0.1110072828857444
 20
-1.105975507670123
 10
0.1906827606674688
 20
-1.130576781661042
 10
0.2650231791237847
 20
-1.167492335715948
 10
0.3321827398489552
 20
-1.215975519832446
 10
0.3900376188170469
 20
-1.274218463562519
 10
0.4370499547808366
 20
-1.340932004411927
 10
0.4717137652796747
 20
-1.413717946223558
 10
0.4738961582736987
 20
-1.419693549124221
  0
LWPOLYLINE
  5
23C
330
218
100
AcDbEntity
  8
AM_9
100
AcDbPolyline
 90
        5
 70
     0
 43
0.0
 10
-0.5000000000000001
 20
-1.56866510992913
 10
-0.4968332994569558
 20
-1.516430757352164
 10
-0.4804623973086062
 20
-1.439646047767048
 10
-0.4507514083413128
 20
-1.365939172327212
 10
-0.4319652623864672
 20
-1.332356446503592
  0
ELLIPSE
  5
23D
330
218
100
AcDbEntity
  8
AM_9
100
AcDbEllipse
 10
-0.0000000000000002
 20
-1.606125769270723
 30
0.0
 11
0.3999999999999997
 21
0.0
 31
0.0
210
0.0
220
0.0
230
1.0
 40
0.9271838545667879
 41
0.0
 42
6.283185307179586
  0
LINE
  5
23E
330
218
100
AcDbEntity
  8
AM_9
100
AcDbLine
 10
0.4999978929091876
 20
-1.570032785418359
 30
0.0
 11
0.4999991781211315
 21
-1.567810937352182
 31
0.0
  0
LWPOLYLINE
  5
23F
330
218
100
AcDbEntity
  8
AM_9
100
AcDbPolyline
 90
       21
 70
     0
 43
0.0
 10
-0.0000000000000002
 20
-2.039538651755847
 10
0.0242060688556853
 20
-2.038987030523081
 10
0.0660508132923824
 20
-2.035415725555318
 10
0.1074508688482911
 20
-2.028546736933215
 10
0.1481036872462385
 20
-2.018425673534485
 10
0.1877195023176747
 20
-2.00512118295864
 10
0.2260150779171783
 20
-1.988725146382542
 10
0.2627158539332171
 20
-1.969352348428945
 10
0.2975581682877866
 20
-1.947139951258119
 10
0.3302915268734977
 20
-1.922246721247428
 10
0.3606808749144835
 20
-1.894851959133486
 10
0.3885087989027388
 20
-1.865154098714025
 10
0.4135775693406649
 20
-1.833368964661743
 10
0.4357109266839991
 20
-1.799727714209232
 10
0.4547555205535184
 20
-1.764474524959897
 10
0.470581936862185
 20
-1.727864124285786
 10
0.4830852862209742
 20
-1.690159276904238
 10
0.4921853731179744
 20
-1.651628350622463
 10
0.4978265098540769
 20
-1.612543064186721
 10
0.4999770731317345
 20
-1.573176488432318
 10
0.4999978929091876
 20
-1.570032785418359
  0
LWPOLYLINE
  5
240
330
218
100
AcDbEntity
  8
AM_9
100
AcDbPolyline
 90
       19
 70
     0
 43
0.0
 10
-0.4943316742682503
 20
-1.639399407445267
 10
-0.4896842312397189
 20
-1.663864063292724
 10
-0.4795427040016603
 20
-1.702035789279667
 10
-0.4660574830143456
 20
-1.73926828207097
 10
-0.4493212769264189
 20
-1.775307742582491
 10
-0.4294476384068642
 20
-1.809907639132333
 10
-0.4065707496026861
 20
-1.842829945959606
 10
-0.3808451417118301
 20
-1.873846557942562
 10
-0.3524452519014977
 20
-1.902740870326398
 10
-0.3215647379658948
 20
-1.929309474856327
 10
-0.2884155019261506
 20
-1.953363897398511
 10
-0.2532264110084591
 20
-1.974732291217584
 10
-0.2162417399942236
 20
-1.993261005130346
 10
-0.1777193859805092
 20
-2.008815963702319
 10
-0.1379289211550699
 20
-2.021283821989947
 10
-0.0971495507233566
 20
-2.03057288388807
 10
-0.0556680339101422
 20
-2.03661379573992
 10
-0.0137766098679758
 20
-2.03936004228651
 10
-0.0000000000000002
 20
-2.039538651755847
  0
LINE
  5
241
330
218
100
AcDbEntity
  8
AM_9
100
AcDbLine
 10
-0.4999927440600382
 20
-1.571203083848147
 30
0.0
 11
-0.4999717466732214
 21
-1.573673181571598
 31
0.0
  0
LWPOLYLINE
  5
242
330
218
100
AcDbEntity
  8
AM_9
100
AcDbPolyline
 90
        5
 70
     0
 43
0.0
 10
-0.4559086363279341
 20
-1.757127858365378
 10
-0.4617641419921312
 20
-1.744696290120702
 10
-0.487483044856986
 20
-1.671193482119588
 10
-0.4968503438454648
 20
-1.620393786463859
 10
-0.5000000000000001
 20
-1.56866510992913
  0
LWPOLYLINE
  5
243
330
218
100
AcDbEntity
  8
AM_9
100
AcDbPolyline
 90
       18
 70
     0
 43
0.0
 10
0.4999999999999997
 20
-1.568665109929132
 10
0.4929518653891655
 20
-1.645637550419905
 10
0.4722100304966808
 20
-1.71985791262867
 10
0.4381473152055141
 20
-1.789320459928152
 10
0.3919255617591978
 20
-1.852214383418196
 10
0.3343014950860689
 20
-1.90714564061429
 10
0.2672732295998503
 20
-1.952457271338544
 10
0.1923480215842528
 20
-1.986976293744245
 10
0.1119322582080756
 20
-2.009833111083032
 10
0.0563282561065046
 20
-2.018217526907228
 10
-0.0000000000000002
 20
-2.021034607497117
 10
-0.0835988748608911
 20
-2.014780317565164
 10
-0.1648331951321651
 20
-1.996342221713845
 10
-0.2413363077768071
 20
-1.966029630419905
 10
-0.3110736893685452
 20
-1.924742269949368
 10
-0.3722581266909346
 20
-1.873101767045989
 10
-0.4229837376089786
 20
-1.81268552961582
 10
-0.4559086363279341
 20
-1.757127858365378
  0
ELLIPSE
  5
244
330
218
100
AcDbEntity
  8
AM_9
100
AcDbEllipse
 10
-0.0000000000000002
 20
-1.568665109929132
 30
0.0
 11
-0.5
 21
6.123233995736766E-17
 31
0.0
210
0.0
220
0.0
230
1.0
 40
0.9271838545667875
 41
3.141592653589793
 42
9.08810669345052
  0
LINE
  5
245
330
218
100
AcDbEntity
  8
AM_9
100
AcDbLine
 10
-1.26328125
 20
2.29894676971869
 30
0.0
 11
1.26328125
 21
2.29894676971869
 31
0.0
  0
LINE
  5
246
330
218
100
AcDbEntity
  8
AM_9
100
AcDbLine
 10
1.26328125
 20
-2.29894676971869
 30
0.0
 11
-1.26328125
 21
-2.29894676971869
 31
0.0
  0
LINE
  5
247
330
218
100
AcDbEntity
  8
AM_9
100
AcDbLine
 10
-1.71875
 20
-3.5433
 30
0.0
 11
1.71875
 21
-3.5433
 31
0.0
  0
LINE
  5
248
330
218
100
AcDbEntity
  8
AM_9
100
AcDbLine
 10
1.71875
 20
3.5433
 30
0.0
 11
-1.71875
 21
3.5433
 31
0.0
  0
LINE
  5
249
330
218
100
AcDbEntity
  8
AM_9
100
AcDbLine
 10
1.71875
 20
1.220423780537549
 30
0.0
 11
1.71875
 21
-1.220423780537549
 31
0.0
  0
LINE
  5
24A
330
218
100
AcDbEntity
  8
AM_9
100
AcDbLine
 10
-1.71875
 20
1.220423780537549
 30
0.0
 11
-1.71875
 21
-1.220423780537549
 31
0.0
  0
LINE
  5
24B
330
218
100
AcDbEntity
  8
AM_9
100
AcDbLine
 10
-1.506249999999999
 20
1.474702242522728
 30
0.0
 11
-1.506249999999999
 21
-1.474702242522728
 31
0.0
  0
LINE
  5
24C
330
218
100
AcDbEntity
  8
AM_9
100
AcDbLine
 10
1.50625
 20
1.474702242522728
 30
0.0
 11
1.50625
 21
-1.474702242522728
 31
0.0
  0
LINE
  5
24D
330
218
100
AcDbEntity
  8
AM_9
100
AcDbLine
 10
-1.26328125
 20
-1.510416666666667
 30
0.0
 11
1.26328125
 21
-1.510416666666667
 31
0.0
  0
LINE
  5
24E
330
218
100
AcDbEntity
  8
AM_9
100
AcDbLine
 10
-1.26328125
 20
-1.6875
 30
0.0
 11
1.26328125
 21
-1.6875
 31
0.0
  0
LINE
  5
24F
330
218
100
AcDbEntity
  8
AM_9
100
AcDbLine
 10
-1.26328125
 20
1.510416666666667
 30
0.0
 11
1.26328125
 21
1.510416666666667
 31
0.0
  0
LINE
  5
250
330
218
100
AcDbEntity
  8
AM_9
100
AcDbLine
 10
-1.26328125
 20
1.6875
 30
0.0
 11
1.26328125
 21
1.6875
 31
0.0
  0
LINE
  5
251
330
218
100
AcDbEntity
  8
AM_9
100
AcDbLine
 10
-1.26328125
 20
1.6875
 30
0.0
 11
-1.26328125
 21
-1.6875
 31
0.0
  0
LINE
  5
252
330
218
100
AcDbEntity
  8
AM_9
100
AcDbLine
 10
1.26328125
 20
-1.6875
 30
0.0
 11
1.26328125
 21
1.6875
 31
0.0
  0
LINE
  5
253
330
218
100
AcDbEntity
  8
AM_7
100
AcDbLine
 10
0.0000000000000005
 20
-1.115625
 30
0.0
 11
0.0000000000000005
 21
1.115625
 31
0.0
  0
LINE
  5
254
330
218
100
AcDbEntity
  8
AM_4
100
AcDbLine
 10
1.03125
 20
-4.71875
 30
0.0
 11
1.03125
 21
-4.3125
 31
0.0
  0
LINE
  5
255
330
218
100
AcDbEntity
  8
AM_4
100
AcDbLine
 10
-1.546875
 20
-4.71875
 30
0.0
 11
-1.546875
 21
-2.291799836340218
 31
0.0
  0
LINE
  5
256
330
218
100
AcDbEntity
  8
AM_4
100
AcDbLine
 10
1.03125
 20
-4.3125
 30
0.0
 11
-1.03125
 21
-4.3125
 31
0.0
  0
LINE
  5
257
330
218
100
AcDbEntity
  8
AM_4
100
AcDbLine
 10
-1.03125
 20
-4.3125
 30
0.0
 11
-1.03125
 21
-4.71875
 31
0.0
  0
LINE
  5
258
330
218
100
AcDbEntity
  8
AM_4
100
AcDbLine
 10
1.546875
 20
-4.71875
 30
0.0
 11
1.546875
 21
-2.291799836340218
 31
0.0
  0
LINE
  5
259
330
218
100
AcDbEntity
  8
AM_4
100
AcDbLine
 10
-1.546875
 20
-4.506249999999999
 30
0.0
 11
-1.03125
 21
-4.506249999999999
 31
0.0
  0
LINE
  5
25A
330
218
100
AcDbEntity
  8
AM_4
100
AcDbLine
 10
-1.546875
 20
-4.71875
 30
0.0
 11
-1.03125
 21
-4.71875
 31
0.0
  0
LINE
  5
25B
330
218
100
AcDbEntity
  8
AM_4
100
AcDbLine
 10
-1.546875
 20
2.291799836340218
 30
0.0
 11
-1.546875
 21
4.71875
 31
0.0
  0
LINE
  5
25C
330
218
100
AcDbEntity
  8
AM_4
100
AcDbLine
 10
-1.03125
 20
4.71875
 30
0.0
 11
-1.03125
 21
4.3125
 31
0.0
  0
LINE
  5
25D
330
218
100
AcDbEntity
  8
AM_4
100
AcDbLine
 10
-1.546875
 20
4.71875
 30
0.0
 11
-1.03125
 21
4.71875
 31
0.0
  0
LINE
  5
25E
330
218
100
AcDbEntity
  8
AM_4
100
AcDbLine
 10
-1.546875
 20
4.506249999999999
 30
0.0
 11
-1.03125
 21
4.506249999999999
 31
0.0
  0
LINE
  5
25F
330
218
100
AcDbEntity
  8
AM_4
100
AcDbLine
 10
1.546875
 20
2.291799836340218
 30
0.0
 11
1.546875
 21
4.71875
 31
0.0
  0
LINE
  5
260
330
218
100
AcDbEntity
  8
AM_4
100
AcDbLine
 10
1.03125
 20
4.3125
 30
0.0
 11
1.03125
 21
4.71875
 31
0.0
  0
LINE
  5
261
330
218
100
AcDbEntity
  8
AM_4
100
AcDbLine
 10
-1.03125
 20
4.3125
 30
0.0
 11
1.03125
 21
4.3125
 31
0.0
  0
LINE
  5
262
330
218
100
AcDbEntity
  8
AM_4
100
AcDbLine
 10
1.03125
 20
-4.71875
 30
0.0
 11
1.546875
 21
-4.71875
 31
0.0
  0
LINE
  5
263
330
218
100
AcDbEntity
  8
AM_4
100
AcDbLine
 10
1.03125
 20
-4.506249999999999
 30
0.0
 11
1.546875
 21
-4.506249999999999
 31
0.0
  0
LINE
  5
264
330
218
100
AcDbEntity
  8
AM_4
100
AcDbLine
 10
1.03125
 20
4.506249999999999
 30
0.0
 11
1.546875
 21
4.506249999999999
 31
0.0
  0
LINE
  5
265
330
218
100
AcDbEntity
  8
AM_4
100
AcDbLine
 10
1.03125
 20
4.71875
 30
0.0
 11
1.546875
 21
4.71875
 31
0.0
  0
LWPOLYLINE
  5
266
330
218
100
AcDbEntity
  8
AM_4
100
AcDbPolyline
 90
        3
 70
     0
 43
0.0
 10
1.50625
 20
2.29894676971869
 10
1.536262045094904
 20
2.2950646707458
 10
1.546875
 20
2.291799836340218
  0
LWPOLYLINE
  5
267
330
218
100
AcDbEntity
  8
AM_4
100
AcDbPolyline
 90
        3
 70
     0
 43
0.0
 10
1.546875
 20
-2.291799836340218
 10
1.514435693930595
 20
-2.298659474674317
 10
1.50625
 20
-2.29894676971869
  0
LINE
  5
268
330
218
100
AcDbEntity
  8
AM_4
100
AcDbLine
 10
1.71875
 20
-1.220423780537549
 30
0.0
 11
1.71875
 21
-3.975
 31
0.0
  0
LINE
  5
269
330
218
100
AcDbEntity
  8
AM_4
100
AcDbLine
 10
1.71875
 20
3.975
 30
0.0
 11
1.71875
 21
1.220423780537549
 31
0.0
  0
ARC
  5
26A
330
218
100
AcDbEntity
  8
AM_4
100
AcDbCircle
 10
1.506249999999999
 20
-3.974999999999999
 30
0.0
 40
0.2125000000000014
100
AcDbArc
 50
281.0214496355171
 51
0.0
  0
ARC
  5
26B
330
218
100
AcDbEntity
  8
AM_4
100
AcDbCircle
 10
1.506249999999999
 20
3.974999999999999
 30
0.0
 40
0.2125000000000012
100
AcDbArc
 50
0.0
 51
78.97855036448294
  0
LWPOLYLINE
  5
26C
330
218
100
AcDbEntity
  8
AM_4
100
AcDbPolyline
 90
        3
 70
     0
 43
0.0
 10
-1.506249999999999
 20
-2.29894676971869
 10
-1.514435693930594
 20
-2.298659474674317
 10
-1.546875
 20
-2.291799836340218
  0
LWPOLYLINE
  5
26D
330
218
100
AcDbEntity
  8
AM_4
100
AcDbPolyline
 90
        3
 70
     0
 43
0.0
 10
-1.546875
 20
2.291799836340218
 10
-1.536262045094903
 20
2.295064670745798
 10
-1.506249999999999
 20
2.29894676971869
  0
LINE
  5
26E
330
218
100
AcDbEntity
  8
AM_4
100
AcDbLine
 10
-1.71875
 20
-1.220423780537549
 30
0.0
 11
-1.71875
 21
-3.975000000000001
 31
0.0
  0
LINE
  5
26F
330
218
100
AcDbEntity
  8
AM_4
100
AcDbLine
 10
-1.71875
 20
3.975000000000001
 30
0.0
 11
-1.71875
 21
1.220423780537549
 31
0.0
  0
ARC
  5
270
330
218
100
AcDbEntity
  8
AM_4
100
AcDbCircle
 10
-1.506249999999999
 20
-3.975
 30
0.0
 40
0.2125000000000008
100
AcDbArc
 50
180.0
 51
258.978550364483
  0
ARC
  5
271
330
218
100
AcDbEntity
  8
AM_4
100
AcDbCircle
 10
-1.506249999999998
 20
3.974999999999999
 30
0.0
 40
0.212500000000002
100
AcDbArc
 50
101.0214496355172
 51
180.0
  0
LINE
  5
272
330
218
100
AcDbEntity
  8
AM_4
100
AcDbLine
 10
-1.26328125
 20
2.29894676971869
 30
0.0
 11
-1.506249999999999
 21
2.29894676971869
 31
0.0
  0
LINE
  5
273
330
218
100
AcDbEntity
  8
AM_4
100
AcDbLine
 10
-1.506249999999999
 20
-1.474702242522728
 30
0.0
 11
-1.506249999999999
 21
-2.29894676971869
 31
0.0
  0
LINE
  5
274
330
218
100
AcDbEntity
  8
AM_4
100
AcDbLine
 10
-1.506249999999999
 20
2.29894676971869
 30
0.0
 11
-1.506249999999999
 21
1.474702242522728
 31
0.0
  0
LINE
  5
275
330
218
100
AcDbEntity
  8
AM_4
100
AcDbLine
 10
-1.506249999999999
 20
-2.29894676971869
 30
0.0
 11
-1.26328125
 21
-2.29894676971869
 31
0.0
  0
LINE
  5
276
330
218
100
AcDbEntity
  8
AM_4
100
AcDbLine
 10
1.26328125
 20
-2.29894676971869
 30
0.0
 11
1.50625
 21
-2.29894676971869
 31
0.0
  0
LINE
  5
277
330
218
100
AcDbEntity
  8
AM_4
100
AcDbLine
 10
1.50625
 20
-1.474702242522728
 30
0.0
 11
1.50625
 21
-2.29894676971869
 31
0.0
  0
LINE
  5
278
330
218
100
AcDbEntity
  8
AM_4
100
AcDbLine
 10
1.50625
 20
2.29894676971869
 30
0.0
 11
1.50625
 21
1.474702242522728
 31
0.0
  0
LINE
  5
279
330
218
100
AcDbEntity
  8
AM_4
100
AcDbLine
 10
1.50625
 20
2.29894676971869
 30
0.0
 11
1.26328125
 21
2.29894676971869
 31
0.0
  0
LINE
  5
27A
330
218
100
AcDbEntity
  8
AM_4
100
AcDbLine
 10
-1.263281249999999
 20
2.7875
 30
0.0
 11
-1.263281249999999
 21
1.6875
 31
0.0
  0
LINE
  5
27B
330
218
100
AcDbEntity
  8
AM_4
100
AcDbLine
 10
-1.263281249999999
 20
-1.6875
 30
0.0
 11
-1.263281249999999
 21
-2.7875
 31
0.0
  0
LINE
  5
27C
330
218
100
AcDbEntity
  8
AM_4
100
AcDbLine
 10
1.26328125
 20
-2.787499999999999
 30
0.0
 11
1.26328125
 21
-1.6875
 31
0.0
  0
LINE
  5
27D
330
218
100
AcDbEntity
  8
AM_4
100
AcDbLine
 10
1.26328125
 20
1.6875
 30
0.0
 11
1.26328125
 21
2.7875
 31
0.0
  0
ARC
  5
27E
330
218
100
AcDbEntity
  8
AM_4
100
AcDbCircle
 10
1.05078125
 20
2.787499999999999
 30
0.0
 40
0.2124999999999999
100
AcDbArc
 50
0.0
 51
90.0
  0
LINE
  5
27F
330
218
100
AcDbEntity
  8
AM_4
100
AcDbLine
 10
1.050781250000001
 20
3.0
 30
0.0
 11
-1.050781249999999
 21
3.0
 31
0.0
  0
CIRCLE
  5
280
330
218
100
AcDbEntity
  8
AM_4
100
AcDbCircle
 10
0.0000000000000005
 20
0.0
 30
0.0
 40
1.0625
  0
ARC
  5
281
330
218
100
AcDbEntity
  8
AM_4
100
AcDbCircle
 10
0.0000000000000007
 20
0.0
 30
0.0
 40
2.107969583889095
100
AcDbArc
 50
126.81893410179
 51
233.18106589821
  0
ARC
  5
282
330
218
100
AcDbEntity
  8
AM_4
100
AcDbCircle
 10
-1.05078125
 20
-2.787500000000001
 30
0.0
 40
0.2124999999999992
100
AcDbArc
 50
180.0
 51
270.0
  0
LINE
  5
283
330
218
100
AcDbEntity
  8
AM_4
100
AcDbLine
 10
-1.05078125
 20
-3.0
 30
0.0
 11
1.05078125
 21
-3.0
 31
0.0
  0
ARC
  5
284
330
218
100
AcDbEntity
  8
AM_4
100
AcDbCircle
 10
1.05078125
 20
-2.7875
 30
0.0
 40
0.2124999999999999
100
AcDbArc
 50
270.0
 51
0.0
  0
ARC
  5
285
330
218
100
AcDbEntity
  8
AM_4
100
AcDbCircle
 10
0.0000000000000002
 20
0.0
 30
0.0
 40
2.107969583889095
100
AcDbArc
 50
306.81893410179
 51
53.18106589820997
  0
ARC
  5
286
330
218
100
AcDbEntity
  8
AM_4
100
AcDbCircle
 10
-1.050781249999999
 20
2.787499999999999
 30
0.0
 40
0.2125000000000004
100
AcDbArc
 50
90.0
 51
180.0
  0
ENDBLK
  5
21B
330
218
100
AcDbEntity
  8
0
100
AcDbBlockEnd
  0
ENDSEC
  0
SECTION
  2
ENTITIES
  0
INSERT
  5
6F
330
1F
100
AcDbEntity
  8
0
100
AcDbBlockReference
  2
1_069395_2
 10
0.0
 20
0.0
 30
0.0
  0
POINT
  5
288
330
1F
100
AcDbEntity
  8
ConnectionPoints
100
AcDbPoint
 10
-2.460041666666667
 20
-2.501736111111111
 30
0.0000000000000002
  0
POINT
  5
289
330
1F
100
AcDbEntity
  8
ConnectionPoints
100
AcDbPoint
 10
-2.460041666666667
 20
2.501736111111111
 30
0.0000000000000002
  0
POINT
  5
28A
330
1F
100
AcDbEntity
  8
ConnectionPoints
100
AcDbPoint
 10
-2.390041666666667
 20
0.0
 30
0.0000000000000001
  0
POINT
  5
28B
330
1F
100
AcDbEntity
  8
ConnectionPoints
100
AcDbPoint
 10
-2.734375
 20
0.0
 30
0.0000000000000002
  0
POINT
  5
28C
330
1F
100
AcDbEntity
  8
ConnectionPoints
100
AcDbPoint
 10
-2.589041666666667
 20
0.0
 30
0.0000000000000002
  0
POINT
  5
28D
330
1F
100
AcDbEntity
  8
ConnectionPoints
100
AcDbPoint
 10
-2.390041666666667
 20
2.501736111111111
 30
0.0000000000000001
  0
POINT
  5
28E
330
1F
100
AcDbEntity
  8
ConnectionPoints
100
AcDbPoint
 10
-2.602375
 20
2.501736111111111
 30
0.0000000000000002
  0
POINT
  5
28F
330
1F
100
AcDbEntity
  8
ConnectionPoints
100
AcDbPoint
 10
-2.390041666666667
 20
-2.501736111111111
 30
0.0000000000000001
  0
POINT
  5
290
330
1F
100
AcDbEntity
  8
ConnectionPoints
100
AcDbPoint
 10
-2.602375
 20
-2.501736111111111
 30
0.0000000000000002
  0
POINT
  5
291
330
1F
100
AcDbEntity
  8
ConnectionPoints
100
AcDbPoint
 10
-2.390041666666667
 20
0.0
 30
0.0000000000000001
  0
POINT
  5
292
330
1F
100
AcDbEntity
  8
ConnectionPoints
100
AcDbPoint
 10
-0.0000000000000002
 20
-1.606125769270723
 30
-3.975300776455101
  0
POINT
  5
293
330
1F
100
AcDbEntity
  8
ConnectionPoints
100
AcDbPoint
 10
-2.734375
 20
0.0
 30
0.0000000000000002
  0
POINT
  5
294
330
1F
100
AcDbEntity
  8
ConnectionPoints
100
AcDbPoint
 10
-3.046875
 20
0.0
 30
0.0000000000000002
  0
ENDSEC
  0
SECTION
  2
OBJECTS
  0
DICTIONARY
  5
C
330
0
100
AcDbDictionary
281
     1
  3
ACAD_DETAILVIEWSTYLE
350
29C
  3
ACAD_GROUP
350
D
  3
ACAD_LAYOUT
350
1A
  3
ACAD_MATERIAL
350
43
  3
ACAD_MLEADERSTYLE
350
6B
  3
ACAD_MLINESTYLE
350
17
  3
ACAD_PLOTSETTINGS
350
19
  3
ACAD_PLOTSTYLENAME
350
E
  3
ACAD_SCALELIST
350
47
  3
ACAD_SECTIONVIEWSTYLE
350
29D
  3
ACAD_TABLESTYLE
350
69
  3
ACAD_VISUALSTYLE
350
2A
  3
ACDB_RECOMPOSE_DATA
350
299
  3
AcDbVariableDictionary
350
295
  0
SUN
  5
6D
330
29
100
AcDbSun
 90
        1
290
     0
 63
     7
421
 16777215
 40
1.0
291
     1
 91
  2455826
 92
 54000000
292
     0
 70
     2
 71
   256
280
     1
  0
DICTIONARY
  5
29C
102
{ACAD_REACTORS
330
C
102
}
330
C
100
AcDbDictionary
281
     1
  0
DICTIONARY
  5
D
102
{ACAD_REACTORS
330
C
102
}
330
C
100
AcDbDictionary
281
     1
  0
DICTIONARY
  5
1A
102
{ACAD_REACTORS
330
C
102
}
330
C
100
AcDbDictionary
281
     1
  3
Layout1
350
1E
  3
Layout2
350
26
  3
Model
350
22
  0
DICTIONARY
  5
43
102
{ACAD_REACTORS
330
C
102
}
330
C
100
AcDbDictionary
281
     1
  3
ByBlock
350
45
  3
ByLayer
350
44
  3
Global
350
46
  0
DICTIONARY
  5
6B
102
{ACAD_REACTORS
330
C
102
}
330
C
100
AcDbDictionary
281
     1
  3
Standard
350
6C
  0
DICTIONARY
  5
17
102
{ACAD_REACTORS
330
C
102
}
330
C
100
AcDbDictionary
281
     1
  3
Standard
350
18
  0
DICTIONARY
  5
19
102
{ACAD_REACTORS
330
C
102
}
330
C
100
AcDbDictionary
281
     1
  0
ACDBDICTIONARYWDFLT
  5
E
102
{ACAD_REACTORS
330
C
102
}
330
C
100
AcDbDictionary
281
     1
  3
Normal
350
F
100
AcDbDictionaryWithDefault
340
F
  0
DICTIONARY
  5
47
102
{ACAD_REACTORS
330
C
102
}
330
C
100
AcDbDictionary
281
     1
  3
A0
350
48
  3
A1
350
49
  3
A2
350
4A
  3
A3
350
4B
  3
A4
350
4C
  3
A5
350
4D
  3
A6
350
4E
  3
A7
350
4F
  3
A8
350
50
  3
A9
350
51
  3
B0
350
52
  3
B1
350
53
  3
B2
350
54
  3
B3
350
55
  3
B4
350
56
  3
B5
350
57
  3
B6
350
58
  3
B7
350
59
  3
B8
350
5A
  3
B9
350
5B
  3
C0
350
5C
  3
C1
350
5D
  3
C2
350
5E
  3
C3
350
5F
  3
C4
350
60
  3
C5
350
61
  3
C6
350
62
  3
C7
350
63
  3
C8
350
64
  3
C9
350
65
  3
D0
350
66
  3
D1
350
67
  3
D2
350
68
  0
DICTIONARY
  5
29D
102
{ACAD_REACTORS
330
C
102
}
330
C
100
AcDbDictionary
281
     1
  0
DICTIONARY
  5
69
102
{ACAD_REACTORS
330
C
102
}
330
C
100
AcDbDictionary
281
     1
  3
Standard
350
6A
  0
DICTIONARY
  5
2A
102
{ACAD_REACTORS
330
C
102
}
330
C
100
AcDbDictionary
281
     1
  3
2dWireframe
350
2F
  3
Basic
350
32
  3
Brighten
350
36
  3
ColorChange
350
3A
  3
Conceptual
350
34
  3
Dim
350
35
  3
EdgeColorOff
350
3D
  3
Facepattern
350
39
  3
Flat
350
2B
  3
FlatWithEdges
350
2C
  3
Gouraud
350
2D
  3
GouraudWithEdges
350
2E
  3
Hidden
350
31
  3
JitterOff
350
3B
  3
Linepattern
350
38
  3
OverhangOff
350
3C
  3
Realistic
350
33
  3
Shaded
350
42
  3
Shaded with edges
350
41
  3
Shades of Gray
350
3E
  3
Sketchy
350
3F
  3
Thicken
350
37
  3
Wireframe
350
30
  3
X-Ray
350
40
  0
XRECORD
  5
299
102
{ACAD_REACTORS
330
C
102
}
330
C
100
AcDbXrecord
280
     1
 90
        1
330
6A
  0
DICTIONARY
  5
295
102
{ACAD_REACTORS
330
C
102
}
330
C
100
AcDbDictionary
281
     1
  3
CANNOSCALE
350
296
  3
CMLEADERSTYLE
350
29B
  3
CTABLESTYLE
350
29A
  0
LAYOUT
  5
1E
102
{ACAD_REACTORS
330
1A
102
}
330
1A
100
AcDbPlotSettings
  1

  2
none_device
  4

  6

 40
0.0
 41
0.0
 42
0.0
 43
0.0
 44
0.0
 45
0.0
 46
0.0
 47
0.0
 48
0.0
 49
0.0
140
0.0
141
0.0
142
1.0
143
1.0
 70
   688
 72
     0
 73
     0
 74
     5
  7

 75
    16
 76
     0
 77
     2
 78
   300
147
1.0
148
0.0
149
0.0
100
AcDbLayout
  1
Layout1
 70
     1
 71
     1
 10
0.0
 20
0.0
 11
12.0
 21
9.0
 12
0.0
 22
0.0
 32
0.0
 14
1.000000000000000E+20
 24
1.000000000000000E+20
 34
1.000000000000000E+20
 15
-1.000000000000000E+20
 25
-1.000000000000000E+20
 35
-1.000000000000000E+20
146
0.0
 13
0.0
 23
0.0
 33
0.0
 16
1.0
 26
0.0
 36
0.0
 17
0.0
 27
1.0
 37
0.0
 76
     0
330
1B
  0
LAYOUT
  5
26
102
{ACAD_REACTORS
330
1A
102
}
330
1A
100
AcDbPlotSettings
  1

  2
none_device
  4

  6

 40
0.0
 41
0.0
 42
0.0
 43
0.0
 44
0.0
 45
0.0
 46
0.0
 47
0.0
 48
0.0
 49
0.0
140
0.0
141
0.0
142
1.0
143
1.0
 70
   688
 72
     0
 73
     0
 74
     5
  7

 75
    16
 76
     0
 77
     2
 78
   300
147
1.0
148
0.0
149
0.0
100
AcDbLayout
  1
Layout2
 70
     1
 71
     2
 10
0.0
 20
0.0
 11
0.0
 21
0.0
 12
0.0
 22
0.0
 32
0.0
 14
0.0
 24
0.0
 34
0.0
 15
0.0
 25
0.0
 35
0.0
146
0.0
 13
0.0
 23
0.0
 33
0.0
 16
1.0
 26
0.0
 36
0.0
 17
0.0
 27
1.0
 37
0.0
 76
     0
330
23
  0
LAYOUT
  5
22
102
{ACAD_REACTORS
330
1A
102
}
330
1A
100
AcDbPlotSettings
  1

  2
none_device
  4
Letter_(8.50_x_11.00_Inches)
  6

 40
6.35
 41
6.35
 42
6.35000508
 43
6.35000508
 44
215.9
 45
279.4
 46
0.0
 47
0.0
 48
0.0
 49
0.0
140
0.0
141
0.0
142
1.0
143
1.0
 70
  1712
 72
     0
 73
     0
 74
     0
  7

 75
     0
 76
     0
 77
     2
 78
   300
147
1.0
148
0.0
149
0.0
100
AcDbLayout
  1
Model
 70
     1
 71
     0
 10
0.0
 20
0.0
 11
12.0
 21
9.0
 12
0.0
 22
0.0
 32
0.0
 14
1.000000000000000E+20
 24
1.000000000000000E+20
 34
1.000000000000000E+20
 15
-1.000000000000000E+20
 25
-1.000000000000000E+20
 35
-1.000000000000000E+20
146
0.0
 13
0.0
 23
0.0
 33
0.0
 16
1.0
 26
0.0
 36
0.0
 17
0.0
 27
1.0
 37
0.0
 76
     0
330
1F
331
29
  0
MATERIAL
  5
45
102
{ACAD_REACTORS
330
43
102
}
330
43
100
AcDbMaterial
  1
ByBlock
 72
     1
 94
      127
  0
MATERIAL
  5
44
102
{ACAD_REACTORS
330
43
102
}
330
43
100
AcDbMaterial
  1
ByLayer
 72
     1
 94
      127
  0
MATERIAL
  5
46
102
{ACAD_REACTORS
330
43
102
}
330
43
100
AcDbMaterial
  1
Global
 72
     1
 94
      127
  0
MLEADERSTYLE
  5
6C
102
{ACAD_REACTORS
330
6B
102
}
330
6B
100
AcDbMLeaderStyle
179
     2
170
     2
171
     1
172
     0
 90
        2
 40
0.0
 41
0.0
173
     1
 91
-1056964608
340
14
 92
       -2
290
     1
 42
0.09
291
     1
 43
0.36
  3
Standard
341
0
 44
0.18
300

342
11
174
     1
178
     6
175
     1
176
     0
 93
-1056964608
 45
0.18
292
     0
297
     0
 46
0.18
343
0
 94
-1056964608
 47
1.0
 49
1.0
140
1.0
293
     1
141
0.0
294
     1
177
     0
142
1.0
295
     0
296
     0
143
0.125
271
     0
272
     9
273
     9
298
     0
  0
MLINESTYLE
  5
18
102
{ACAD_REACTORS
330
17
102
}
330
17
100
AcDbMlineStyle
  2
Standard
 70
     0
  3

 62
   256
 51
90.0
 52
90.0
 71
     2
 49
0.5
 62
   256
  6
BYLAYER
 49
-0.5
 62
   256
  6
BYLAYER
  0
ACDBPLACEHOLDER
  5
F
102
{ACAD_REACTORS
330
E
102
}
330
E
  0
SCALE
  5
48
102
{ACAD_REACTORS
330
47
102
}
330
47
100
AcDbScale
 70
     0
300
1:1
140
1.0
141
1.0
290
     1
  0
SCALE
  5
49
102
{ACAD_REACTORS
330
47
102
}
330
47
100
AcDbScale
 70
     0
300
1:2
140
1.0
141
2.0
290
     0
  0
SCALE
  5
4A
102
{ACAD_REACTORS
330
47
102
}
330
47
100
AcDbScale
 70
     0
300
1:4
140
1.0
141
4.0
290
     0
  0
SCALE
  5
4B
102
{ACAD_REACTORS
330
47
102
}
330
47
100
AcDbScale
 70
     0
300
1:5
140
1.0
141
5.0
290
     0
  0
SCALE
  5
4C
102
{ACAD_REACTORS
330
47
102
}
330
47
100
AcDbScale
 70
     0
300
1:8
140
1.0
141
8.0
290
     0
  0
SCALE
  5
4D
102
{ACAD_REACTORS
330
47
102
}
330
47
100
AcDbScale
 70
     0
300
1:10
140
1.0
141
10.0
290
     0
  0
SCALE
  5
4E
102
{ACAD_REACTORS
330
47
102
}
330
47
100
AcDbScale
 70
     0
300
1:16
140
1.0
141
16.0
290
     0
  0
SCALE
  5
4F
102
{ACAD_REACTORS
330
47
102
}
330
47
100
AcDbScale
 70
     0
300
1:20
140
1.0
141
20.0
290
     0
  0
SCALE
  5
50
102
{ACAD_REACTORS
330
47
102
}
330
47
100
AcDbScale
 70
     0
300
1:30
140
1.0
141
30.0
290
     0
  0
SCALE
  5
51
102
{ACAD_REACTORS
330
47
102
}
330
47
100
AcDbScale
 70
     0
300
1:40
140
1.0
141
40.0
290
     0
  0
SCALE
  5
52
102
{ACAD_REACTORS
330
47
102
}
330
47
100
AcDbScale
 70
     0
300
1:50
140
1.0
141
50.0
290
     0
  0
SCALE
  5
53
102
{ACAD_REACTORS
330
47
102
}
330
47
100
AcDbScale
 70
     0
300
1:100
140
1.0
141
100.0
290
     0
  0
SCALE
  5
54
102
{ACAD_REACTORS
330
47
102
}
330
47
100
AcDbScale
 70
     0
300
2:1
140
2.0
141
1.0
290
     0
  0
SCALE
  5
55
102
{ACAD_REACTORS
330
47
102
}
330
47
100
AcDbScale
 70
     0
300
4:1
140
4.0
141
1.0
290
     0
  0
SCALE
  5
56
102
{ACAD_REACTORS
330
47
102
}
330
47
100
AcDbScale
 70
     0
300
8:1
140
8.0
141
1.0
290
     0
  0
SCALE
  5
57
102
{ACAD_REACTORS
330
47
102
}
330
47
100
AcDbScale
 70
     0
300
10:1
140
10.0
141
1.0
290
     0
  0
SCALE
  5
58
102
{ACAD_REACTORS
330
47
102
}
330
47
100
AcDbScale
 70
     0
300
100:1
140
100.0
141
1.0
290
     0
  0
SCALE
  5
59
102
{ACAD_REACTORS
330
47
102
}
330
47
100
AcDbScale
 70
     0
300
1/128" = 1'-0"
140
0.0078125
141
12.0
290
     0
  0
SCALE
  5
5A
102
{ACAD_REACTORS
330
47
102
}
330
47
100
AcDbScale
 70
     0
300
1/64" = 1'-0"
140
0.015625
141
12.0
290
     0
  0
SCALE
  5
5B
102
{ACAD_REACTORS
330
47
102
}
330
47
100
AcDbScale
 70
     0
300
1/32" = 1'-0"
140
0.03125
141
12.0
290
     0
  0
SCALE
  5
5C
102
{ACAD_REACTORS
330
47
102
}
330
47
100
AcDbScale
 70
     0
300
1/16" = 1'-0"
140
0.0625
141
12.0
290
     0
  0
SCALE
  5
5D
102
{ACAD_REACTORS
330
47
102
}
330
47
100
AcDbScale
 70
     0
300
3/32" = 1'-0"
140
0.09375
141
12.0
290
     0
  0
SCALE
  5
5E
102
{ACAD_REACTORS
330
47
102
}
330
47
100
AcDbScale
 70
     0
300
1/8" = 1'-0"
140
0.125
141
12.0
290
     0
  0
SCALE
  5
5F
102
{ACAD_REACTORS
330
47
102
}
330
47
100
AcDbScale
 70
     0
300
3/16" = 1'-0"
140
0.1875
141
12.0
290
     0
  0
SCALE
  5
60
102
{ACAD_REACTORS
330
47
102
}
330
47
100
AcDbScale
 70
     0
300
1/4" = 1'-0"
140
0.25
141
12.0
290
     0
  0
SCALE
  5
61
102
{ACAD_REACTORS
330
47
102
}
330
47
100
AcDbScale
 70
     0
300
3/8" = 1'-0"
140
0.375
141
12.0
290
     0
  0
SCALE
  5
62
102
{ACAD_REACTORS
330
47
102
}
330
47
100
AcDbScale
 70
     0
300
1/2" = 1'-0"
140
0.5
141
12.0
290
     0
  0
SCALE
  5
63
102
{ACAD_REACTORS
330
47
102
}
330
47
100
AcDbScale
 70
     0
300
3/4" = 1'-0"
140
0.75
141
12.0
290
     0
  0
SCALE
  5
64
102
{ACAD_REACTORS
330
47
102
}
330
47
100
AcDbScale
 70
     0
300
1" = 1'-0"
140
1.0
141
12.0
290
     0
  0
SCALE
  5
65
102
{ACAD_REACTORS
330
47
102
}
330
47
100
AcDbScale
 70
     0
300
1-1/2" = 1'-0"
140
1.5
141
12.0
290
     0
  0
SCALE
  5
66
102
{ACAD_REACTORS
330
47
102
}
330
47
100
AcDbScale
 70
     0
300
3" = 1'-0"
140
3.0
141
12.0
290
     0
  0
SCALE
  5
67
102
{ACAD_REACTORS
330
47
102
}
330
47
100
AcDbScale
 70
     0
300
6" = 1'-0"
140
6.0
141
12.0
290
     0
  0
SCALE
  5
68
102
{ACAD_REACTORS
330
47
102
}
330
47
100
AcDbScale
 70
     0
300
1'-0" = 1'-0"
140
12.0
141
12.0
290
     0
  0
TABLESTYLE
  5
6A
102
{ACAD_REACTORS
330
69
102
}
102
{ACAD_XDICTIONARY
360
297
102
}
330
69
100
AcDbTableStyle
  3
Standard
 70
     0
 71
     0
 40
0.06
 41
0.06
280
     0
281
     0
  7
Standard
140
0.18
170
     2
 62
     0
 63
   257
283
     0
 90
        4
 91
        0
  1

274
    -2
284
     1
 64
     0
275
    -2
285
     1
 65
     0
276
    -2
286
     1
 66
     0
277
    -2
287
     1
 67
     0
278
    -2
288
     1
 68
     0
279
    -2
289
     1
 69
     0
  7
Standard
140
0.25
170
     5
 62
     0
 63
   257
283
     0
 90
        4
 91
        0
  1

274
    -2
284
     1
 64
     0
275
    -2
285
     1
 65
     0
276
    -2
286
     1
 66
     0
277
    -2
287
     1
 67
     0
278
    -2
288
     1
 68
     0
279
    -2
289
     1
 69
     0
  7
Standard
140
0.18
170
     5
 62
     0
 63
   257
283
     0
 90
        4
 91
        0
  1

274
    -2
284
     1
 64
     0
275
    -2
285
     1
 65
     0
276
    -2
286
     1
 66
     0
277
    -2
287
     1
 67
     0
278
    -2
288
     1
 68
     0
279
    -2
289
     1
 69
     0
  0
VISUALSTYLE
  5
2F
102
{ACAD_REACTORS
330
2A
102
}
330
2A
100
AcDbVisualStyle
  2
2dWireframe
 70
     4
177
     3
291
     0
 70
    58
 90
        0
176
     1
 90
        2
176
     1
 90
        0
176
     1
 90
        0
176
     1
 40
0.6
176
     1
 40
30.0
176
     1
 62
     7
420
 16777215
176
     1
 90
        1
176
     1
 90
        4
176
     1
 62
     7
176
     1
 62
   257
176
     1
 90
        1
176
     1
 90
        1
176
     1
 40
1.0
176
     1
 90
        0
176
     1
 62
   257
176
     1
 40
1.0
176
     1
 90
        1
176
     1
 90
        6
176
     1
 90
        2
176
     1
 62
     7
176
     1
 90
        5
176
     1
 90
        0
176
     1
 90
        0
176
     1
290
     0
176
     1
 90
        1
176
     1
 40
0.0
176
     1
 90
        0
176
     1
290
     1
176
     1
290
     1
176
     1
290
     0
176
     1
290
     0
176
     1
290
     0
176
     1
290
     0
176
     1
290
     0
176
     1
290
     0
176
     1
290
     0
176
     1
 90
       50
176
     1
 40
0.0
176
     1
 40
1.0
176
     1
 90
        0
176
     1
 62
    18
420
        0
176
     1
 90
       50
176
     1
 90
        3
176
     1
 62
     5
420
      255
176
     1
290
     0
176
     1
 90
       50
176
     1
 90
       50
176
     1
 90
       50
176
     1
290
     0
176
     1
 90
       50
176
     1
 62
   256
176
     0
 40
1.0
176
     0
 90
        2
176
     1
  1
strokes_ogs.tif
176
     1
290
     0
176
     1
 40
1.0
176
     1
 40
1.0
176
     1
  0
VISUALSTYLE
  5
32
102
{ACAD_REACTORS
330
2A
102
}
330
2A
100
AcDbVisualStyle
  2
Basic
 70
     7
177
     3
291
     1
 70
    58
 90
        1
176
     1
 90
        0
176
     1
 90
        1
176
     1
 90
        0
176
     1
 40
0.6
176
     1
 40
30.0
176
     1
 62
     7
420
 16777215
176
     1
 90
        0
176
     1
 90
        4
176
     1
 62
     7
176
     1
 62
   257
176
     1
 90
        1
176
     1
 90
        1
176
     1
 40
1.0
176
     1
 90
        8
176
     1
 62
     7
176
     1
 40
1.0
176
     1
 90
        1
176
     1
 90
        6
176
     1
 90
        2
176
     1
 62
     7
176
     1
 90
        5
176
     1
 90
        0
176
     1
 90
        0
176
     1
290
     0
176
     1
 90
        1
176
     1
 40
0.0
176
     1
 90
        0
176
     1
290
     0
176
     1
290
     1
176
     1
290
     1
176
     1
290
     0
176
     1
290
     0
176
     1
290
     0
176
     1
290
     0
176
     1
290
     0
176
     1
290
     0
176
     1
 90
       50
176
     1
 40
0.0
176
     1
 40
1.0
176
     1
 90
        0
176
     1
 62
    18
420
        0
176
     1
 90
       50
176
     1
 90
        3
176
     1
 62
     5
420
      255
176
     1
290
     0
176
     1
 90
       50
176
     1
 90
       50
176
     1
 90
       50
176
     1
290
     0
176
     1
 90
       50
176
     1
 62
   256
176
     0
 40
1.0
176
     0
 90
        2
176
     1
  1
strokes_ogs.tif
176
     1
290
     0
176
     1
 40
1.0
176
     1
 40
1.0
176
     1
  0
VISUALSTYLE
  5
36
102
{ACAD_REACTORS
330
2A
102
}
330
2A
100
AcDbVisualStyle
  2
Brighten
 70
    12
177
     3
291
     1
 70
    58
 90
        2
176
     1
 90
        2
176
     1
 90
        0
176
     1
 90
        0
176
     1
 40
0.6
176
     1
 40
30.0
176
     1
 62
     7
420
 16777215
176
     1
 90
        1
176
     1
 90
        4
176
     1
 62
     7
176
     1
 62
   257
176
     1
 90
        1
176
     1
 90
        1
176
     1
 40
1.0
176
     1
 90
        8
176
     1
 62
     7
176
     1
 40
1.0
176
     1
 90
        1
176
     1
 90
        6
176
     1
 90
        2
176
     1
 62
     7
176
     1
 90
        5
176
     1
 90
        0
176
     1
 90
        0
176
     1
290
     0
176
     1
 90
        1
176
     1
 40
50.0
176
     1
 90
        0
176
     1
290
     0
176
     1
290
     1
176
     1
290
     1
176
     1
290
     0
176
     1
290
     0
176
     1
290
     0
176
     1
290
     0
176
     1
290
     0
176
     1
290
     0
176
     1
 90
       50
176
     1
 40
0.0
176
     1
 40
1.0
176
     1
 90
        0
176
     1
 62
    18
420
        0
176
     1
 90
       50
176
     1
 90
        3
176
     1
 62
     5
420
      255
176
     1
290
     0
176
     1
 90
       50
176
     1
 90
       50
176
     1
 90
       50
176
     1
290
     0
176
     1
 90
       50
176
     1
 62
   256
176
     0
 40
1.0
176
     0
 90
        2
176
     1
  1
strokes_ogs.tif
176
     1
290
     0
176
     1
 40
1.0
176
     1
 40
1.0
176
     1
  0
VISUALSTYLE
  5
3A
102
{ACAD_REACTORS
330
2A
102
}
330
2A
100
AcDbVisualStyle
  2
ColorChange
 70
    16
177
     3
291
     1
 70
    58
 90
        2
176
     1
 90
        2
176
     1
 90
        3
176
     1
 90
        0
176
     1
 40
0.6
176
     1
 40
30.0
176
     1
 62
     8
420
  8421504
176
     1
 90
        1
176
     1
 90
        4
176
     1
 62
     7
176
     1
 62
   257
176
     1
 90
        1
176
     1
 90
        1
176
     1
 40
1.0
176
     1
 90
        8
176
     1
 62
     8
420
  8421504
176
     1
 40
1.0
176
     1
 90
        1
176
     1
 90
        6
176
     1
 90
        2
176
     1
 62
     7
176
     1
 90
        5
176
     1
 90
        0
176
     1
 90
        0
176
     1
290
     0
176
     1
 90
        1
176
     1
 40
0.0
176
     1
 90
        0
176
     1
290
     0
176
     1
290
     1
176
     1
290
     1
176
     1
290
     0
176
     1
290
     0
176
     1
290
     0
176
     1
290
     0
176
     1
290
     0
176
     1
290
     0
176
     1
 90
       50
176
     1
 40
0.0
176
     1
 40
1.0
176
     1
 90
        0
176
     1
 62
    18
420
        0
176
     1
 90
       50
176
     1
 90
        3
176
     1
 62
     5
420
      255
176
     1
290
     0
176
     1
 90
       50
176
     1
 90
       50
176
     1
 90
       50
176
     1
290
     0
176
     1
 90
       50
176
     1
 62
   256
176
     0
 40
1.0
176
     0
 90
        2
176
     1
  1
strokes_ogs.tif
176
     1
290
     0
176
     1
 40
1.0
176
     1
 40
1.0
176
     1
  0
VISUALSTYLE
  5
34
102
{ACAD_REACTORS
330
2A
102
}
330
2A
100
AcDbVisualStyle
  2
Conceptual
 70
     9
177
     3
291
     0
 70
    58
 90
        3
176
     1
 90
        2
176
     1
 90
        0
176
     1
 90
        0
176
     1
 40
0.6
176
     1
 40
30.0
176
     1
 62
     7
420
 16777215
176
     1
 90
        2
176
     1
 90
        2
176
     1
 62
     7
176
     1
 62
   257
176
     1
 90
        1
176
     1
 90
        1
176
     1
 40
179.0
176
     1
 90
        8
176
     1
 62
     7
176
     1
 40
1.0
176
     1
 90
        1
176
     1
 90
        6
176
     1
 90
        2
176
     1
 62
     7
176
     1
 90
        3
176
     1
 90
        0
176
     1
 90
        0
176
     1
290
     0
176
     1
 90
        1
176
     1
 40
0.0
176
     1
 90
        0
176
     1
290
     0
176
     1
290
     1
176
     1
290
     1
176
     1
290
     0
176
     1
290
     0
176
     1
290
     0
176
     1
290
     0
176
     1
290
     0
176
     1
290
     0
176
     1
 90
       50
176
     1
 40
0.0
176
     1
 40
1.0
176
     1
 90
        0
176
     1
 62
    18
420
        0
176
     1
 90
       50
176
     1
 90
        3
176
     1
 62
     5
420
      255
176
     1
290
     0
176
     1
 90
       50
176
     1
 90
       50
176
     1
 90
       50
176
     1
290
     0
176
     1
 90
       50
176
     1
 62
   256
176
     0
 40
1.0
176
     0
 90
        2
176
     1
  1
strokes_ogs.tif
176
     1
290
     0
176
     1
 40
1.0
176
     1
 40
1.0
176
     1
  0
VISUALSTYLE
  5
35
102
{ACAD_REACTORS
330
2A
102
}
330
2A
100
AcDbVisualStyle
  2
Dim
 70
    11
177
     3
291
     1
 70
    58
 90
        2
176
     1
 90
        2
176
     1
 90
        0
176
     1
 90
        0
176
     1
 40
0.6
176
     1
 40
30.0
176
     1
 62
     7
420
 16777215
176
     1
 90
        1
176
     1
 90
        4
176
     1
 62
     7
176
     1
 62
   257
176
     1
 90
        1
176
     1
 90
        1
176
     1
 40
1.0
176
     1
 90
        8
176
     1
 62
     7
176
     1
 40
1.0
176
     1
 90
        1
176
     1
 90
        6
176
     1
 90
        2
176
     1
 62
     7
176
     1
 90
        5
176
     1
 90
        0
176
     1
 90
        0
176
     1
290
     0
176
     1
 90
        1
176
     1
 40
-50.0
176
     1
 90
        0
176
     1
290
     0
176
     1
290
     1
176
     1
290
     1
176
     1
290
     0
176
     1
290
     0
176
     1
290
     0
176
     1
290
     0
176
     1
290
     0
176
     1
290
     0
176
     1
 90
       50
176
     1
 40
0.0
176
     1
 40
1.0
176
     1
 90
        0
176
     1
 62
    18
420
        0
176
     1
 90
       50
176
     1
 90
        3
176
     1
 62
     5
420
      255
176
     1
290
     0
176
     1
 90
       50
176
     1
 90
       50
176
     1
 90
       50
176
     1
290
     0
176
     1
 90
       50
176
     1
 62
   256
176
     0
 40
1.0
176
     0
 90
        2
176
     1
  1
strokes_ogs.tif
176
     1
290
     0
176
     1
 40
1.0
176
     1
 40
1.0
176
     1
  0
VISUALSTYLE
  5
3D
102
{ACAD_REACTORS
330
2A
102
}
330
2A
100
AcDbVisualStyle
  2
EdgeColorOff
 70
    22
177
     3
291
     1
 70
    58
 90
        2
176
     0
 90
        2
176
     0
 90
        0
176
     0
 90
        0
176
     0
 40
0.6
176
     0
 40
30.0
176
     0
 62
     7
420
 16777215
176
     0
 90
        1
176
     0
 90
        4
176
     0
 62
     7
176
     0
 62
   257
176
     0
 90
        1
176
     0
 90
        1
176
     0
 40
1.0
176
     0
 90
        8
176
     2
 62
     7
176
     0
 40
1.0
176
     0
 90
        1
176
     0
 90
        6
176
     0
 90
        2
176
     0
 62
     7
176
     0
 90
        5
176
     0
 90
        0
176
     0
 90
        0
176
     0
290
     0
176
     0
 90
        1
176
     0
 40
0.0
176
     0
 90
        0
176
     0
290
     0
176
     0
290
     1
176
     0
290
     1
176
     0
290
     0
176
     0
290
     0
176
     0
290
     0
176
     0
290
     0
176
     0
290
     0
176
     0
290
     0
176
     0
 90
       50
176
     0
 40
0.0
176
     0
 40
1.0
176
     0
 90
        0
176
     0
 62
    18
420
        0
176
     0
 90
       50
176
     0
 90
        3
176
     0
 62
     5
420
      255
176
     0
290
     0
176
     0
 90
       50
176
     0
 90
       50
176
     0
 90
       50
176
     0
290
     0
176
     0
 90
       50
176
     0
 62
   256
176
     0
 40
1.0
176
     0
 90
        2
176
     0
  1
strokes_ogs.tif
176
     0
290
     0
176
     0
 40
1.0
176
     0
 40
1.0
176
     0
  0
VISUALSTYLE
  5
39
102
{ACAD_REACTORS
330
2A
102
}
330
2A
100
AcDbVisualStyle
  2
Facepattern
 70
    15
177
     3
291
     1
 70
    58
 90
        2
176
     1
 90
        2
176
     1
 90
        0
176
     1
 90
        0
176
     1
 40
0.6
176
     1
 40
30.0
176
     1
 62
     7
420
 16777215
176
     1
 90
        1
176
     1
 90
        4
176
     1
 62
     7
176
     1
 62
   257
176
     1
 90
        1
176
     1
 90
        1
176
     1
 40
1.0
176
     1
 90
        8
176
     1
 62
     7
176
     1
 40
1.0
176
     1
 90
        1
176
     1
 90
        6
176
     1
 90
        2
176
     1
 62
     7
176
     1
 90
        5
176
     1
 90
        0
176
     1
 90
        0
176
     1
290
     0
176
     1
 90
        1
176
     1
 40
0.0
176
     1
 90
        0
176
     1
290
     0
176
     1
290
     1
176
     1
290
     1
176
     1
290
     0
176
     1
290
     0
176
     1
290
     0
176
     1
290
     0
176
     1
290
     0
176
     1
290
     0
176
     1
 90
       50
176
     1
 40
0.0
176
     1
 40
1.0
176
     1
 90
        0
176
     1
 62
    18
420
        0
176
     1
 90
       50
176
     1
 90
        3
176
     1
 62
     5
420
      255
176
     1
290
     0
176
     1
 90
       50
176
     1
 90
       50
176
     1
 90
       50
176
     1
290
     0
176
     1
 90
       50
176
     1
 62
   256
176
     0
 40
1.0
176
     0
 90
        2
176
     1
  1
strokes_ogs.tif
176
     1
290
     0
176
     1
 40
1.0
176
     1
 40
1.0
176
     1
  0
VISUALSTYLE
  5
2B
102
{ACAD_REACTORS
330
2A
102
}
330
2A
100
AcDbVisualStyle
  2
Flat
 70
     0
177
     3
291
     1
 70
    58
 90
        2
176
     1
 90
        1
176
     1
 90
        1
176
     1
 90
        2
176
     1
 40
0.6
176
     1
 40
30.0
176
     1
 62
     7
420
 16777215
176
     1
 90
        0
176
     1
 90
        0
176
     1
 62
     7
176
     1
 62
   257
176
     1
 90
        1
176
     1
 90
        1
176
     1
 40
1.0
176
     1
 90
        8
176
     1
 62
     7
176
     1
 40
1.0
176
     1
 90
        1
176
     1
 90
        6
176
     1
 90
        2
176
     1
 62
     7
176
     1
 90
        5
176
     1
 90
        0
176
     1
 90
        0
176
     1
290
     0
176
     1
 90
       13
176
     1
 40
0.0
176
     1
 90
        0
176
     1
290
     0
176
     1
290
     1
176
     1
290
     1
176
     1
290
     0
176
     1
290
     0
176
     1
290
     0
176
     1
290
     0
176
     1
290
     0
176
     1
290
     0
176
     1
 90
       50
176
     1
 40
0.0
176
     1
 40
1.0
176
     1
 90
        0
176
     1
 62
    18
420
        0
176
     1
 90
       50
176
     1
 90
        3
176
     1
 62
     5
420
      255
176
     1
290
     0
176
     1
 90
       50
176
     1
 90
       50
176
     1
 90
       50
176
     1
290
     0
176
     1
 90
       50
176
     1
 62
   256
176
     0
 40
1.0
176
     0
 90
        2
176
     1
  1
strokes_ogs.tif
176
     1
290
     0
176
     1
 40
1.0
176
     1
 40
1.0
176
     1
  0
VISUALSTYLE
  5
2C
102
{ACAD_REACTORS
330
2A
102
}
330
2A
100
AcDbVisualStyle
  2
FlatWithEdges
 70
     1
177
     3
291
     1
 70
    58
 90
        2
176
     1
 90
        1
176
     1
 90
        1
176
     1
 90
        2
176
     1
 40
0.6
176
     1
 40
30.0
176
     1
 62
     7
420
 16777215
176
     1
 90
        1
176
     1
 90
        0
176
     1
 62
     7
176
     1
 62
   257
176
     1
 90
        1
176
     1
 90
        1
176
     1
 40
1.0
176
     1
 90
        0
176
     1
 62
   257
176
     1
 40
1.0
176
     1
 90
        1
176
     1
 90
        6
176
     1
 90
        2
176
     1
 62
     7
176
     1
 90
        5
176
     1
 90
        0
176
     1
 90
        0
176
     1
290
     0
176
     1
 90
       13
176
     1
 40
0.0
176
     1
 90
        0
176
     1
290
     0
176
     1
290
     1
176
     1
290
     1
176
     1
290
     0
176
     1
290
     0
176
     1
290
     0
176
     1
290
     0
176
     1
290
     0
176
     1
290
     0
176
     1
 90
       50
176
     1
 40
0.0
176
     1
 40
1.0
176
     1
 90
        0
176
     1
 62
    18
420
        0
176
     1
 90
       50
176
     1
 90
        3
176
     1
 62
     5
420
      255
176
     1
290
     0
176
     1
 90
       50
176
     1
 90
       50
176
     1
 90
       50
176
     1
290
     0
176
     1
 90
       50
176
     1
 62
   256
176
     0
 40
1.0
176
     0
 90
        2
176
     1
  1
strokes_ogs.tif
176
     1
290
     0
176
     1
 40
1.0
176
     1
 40
1.0
176
     1
  0
VISUALSTYLE
  5
2D
102
{ACAD_REACTORS
330
2A
102
}
330
2A
100
AcDbVisualStyle
  2
Gouraud
 70
     2
177
     3
291
     1
 70
    58
 90
        2
176
     1
 90
        2
176
     1
 90
        1
176
     1
 90
        2
176
     1
 40
0.6
176
     1
 40
30.0
176
     1
 62
     7
420
 16777215
176
     1
 90
        0
176
     1
 90
        0
176
     1
 62
     7
176
     1
 62
   257
176
     1
 90
        1
176
     1
 90
        1
176
     1
 40
1.0
176
     1
 90
        0
176
     1
 62
     7
176
     1
 40
1.0
176
     1
 90
        1
176
     1
 90
        6
176
     1
 90
        2
176
     1
 62
     7
176
     1
 90
        5
176
     1
 90
        0
176
     1
 90
        0
176
     1
290
     0
176
     1
 90
       13
176
     1
 40
0.0
176
     1
 90
        0
176
     1
290
     0
176
     1
290
     1
176
     1
290
     1
176
     1
290
     0
176
     1
290
     0
176
     1
290
     0
176
     1
290
     0
176
     1
290
     0
176
     1
290
     0
176
     1
 90
       50
176
     1
 40
0.0
176
     1
 40
1.0
176
     1
 90
        0
176
     1
 62
    18
420
        0
176
     1
 90
       50
176
     1
 90
        3
176
     1
 62
     5
420
      255
176
     1
290
     0
176
     1
 90
       50
176
     1
 90
       50
176
     1
 90
       50
176
     1
290
     0
176
     1
 90
       50
176
     1
 62
   256
176
     0
 40
1.0
176
     0
 90
        2
176
     1
  1
strokes_ogs.tif
176
     1
290
     0
176
     1
 40
1.0
176
     1
 40
1.0
176
     1
  0
VISUALSTYLE
  5
2E
102
{ACAD_REACTORS
330
2A
102
}
330
2A
100
AcDbVisualStyle
  2
GouraudWithEdges
 70
     3
177
     3
291
     1
 70
    58
 90
        2
176
     1
 90
        2
176
     1
 90
        1
176
     1
 90
        2
176
     1
 40
0.6
176
     1
 40
30.0
176
     1
 62
     7
420
 16777215
176
     1
 90
        1
176
     1
 90
        0
176
     1
 62
     7
176
     1
 62
   257
176
     1
 90
        1
176
     1
 90
        1
176
     1
 40
1.0
176
     1
 90
        0
176
     1
 62
   257
176
     1
 40
1.0
176
     1
 90
        1
176
     1
 90
        6
176
     1
 90
        2
176
     1
 62
     7
176
     1
 90
        5
176
     1
 90
        0
176
     1
 90
        0
176
     1
290
     0
176
     1
 90
       13
176
     1
 40
0.0
176
     1
 90
        0
176
     1
290
     0
176
     1
290
     1
176
     1
290
     1
176
     1
290
     0
176
     1
290
     0
176
     1
290
     0
176
     1
290
     0
176
     1
290
     0
176
     1
290
     0
176
     1
 90
       50
176
     1
 40
0.0
176
     1
 40
1.0
176
     1
 90
        0
176
     1
 62
    18
420
        0
176
     1
 90
       50
176
     1
 90
        3
176
     1
 62
     5
420
      255
176
     1
290
     0
176
     1
 90
       50
176
     1
 90
       50
176
     1
 90
       50
176
     1
290
     0
176
     1
 90
       50
176
     1
 62
   256
176
     0
 40
1.0
176
     0
 90
        2
176
     1
  1
strokes_ogs.tif
176
     1
290
     0
176
     1
 40
1.0
176
     1
 40
1.0
176
     1
  0
VISUALSTYLE
  5
31
102
{ACAD_REACTORS
330
2A
102
}
330
2A
100
AcDbVisualStyle
  2
Hidden
 70
     6
177
     3
291
     0
 70
    58
 90
        1
176
     1
 90
        2
176
     1
 90
        2
176
     1
 90
        0
176
     1
 40
0.6
176
     1
 40
30.0
176
     1
 62
     7
420
 16777215
176
     1
 90
        2
176
     1
 90
        2
176
     1
 62
     7
176
     1
 62
   257
176
     1
 90
        2
176
     1
 90
        1
176
     1
 40
40.0
176
     1
 90
        0
176
     1
 62
   257
176
     1
 40
1.0
176
     1
 90
        1
176
     1
 90
        6
176
     1
 90
        2
176
     1
 62
     7
176
     1
 90
        3
176
     1
 90
        0
176
     1
 90
        0
176
     1
290
     0
176
     1
 90
        1
176
     1
 40
0.0
176
     1
 90
        0
176
     1
290
     0
176
     1
290
     1
176
     1
290
     1
176
     1
290
     0
176
     1
290
     0
176
     1
290
     0
176
     1
290
     0
176
     1
290
     0
176
     1
290
     0
176
     1
 90
       50
176
     1
 40
0.0
176
     1
 40
1.0
176
     1
 90
        0
176
     1
 62
    18
420
        0
176
     1
 90
       50
176
     1
 90
        3
176
     1
 62
     5
420
      255
176
     1
290
     0
176
     1
 90
       50
176
     1
 90
       50
176
     1
 90
       50
176
     1
290
     0
176
     1
 90
       50
176
     1
 62
   256
176
     0
 40
1.0
176
     0
 90
        2
176
     1
  1
strokes_ogs.tif
176
     1
290
     0
176
     1
 40
1.0
176
     1
 40
1.0
176
     1
  0
VISUALSTYLE
  5
3B
102
{ACAD_REACTORS
330
2A
102
}
330
2A
100
AcDbVisualStyle
  2
JitterOff
 70
    20
177
     3
291
     1
 70
    58
 90
        2
176
     0
 90
        2
176
     0
 90
        0
176
     0
 90
        0
176
     0
 40
0.6
176
     0
 40
30.0
176
     0
 62
     7
420
 16777215
176
     0
 90
        1
176
     0
 90
        4
176
     0
 62
     7
176
     0
 62
   257
176
     0
 90
        1
176
     0
 90
        1
176
     0
 40
1.0
176
     0
 90
       10
176
     2
 62
     7
176
     0
 40
1.0
176
     0
 90
        1
176
     0
 90
        6
176
     0
 90
        2
176
     0
 62
     7
176
     0
 90
        5
176
     0
 90
        0
176
     0
 90
        0
176
     0
290
     0
176
     0
 90
        1
176
     0
 40
0.0
176
     0
 90
        0
176
     0
290
     0
176
     0
290
     1
176
     0
290
     1
176
     0
290
     0
176
     0
290
     0
176
     0
290
     0
176
     0
290
     0
176
     0
290
     0
176
     0
290
     0
176
     0
 90
       50
176
     0
 40
0.0
176
     0
 40
1.0
176
     0
 90
        0
176
     0
 62
    18
420
        0
176
     0
 90
       50
176
     0
 90
        3
176
     0
 62
     5
420
      255
176
     0
290
     0
176
     0
 90
       50
176
     0
 90
       50
176
     0
 90
       50
176
     0
290
     0
176
     0
 90
       50
176
     0
 62
   256
176
     0
 40
1.0
176
     0
 90
        2
176
     0
  1
strokes_ogs.tif
176
     0
290
     0
176
     0
 40
1.0
176
     0
 40
1.0
176
     0
  0
VISUALSTYLE
  5
38
102
{ACAD_REACTORS
330
2A
102
}
330
2A
100
AcDbVisualStyle
  2
Linepattern
 70
    14
177
     3
291
     1
 70
    58
 90
        2
176
     1
 90
        2
176
     1
 90
        0
176
     1
 90
        0
176
     1
 40
0.6
176
     1
 40
30.0
176
     1
 62
     7
420
 16777215
176
     1
 90
        1
176
     1
 90
        4
176
     1
 62
     7
176
     1
 62
   257
176
     1
 90
        7
176
     1
 90
        7
176
     1
 40
1.0
176
     1
 90
        8
176
     1
 62
     7
176
     1
 40
1.0
176
     1
 90
        1
176
     1
 90
        6
176
     1
 90
        2
176
     1
 62
     7
176
     1
 90
        5
176
     1
 90
        0
176
     1
 90
        0
176
     1
290
     0
176
     1
 90
        1
176
     1
 40
0.0
176
     1
 90
        0
176
     1
290
     0
176
     1
290
     1
176
     1
290
     1
176
     1
290
     0
176
     1
290
     0
176
     1
290
     0
176
     1
290
     0
176
     1
290
     0
176
     1
290
     0
176
     1
 90
       50
176
     1
 40
0.0
176
     1
 40
1.0
176
     1
 90
        0
176
     1
 62
    18
420
        0
176
     1
 90
       50
176
     1
 90
        3
176
     1
 62
     5
420
      255
176
     1
290
     0
176
     1
 90
       50
176
     1
 90
       50
176
     1
 90
       50
176
     1
290
     0
176
     1
 90
       50
176
     1
 62
   256
176
     0
 40
1.0
176
     0
 90
        2
176
     1
  1
strokes_ogs.tif
176
     1
290
     0
176
     1
 40
1.0
176
     1
 40
1.0
176
     1
  0
VISUALSTYLE
  5
3C
102
{ACAD_REACTORS
330
2A
102
}
330
2A
100
AcDbVisualStyle
  2
OverhangOff
 70
    21
177
     3
291
     1
 70
    58
 90
        2
176
     0
 90
        2
176
     0
 90
        0
176
     0
 90
        0
176
     0
 40
0.6
176
     0
 40
30.0
176
     0
 62
     7
420
 16777215
176
     0
 90
        1
176
     0
 90
        4
176
     0
 62
     7
176
     0
 62
   257
176
     0
 90
        1
176
     0
 90
        1
176
     0
 40
1.0
176
     0
 90
        9
176
     2
 62
     7
176
     0
 40
1.0
176
     0
 90
        1
176
     0
 90
        6
176
     0
 90
        2
176
     0
 62
     7
176
     0
 90
        5
176
     0
 90
        0
176
     0
 90
        0
176
     0
290
     0
176
     0
 90
        1
176
     0
 40
0.0
176
     0
 90
        0
176
     0
290
     0
176
     0
290
     1
176
     0
290
     1
176
     0
290
     0
176
     0
290
     0
176
     0
290
     0
176
     0
290
     0
176
     0
290
     0
176
     0
290
     0
176
     0
 90
       50
176
     0
 40
0.0
176
     0
 40
1.0
176
     0
 90
        0
176
     0
 62
    18
420
        0
176
     0
 90
       50
176
     0
 90
        3
176
     0
 62
     5
420
      255
176
     0
290
     0
176
     0
 90
       50
176
     0
 90
       50
176
     0
 90
       50
176
     0
290
     0
176
     0
 90
       50
176
     0
 62
   256
176
     0
 40
1.0
176
     0
 90
        2
176
     0
  1
strokes_ogs.tif
176
     0
290
     0
176
     0
 40
1.0
176
     0
 40
1.0
176
     0
  0
VISUALSTYLE
  5
33
102
{ACAD_REACTORS
330
2A
102
}
330
2A
100
AcDbVisualStyle
  2
Realistic
 70
     8
177
     3
291
     0
 70
    58
 90
        2
176
     1
 90
        3
176
     1
 90
        0
176
     1
 90
        2
176
     1
 40
0.6
176
     1
 40
30.0
176
     1
 62
     7
420
 16777215
176
     1
 90
        0
176
     1
 90
        0
176
     1
 62
     7
176
     1
 62
   257
176
     1
 90
        1
176
     1
 90
        1
176
     1
 40
1.0
176
     1
 90
        8
176
     1
 62
   257
176
     1
 40
1.0
176
     1
 90
        1
176
     1
 90
        6
176
     1
 90
        2
176
     1
 62
     7
176
     1
 90
        3
176
     1
 90
        0
176
     1
 90
        0
176
     1
290
     0
176
     1
 90
       13
176
     1
 40
0.0
176
     1
 90
        0
176
     1
290
     0
176
     1
290
     1
176
     1
290
     1
176
     1
290
     0
176
     1
290
     0
176
     1
290
     0
176
     1
290
     0
176
     1
290
     0
176
     1
290
     0
176
     1
 90
       50
176
     1
 40
0.0
176
     1
 40
1.0
176
     1
 90
        0
176
     1
 62
    18
420
        0
176
     1
 90
       50
176
     1
 90
        3
176
     1
 62
     5
420
      255
176
     1
290
     0
176
     1
 90
       50
176
     1
 90
       50
176
     1
 90
       50
176
     1
290
     0
176
     1
 90
       50
176
     1
 62
   256
176
     0
 40
1.0
176
     0
 90
        2
176
     1
  1
strokes_ogs.tif
176
     1
290
     0
176
     1
 40
1.0
176
     1
 40
1.0
176
     1
  0
VISUALSTYLE
  5
42
102
{ACAD_REACTORS
330
2A
102
}
330
2A
100
AcDbVisualStyle
  2
Shaded
 70
    27
177
     3
291
     0
 70
    58
 90
        2
176
     1
 90
        2
176
     1
 90
        1
176
     1
 90
        2
176
     1
 40
0.6
176
     1
 40
30.0
176
     1
 62
     7
420
 16777215
176
     1
 90
        0
176
     1
 90
        4
176
     1
 62
     7
176
     1
 62
   257
176
     1
 90
        1
176
     1
 90
        1
176
     1
 40
1.0
176
     1
 90
        8
176
     1
 62
   257
176
     1
 40
1.0
176
     1
 90
        1
176
     1
 90
        6
176
     1
 90
        2
176
     1
 62
     8
420
  7895160
176
     1
 90
        3
176
     1
 90
        0
176
     1
 90
        0
176
     1
290
     0
176
     1
 90
        5
176
     1
 40
0.0
176
     1
 90
        0
176
     1
290
     0
176
     1
290
     1
176
     1
290
     1
176
     1
290
     0
176
     1
290
     0
176
     1
290
     0
176
     1
290
     0
176
     1
290
     0
176
     1
290
     0
176
     1
 90
       50
176
     1
 40
0.0
176
     1
 40
1.0
176
     1
 90
        0
176
     1
 62
    18
420
        0
176
     1
 90
       50
176
     1
 90
        3
176
     1
 62
     5
420
      255
176
     1
290
     0
176
     1
 90
       50
176
     1
 90
       50
176
     1
 90
       50
176
     1
290
     0
176
     1
 90
       50
176
     1
 62
   256
176
     0
 40
1.0
176
     0
 90
        2
176
     1
  1
strokes_ogs.tif
176
     1
290
     0
176
     1
 40
1.0
176
     1
 40
1.0
176
     1
  0
VISUALSTYLE
  5
41
102
{ACAD_REACTORS
330
2A
102
}
330
2A
100
AcDbVisualStyle
  2
Shaded with edges
 70
    26
177
     3
291
     0
 70
    58
 90
        2
176
     1
 90
        2
176
     1
 90
        1
176
     1
 90
        2
176
     1
 40
0.6
176
     1
 40
30.0
176
     1
 62
     7
420
 16777215
176
     1
 90
        1
176
     1
 90
       10
176
     1
 62
     7
176
     1
 62
   257
176
     1
 90
        2
176
     1
 90
        1
176
     1
 40
1.0
176
     1
 90
        8
176
     1
 62
   257
176
     1
 40
1.0
176
     1
 90
        1
176
     1
 90
        6
176
     1
 90
        2
176
     1
 62
     7
176
     1
 90
        3
176
     1
 90
        0
176
     1
 90
        0
176
     1
290
     0
176
     1
 90
        5
176
     1
 40
0.0
176
     1
 90
        0
176
     1
290
     0
176
     1
290
     1
176
     1
290
     1
176
     1
290
     0
176
     1
290
     0
176
     1
290
     0
176
     1
290
     0
176
     1
290
     0
176
     1
290
     0
176
     1
 90
       50
176
     1
 40
0.0
176
     1
 40
1.0
176
     1
 90
        0
176
     1
 62
    18
420
        0
176
     1
 90
       50
176
     1
 90
        3
176
     1
 62
     5
420
      255
176
     1
290
     0
176
     1
 90
       50
176
     1
 90
       50
176
     1
 90
       50
176
     1
290
     0
176
     1
 90
       50
176
     1
 62
   256
176
     0
 40
1.0
176
     0
 90
        2
176
     1
  1
strokes_ogs.tif
176
     1
290
     0
176
     1
 40
1.0
176
     1
 40
1.0
176
     1
  0
VISUALSTYLE
  5
3E
102
{ACAD_REACTORS
330
2A
102
}
330
2A
100
AcDbVisualStyle
  2
Shades of Gray
 70
    23
177
     3
291
     0
 70
    58
 90
        2
176
     1
 90
        2
176
     1
 90
        3
176
     1
 90
        0
176
     1
 40
0.6
176
     1
 40
30.0
176
     1
 62
     7
420
 16777215
176
     1
 90
        2
176
     1
 90
        2
176
     1
 62
     7
176
     1
 62
     7
176
     1
 90
        1
176
     1
 90
        1
176
     1
 40
40.0
176
     1
 90
        8
176
     1
 62
     7
176
     1
 40
1.0
176
     1
 90
        1
176
     1
 90
        6
176
     1
 90
        2
176
     1
 62
     7
176
     1
 90
        3
176
     1
 90
        0
176
     1
 90
        0
176
     1
290
     0
176
     1
 90
        1
176
     1
 40
0.0
176
     1
 90
        0
176
     1
290
     0
176
     1
290
     1
176
     1
290
     1
176
     1
290
     0
176
     1
290
     0
176
     1
290
     0
176
     1
290
     0
176
     1
290
     0
176
     1
290
     0
176
     1
 90
       50
176
     1
 40
0.0
176
     1
 40
1.0
176
     1
 90
        0
176
     1
 62
    18
420
        0
176
     1
 90
       50
176
     1
 90
        3
176
     1
 62
     5
420
      255
176
     1
290
     0
176
     1
 90
       50
176
     1
 90
       50
176
     1
 90
       50
176
     1
290
     0
176
     1
 90
       50
176
     1
 62
   256
176
     0
 40
1.0
176
     0
 90
        2
176
     1
  1
strokes_ogs.tif
176
     1
290
     0
176
     1
 40
1.0
176
     1
 40
1.0
176
     1
  0
VISUALSTYLE
  5
3F
102
{ACAD_REACTORS
330
2A
102
}
330
2A
100
AcDbVisualStyle
  2
Sketchy
 70
    24
177
     3
291
     0
 70
    58
 90
        1
176
     1
 90
        2
176
     1
 90
        2
176
     1
 90
        0
176
     1
 40
0.6
176
     1
 40
30.0
176
     1
 62
     7
420
 16777215
176
     1
 90
        2
176
     1
 90
        2
176
     1
 62
     7
176
     1
 62
     7
176
     1
 90
        1
176
     1
 90
        1
176
     1
 40
40.0
176
     1
 90
       11
176
     1
 62
     7
176
     1
 40
1.0
176
     1
 90
        1
176
     1
 90
        6
176
     1
 90
        2
176
     1
 62
     7
176
     1
 90
        6
176
     1
 90
        0
176
     1
 90
        0
176
     1
290
     0
176
     1
 90
        1
176
     1
 40
0.0
176
     1
 90
        0
176
     1
290
     0
176
     1
290
     1
176
     1
290
     1
176
     1
290
     0
176
     1
290
     0
176
     1
290
     0
176
     1
290
     0
176
     1
290
     0
176
     1
290
     0
176
     1
 90
       50
176
     1
 40
0.0
176
     1
 40
1.0
176
     1
 90
        0
176
     1
 62
    18
420
        0
176
     1
 90
       50
176
     1
 90
        3
176
     1
 62
     5
420
      255
176
     1
290
     0
176
     1
 90
       50
176
     1
 90
       50
176
     1
 90
       50
176
     1
290
     0
176
     1
 90
       50
176
     1
 62
   256
176
     0
 40
1.0
176
     0
 90
        2
176
     1
  1
strokes_ogs.tif
176
     1
290
     0
176
     1
 40
1.0
176
     1
 40
1.0
176
     1
  0
VISUALSTYLE
  5
37
102
{ACAD_REACTORS
330
2A
102
}
330
2A
100
AcDbVisualStyle
  2
Thicken
 70
    13
177
     3
291
     1
 70
    58
 90
        2
176
     1
 90
        2
176
     1
 90
        0
176
     1
 90
        0
176
     1
 40
0.6
176
     1
 40
30.0
176
     1
 62
     7
420
 16777215
176
     1
 90
        1
176
     1
 90
        4
176
     1
 62
     7
176
     1
 62
   257
176
     1
 90
        1
176
     1
 90
        1
176
     1
 40
1.0
176
     1
 90
       12
176
     1
 62
     7
176
     1
 40
1.0
176
     1
 90
        1
176
     1
 90
        6
176
     1
 90
        2
176
     1
 62
     7
176
     1
 90
        5
176
     1
 90
        0
176
     1
 90
        0
176
     1
290
     0
176
     1
 90
        1
176
     1
 40
0.0
176
     1
 90
        0
176
     1
290
     0
176
     1
290
     1
176
     1
290
     1
176
     1
290
     0
176
     1
290
     0
176
     1
290
     0
176
     1
290
     0
176
     1
290
     0
176
     1
290
     0
176
     1
 90
       50
176
     1
 40
0.0
176
     1
 40
1.0
176
     1
 90
        0
176
     1
 62
    18
420
        0
176
     1
 90
       50
176
     1
 90
        3
176
     1
 62
     5
420
      255
176
     1
290
     0
176
     1
 90
       50
176
     1
 90
       50
176
     1
 90
       50
176
     1
290
     0
176
     1
 90
       50
176
     1
 62
   256
176
     0
 40
1.0
176
     0
 90
        2
176
     1
  1
strokes_ogs.tif
176
     1
290
     0
176
     1
 40
1.0
176
     1
 40
1.0
176
     1
  0
VISUALSTYLE
  5
30
102
{ACAD_REACTORS
330
2A
102
}
330
2A
100
AcDbVisualStyle
  2
Wireframe
 70
     5
177
     3
291
     0
 70
    58
 90
        0
176
     1
 90
        2
176
     1
 90
        0
176
     1
 90
        0
176
     1
 40
0.6
176
     1
 40
30.0
176
     1
 62
     7
420
 16777215
176
     1
 90
        1
176
     1
 90
        4
176
     1
 62
     7
176
     1
 62
   257
176
     1
 90
        1
176
     1
 90
        1
176
     1
 40
1.0
176
     1
 90
        0
176
     1
 62
   257
176
     1
 40
1.0
176
     1
 90
        1
176
     1
 90
        6
176
     1
 90
        2
176
     1
 62
     7
176
     1
 90
        3
176
     1
 90
        0
176
     1
 90
        0
176
     1
290
     0
176
     1
 90
        1
176
     1
 40
0.0
176
     1
 90
        0
176
     1
290
     0
176
     1
290
     1
176
     1
290
     1
176
     1
290
     0
176
     1
290
     0
176
     1
290
     0
176
     1
290
     0
176
     1
290
     0
176
     1
290
     0
176
     1
 90
       50
176
     1
 40
0.0
176
     1
 40
1.0
176
     1
 90
        0
176
     1
 62
    18
420
        0
176
     1
 90
       50
176
     1
 90
        3
176
     1
 62
     5
420
      255
176
     1
290
     0
176
     1
 90
       50
176
     1
 90
       50
176
     1
 90
       50
176
     1
290
     0
176
     1
 90
       50
176
     1
 62
   256
176
     0
 40
1.0
176
     0
 90
        2
176
     1
  1
strokes_ogs.tif
176
     1
290
     0
176
     1
 40
1.0
176
     1
 40
1.0
176
     1
  0
VISUALSTYLE
  5
40
102
{ACAD_REACTORS
330
2A
102
}
330
2A
100
AcDbVisualStyle
  2
X-Ray
 70
    25
177
     3
291
     0
 70
    58
 90
        2
176
     1
 90
        2
176
     1
 90
        1
176
     1
 90
        1
176
     1
 40
0.5
176
     1
 40
30.0
176
     1
 62
     7
420
 16777215
176
     1
 90
        1
176
     1
 90
        0
176
     1
 62
     7
176
     1
 62
   257
176
     1
 90
        1
176
     1
 90
        1
176
     1
 40
1.0
176
     1
 90
        8
176
     1
 62
     7
176
     1
 40
1.0
176
     1
 90
        1
176
     1
 90
        6
176
     1
 90
        2
176
     1
 62
     7
176
     1
 90
        3
176
     1
 90
        0
176
     1
 90
        0
176
     1
290
     0
176
     1
 90
       13
176
     1
 40
0.0
176
     1
 90
        0
176
     1
290
     0
176
     1
290
     1
176
     1
290
     1
176
     1
290
     0
176
     1
290
     0
176
     1
290
     0
176
     1
290
     0
176
     1
290
     0
176
     1
290
     0
176
     1
 90
       50
176
     1
 40
0.0
176
     1
 40
1.0
176
     1
 90
        0
176
     1
 62
    18
420
        0
176
     1
 90
       50
176
     1
 90
        3
176
     1
 62
     5
420
      255
176
     1
290
     0
176
     1
 90
       50
176
     1
 90
       50
176
     1
 90
       50
176
     1
290
     0
176
     1
 90
       50
176
     1
 62
   256
176
     0
 40
1.0
176
     0
 90
        2
176
     1
  1
strokes_ogs.tif
176
     1
290
     0
176
     1
 40
1.0
176
     1
 40
1.0
176
     1
  0
DICTIONARYVAR
  5
296
102
{ACAD_REACTORS
330
295
102
}
330
295
100
DictionaryVariables
280
     0
  1
1:1
  0
DICTIONARYVAR
  5
29B
102
{ACAD_REACTORS
330
295
102
}
330
295
100
DictionaryVariables
280
     0
  1
Standard
  0
DICTIONARYVAR
  5
29A
102
{ACAD_REACTORS
330
295
102
}
330
295
100
DictionaryVariables
280
     0
  1
Standard
  0
DICTIONARY
  5
297
330
6A
100
AcDbDictionary
280
     1
281
     1
  3
ACAD_ROUNDTRIP_2008_TABLESTYLE_CELLSTYLEMAP
360
298
  0
CELLSTYLEMAP
  5
298
102
{ACAD_REACTORS
330
297
102
}
330
297
100
AcDbCellStyleMap
 90
        3
300
CELLSTYLE
  1
TABLEFORMAT_BEGIN
 90
        5
170
     1
 91
        0
 92
    32768
 62
   257
 93
        1
300
CONTENTFORMAT
  1
CONTENTFORMAT_BEGIN
 90
        0
 91
        0
 92
        4
 93
        0
300

 40
0.0
140
1.0
 94
        5
 62
     0
340
11
144
0.25
309
CONTENTFORMAT_END
171
     1
301
MARGIN
  1
CELLMARGIN_BEGIN
 40
0.06
 40
0.06
 40
0.06
 40
0.06
 40
0.06
 40
0.06
309
CELLMARGIN_END
 94
        6
 95
        1
302
GRIDFORMAT
  1
GRIDFORMAT_BEGIN
 90
        0
 91
        1
 62
     0
 92
       -2
340
14
 93
        0
 40
0.045
309
GRIDFORMAT_END
 95
        2
302
GRIDFORMAT
  1
GRIDFORMAT_BEGIN
 90
        0
 91
        1
 62
     0
 92
       -2
340
14
 93
        0
 40
0.045
309
GRIDFORMAT_END
 95
        4
302
GRIDFORMAT
  1
GRIDFORMAT_BEGIN
 90
        0
 91
        1
 62
     0
 92
       -2
340
14
 93
        0
 40
0.045
309
GRIDFORMAT_END
 95
        8
302
GRIDFORMAT
  1
GRIDFORMAT_BEGIN
 90
        0
 91
        1
 62
     0
 92
       -2
340
14
 93
        0
 40
0.045
309
GRIDFORMAT_END
 95
       16
302
GRIDFORMAT
  1
GRIDFORMAT_BEGIN
 90
        0
 91
        1
 62
     0
 92
       -2
340
14
 93
        0
 40
0.045
309
GRIDFORMAT_END
 95
       32
302
GRIDFORMAT
  1
GRIDFORMAT_BEGIN
 90
        0
 91
        1
 62
     0
 92
       -2
340
14
 93
        0
 40
0.045
309
GRIDFORMAT_END
309
TABLEFORMAT_END
  1
CELLSTYLE_BEGIN
 90
        1
 91
        1
300
_TITLE
309
CELLSTYLE_END
300
CELLSTYLE
  1
TABLEFORMAT_BEGIN
 90
        5
170
     1
 91
        0
 92
        0
 62
   257
 93
        1
300
CONTENTFORMAT
  1
CONTENTFORMAT_BEGIN
 90
        0
 91
        0
 92
        4
 93
        0
300

 40
0.0
140
1.0
 94
        5
 62
     0
340
11
144
0.18
309
CONTENTFORMAT_END
171
     1
301
MARGIN
  1
CELLMARGIN_BEGIN
 40
0.06
 40
0.06
 40
0.06
 40
0.06
 40
0.06
 40
0.06
309
CELLMARGIN_END
 94
        6
 95
        1
302
GRIDFORMAT
  1
GRIDFORMAT_BEGIN
 90
        0
 91
        1
 62
     0
 92
       -2
340
14
 93
        0
 40
0.045
309
GRIDFORMAT_END
 95
        2
302
GRIDFORMAT
  1
GRIDFORMAT_BEGIN
 90
        0
 91
        1
 62
     0
 92
       -2
340
14
 93
        0
 40
0.045
309
GRIDFORMAT_END
 95
        4
302
GRIDFORMAT
  1
GRIDFORMAT_BEGIN
 90
        0
 91
        1
 62
     0
 92
       -2
340
14
 93
        0
 40
0.045
309
GRIDFORMAT_END
 95
        8
302
GRIDFORMAT
  1
GRIDFORMAT_BEGIN
 90
        0
 91
        1
 62
     0
 92
       -2
340
14
 93
        0
 40
0.045
309
GRIDFORMAT_END
 95
       16
302
GRIDFORMAT
  1
GRIDFORMAT_BEGIN
 90
        0
 91
        1
 62
     0
 92
       -2
340
14
 93
        0
 40
0.045
309
GRIDFORMAT_END
 95
       32
302
GRIDFORMAT
  1
GRIDFORMAT_BEGIN
 90
        0
 91
        1
 62
     0
 92
       -2
340
14
 93
        0
 40
0.045
309
GRIDFORMAT_END
309
TABLEFORMAT_END
  1
CELLSTYLE_BEGIN
 90
        2
 91
        1
300
_HEADER
309
CELLSTYLE_END
300
CELLSTYLE
  1
TABLEFORMAT_BEGIN
 90
        5
170
     1
 91
        0
 92
        0
 62
   257
 93
        1
300
CONTENTFORMAT
  1
CONTENTFORMAT_BEGIN
 90
        0
 91
        0
 92
        4
 93
        0
300

 40
0.0
140
1.0
 94
        2
 62
     0
340
11
144
0.18
309
CONTENTFORMAT_END
171
     1
301
MARGIN
  1
CELLMARGIN_BEGIN
 40
0.06
 40
0.06
 40
0.06
 40
0.06
 40
0.06
 40
0.06
309
CELLMARGIN_END
 94
        6
 95
        1
302
GRIDFORMAT
  1
GRIDFORMAT_BEGIN
 90
        0
 91
        1
 62
     0
 92
       -2
340
14
 93
        0
 40
0.045
309
GRIDFORMAT_END
 95
        2
302
GRIDFORMAT
  1
GRIDFORMAT_BEGIN
 90
        0
 91
        1
 62
     0
 92
       -2
340
14
 93
        0
 40
0.045
309
GRIDFORMAT_END
 95
        4
302
GRIDFORMAT
  1
GRIDFORMAT_BEGIN
 90
        0
 91
        1
 62
     0
 92
       -2
340
14
 93
        0
 40
0.045
309
GRIDFORMAT_END
 95
        8
302
GRIDFORMAT
  1
GRIDFORMAT_BEGIN
 90
        0
 91
        1
 62
     0
 92
       -2
340
14
 93
        0
 40
0.045
309
GRIDFORMAT_END
 95
       16
302
GRIDFORMAT
  1
GRIDFORMAT_BEGIN
 90
        0
 91
        1
 62
     0
 92
       -2
340
14
 93
        0
 40
0.045
309
GRIDFORMAT_END
 95
       32
302
GRIDFORMAT
  1
GRIDFORMAT_BEGIN
 90
        0
 91
        1
 62
     0
 92
       -2
340
14
 93
        0
 40
0.045
309
GRIDFORMAT_END
309
TABLEFORMAT_END
  1
CELLSTYLE_BEGIN
 90
        3
 91
        2
300
_DATA
309
CELLSTYLE_END
  0
ENDSEC
  0
EOF