0
SECTION
  2
HEADER
  9
$ACADVER
  1
AC1027
  9
$ACADMAINTVER
 70
     8
  9
$DWGCODEPAGE
  3
ANSI_1252
  9
$REQUIREDVERSIONS
160
                 0
  9
$COMMENTS
  1
File was created by Cadenas
  9
$CUSTOMPROPERTYTAG
  1
NN
  9
$CUSTOMPROPERTY
  1
Imperial - IP Wide Slot Take-Up
  9
$CUSTOMPROPERTYTAG
  1
NT
  9
$CUSTOMPROPERTY
  1
Imperial Wide Slot Take-Up Bearings
  9
$CUSTOMPROPERTYTAG
  1
NB
  9
$CUSTOMPROPERTY
  1
069395
  9
$CUSTOMPROPERTYTAG
  1
NBSYN
  9
$CUSTOMPROPERTY
  1
$PN.
  9
$CUSTOMPROPERTYTAG
  1
LINA
  9
$CUSTOMPROPERTY
  1
069395
  9
$CUSTOMPROPERTYTAG
  1
SS
  9
$CUSTOMPROPERTY
  1
4
  9
$CUSTOMPROPERTYTAG
  1
PN
  9
$CUSTOMPROPERTY
  1
069395
  9
$CUSTOMPROPERTYTAG
  1
DESCRIPTION
  9
$CUSTOMPROPERTY
  1
WSTU-IP-400RE
  9
$CUSTOMPROPERTYTAG
  1
EF
  9
$CUSTOMPROPERTY
  1
Expansion
  9
$CUSTOMPROPERTYTAG
  1
ST
  9
$CUSTOMPROPERTY
  1
Contact Seal
  9
$CUSTOMPROPERTYTAG
  1
A
  9
$CUSTOMPROPERTY
  1
4-45/64
  9
$CUSTOMPROPERTYTAG
  1
B
  9
$CUSTOMPROPERTY
  1
12-9/16
  9
$CUSTOMPROPERTYTAG
  1
C
  9
$CUSTOMPROPERTY
  1
2-1/16
  9
$CUSTOMPROPERTYTAG
  1
D
  9
$CUSTOMPROPERTY
  1
7
  9
$CUSTOMPROPERTYTAG
  1
E
  9
$CUSTOMPROPERTY
  1
8-3/8
  9
$CUSTOMPROPERTYTAG
  1
F
  9
$CUSTOMPROPERTY
  1
2-1/8
  9
$CUSTOMPROPERTYTAG
  1
G
  9
$CUSTOMPROPERTY
  1
2-1/16
  9
$CUSTOMPROPERTYTAG
  1
H
  9
$CUSTOMPROPERTY
  1
2-1/8
  9
$CUSTOMPROPERTYTAG
  1
J
  9
$CUSTOMPROPERTY
  1
6
  9
$CUSTOMPROPERTYTAG
  1
K
  9
$CUSTOMPROPERTY
  1
3-3/8
  9
$CUSTOMPROPERTYTAG
  1
L
  9
$CUSTOMPROPERTY
  1
5-9/16
  9
$CUSTOMPROPERTYTAG
  1
M
  9
$CUSTOMPROPERTY
  1
8-5/8
  9
$CUSTOMPROPERTYTAG
  1
N
  9
$CUSTOMPROPERTY
  1
9-7/16
  9
$CUSTOMPROPERTYTAG
  1
R
  9
$CUSTOMPROPERTY
  1
4-51/64
  9
$CUSTOMPROPERTYTAG
  1
S
  9
$CUSTOMPROPERTY
  1
3-3/64
  9
$CUSTOMPROPERTYTAG
  1
T
  9
$CUSTOMPROPERTY
  1
3-7/16
  9
$CUSTOMPROPERTYTAG
  1
X
  9
$CUSTOMPROPERTY
  1
5/16
  9
$CUSTOMPROPERTYTAG
  1
Y
  9
$CUSTOMPROPERTY
  1
0.025
  9
$CUSTOMPROPERTYTAG
  1
Z
  9
$CUSTOMPROPERTY
  1
4-1/2
  9
$CUSTOMPROPERTYTAG
  1
COMPANY
  9
$CUSTOMPROPERTY
  1
baldor
  9
$INSBASE
 10
0.0
 20
0.0
 30
0.0
  9
$EXTMIN
 10
1.000000000000000E+20
 20
1.000000000000000E+20
 30
1.000000000000000E+20
  9
$EXTMAX
 10
-1.000000000000000E+20
 20
-1.000000000000000E+20
 30
-1.000000000000000E+20
  9
$LIMMIN
 10
0.0
 20
0.0
  9
$LIMMAX
 10
12.0
 20
9.0
  9
$ORTHOMODE
 70
     0
  9
$REGENMODE
 70
     1
  9
$FILLMODE
 70
     1
  9
$QTEXTMODE
 70
     0
  9
$MIRRTEXT
 70
     1
  9
$LTSCALE
 40
1.0
  9
$ATTMODE
 70
     1
  9
$TEXTSIZE
 40
0.2
  9
$TRACEWID
 40
0.05
  9
$TEXTSTYLE
  7
Standard
  9
$CLAYER
  8
0
  9
$CELTYPE
  6
ByLayer
  9
$CECOLOR
 62
   256
  9
$CELTSCALE
 40
1.0
  9
$DISPSILH
 70
     0
  9
$DIMSCALE
 40
1.0
  9
$DIMASZ
 40
0.18
  9
$DIMEXO
 40
0.0625
  9
$DIMDLI
 40
0.38
  9
$DIMRND
 40
0.0
  9
$DIMDLE
 40
0.0
  9
$DIMEXE
 40
0.18
  9
$DIMTP
 40
0.0
  9
$DIMTM
 40
0.0
  9
$DIMTXT
 40
0.18
  9
$DIMCEN
 40
0.09
  9
$DIMTSZ
 40
0.0
  9
$DIMTOL
 70
     0
  9
$DIMLIM
 70
     0
  9
$DIMTIH
 70
     1
  9
$DIMTOH
 70
     1
  9
$DIMSE1
 70
     0
  9
$DIMSE2
 70
     0
  9
$DIMTAD
 70
     0
  9
$DIMZIN
 70
     0
  9
$DIMBLK
  1

  9
$DIMASO
 70
     1
  9
$DIMSHO
 70
     1
  9
$DIMPOST
  1

  9
$DIMAPOST
  1

  9
$DIMALT
 70
     0
  9
$DIMALTD
 70
     2
  9
$DIMALTF
 40
25.4
  9
$DIMLFAC
 40
1.0
  9
$DIMTOFL
 70
     0
  9
$DIMTVP
 40
0.0
  9
$DIMTIX
 70
     0
  9
$DIMSOXD
 70
     0
  9
$DIMSAH
 70
     0
  9
$DIMBLK1
  1

  9
$DIMBLK2
  1

  9
$DIMSTYLE
  2
Standard
  9
$DIMCLRD
 70
     0
  9
$DIMCLRE
 70
     0
  9
$DIMCLRT
 70
     0
  9
$DIMTFAC
 40
1.0
  9
$DIMGAP
 40
0.09
  9
$DIMJUST
 70
     0
  9
$DIMSD1
 70
     0
  9
$DIMSD2
 70
     0
  9
$DIMTOLJ
 70
     1
  9
$DIMTZIN
 70
     0
  9
$DIMALTZ
 70
     0
  9
$DIMALTTZ
 70
     0
  9
$DIMUPT
 70
     0
  9
$DIMDEC
 70
     4
  9
$DIMTDEC
 70
     4
  9
$DIMALTU
 70
     2
  9
$DIMALTTD
 70
     2
  9
$DIMTXSTY
  7
Standard
  9
$DIMAUNIT
 70
     0
  9
$DIMADEC
 70
     0
  9
$DIMALTRND
 40
0.0
  9
$DIMAZIN
 70
     0
  9
$DIMDSEP
 70
    46
  9
$DIMATFIT
 70
     3
  9
$DIMFRAC
 70
     0
  9
$DIMLDRBLK
  1

  9
$DIMLUNIT
 70
     2
  9
$DIMLWD
 70
    -2
  9
$DIMLWE
 70
    -2
  9
$DIMTMOVE
 70
     0
  9
$DIMFXL
 40
1.0
  9
$DIMFXLON
 70
     0
  9
$DIMJOGANG
 40
0.7853981633974483
  9
$DIMTFILL
 70
     0
  9
$DIMTFILLCLR
 70
     0
  9
$DIMARCSYM
 70
     0
  9
$DIMLTYPE
  6

  9
$DIMLTEX1
  6

  9
$DIMLTEX2
  6

  9
$DIMTXTDIRECTION
 70
     0
  9
$LUNITS
 70
     2
  9
$LUPREC
 70
     4
  9
$SKETCHINC
 40
0.1
  9
$FILLETRAD
 40
0.5
  9
$AUNITS
 70
     0
  9
$AUPREC
 70
     0
  9
$MENU
  1
.
  9
$ELEVATION
 40
0.0
  9
$PELEVATION
 40
0.0
  9
$THICKNESS
 40
0.0
  9
$LIMCHECK
 70
     0
  9
$CHAMFERA
 40
0.0
  9
$CHAMFERB
 40
0.0
  9
$CHAMFERC
 40
0.0
  9
$CHAMFERD
 40
0.0
  9
$SKPOLY
 70
     0
  9
$TDCREATE
 40
2458168.987981181
  9
$TDUCREATE
 40
2458168.946314514
  9
$TDUPDATE
 40
2458168.987981354
  9
$TDUUPDATE
 40
2458168.946314687
  9
$TDINDWG
 40
0.0000000116
  9
$TDUSRTIMER
 40
0.0000000116
  9
$USRTIMER
 70
     1
  9
$ANGBASE
 50
0.0
  9
$ANGDIR
 70
     0
  9
$PDMODE
 70
     0
  9
$PDSIZE
 40
0.0
  9
$PLINEWID
 40
0.0
  9
$SPLFRAME
 70
     0
  9
$SPLINETYPE
 70
     6
  9
$SPLINESEGS
 70
     8
  9
$HANDSEED
  5
25A
  9
$SURFTAB1
 70
     6
  9
$SURFTAB2
 70
     6
  9
$SURFTYPE
 70
     6
  9
$SURFU
 70
     6
  9
$SURFV
 70
     6
  9
$UCSBASE
  2

  9
$UCSNAME
  2

  9
$UCSORG
 10
0.0
 20
0.0
 30
0.0
  9
$UCSXDIR
 10
1.0
 20
0.0
 30
0.0
  9
$UCSYDIR
 10
0.0
 20
1.0
 30
0.0
  9
$UCSORTHOREF
  2

  9
$UCSORTHOVIEW
 70
     0
  9
$UCSORGTOP
 10
0.0
 20
0.0
 30
0.0
  9
$UCSORGBOTTOM
 10
0.0
 20
0.0
 30
0.0
  9
$UCSORGLEFT
 10
0.0
 20
0.0
 30
0.0
  9
$UCSORGRIGHT
 10
0.0
 20
0.0
 30
0.0
  9
$UCSORGFRONT
 10
0.0
 20
0.0
 30
0.0
  9
$UCSORGBACK
 10
0.0
 20
0.0
 30
0.0
  9
$PUCSBASE
  2

  9
$PUCSNAME
  2

  9
$PUCSORG
 10
0.0
 20
0.0
 30
0.0
  9
$PUCSXDIR
 10
1.0
 20
0.0
 30
0.0
  9
$PUCSYDIR
 10
0.0
 20
1.0
 30
0.0
  9
$PUCSORTHOREF
  2

  9
$PUCSORTHOVIEW
 70
     0
  9
$PUCSORGTOP
 10
0.0
 20
0.0
 30
0.0
  9
$PUCSORGBOTTOM
 10
0.0
 20
0.0
 30
0.0
  9
$PUCSORGLEFT
 10
0.0
 20
0.0
 30
0.0
  9
$PUCSORGRIGHT
 10
0.0
 20
0.0
 30
0.0
  9
$PUCSORGFRONT
 10
0.0
 20
0.0
 30
0.0
  9
$PUCSORGBACK
 10
0.0
 20
0.0
 30
0.0
  9
$USERI1
 70
     0
  9
$USERI2
 70
     0
  9
$USERI3
 70
     0
  9
$USERI4
 70
     0
  9
$USERI5
 70
     0
  9
$USERR1
 40
0.0
  9
$USERR2
 40
0.0
  9
$USERR3
 40
0.0
  9
$USERR4
 40
0.0
  9
$USERR5
 40
0.0
  9
$WORLDVIEW
 70
     1
  9
$SHADEDGE
 70
     3
  9
$SHADEDIF
 70
    70
  9
$TILEMODE
 70
     1
  9
$MAXACTVP
 70
    64
  9
$PINSBASE
 10
0.0
 20
0.0
 30
0.0
  9
$PLIMCHECK
 70
     0
  9
$PEXTMIN
 10
1.000000000000000E+20
 20
1.000000000000000E+20
 30
1.000000000000000E+20
  9
$PEXTMAX
 10
-1.000000000000000E+20
 20
-1.000000000000000E+20
 30
-1.000000000000000E+20
  9
$PLIMMIN
 10
0.0
 20
0.0
  9
$PLIMMAX
 10
12.0
 20
9.0
  9
$UNITMODE
 70
     0
  9
$VISRETAIN
 70
     1
  9
$PLINEGEN
 70
     0
  9
$PSLTSCALE
 70
     1
  9
$TREEDEPTH
 70
  3020
  9
$CMLSTYLE
  2
Standard
  9
$CMLJUST
 70
     0
  9
$CMLSCALE
 40
1.0
  9
$PROXYGRAPHICS
 70
     1
  9
$MEASUREMENT
 70
     0
  9
$CELWEIGHT
370
    -1
  9
$ENDCAPS
280
     0
  9
$JOINSTYLE
280
     0
  9
$LWDISPLAY
290
     0
  9
$INSUNITS
 70
     1
  9
$HYPERLINKBASE
  1

  9
$STYLESHEET
  1

  9
$XEDIT
290
     1
  9
$CEPSNTYPE
380
     0
  9
$PSTYLEMODE
290
     1
  9
$FINGERPRINTGUID
  2
{000A6EC7-3CB0-4CF9-B798-0D761B2BDC48}
  9
$VERSIONGUID
  2
{FAEB1C32-E019-11D5-929B-00C0DF256EC4}
  9
$EXTNAMES
290
     1
  9
$PSVPSCALE
 40
0.0
  9
$OLESTARTUP
290
     0
  9
$SORTENTS
280
   127
  9
$INDEXCTL
280
     0
  9
$HIDETEXT
280
     1
  9
$XCLIPFRAME
280
     2
  9
$HALOGAP
280
     0
  9
$OBSCOLOR
 70
   257
  9
$OBSLTYPE
280
     0
  9
$INTERSECTIONDISPLAY
280
     0
  9
$INTERSECTIONCOLOR
 70
   257
  9
$DIMASSOC
280
     2
  9
$PROJECTNAME
  1

  9
$CAMERADISPLAY
290
     0
  9
$LENSLENGTH
 40
50.0
  9
$CAMERAHEIGHT
 40
0.0
  9
$STEPSPERSEC
 40
2.0
  9
$STEPSIZE
 40
6.0
  9
$3DDWFPREC
 40
2.0
  9
$PSOLWIDTH
 40
0.25
  9
$PSOLHEIGHT
 40
4.0
  9
$LOFTANG1
 40
1.570796326794897
  9
$LOFTANG2
 40
1.570796326794897
  9
$LOFTMAG1
 40
0.0
  9
$LOFTMAG2
 40
0.0
  9
$LOFTPARAM
 70
     7
  9
$LOFTNORMALS
280
     1
  9
$LATITUDE
 40
37.795
  9
$LONGITUDE
 40
-122.394
  9
$NORTHDIRECTION
 40
0.0
  9
$TIMEZONE
 70
 -8000
  9
$LIGHTGLYPHDISPLAY
280
     1
  9
$TILEMODELIGHTSYNCH
280
     1
  9
$CMATERIAL
347
44
  9
$SOLIDHIST
280
     0
  9
$SHOWHIST
280
     1
  9
$DWFFRAME
280
     2
  9
$DGNFRAME
280
     2
  9
$REALWORLDSCALE
290
     1
  9
$INTERFERECOLOR
 62
   256
  9
$CSHADOW
280
     0
  9
$SHADOWPLANELOCATION
 40
0.0
  0
ENDSEC
  0
SECTION
  2
CLASSES
  0
CLASS
  1
ACDBDICTIONARYWDFLT
  2
AcDbDictionaryWithDefault
  3
ObjectDBX Classes
 90
        0
 91
        4
280
     0
281
     0
  0
CLASS
  1
VISUALSTYLE
  2
AcDbVisualStyle
  3
ObjectDBX Classes
 90
     4095
 91
        4
280
     0
281
     0
  0
CLASS
  1
MATERIAL
  2
AcDbMaterial
  3
ObjectDBX Classes
 90
     1153
 91
        4
280
     0
281
     0
  0
CLASS
  1
SCALE
  2
AcDbScale
  3
ObjectDBX Classes
 90
     1153
 91
        4
280
     0
281
     0
  0
CLASS
  1
TABLESTYLE
  2
AcDbTableStyle
  3
ObjectDBX Classes
 90
     4095
 91
        4
280
     0
281
     0
  0
CLASS
  1
MLEADERSTYLE
  2
AcDbMLeaderStyle
  3
ACDB_MLEADERSTYLE_CLASS
 90
     4095
 91
        4
280
     0
281
     0
  0
CLASS
  1
SUN
  2
AcDbSun
  3
SCENEOE
 90
     1153
 91
        4
280
     0
281
     0
  0
CLASS
  1
DICTIONARYVAR
  2
AcDbDictionaryVar
  3
ObjectDBX Classes
 90
        0
 91
        4
280
     0
281
     0
  0
CLASS
  1
CELLSTYLEMAP
  2
AcDbCellStyleMap
  3
ObjectDBX Classes
 90
     1152
 91
        4
280
     0
281
     0
  0
ENDSEC
  0
SECTION
  2
TABLES
  0
TABLE
  2
VPORT
  5
8
330
0
100
AcDbSymbolTable
 70
     1
  0
VPORT
  5
29
330
8
100
AcDbSymbolTableRecord
100
AcDbViewportTableRecord
  2
*Active
 70
     0
 10
0.0
 20
0.0
 11
1.0
 21
1.0
 12
1.956117576024017
 22
0.0
 13
0.0
 23
0.0
 14
0.5
 24
0.5
 15
0.5
 25
0.5
 16
0.0
 26
0.0
 36
1.0
 17
0.0
 27
0.0
 37
0.0
 40
9.62625
 41
1.382147268657162
 42
50.0
 43
0.0
 44
0.0
 50
0.0
 51
0.0
 71
     0
 72
   100
 73
     1
 74
     3
 75
     0
 76
     0
 77
     0
 78
     0
281
     0
 65
     1
110
0.0
120
0.0
130
0.0
111
1.0
121
0.0
131
0.0
112
0.0
122
1.0
132
0.0
 79
     0
146
0.0
348
2F
 60
     3
 61
     5
292
     1
282
     1
141
0.0
142
0.0
 63
   250
361
6D
  0
ENDTAB
  0
TABLE
  2
LTYPE
  5
5
330
0
100
AcDbSymbolTable
 70
     3
  0
LTYPE
  5
14
330
5
100
AcDbSymbolTableRecord
100
AcDbLinetypeTableRecord
  2
ByBlock
 70
     0
  3

 72
    65
 73
     0
 40
0.0
  0
LTYPE
  5
15
330
5
100
AcDbSymbolTableRecord
100
AcDbLinetypeTableRecord
  2
ByLayer
 70
     0
  3

 72
    65
 73
     0
 40
0.0
  0
LTYPE
  5
16
330
5
100
AcDbSymbolTableRecord
100
AcDbLinetypeTableRecord
  2
Continuous
 70
     0
  3
Solid line
 72
    65
 73
     0
 40
0.0
  0
LTYPE
  5
A2
330
5
100
AcDbSymbolTableRecord
100
AcDbLinetypeTableRecord
  2
Dashed
 70
     0
  3

 72
    65
 73
     2
 40
2.0
 49
1.0
 74
     0
 49
-1.0
 74
     0
  0
LTYPE
  5
CC
330
5
100
AcDbSymbolTableRecord
100
AcDbLinetypeTableRecord
  2
Center
 70
     0
  3

 72
    65
 73
     4
 40
1.5
 49
0.45
 74
     0
 49
-0.5
 74
     0
 49
0.05
 74
     0
 49
-0.5
 74
     0
  0
ENDTAB
  0
TABLE
  2
LAYER
  5
2
330
0
100
AcDbSymbolTable
 70
     7
  0
LAYER
  5
10
330
2
100
AcDbSymbolTableRecord
100
AcDbLayerTableRecord
  2
0
 70
     0
 62
     7
  6
Continuous
370
    -3
390
F
347
46
348
0
  0
LAYER
  5
72
330
2
100
AcDbSymbolTableRecord
100
AcDbLayerTableRecord
  2
AM_6
 70
     0
 62
    -2
  6
Continuous
370
    35
390
F
347
46
348
0
  0
LAYER
  5
A3
330
2
100
AcDbSymbolTableRecord
100
AcDbLayerTableRecord
  2
AM_9
 70
     0
 62
     6
  6
Dashed
370
    25
390
F
347
46
348
0
  0
LAYER
  5
C5
330
2
100
AcDbSymbolTableRecord
100
AcDbLayerTableRecord
  2
AM_5
 70
     0
 62
     3
  6
Continuous
370
    25
390
F
347
46
348
0
  0
LAYER
  5
CD
330
2
100
AcDbSymbolTableRecord
100
AcDbLayerTableRecord
  2
AM_7
 70
     0
 62
     7
  6
Center
370
    25
390
F
347
46
348
0
  0
LAYER
  5
D0
330
2
100
AcDbSymbolTableRecord
100
AcDbLayerTableRecord
  2
AM_4
 70
     0
 62
     7
  6
Continuous
370
    50
390
F
347
46
348
0
  0
LAYER
  5
243
330
2
100
AcDbSymbolTableRecord
100
AcDbLayerTableRecord
  2
ConnectionPoints
 70
     0
 62
     7
  6
Continuous
370
    50
390
F
347
46
348
0
  0
ENDTAB
  0
TABLE
  2
STYLE
  5
3
330
0
100
AcDbSymbolTable
 70
     1
  0
STYLE
  5
11
330
3
100
AcDbSymbolTableRecord
100
AcDbTextStyleTableRecord
  2
Standard
 70
     0
 40
0.0
 41
1.0
 50
0.0
 71
     0
 42
0.2
  3
txt
  4

  0
ENDTAB
  0
TABLE
  2
VIEW
  5
6
330
0
100
AcDbSymbolTable
 70
     0
  0
ENDTAB
  0
TABLE
  2
UCS
  5
7
330
0
100
AcDbSymbolTable
 70
     0
  0
ENDTAB
  0
TABLE
  2
APPID
  5
9
330
0
100
AcDbSymbolTable
 70
     1
  0
APPID
  5
12
330
9
100
AcDbSymbolTableRecord
100
AcDbRegAppTableRecord
  2
ACAD
 70
     0
  0
ENDTAB
  0
TABLE
  2
DIMSTYLE
  5
A
330
0
100
AcDbSymbolTable
 70
     1
100
AcDbDimStyleTable
  0
DIMSTYLE
105
27
330
A
100
AcDbSymbolTableRecord
100
AcDbDimStyleTableRecord
  2
Standard
 70
     0
178
     0
340
11
  0
ENDTAB
  0
TABLE
  2
BLOCK_RECORD
  5
1
330
0
100
AcDbSymbolTable
 70
     8
  0
BLOCK_RECORD
  5
1F
330
1
100
AcDbSymbolTableRecord
100
AcDbBlockTableRecord
  2
*Model_Space
340
22
 70
     0
280
     1
281
     0
  0
BLOCK_RECORD
  5
1B
330
1
100
AcDbSymbolTableRecord
100
AcDbBlockTableRecord
  2
*Paper_Space
340
1E
 70
     0
280
     1
281
     0
  0
BLOCK_RECORD
  5
23
330
1
100
AcDbSymbolTableRecord
100
AcDbBlockTableRecord
  2
*Paper_Space0
340
26
 70
     0
280
     1
281
     0
  0
BLOCK_RECORD
  5
6E
330
1
100
AcDbSymbolTableRecord
100
AcDbBlockTableRecord
  2
1_069395_0
340
0
102
{BLKREFS
331
6F
102
}
 70
     0
280
     1
281
     0
  0
BLOCK_RECORD
  5
91
330
1
100
AcDbSymbolTableRecord
100
AcDbBlockTableRecord
  2
2_405016_Inch_0_in_069395_0
340
0
102
{BLKREFS
331
92
102
}
 70
     0
280
     1
281
     0
  0
BLOCK_RECORD
  5
111
330
1
100
AcDbSymbolTableRecord
100
AcDbBlockTableRecord
  2
3_ASME_B18_3_1_4_1_0_in_069395_0
340
0
102
{BLKREFS
331
112
102
}
 70
     0
280
     1
281
     0
  0
BLOCK_RECORD
  5
12D
330
1
100
AcDbSymbolTableRecord
100
AcDbBlockTableRecord
  2
4_ASME_B18_3_1_4_2_0_in_069395_0
340
0
102
{BLKREFS
331
12E
102
}
 70
     0
280
     1
281
     0
  0
BLOCK_RECORD
  5
149
330
1
100
AcDbSymbolTableRecord
100
AcDbBlockTableRecord
  2
5_070907LW_0_in_069395_0
340
0
102
{BLKREFS
331
14A
102
}
 70
     0
280
     1
281
     0
  0
BLOCK_RECORD
  5
196
330
1
100
AcDbSymbolTableRecord
100
AcDbBlockTableRecord
  2
6_070907I_0_in_069395_0
340
0
102
{BLKREFS
331
197
102
}
 70
     0
280
     1
281
     0
  0
BLOCK_RECORD
  5
1F4
330
1
100
AcDbSymbolTableRecord
100
AcDbBlockTableRecord
  2
7_069395H_0_in_069395_0
340
0
102
{BLKREFS
331
1F5
102
}
 70
     0
280
     1
281
     0
  0
ENDTAB
  0
ENDSEC
  0
SECTION
  2
BLOCKS
  0
BLOCK
  5
20
330
1F
100
AcDbEntity
  8
0
100
AcDbBlockBegin
  2
*Model_Space
 70
     0
 10
0.0
 20
0.0
 30
0.0
  3
*Model_Space
  1

  0
ENDBLK
  5
21
330
1F
100
AcDbEntity
  8
0
100
AcDbBlockEnd
  0
BLOCK
  5
1C
330
1B
100
AcDbEntity
 67
     1
  8
0
100
AcDbBlockBegin
  2
*Paper_Space
 70
     0
 10
0.0
 20
0.0
 30
0.0
  3
*Paper_Space
  1

  0
ENDBLK
  5
1D
330
1B
100
AcDbEntity
 67
     1
  8
0
100
AcDbBlockEnd
  0
BLOCK
  5
24
330
23
100
AcDbEntity
  8
0
100
AcDbBlockBegin
  2
*Paper_Space0
 70
     0
 10
0.0
 20
0.0
 30
0.0
  3
*Paper_Space0
  1

  0
ENDBLK
  5
25
330
23
100
AcDbEntity
  8
0
100
AcDbBlockEnd
  0
BLOCK
  5
70
330
6E
100
AcDbEntity
  8
0
100
AcDbBlockBegin
  2
1_069395_0
 70
     2
 10
0.0
 20
0.0
 30
0.0
  3
1_069395_0
  1

  0
ATTDEF
  5
73
330
6E
100
AcDbEntity
  8
AM_6
100
AcDbText
 10
13.478125
 20
4.71875
 30
0.0
 40
0.5
  1
Imperial - IP Wide Slot Take-Up
100
AcDbAttributeDefinition
  3

  2
NN
 70
     8
280
     0
  0
ATTDEF
  5
74
330
6E
100
AcDbEntity
  8
AM_6
100
AcDbText
 10
13.478125
 20
4.21875
 30
0.0
 40
0.5
  1
Imperial Wide Slot Take-Up Bearings
100
AcDbAttributeDefinition
  3

  2
NT
 70
     8
280
     0
  0
ATTDEF
  5
75
330
6E
100
AcDbEntity
  8
AM_6
100
AcDbText
 10
13.478125
 20
3.71875
 30
0.0
 40
0.5
  1
069395
100
AcDbAttributeDefinition
  3

  2
NB
 70
     8
280
     0
  0
ATTDEF
  5
76
330
6E
100
AcDbEntity
  8
AM_6
100
AcDbText
 10
13.478125
 20
3.21875
 30
0.0
 40
0.5
  1
$PN.
100
AcDbAttributeDefinition
  3

  2
NBSYN
 70
     8
280
     0
  0
ATTDEF
  5
77
330
6E
100
AcDbEntity
  8
AM_6
100
AcDbText
 10
13.478125
 20
2.71875
 30
0.0
 40
0.5
  1
069395
100
AcDbAttributeDefinition
  3

  2
LINA
 70
     8
280
     0
  0
ATTDEF
  5
78
330
6E
100
AcDbEntity
  8
AM_6
100
AcDbText
 10
13.478125
 20
2.21875
 30
0.0
 40
0.5
  1
4
100
AcDbAttributeDefinition
  3

  2
SS
 70
     8
280
     0
  0
ATTDEF
  5
79
330
6E
100
AcDbEntity
  8
AM_6
100
AcDbText
 10
13.478125
 20
1.71875
 30
0.0
 40
0.5
  1
069395
100
AcDbAttributeDefinition
  3

  2
PN
 70
     8
280
     0
  0
ATTDEF
  5
7A
330
6E
100
AcDbEntity
  8
AM_6
100
AcDbText
 10
13.478125
 20
1.21875
 30
0.0
 40
0.5
  1
WSTU-IP-400RE
100
AcDbAttributeDefinition
  3

  2
DESCRIPTION
 70
     8
280
     0
  0
ATTDEF
  5
7B
330
6E
100
AcDbEntity
  8
AM_6
100
AcDbText
 10
13.478125
 20
0.71875
 30
0.0
 40
0.5
  1
Expansion
100
AcDbAttributeDefinition
  3

  2
EF
 70
     8
280
     0
  0
ATTDEF
  5
7C
330
6E
100
AcDbEntity
  8
AM_6
100
AcDbText
 10
13.478125
 20
0.21875
 30
0.0
 40
0.5
  1
Contact Seal
100
AcDbAttributeDefinition
  3

  2
ST
 70
     8
280
     0
  0
ATTDEF
  5
7D
330
6E
100
AcDbEntity
  8
AM_6
100
AcDbText
 10
13.478125
 20
-0.28125
 30
0.0
 40
0.5
  1
4-45/64
100
AcDbAttributeDefinition
  3

  2
A
 70
     8
280
     0
  0
ATTDEF
  5
7E
330
6E
100
AcDbEntity
  8
AM_6
100
AcDbText
 10
13.478125
 20
-0.78125
 30
0.0
 40
0.5
  1
12-9/16
100
AcDbAttributeDefinition
  3

  2
B
 70
     8
280
     0
  0
ATTDEF
  5
7F
330
6E
100
AcDbEntity
  8
AM_6
100
AcDbText
 10
13.478125
 20
-1.28125
 30
0.0
 40
0.5
  1
2-1/16
100
AcDbAttributeDefinition
  3

  2
C
 70
     8
280
     0
  0
ATTDEF
  5
80
330
6E
100
AcDbEntity
  8
AM_6
100
AcDbText
 10
13.478125
 20
-1.78125
 30
0.0
 40
0.5
  1
7
100
AcDbAttributeDefinition
  3

  2
D
 70
     8
280
     0
  0
ATTDEF
  5
81
330
6E
100
AcDbEntity
  8
AM_6
100
AcDbText
 10
13.478125
 20
-2.28125
 30
0.0
 40
0.5
  1
8-3/8
100
AcDbAttributeDefinition
  3

  2
E
 70
     8
280
     0
  0
ATTDEF
  5
82
330
6E
100
AcDbEntity
  8
AM_6
100
AcDbText
 10
13.478125
 20
-2.78125
 30
0.0
 40
0.5
  1
2-1/8
100
AcDbAttributeDefinition
  3

  2
F
 70
     8
280
     0
  0
ATTDEF
  5
83
330
6E
100
AcDbEntity
  8
AM_6
100
AcDbText
 10
13.478125
 20
-3.28125
 30
0.0
 40
0.5
  1
2-1/16
100
AcDbAttributeDefinition
  3

  2
G
 70
     8
280
     0
  0
ATTDEF
  5
84
330
6E
100
AcDbEntity
  8
AM_6
100
AcDbText
 10
13.478125
 20
-3.78125
 30
0.0
 40
0.5
  1
2-1/8
100
AcDbAttributeDefinition
  3

  2
H
 70
     8
280
     0
  0
ATTDEF
  5
85
330
6E
100
AcDbEntity
  8
AM_6
100
AcDbText
 10
13.478125
 20
-4.28125
 30
0.0
 40
0.5
  1
6
100
AcDbAttributeDefinition
  3

  2
J
 70
     8
280
     0
  0
ATTDEF
  5
86
330
6E
100
AcDbEntity
  8
AM_6
100
AcDbText
 10
13.478125
 20
-4.78125
 30
0.0
 40
0.5
  1
3-3/8
100
AcDbAttributeDefinition
  3

  2
K
 70
     8
280
     0
  0
ATTDEF
  5
87
330
6E
100
AcDbEntity
  8
AM_6
100
AcDbText
 10
13.478125
 20
-5.28125
 30
0.0
 40
0.5
  1
5-9/16
100
AcDbAttributeDefinition
  3

  2
L
 70
     8
280
     0
  0
ATTDEF
  5
88
330
6E
100
AcDbEntity
  8
AM_6
100
AcDbText
 10
13.478125
 20
-5.78125
 30
0.0
 40
0.5
  1
8-5/8
100
AcDbAttributeDefinition
  3

  2
M
 70
     8
280
     0
  0
ATTDEF
  5
89
330
6E
100
AcDbEntity
  8
AM_6
100
AcDbText
 10
13.478125
 20
-6.28125
 30
0.0
 40
0.5
  1
9-7/16
100
AcDbAttributeDefinition
  3

  2
N
 70
     8
280
     0
  0
ATTDEF
  5
8A
330
6E
100
AcDbEntity
  8
AM_6
100
AcDbText
 10
13.478125
 20
-6.78125
 30
0.0
 40
0.5
  1
4-51/64
100
AcDbAttributeDefinition
  3

  2
R
 70
     8
280
     0
  0
ATTDEF
  5
8B
330
6E
100
AcDbEntity
  8
AM_6
100
AcDbText
 10
13.478125
 20
-7.28125
 30
0.0
 40
0.5
  1
3-3/64
100
AcDbAttributeDefinition
  3

  2
S
 70
     8
280
     0
  0
ATTDEF
  5
8C
330
6E
100
AcDbEntity
  8
AM_6
100
AcDbText
 10
13.478125
 20
-7.78125
 30
0.0
 40
0.5
  1
3-7/16
100
AcDbAttributeDefinition
  3

  2
T
 70
     8
280
     0
  0
ATTDEF
  5
8D
330
6E
100
AcDbEntity
  8
AM_6
100
AcDbText
 10
13.478125
 20
-8.28125
 30
0.0
 40
0.5
  1
5/16
100
AcDbAttributeDefinition
  3

  2
X
 70
     8
280
     0
  0
ATTDEF
  5
8E
330
6E
100
AcDbEntity
  8
AM_6
100
AcDbText
 10
13.478125
 20
-8.78125
 30
0.0
 40
0.5
  1
0.025
100
AcDbAttributeDefinition
  3

  2
Y
 70
     8
280
     0
  0
ATTDEF
  5
8F
330
6E
100
AcDbEntity
  8
AM_6
100
AcDbText
 10
13.478125
 20
-9.28125
 30
0.0
 40
0.5
  1
4-1/2
100
AcDbAttributeDefinition
  3

  2
Z
 70
     8
280
     0
  0
ATTDEF
  5
90
330
6E
100
AcDbEntity
  8
AM_6
100
AcDbText
 10
13.478125
 20
-9.78125
 30
0.0
 40
0.5
  1
baldor
100
AcDbAttributeDefinition
  3

  2
COMPANY
 70
     8
280
     0
  0
INSERT
  5
92
330
6E
100
AcDbEntity
  8
0
100
AcDbBlockReference
  2
2_405016_Inch_0_in_069395_0
 10
0.0
 20
0.0
 30
0.0
  0
INSERT
  5
112
330
6E
100
AcDbEntity
  8
0
100
AcDbBlockReference
  2
3_ASME_B18_3_1_4_1_0_in_069395_0
 10
0.0
 20
0.0
 30
0.0
  0
INSERT
  5
12E
330
6E
100
AcDbEntity
  8
0
100
AcDbBlockReference
  2
4_ASME_B18_3_1_4_2_0_in_069395_0
 10
0.0
 20
0.0
 30
0.0
  0
INSERT
  5
14A
330
6E
100
AcDbEntity
  8
0
100
AcDbBlockReference
  2
5_070907LW_0_in_069395_0
 10
0.0
 20
0.0
 30
0.0
  0
INSERT
  5
197
330
6E
100
AcDbEntity
  8
0
100
AcDbBlockReference
  2
6_070907I_0_in_069395_0
 10
0.0
 20
0.0
 30
0.0
  0
INSERT
  5
1F5
330
6E
100
AcDbEntity
  8
0
100
AcDbBlockReference
  2
7_069395H_0_in_069395_0
 10
0.0
 20
0.0
 30
0.0
  0
ENDBLK
  5
71
330
6E
100
AcDbEntity
  8
0
100
AcDbBlockEnd
  0
BLOCK
  5
93
330
91
100
AcDbEntity
  8
0
100
AcDbBlockBegin
  2
2_405016_Inch_0_in_069395_0
 70
     2
 10
0.0
 20
0.0
 30
0.0
  3
2_405016_Inch_0_in_069395_0
  1

  0
ATTDEF
  5
95
330
91
100
AcDbEntity
  8
AM_6
100
AcDbText
 10
1.288080989361174
 20
-1.361162900652373
 30
0.0
 40
0.5
  1
405016 -Inch
100
AcDbAttributeDefinition
  3

  2
NN
 70
     8
280
     0
  0
ATTDEF
  5
96
330
91
100
AcDbEntity
  8
AM_6
100
AcDbText
 10
1.288080989361174
 20
-1.861162900652373
 30
0.0
 40
0.5
  1
Grease Fitting
100
AcDbAttributeDefinition
  3

  2
NT
 70
     8
280
     0
  0
ATTDEF
  5
97
330
91
100
AcDbEntity
  8
AM_6
100
AcDbText
 10
1.288080989361174
 20
-2.361162900652373
 30
0.0
 40
0.5
  1
405016-Inch
100
AcDbAttributeDefinition
  3

  2
NB
 70
     8
280
     0
  0
ATTDEF
  5
98
330
91
100
AcDbEntity
  8
AM_6
100
AcDbText
 10
1.288080989361174
 20
-2.861162900652373
 30
0.0
 40
0.5
  1
$MN.-Inch
100
AcDbAttributeDefinition
  3

  2
NBSYN
 70
     8
280
     0
  0
ATTDEF
  5
99
330
91
100
AcDbEntity
  8
AM_6
100
AcDbText
 10
1.288080989361174
 20
-3.361162900652373
 30
0.0
 40
0.5
  1
405016
100
AcDbAttributeDefinition
  3

  2
LINA
 70
     8
280
     0
  0
ATTDEF
  5
9A
330
91
100
AcDbEntity
  8
AM_6
100
AcDbText
 10
1.288080989361174
 20
-3.861162900652373
 30
0.0
 40
0.5
  1
405016
100
AcDbAttributeDefinition
  3

  2
MN
 70
     8
280
     0
  0
ATTDEF
  5
9B
330
91
100
AcDbEntity
  8
AM_6
100
AcDbText
 10
1.288080989361174
 20
-4.361162900652373
 30
0.0
 40
0.5
  1
7/16 HEX
100
AcDbAttributeDefinition
  3

  2
H
 70
     8
280
     0
  0
ATTDEF
  5
9C
330
91
100
AcDbEntity
  8
AM_6
100
AcDbText
 10
1.288080989361174
 20
-4.861162900652373
 30
0.0
 40
0.5
  1
0.383
100
AcDbAttributeDefinition
  3

  2
NDR
 70
     8
280
     0
  0
ATTDEF
  5
9D
330
91
100
AcDbEntity
  8
AM_6
100
AcDbText
 10
1.288080989361174
 20
-5.361162900652373
 30
0.0
 40
0.5
  1
0.337
100
AcDbAttributeDefinition
  3

  2
KDR
 70
     8
280
     0
  0
ATTDEF
  5
9E
330
91
100
AcDbEntity
  8
AM_6
100
AcDbText
 10
1.288080989361174
 20
-5.861162900652373
 30
0.0
 40
0.5
  1
0.1575
100
AcDbAttributeDefinition
  3

  2
BZE
 70
     8
280
     0
  0
ATTDEF
  5
9F
330
91
100
AcDbEntity
  8
AM_6
100
AcDbText
 10
1.288080989361174
 20
-6.361162900652373
 30
0.0
 40
0.5
  1
0.4375
100
AcDbAttributeDefinition
  3

  2
HEX
 70
     8
280
     0
  0
ATTDEF
  5
A0
330
91
100
AcDbEntity
  8
AM_6
100
AcDbText
 10
1.288080989361174
 20
-6.861162900652373
 30
0.0
 40
0.5
  1
0.281250
100
AcDbAttributeDefinition
  3

  2
HEX2
 70
     8
280
     0
  0
ATTDEF
  5
A1
330
91
100
AcDbEntity
  8
AM_6
100
AcDbText
 10
1.288080989361174
 20
-7.361162900652373
 30
0.0
 40
0.5
  1
baldor
100
AcDbAttributeDefinition
  3

  2
COMPANY
 70
     8
280
     0
  0
LINE
  5
A4
330
91
100
AcDbEntity
  8
AM_9
100
AcDbLine
 10
-3.711919010638826
 20
-1.674072573463465
 30
0.0
 11
-3.833039605898407
 21
-1.374288580458519
 31
0.0
  0
LINE
  5
A5
330
91
100
AcDbEntity
  8
AM_9
100
AcDbLine
 10
-3.833039605898407
 20
-1.374288580458519
 30
0.0
 11
-3.863961769722761
 21
-1.361162900652373
 31
0.0
  0
LINE
  5
A6
330
91
100
AcDbEntity
  8
AM_9
100
AcDbLine
 10
-3.725044690444972
 20
-1.70499473728782
 30
0.0
 11
-3.711919010638826
 21
-1.674072573463465
 31
0.0
  0
ARC
  5
A7
330
91
100
AcDbEntity
  8
AM_9
100
AcDbCircle
 10
-4.276635529185776
 20
-1.727872912129447
 30
0.0
 40
0.2000000000027724
100
AcDbArc
 50
158.8833126441546
 51
245.6801300874187
  0
LINE
  5
A8
330
91
100
AcDbEntity
  8
AM_9
100
AcDbLine
 10
-3.725044690444972
 20
-1.70499473728782
 30
0.0
 11
-3.863961769722761
 21
-1.361162900652373
 31
0.0
  0
LINE
  5
A9
330
91
100
AcDbEntity
  8
AM_9
100
AcDbLine
 10
-3.863961769722761
 20
-1.361162900652373
 30
0.0
 11
-4.047042147368614
 21
-1.428559645276626
 31
0.0
  0
LINE
  5
AA
330
91
100
AcDbEntity
  8
AM_9
100
AcDbLine
 10
-3.903559405541589
 20
-1.78369189326482
 30
0.0
 11
-3.725044690444972
 21
-1.70499473728782
 31
0.0
  0
LINE
  5
AB
330
91
100
AcDbEntity
  8
AM_9
100
AcDbLine
 10
-4.445361433679112
 20
-1.88360871058718
 30
0.0
 11
-4.457482532962808
 21
-1.888505952583745
 31
0.0
  0
LINE
  5
AC
330
91
100
AcDbEntity
  8
AM_9
100
AcDbLine
 10
-4.506189963614736
 20
-1.733052815830877
 30
0.0
 11
-4.518311062898432
 21
-1.737950057827442
 31
0.0
  0
LWPOLYLINE
  5
AD
330
91
100
AcDbEntity
  8
AM_9
100
AcDbPolyline
 90
        7
 70
     0
 43
0.0
 10
-4.506189963614736
 20
-1.733052815830877
 10
-4.493066701178461
 20
-1.759065703480832
 10
-4.480627699551524
 20
-1.785914760598743
 10
-4.468940929494485
 20
-1.814013802888487
 10
-4.458354730921689
 20
-1.842796237648654
 10
-4.451607588245016
 20
-1.863176572146297
 10
-4.445361433679112
 20
-1.88360871058718
  0
LINE
  5
AE
330
91
100
AcDbEntity
  8
AM_9
100
AcDbLine
 10
-4.235184911001324
 20
-1.830466792273951
 30
0.0
 11
-4.318349067633704
 21
-1.624628281517691
 31
0.0
  0
ELLIPSE
  5
AF
330
91
100
AcDbEntity
  8
AM_9
100
AcDbEllipse
 10
-4.352238554709142
 20
-1.758418517193392
 30
0.0
 11
-0.05267905219911295
 21
0.1303852295484543
 31
0.0
210
0.0
220
0.0
230
1.0
 40
0.9063077870366509
 41
5.859216366485141
 42
9.84874690146383
  0
LWPOLYLINE
  5
B0
330
91
100
AcDbEntity
  8
AM_9
100
AcDbPolyline
 90
        3
 70
     0
 43
0.0
 10
-4.342352734648684
 20
-1.900559355749007
 10
-4.332360594296931
 20
-1.902681831575895
 10
-4.29655814417876
 20
-1.911054387203144
  0
LINE
  5
B1
330
91
100
AcDbEntity
  8
AM_9
100
AcDbLine
 10
-4.445361433679112
 20
-1.88360871058718
 30
0.0
 11
-4.425287488748264
 21
-1.886343450330991
 31
0.0
  0
LWPOLYLINE
  5
B2
330
91
100
AcDbEntity
  8
AM_9
100
AcDbPolyline
 90
        7
 70
     0
 43
0.0
 10
-4.418215204050008
 20
-1.609942597690538
 10
-4.431565343863234
 20
-1.63085957656693
 10
-4.446064335181086
 20
-1.652516500757224
 10
-4.462099569452531
 20
-1.675259443719335
 10
-4.479417320187866
 20
-1.698635292669272
 10
-4.49260859761278
 20
-1.71580499832846
 10
-4.506189963614736
 20
-1.733052815830877
  0
LWPOLYLINE
  5
B3
330
91
100
AcDbEntity
  8
AM_9
100
AcDbPolyline
 90
        5
 70
     0
 43
0.0
 10
-4.243243771606256
 20
-1.810520412337169
 10
-4.253292833529086
 20
-1.824774604081898
 10
-4.2659132505761
 20
-1.837287960252479
 10
-4.280047385931721
 20
-1.847013484726404
 10
-4.291322662842508
 20
-1.852445720307161
  0
LWPOLYLINE
  5
B4
330
91
100
AcDbEntity
  8
AM_9
100
AcDbPolyline
 90
        7
 70
     0
 43
0.0
 10
-4.248568068159519
 20
-1.693872660994987
 10
-4.248871321390927
 20
-1.693378290033977
 10
-4.259349584167782
 20
-1.678849385696643
 10
-4.272094508548361
 20
-1.665897610526414
 10
-4.28630568841053
 20
-1.655550049006013
 10
-4.302464043225076
 20
-1.647701542626588
 10
-4.310027286772359
 20
-1.645225411924619
  0
LWPOLYLINE
  5
B5
330
91
100
AcDbEntity
  8
AM_9
100
AcDbPolyline
 90
        4
 70
     0
 43
0.0
 10
-4.232724092782044
 20
-1.733297275759801
 10
-4.234214977339493
 20
-1.7272280695199
 10
-4.240228777438366
 20
-1.710013438290804
 10
-4.248568068159519
 20
-1.693872660994987
  0
LWPOLYLINE
  5
B6
330
91
100
AcDbEntity
  8
AM_9
100
AcDbPolyline
 90
        6
 70
     0
 43
0.0
 10
-4.243243771606256
 20
-1.810520412337169
 10
-4.236111293422029
 20
-1.795370897738282
 10
-4.231789253934338
 20
-1.779763763782262
 10
-4.229930892218545
 20
-1.763093531034676
 10
-4.230686841241389
 20
-1.74536780130169
 10
-4.232724092782044
 20
-1.733297275759801
  0
LINE
  5
B7
330
91
100
AcDbEntity
  8
AM_9
100
AcDbLine
 10
-4.373725632816623
 20
-1.648461038570849
 30
0.0
 11
-4.393445279984892
 21
-1.656428293191045
 31
0.0
  0
LINE
  5
B8
330
91
100
AcDbEntity
  8
AM_9
100
AcDbLine
 10
-4.311031829433392
 20
-1.860408741195739
 30
0.0
 11
-4.291312258663306
 21
-1.852441517442412
 31
0.0
  0
LWPOLYLINE
  5
B9
330
91
100
AcDbEntity
  8
AM_9
100
AcDbPolyline
 90
        3
 70
     0
 43
0.0
 10
-4.389656939759216
 20
-1.656701179005813
 10
-4.378966226689439
 20
-1.650762167197293
 10
-4.373733866376652
 20
-1.648464365571512
  0
LWPOLYLINE
  5
BA
330
91
100
AcDbEntity
  8
AM_9
100
AcDbPolyline
 90
       20
 70
     0
 43
0.0
 10
-4.291322662842508
 20
-1.852445720307161
 10
-4.296098181410917
 20
-1.854228723074776
 10
-4.312732838256317
 20
-1.858330756425002
 10
-4.330418874746427
 20
-1.859429728683148
 10
-4.347664256668246
 20
-1.857432747385054
 10
-4.364973344858031
 20
-1.852280356255121
 10
-4.380863601264148
 20
-1.844418578588086
 10
-4.395821885594026
 20
-1.83361165860646
 10
-4.408561557853374
 20
-1.82079768663295
 10
-4.419482985077612
 20
-1.805584889002558
 10
-4.427653469686271
 20
-1.78928318896175
 10
-4.433329631772436
 20
-1.771397169805786
 10
-4.436033783532618
 20
-1.753442507356898
 10
-4.435849953345591
 20
-1.734890232595328
 10
-4.432792367386937
 20
-1.717284490046957
 10
-4.426774666315372
 20
-1.700130073045321
 10
-4.418286012488728
 20
-1.684836201249839
 10
-4.407092753254979
 20
-1.670992088211356
 10
-4.394103037914598
 20
-1.659731929812935
 10
-4.389656939759216
 20
-1.656701179005813
  0
LWPOLYLINE
  5
BB
330
91
100
AcDbEntity
  8
AM_9
100
AcDbPolyline
 90
        5
 70
     0
 43
0.0
 10
-4.373733866376652
 20
-1.648464365571512
 10
-4.362922282409231
 20
-1.644824841865195
 10
-4.345534012197201
 20
-1.641766593259484
 10
-4.327978404472812
 20
-1.641871343366221
 10
-4.310027286772343
 20
-1.645225411924629
  0
ELLIPSE
  5
BC
330
91
100
AcDbEntity
  8
AM_9
100
AcDbEllipse
 10
-4.352238554709143
 20
-1.758418517193391
 30
0.0
 11
-0.05267905219911208
 21
0.1303852295484564
 31
0.0
210
0.0
220
0.0
230
1.0
 40
0.9063077870366485
 41
3.764821264091955
 42
4.571432719802702
  0
ELLIPSE
  5
BD
330
91
100
AcDbEntity
  8
AM_9
100
AcDbEllipse
 10
-4.352238554709144
 20
-1.758418517193396
 30
0.0
 11
-0.05267905219912985
 21
0.1303852295484513
 31
0.0
210
0.0
220
0.0
230
1.0
 40
0.9063077870366921
 41
4.853345240966605
 42
5.65995669667732
  0
LWPOLYLINE
  5
BE
330
91
100
AcDbEntity
  8
AM_9
100
AcDbPolyline
 90
        5
 70
     0
 43
0.0
 10
-4.457482532962808
 20
-1.888505952583745
 10
-4.474529886193708
 20
-1.85271642929838
 10
-4.490440944689841
 20
-1.815784912173752
 10
-4.505128614673287
 20
-1.777179111706395
 10
-4.518311062898432
 20
-1.737950057827442
  0
LWPOLYLINE
  5
BF
330
91
100
AcDbEntity
  8
AM_9
100
AcDbPolyline
 90
        4
 70
     0
 43
0.0
 10
-4.357090299932086
 20
-1.908711829551332
 10
-4.385072968734169
 20
-1.903795964099541
 10
-4.422029809765223
 20
-1.896455359057871
 10
-4.457482532962808
 20
-1.888505952583745
  0
LWPOLYLINE
  5
C0
330
91
100
AcDbEntity
  8
AM_9
100
AcDbPolyline
 90
        4
 70
     0
 43
0.0
 10
-4.518311062898432
 20
-1.737950057827442
 10
-4.49920517270345
 20
-1.708901089930565
 10
-4.478386109917391
 20
-1.678814953841045
 10
-4.462018366039334
 20
-1.656228800998399
  0
ELLIPSE
  5
C1
330
91
100
AcDbEntity
  8
AM_9
100
AcDbEllipse
 10
-4.371830796155695
 20
-1.766334296560694
 30
0.0
 11
-0.05267905219911203
 21
0.1303852295484542
 31
0.0
210
0.0
220
0.0
230
1.0
 40
0.9063077870366498
 41
0.2286425837152857
 42
2.920192881782519
  0
LWPOLYLINE
  5
C2
330
91
100
AcDbEntity
  8
AM_9
100
AcDbPolyline
 90
       13
 70
     0
 43
0.0
 10
-4.312620258761346
 20
-1.782179163457922
 10
-4.313348859809816
 20
-1.806191238510427
 10
-4.319015645296222
 20
-1.828367932117044
 10
-4.32900108960348
 20
-1.847330782437622
 10
-4.342667632472131
 20
-1.862363753157736
 10
-4.359752168977936
 20
-1.873001326841158
 10
-4.380364459060068
 20
-1.878443359506164
 10
-4.400572206584599
 20
-1.87785142375379
 10
-4.420620601515011
 20
-1.87201786345067
 10
-4.441565641778478
 20
-1.859863779726961
 10
-4.459735845022341
 20
-1.842625182433268
 10
-4.474049391280087
 20
-1.821417881630751
 10
-4.479453084005608
 20
-1.809816523336439
  0
LWPOLYLINE
  5
C3
330
91
100
AcDbEntity
  8
AM_9
100
AcDbPolyline
 90
       13
 70
     0
 43
0.0
 10
-4.479453084005608
 20
-1.809816523336439
 10
-4.483112215472041
 20
-1.799452326001976
 10
-4.487894284266709
 20
-1.774699987571493
 10
-4.487386537998928
 20
-1.750403379578051
 10
-4.481902518608536
 20
-1.728121707196787
 10
-4.472072584473056
 20
-1.709017188151685
 10
-4.458541391410836
 20
-1.693821712548543
 10
-4.441592026483189
 20
-1.683002055829511
 10
-4.421114335125631
 20
-1.677332280978825
 10
-4.400913552647671
 20
-1.677690295383635
 10
-4.380843979044754
 20
-1.68330296398405
 10
-4.359811717534998
 20
-1.695242866508923
 10
-4.34504600685317
 20
-1.708375294297275
  0
ELLIPSE
  5
C4
330
91
100
AcDbEntity
  8
AM_9
100
AcDbEllipse
 10
-4.426433367706194
 20
-1.788395167465136
 30
0.0
 11
0.04989531183857375
 21
-0.1234952303787614
 31
0.0
210
0.0
220
0.0
230
1.0
 40
0.9063077870366478
 41
0.0
 42
6.283185307179586
  0
LINE
  5
C6
330
91
100
AcDbEntity
  8
AM_5
100
AcDbLine
 10
-3.87360366847634
 20
-1.745350298271979
 30
0.0
 11
-3.711919010638826
 21
-1.674072573463466
 31
0.0
  0
LINE
  5
C7
330
91
100
AcDbEntity
  8
AM_5
100
AcDbLine
 10
-3.903559405541589
 20
-1.78369189326482
 30
0.0
 11
-3.87360366847634
 21
-1.745350298271979
 31
0.0
  0
LINE
  5
C8
330
91
100
AcDbEntity
  8
AM_5
100
AcDbLine
 10
-3.864983510426442
 20
-1.766685938135651
 30
0.0
 11
-4.007479641600471
 21
-1.413995637204125
 31
0.0
  0
LINE
  5
C9
330
91
100
AcDbEntity
  8
AM_5
100
AcDbLine
 10
-3.998859483550574
 20
-1.435331277067798
 30
0.0
 11
-3.833039605898407
 21
-1.374288580458519
 31
0.0
  0
LINE
  5
CA
330
91
100
AcDbEntity
  8
AM_5
100
AcDbLine
 10
-4.047042147368614
 20
-1.428559645276625
 30
0.0
 11
-3.998859483550574
 21
-1.435331277067798
 31
0.0
  0
ELLIPSE
  5
CB
330
91
100
AcDbEntity
  8
AM_9
100
AcDbEllipse
 10
-4.352238554709142
 20
-1.758418517193394
 30
0.0
 11
-0.04120672527574955
 21
0.1019902240023454
 31
0.0
210
0.0
220
0.0
230
1.0
 40
0.9063077870366495
 41
0.0
 42
6.283185307179586
  0
LINE
  5
CE
330
91
100
AcDbEntity
  8
AM_7
100
AcDbLine
 10
-4.486635529189306
 20
-1.727872912130895
 30
0.0
 11
-4.066635529189308
 21
-1.727872912130895
 31
0.0
  0
LINE
  5
CF
330
91
100
AcDbEntity
  8
AM_7
100
AcDbLine
 10
-4.276635529189307
 20
-1.937872912130894
 30
0.0
 11
-4.276635529189307
 21
-1.517872912130897
 31
0.0
  0
LINE
  5
D1
330
91
100
AcDbEntity
  8
AM_4
100
AcDbLine
 10
-4.058510208240079
 20
-1.875674036909417
 30
0.0
 11
-4.037425910833798
 21
-1.903653844599928
 31
0.0
  0
LINE
  5
D2
330
91
100
AcDbEntity
  8
AM_4
100
AcDbLine
 10
-4.058510208240079
 20
-1.875674036909417
 30
0.0
 11
-4.222400592859541
 21
-1.470031100536447
 31
0.0
  0
LINE
  5
D3
330
91
100
AcDbEntity
  8
AM_4
100
AcDbLine
 10
-4.226670226189071
 20
-1.43525772758032
 30
0.0
 11
-4.222400592859541
 21
-1.470031100536447
 31
0.0
  0
LINE
  5
D4
330
91
100
AcDbEntity
  8
AM_4
100
AcDbLine
 10
-3.96152218945387
 20
-1.872986750523953
 30
0.0
 11
-3.9657918227834
 21
-1.838213377567826
 31
0.0
  0
LINE
  5
D5
330
91
100
AcDbEntity
  8
AM_4
100
AcDbLine
 10
-3.9657918227834
 20
-1.838213377567826
 30
0.0
 11
-4.129682207402862
 21
-1.432570441194856
 31
0.0
  0
LINE
  5
D6
330
91
100
AcDbEntity
  8
AM_4
100
AcDbLine
 10
-4.129682207402862
 20
-1.432570441194856
 30
0.0
 11
-4.150766504809145
 21
-1.404590633504345
 31
0.0
  0
ARC
  5
D7
330
91
100
AcDbEntity
  8
AM_4
100
AcDbCircle
 10
-4.276635529189307
 20
-1.727872912130892
 30
0.0
 40
0.2000000000000019
100
AcDbArc
 50
245.6801300881702
 51
291.9999999999997
  0
ARC
  5
D8
330
91
100
AcDbEntity
  8
AM_4
100
AcDbCircle
 10
-4.276635529189308
 20
-1.727872912130894
 30
0.0
 40
0.199999999999999
100
AcDbArc
 50
111.9999999999999
 51
158.8833126434036
  0
LINE
  5
D9
330
91
100
AcDbEntity
  8
AM_4
100
AcDbLine
 10
-4.050222095138284
 20
-1.420688998357366
 30
0.0
 11
-4.122658333776314
 21
-1.449955138467984
 31
0.0
  0
LINE
  5
DA
330
91
100
AcDbEntity
  8
AM_4
100
AcDbLine
 10
-3.972815696409949
 20
-1.820828680294698
 30
0.0
 11
-3.900379457771919
 21
-1.79156254018408
 31
0.0
  0
LINE
  5
DB
330
91
100
AcDbEntity
  8
AM_4
100
AcDbLine
 10
-4.318349067633704
 20
-1.624628281517691
 30
0.0
 11
-4.35155684787249
 21
-1.542436141217537
 31
0.0
  0
LINE
  5
DC
330
91
100
AcDbEntity
  8
AM_4
100
AcDbLine
 10
-4.215376719232992
 20
-1.487415797809575
 30
0.0
 11
-4.35155684787249
 21
-1.542436141217537
 31
0.0
  0
LINE
  5
DD
330
91
100
AcDbEntity
  8
AM_4
100
AcDbLine
 10
-4.201714210506125
 20
-1.913309683044252
 30
0.0
 11
-4.065534081866628
 21
-1.85828933963629
 31
0.0
  0
LINE
  5
DE
330
91
100
AcDbEntity
  8
AM_4
100
AcDbLine
 10
-4.201714210506125
 20
-1.913309683044252
 30
0.0
 11
-4.235184911001324
 21
-1.830466792273951
 31
0.0
  0
LWPOLYLINE
  5
DF
330
91
100
AcDbEntity
  8
AM_4
100
AcDbPolyline
 90
        4
 70
     0
 43
0.0
 10
-4.037425910833798
 20
-1.903653844599928
 10
-4.055369123194631
 20
-1.877003000144691
 10
-4.062970210857025
 20
-1.862994590483573
 10
-4.069488782291582
 20
-1.848501112605285
  0
LINE
  5
E0
330
91
100
AcDbEntity
  8
AM_4
100
AcDbLine
 10
-4.037425910833798
 20
-1.903653844599928
 30
0.0
 11
-3.96152218945387
 21
-1.872986750523953
 31
0.0
  0
LWPOLYLINE
  5
E1
330
91
100
AcDbEntity
  8
AM_4
100
AcDbPolyline
 90
        4
 70
     0
 43
0.0
 10
-3.976770396834904
 20
-1.811040453263694
 10
-3.971419696437597
 20
-1.825905373211388
 10
-3.967161731146913
 20
-1.841211786800049
 10
-3.96152218945387
 20
-1.872986750523953
  0
LWPOLYLINE
  5
E2
330
91
100
AcDbEntity
  8
AM_4
100
AcDbPolyline
 90
        4
 70
     0
 43
0.0
 10
-4.008833268292689
 20
-1.755887721269051
 10
-3.990890055931855
 20
-1.782538565724288
 10
-3.983288968269461
 20
-1.796546975385406
 10
-3.976770396834904
 20
-1.811040453263694
  0
LWPOLYLINE
  5
E3
330
91
100
AcDbEntity
  8
AM_4
100
AcDbPolyline
 90
        4
 70
     0
 43
0.0
 10
-4.069488782291582
 20
-1.848501112605285
 10
-4.074839482688889
 20
-1.833636192657591
 10
-4.079097447979573
 20
-1.818329779068931
 10
-4.084736989672615
 20
-1.786554815345027
  0
LINE
  5
E4
330
91
100
AcDbEntity
  8
AM_4
100
AcDbLine
 10
-4.226670226189071
 20
-1.43525772758032
 30
0.0
 11
-4.150766504809145
 21
-1.404590633504345
 31
0.0
  0
LWPOLYLINE
  5
E5
330
91
100
AcDbEntity
  8
AM_4
100
AcDbPolyline
 90
        4
 70
     0
 43
0.0
 10
-4.211422018808038
 20
-1.497204024840579
 10
-4.216772719205345
 20
-1.482339104892885
 10
-4.221030684496029
 20
-1.467032691304225
 10
-4.226670226189071
 20
-1.43525772758032
  0
LWPOLYLINE
  5
E6
330
91
100
AcDbEntity
  8
AM_4
100
AcDbPolyline
 90
        4
 70
     0
 43
0.0
 10
-4.179359147350254
 20
-1.552356756835222
 10
-4.197302359711087
 20
-1.525705912379985
 10
-4.204903447373481
 20
-1.511697502718867
 10
-4.211422018808038
 20
-1.497204024840579
  0
LWPOLYLINE
  5
E7
330
91
100
AcDbEntity
  8
AM_4
100
AcDbPolyline
 90
        4
 70
     0
 43
0.0
 10
-4.118703633351359
 20
-1.459743365498988
 10
-4.113352932954053
 20
-1.474608285446682
 10
-4.10909496766337
 20
-1.489914699035342
 10
-4.103455425970326
 20
-1.521689662759247
  0
LWPOLYLINE
  5
E8
330
91
100
AcDbEntity
  8
AM_4
100
AcDbPolyline
 90
        4
 70
     0
 43
0.0
 10
-4.150766504809145
 20
-1.404590633504345
 10
-4.13282329244831
 20
-1.431241477959582
 10
-4.125222204785916
 20
-1.4452498876207
 10
-4.118703633351359
 20
-1.459743365498988
  0
LINE
  5
E9
330
91
100
AcDbEntity
  8
AM_4
100
AcDbLine
 10
-4.179359147350254
 20
-1.552356756835222
 30
0.0
 11
-4.103455425970326
 21
-1.521689662759247
 31
0.0
  0
LWPOLYLINE
  5
EA
330
91
100
AcDbEntity
  8
AM_4
100
AcDbPolyline
 90
        4
 70
     0
 43
0.0
 10
-4.14045540054981
 20
-1.672852568722932
 10
-4.157271951354669
 20
-1.627446013120693
 10
-4.171633976608505
 20
-1.581047764823858
 10
-4.179359147350254
 20
-1.552356756835222
  0
LWPOLYLINE
  5
EB
330
91
100
AcDbEntity
  8
AM_4
100
AcDbPolyline
 90
        4
 70
     0
 43
0.0
 10
-4.084736989672615
 20
-1.786554815345027
 10
-4.114454790905644
 20
-1.730760840767839
 10
-4.12798806947248
 20
-1.702069743387179
 10
-4.14045540054981
 20
-1.672852568722932
  0
LINE
  5
EC
330
91
100
AcDbEntity
  8
AM_4
100
AcDbLine
 10
-4.084736989672615
 20
-1.786554815345027
 30
0.0
 11
-4.008833268292689
 21
-1.755887721269051
 31
0.0
  0
LWPOLYLINE
  5
ED
330
91
100
AcDbEntity
  8
AM_4
100
AcDbPolyline
 90
        4
 70
     0
 43
0.0
 10
-4.047737015093132
 20
-1.635391909381341
 10
-4.036472429840972
 20
-1.664894207985898
 10
-4.026300579695437
 20
-1.694838000231421
 10
-4.008833268292689
 20
-1.755887721269051
  0
LWPOLYLINE
  5
EE
330
91
100
AcDbEntity
  8
AM_4
100
AcDbPolyline
 90
        4
 70
     0
 43
0.0
 10
-4.103455425970326
 20
-1.521689662759247
 10
-4.089081999893065
 20
-1.547694601236288
 10
-4.067243338571406
 20
-1.5909182662561
 10
-4.047737015093132
 20
-1.635391909381341
  0
LINE
  5
EF
330
91
100
AcDbEntity
  8
AM_4
100
AcDbLine
 10
-4.30907074017393
 20
-1.916109804138472
 30
0.0
 11
-4.357090299932086
 21
-1.908711829551332
 31
0.0
  0
LINE
  5
F0
330
91
100
AcDbEntity
  8
AM_4
100
AcDbLine
 10
-4.462018366039334
 20
-1.656228800998399
 30
0.0
 11
-4.430727800045178
 21
-1.614998014625867
 31
0.0
  0
LWPOLYLINE
  5
F1
330
91
100
AcDbEntity
  8
AM_4
100
AcDbPolyline
 90
        3
 70
     0
 43
0.0
 10
-4.29655814417876
 20
-1.911054387203144
 10
-4.275667385903598
 20
-1.884369859140255
 10
-4.255610958416143
 20
-1.857619125672418
  0
LINE
  5
F2
330
91
100
AcDbEntity
  8
AM_4
100
AcDbLine
 10
-4.255610958416143
 20
-1.857619125672418
 30
0.0
 11
-4.240492670193555
 21
-1.836425174551794
 31
0.0
  0
LWPOLYLINE
  5
F3
330
91
100
AcDbEntity
  8
AM_4
100
AcDbPolyline
 90
        4
 70
     0
 43
0.0
 10
-4.240492670193555
 20
-1.836425174551794
 10
-4.228836034746386
 20
-1.819337049911836
 10
-4.218438509271786
 20
-1.803492991848703
 10
-4.208581743033535
 20
-1.787943505821232
  0
LWPOLYLINE
  5
F4
330
91
100
AcDbEntity
  8
AM_4
100
AcDbPolyline
 90
        3
 70
     0
 43
0.0
 10
-4.275203199862696
 20
-1.86553490503972
 10
-4.292660498944329
 20
-1.89105871716962
 10
-4.30907074017393
 20
-1.916109804138472
  0
LINE
  5
F5
330
91
100
AcDbEntity
  8
AM_4
100
AcDbLine
 10
-4.29655814417876
 20
-1.911054387203144
 30
0.0
 11
-4.30907074017393
 21
-1.916109804138472
 31
0.0
  0
LWPOLYLINE
  5
F6
330
91
100
AcDbEntity
  8
AM_4
100
AcDbPolyline
 90
        3
 70
     0
 43
0.0
 10
-4.269410272969158
 20
-1.637387611064929
 10
-4.296830539796217
 20
-1.630857000714478
 10
-4.326043269938575
 20
-1.624680009821017
  0
LINE
  5
F7
330
91
100
AcDbEntity
  8
AM_4
100
AcDbLine
 10
-4.326043269938575
 20
-1.624680009821017
 30
0.0
 11
-4.351641011919114
 21
-1.619936402714352
 31
0.0
  0
LWPOLYLINE
  5
F8
330
91
100
AcDbEntity
  8
AM_4
100
AcDbPolyline
 90
        4
 70
     0
 43
0.0
 10
-4.351641011919114
 20
-1.619936402714352
 10
-4.374331836012525
 20
-1.616199788846325
 10
-4.396098570536125
 20
-1.612959452185883
 10
-4.418215204050008
 20
-1.609942597690538
  0
LINE
  5
F9
330
91
100
AcDbEntity
  8
AM_4
100
AcDbLine
 10
-4.418215204050008
 20
-1.609942597690538
 30
0.0
 11
-4.430727800045178
 21
-1.614998014625867
 31
0.0
  0
LWPOLYLINE
  5
FA
330
91
100
AcDbEntity
  8
AM_4
100
AcDbPolyline
 90
        3
 70
     0
 43
0.0
 10
-4.430727800045178
 20
-1.614998014625867
 10
-4.401681886454662
 20
-1.621583917155624
 10
-4.371233253365665
 20
-1.627852182081654
  0
LWPOLYLINE
  5
FB
330
91
100
AcDbEntity
  8
AM_4
100
AcDbPolyline
 90
        3
 70
     0
 43
0.0
 10
-4.221488758634477
 20
-1.793158278621276
 10
-4.241132348797606
 20
-1.818774834595837
 10
-4.260084911640108
 20
-1.844340953919096
  0
LWPOLYLINE
  5
FC
330
91
100
AcDbEntity
  8
AM_4
100
AcDbPolyline
 90
        3
 70
     0
 43
0.0
 10
-4.345635511385128
 20
-1.632595789188319
 10
-4.314404674128245
 20
-1.637795428726973
 10
-4.282317288570101
 20
-1.642602383864973
  0
LWPOLYLINE
  5
FD
330
91
100
AcDbEntity
  8
AM_4
100
AcDbPolyline
 90
        3
 70
     0
 43
0.0
 10
-4.208581743033535
 20
-1.787943505821232
 10
-4.217606669314023
 20
-1.758779885097843
 10
-4.227840517509629
 20
-1.729466411462207
  0
LINE
  5
FE
330
91
100
AcDbEntity
  8
AM_4
100
AcDbLine
 10
-4.227840517509629
 20
-1.729466411462207
 30
0.0
 11
-4.24264227287894
 21
-1.69283078134013
 31
0.0
  0
LWPOLYLINE
  5
FF
330
91
100
AcDbEntity
  8
AM_4
100
AcDbPolyline
 90
        4
 70
     0
 43
0.0
 10
-4.24264227287894
 20
-1.69283078134013
 10
-4.249761086038679
 20
-1.677029580969531
 10
-4.259370276146828
 20
-1.657041211809996
 10
-4.269410272969158
 20
-1.637387611064929
  0
LINE
  5
100
330
91
100
AcDbEntity
  8
AM_4
100
AcDbLine
 10
-4.269410272969158
 20
-1.637387611064929
 30
0.0
 11
-4.282317288570101
 21
-1.642602383864973
 31
0.0
  0
LWPOLYLINE
  5
101
330
91
100
AcDbEntity
  8
AM_4
100
AcDbPolyline
 90
        3
 70
     0
 43
0.0
 10
-4.282317288570101
 20
-1.642602383864973
 10
-4.272735202211524
 20
-1.671662822409968
 10
-4.262234514325495
 20
-1.700746560707437
  0
LWPOLYLINE
  5
102
330
91
100
AcDbEntity
  8
AM_4
100
AcDbPolyline
 90
        3
 70
     0
 43
0.0
 10
-4.247432758956182
 20
-1.737382190829509
 10
-4.234838525268342
 20
-1.765478763519678
 10
-4.221488758634477
 20
-1.793158278621276
  0
LINE
  5
103
330
91
100
AcDbEntity
  8
AM_4
100
AcDbLine
 10
-4.208581743033535
 20
-1.787943505821232
 30
0.0
 11
-4.221488758634477
 21
-1.793158278621276
 31
0.0
  0
LINE
  5
104
330
91
100
AcDbEntity
  8
AM_4
100
AcDbLine
 10
-4.371233253365665
 20
-1.627852182081654
 30
0.0
 11
-4.345635511385128
 21
-1.632595789188319
 31
0.0
  0
ELLIPSE
  5
105
330
91
100
AcDbEntity
  8
AM_4
100
AcDbEllipse
 10
-4.371830796155695
 20
-1.766334296560695
 30
0.0
 11
-0.05267905219911742
 21
0.130385229548452
 31
0.0
210
0.0
220
0.0
230
1.0
 40
0.9063077870366518
 41
2.920192881782476
 42
3.565561594284206
  0
ELLIPSE
  5
106
330
91
100
AcDbEntity
  8
AM_4
100
AcDbEllipse
 10
-4.371830796155694
 20
-1.766334296560691
 30
0.0
 11
-0.0526790521991183
 21
0.1303852295484496
 31
0.0
210
0.0
220
0.0
230
1.0
 40
0.90630778703665
 41
5.859216366485081
 42
6.51182789089483
  0
LINE
  5
107
330
91
100
AcDbEntity
  8
AM_4
100
AcDbLine
 10
-4.260084911640108
 20
-1.844340953919096
 30
0.0
 11
-4.275203199862696
 21
-1.86553490503972
 31
0.0
  0
ELLIPSE
  5
108
330
91
100
AcDbEntity
  8
AM_4
100
AcDbEllipse
 10
-4.371830796155698
 20
-1.766334296560693
 30
0.0
 11
-0.05267905219911295
 21
0.1303852295484578
 31
0.0
210
0.0
220
0.0
230
1.0
 40
0.9063077870366482
 41
3.764821264091957
 42
4.571432719802698
  0
LWPOLYLINE
  5
109
330
91
100
AcDbEntity
  8
AM_4
100
AcDbPolyline
 90
        3
 70
     0
 43
0.0
 10
-4.262234514325495
 20
-1.700746560707437
 10
-4.255275127414971
 20
-1.719130431104436
 10
-4.247432758956182
 20
-1.737382190829509
  0
ELLIPSE
  5
10A
330
91
100
AcDbEntity
  8
AM_4
100
AcDbEllipse
 10
-4.371830796155696
 20
-1.766334296560697
 30
0.0
 11
-0.05267905219911739
 21
0.1303852295484567
 31
0.0
210
0.0
220
0.0
230
1.0
 40
0.9063077870366414
 41
4.853345240966658
 42
5.659956696677399
  0
LWPOLYLINE
  5
10B
330
91
100
AcDbEntity
  8
AM_4
100
AcDbPolyline
 90
        4
 70
     0
 43
0.0
 10
-4.561521518137941
 20
-1.748076824211626
 10
-4.562419462779018
 20
-1.751837563599236
 10
-4.565889847951964
 20
-1.781987997478739
 10
-4.564900667859498
 20
-1.800682775858299
  0
LWPOLYLINE
  5
10C
330
91
100
AcDbEntity
  8
AM_4
100
AcDbPolyline
 90
       25
 70
     0
 43
0.0
 10
-4.522336144248115
 20
-1.889841178534056
 10
-4.507371871258593
 20
-1.903090877783913
 10
-4.481361300250616
 20
-1.918949706402939
 10
-4.452980032686688
 20
-1.928524851772212
 10
-4.423681295743007
 20
-1.931331970185961
 10
-4.394966839633364
 20
-1.927277325668757
 10
-4.368260449660219
 20
-1.916646889181295
 10
-4.344815547267844
 20
-1.900036654053623
 10
-4.325701094046885
 20
-1.878296828282098
 10
-4.311752428172611
 20
-1.852441349095056
 10
-4.303604964966929
 20
-1.823643541167712
 10
-4.301667039201706
 20
-1.793229401975121
 10
-4.306075806881356
 20
-1.762637093340875
 10
-4.316668814068064
 20
-1.733344595607065
 10
-4.332982719222151
 20
-1.706789479175746
 10
-4.354263362451619
 20
-1.684302785454297
 10
-4.379494703088135
 20
-1.667030861942243
 10
-4.407429307163468
 20
-1.655870777378091
 10
-4.436643575076451
 20
-1.651395906406552
 10
-4.465635817070594
 20
-1.653796556591191
 10
-4.492952649361333
 20
-1.662874249279306
 10
-4.517294190698928
 20
-1.678100339557976
 10
-4.53754531652628
 20
-1.698680974986312
 10
-4.552815437232379
 20
-1.723638195638361
 10
-4.561521518137941
 20
-1.748076824211626
  0
LWPOLYLINE
  5
10D
330
91
100
AcDbEntity
  8
AM_4
100
AcDbPolyline
 90
        4
 70
     0
 43
0.0
 10
-4.554790685559343
 20
-1.840254890155668
 10
-4.547294417260664
 20
-1.85612825849141
 10
-4.529714780860648
 20
-1.881773907793657
 10
-4.522336144248115
 20
-1.889841178534056
  0
ELLIPSE
  5
10E
330
91
100
AcDbEntity
  8
AM_4
100
AcDbEllipse
 10
-4.437862213130756
 20
-1.793012720747675
 30
0.0
 11
-0.05212596656866443
 21
0.1290162945757141
 31
0.0
210
0.0
220
0.0
230
1.0
 40
0.9063077870366708
 41
1.27543307949745
 42
1.570796326794897
  0
ELLIPSE
  5
10F
330
91
100
AcDbEntity
  8
AM_4
100
AcDbEllipse
 10
-4.467832779243804
 20
-1.805121615460473
 30
0.0
 11
0.03876527951952111
 21
-0.09594743370777543
 31
0.0
210
0.0
220
0.0
230
1.0
 40
0.9063077870366526
 41
0.0
 42
6.283185307179586
  0
ELLIPSE
  5
110
330
91
100
AcDbEntity
  8
AM_4
100
AcDbEllipse
 10
-4.43786221313075
 20
-1.793012720747673
 30
0.0
 11
-0.05212596656866442
 21
0.1290162945757234
 31
0.0
210
0.0
220
0.0
230
1.0
 40
0.9063077870366589
 41
1.570796326794897
 42
7.558618386677075
  0
ENDBLK
  5
94
330
91
100
AcDbEntity
  8
0
100
AcDbBlockEnd
  0
BLOCK
  5
113
330
111
100
AcDbEntity
  8
0
100
AcDbBlockBegin
  2
3_ASME_B18_3_1_4_1_0_in_069395_0
 70
     2
 10
0.0
 20
0.0
 30
0.0
  3
3_ASME_B18_3_1_4_1_0_in_069395_0
  1

  0
ATTDEF
  5
115
330
111
100
AcDbEntity
  8
AM_6
100
AcDbText
 10
5.229425
 20
-2.283236111111111
 30
0.0
 40
0.5
  1
ANSI/ASME B18.3-1998
100
AcDbAttributeDefinition
  3

  2
NN
 70
     8
280
     0
  0
ATTDEF
  5
116
330
111
100
AcDbEntity
  8
AM_6
100
AcDbText
 10
5.229425
 20
-2.783236111111111
 30
0.0
 40
0.5
  1
Socket Button Head Cap Screws
100
AcDbAttributeDefinition
  3

  2
NT
 70
     8
280
     0
  0
ATTDEF
  5
117
330
111
100
AcDbEntity
  8
AM_6
100
AcDbText
 10
5.229425
 20
-3.283236111111111
 30
0.0
 40
0.5
  1
ASME B18.3-1/4
100
AcDbAttributeDefinition
  3

  2
NB
 70
     8
280
     0
  0
ATTDEF
  5
118
330
111
100
AcDbEntity
  8
AM_6
100
AcDbText
 10
5.229425
 20
-3.783236111111111
 30
0.0
 40
0.5
  1
ASME B18.3-$NS.
100
AcDbAttributeDefinition
  3

  2
NBSYN
 70
     8
280
     0
  0
ATTDEF
  5
119
330
111
100
AcDbEntity
  8
AM_6
100
AcDbText
 10
5.229425
 20
-4.28323611111111
 30
0.0
 40
0.5
  1
ASME B18.3-1/4
100
AcDbAttributeDefinition
  3

  2
LINA
 70
     8
280
     0
  0
ATTDEF
  5
11A
330
111
100
AcDbEntity
  8
AM_6
100
AcDbText
 10
5.229425
 20
-4.78323611111111
 30
0.0
 40
0.5
  1
1/4
100
AcDbAttributeDefinition
  3

  2
NS
 70
     8
280
     0
  0
ATTDEF
  5
11B
330
111
100
AcDbEntity
  8
AM_6
100
AcDbText
 10
5.229425
 20
-5.28323611111111
 30
0.0
 40
0.5
  1
0.437
100
AcDbAttributeDefinition
  3

  2
A
 70
     8
280
     0
  0
ATTDEF
  5
11C
330
111
100
AcDbEntity
  8
AM_6
100
AcDbText
 10
5.229425
 20
-5.78323611111111
 30
0.0
 40
0.5
  1
0.132
100
AcDbAttributeDefinition
  3

  2
H
 70
     8
280
     0
  0
ATTDEF
  5
11D
330
111
100
AcDbEntity
  8
AM_6
100
AcDbText
 10
5.229425
 20
-6.28323611111111
 30
0.0
 40
0.5
  1
0.800
100
AcDbAttributeDefinition
  3

  2
L
 70
     8
280
     0
  0
ATTDEF
  5
11E
330
111
100
AcDbEntity
  8
AM_6
100
AcDbText
 10
5.229425
 20
-6.78323611111111
 30
0.0
 40
0.5
  1
0.031
100
AcDbAttributeDefinition
  3

  2
S
 70
     8
280
     0
  0
ATTDEF
  5
11F
330
111
100
AcDbEntity
  8
AM_6
100
AcDbText
 10
5.229425
 20
-7.28323611111111
 30
0.0
 40
0.5
  1
0.156250
100
AcDbAttributeDefinition
  3

  2
J
 70
     8
280
     0
  0
ATTDEF
  5
120
330
111
100
AcDbEntity
  8
AM_6
100
AcDbText
 10
5.229425
 20
-7.78323611111111
 30
0.0
 40
0.5
  1
baldor
100
AcDbAttributeDefinition
  3

  2
COMPANY
 70
     8
280
     0
  0
ARC
  5
121
330
111
100
AcDbEntity
  8
AM_5
100
AcDbCircle
 10
0.0
 20
-2.501736111111111
 30
0.0
 40
0.0952500000000001
100
AcDbArc
 50
75.00000000000001
 51
15.00000000000004
  0
LINE
  5
122
330
111
100
AcDbEntity
  8
AM_7
100
AcDbLine
 10
-0.2294250000000002
 20
-2.501736111111111
 30
0.0
 11
0.2294250000000002
 21
-2.501736111111111
 31
0.0
  0
LINE
  5
123
330
111
100
AcDbEntity
  8
AM_4
100
AcDbLine
 10
-0.078125
 20
-2.456630621330671
 30
0.0
 11
0.0
 21
-2.411525131550232
 31
0.0
  0
LINE
  5
124
330
111
100
AcDbEntity
  8
AM_4
100
AcDbLine
 10
0.0
 20
-2.411525131550232
 30
0.0
 11
0.078125
 21
-2.456630621330671
 31
0.0
  0
LINE
  5
125
330
111
100
AcDbEntity
  8
AM_4
100
AcDbLine
 10
0.078125
 20
-2.456630621330671
 30
0.0
 11
0.078125
 21
-2.546841600891551
 31
0.0
  0
LINE
  5
126
330
111
100
AcDbEntity
  8
AM_4
100
AcDbLine
 10
0.078125
 20
-2.546841600891551
 30
0.0
 11
0.0
 21
-2.591947090671991
 31
0.0
  0
LINE
  5
127
330
111
100
AcDbEntity
  8
AM_4
100
AcDbLine
 10
0.0
 20
-2.591947090671991
 30
0.0
 11
-0.078125
 21
-2.546841600891551
 31
0.0
  0
LINE
  5
128
330
111
100
AcDbEntity
  8
AM_4
100
AcDbLine
 10
-0.078125
 20
-2.546841600891551
 30
0.0
 11
-0.078125
 21
-2.456630621330671
 31
0.0
  0
CIRCLE
  5
129
330
111
100
AcDbEntity
  8
AM_4
100
AcDbCircle
 10
0.0
 20
-2.501736111111111
 30
0.0
 40
0.1175
  0
ARC
  5
12A
330
111
100
AcDbEntity
  8
AM_5
100
AcDbCircle
 10
0.0
 20
-2.501736111111111
 30
0.0
 40
0.09525
100
AcDbArc
 50
345.0
 51
285.0
  0
CIRCLE
  5
12B
330
111
100
AcDbEntity
  8
AM_4
100
AcDbCircle
 10
0.0
 20
-2.501736111111111
 30
0.0
 40
0.2185000000000001
  0
CIRCLE
  5
12C
330
111
100
AcDbEntity
  8
AM_5
100
AcDbCircle
 10
0.0000000000000005
 20
-2.501736111111112
 30
0.0
 40
0.1063999999999998
  0
ENDBLK
  5
114
330
111
100
AcDbEntity
  8
0
100
AcDbBlockEnd
  0
BLOCK
  5
12F
330
12D
100
AcDbEntity
  8
0
100
AcDbBlockBegin
  2
4_ASME_B18_3_1_4_2_0_in_069395_0
 70
     2
 10
0.0
 20
0.0
 30
0.0
  3
4_ASME_B18_3_1_4_2_0_in_069395_0
  1

  0
ATTDEF
  5
131
330
12D
100
AcDbEntity
  8
AM_6
100
AcDbText
 10
5.229425
 20
2.720236111111111
 30
0.0
 40
0.5
  1
ANSI/ASME B18.3-1998
100
AcDbAttributeDefinition
  3

  2
NN
 70
     8
280
     0
  0
ATTDEF
  5
132
330
12D
100
AcDbEntity
  8
AM_6
100
AcDbText
 10
5.229425
 20
2.220236111111111
 30
0.0
 40
0.5
  1
Socket Button Head Cap Screws
100
AcDbAttributeDefinition
  3

  2
NT
 70
     8
280
     0
  0
ATTDEF
  5
133
330
12D
100
AcDbEntity
  8
AM_6
100
AcDbText
 10
5.229425
 20
1.720236111111111
 30
0.0
 40
0.5
  1
ASME B18.3-1/4
100
AcDbAttributeDefinition
  3

  2
NB
 70
     8
280
     0
  0
ATTDEF
  5
134
330
12D
100
AcDbEntity
  8
AM_6
100
AcDbText
 10
5.229425
 20
1.220236111111111
 30
0.0
 40
0.5
  1
ASME B18.3-$NS.
100
AcDbAttributeDefinition
  3

  2
NBSYN
 70
     8
280
     0
  0
ATTDEF
  5
135
330
12D
100
AcDbEntity
  8
AM_6
100
AcDbText
 10
5.229425
 20
0.7202361111111113
 30
0.0
 40
0.5
  1
ASME B18.3-1/4
100
AcDbAttributeDefinition
  3

  2
LINA
 70
     8
280
     0
  0
ATTDEF
  5
136
330
12D
100
AcDbEntity
  8
AM_6
100
AcDbText
 10
5.229425
 20
0.2202361111111113
 30
0.0
 40
0.5
  1
1/4
100
AcDbAttributeDefinition
  3

  2
NS
 70
     8
280
     0
  0
ATTDEF
  5
137
330
12D
100
AcDbEntity
  8
AM_6
100
AcDbText
 10
5.229425
 20
-0.2797638888888887
 30
0.0
 40
0.5
  1
0.437
100
AcDbAttributeDefinition
  3

  2
A
 70
     8
280
     0
  0
ATTDEF
  5
138
330
12D
100
AcDbEntity
  8
AM_6
100
AcDbText
 10
5.229425
 20
-0.7797638888888887
 30
0.0
 40
0.5
  1
0.132
100
AcDbAttributeDefinition
  3

  2
H
 70
     8
280
     0
  0
ATTDEF
  5
139
330
12D
100
AcDbEntity
  8
AM_6
100
AcDbText
 10
5.229425
 20
-1.279763888888889
 30
0.0
 40
0.5
  1
0.800
100
AcDbAttributeDefinition
  3

  2
L
 70
     8
280
     0
  0
ATTDEF
  5
13A
330
12D
100
AcDbEntity
  8
AM_6
100
AcDbText
 10
5.229425
 20
-1.779763888888889
 30
0.0
 40
0.5
  1
0.031
100
AcDbAttributeDefinition
  3

  2
S
 70
     8
280
     0
  0
ATTDEF
  5
13B
330
12D
100
AcDbEntity
  8
AM_6
100
AcDbText
 10
5.229425
 20
-2.279763888888889
 30
0.0
 40
0.5
  1
0.156250
100
AcDbAttributeDefinition
  3

  2
J
 70
     8
280
     0
  0
ATTDEF
  5
13C
330
12D
100
AcDbEntity
  8
AM_6
100
AcDbText
 10
5.229425
 20
-2.779763888888889
 30
0.0
 40
0.5
  1
baldor
100
AcDbAttributeDefinition
  3

  2
COMPANY
 70
     8
280
     0
  0
ARC
  5
13D
330
12D
100
AcDbEntity
  8
AM_5
100
AcDbCircle
 10
-0.0000000000000001
 20
2.501736111111111
 30
0.0
 40
0.0952500000000001
100
AcDbArc
 50
75.00000000000001
 51
15.00000000000004
  0
LINE
  5
13E
330
12D
100
AcDbEntity
  8
AM_7
100
AcDbLine
 10
-0.2294250000000002
 20
2.501736111111111
 30
0.0
 11
0.2294250000000002
 21
2.501736111111111
 31
0.0
  0
LINE
  5
13F
330
12D
100
AcDbEntity
  8
AM_4
100
AcDbLine
 10
0.0
 20
2.411525131550232
 30
0.0
 11
-0.078125
 21
2.456630621330671
 31
0.0
  0
CIRCLE
  5
140
330
12D
100
AcDbEntity
  8
AM_4
100
AcDbCircle
 10
0.0
 20
2.501736111111111
 30
0.0
 40
0.1175
  0
LINE
  5
141
330
12D
100
AcDbEntity
  8
AM_4
100
AcDbLine
 10
-0.078125
 20
2.456630621330671
 30
0.0
 11
-0.078125
 21
2.546841600891551
 31
0.0
  0
LINE
  5
142
330
12D
100
AcDbEntity
  8
AM_4
100
AcDbLine
 10
-0.078125
 20
2.546841600891551
 30
0.0
 11
0.0
 21
2.591947090671991
 31
0.0
  0
LINE
  5
143
330
12D
100
AcDbEntity
  8
AM_4
100
AcDbLine
 10
0.0
 20
2.591947090671991
 30
0.0
 11
0.078125
 21
2.546841600891551
 31
0.0
  0
LINE
  5
144
330
12D
100
AcDbEntity
  8
AM_4
100
AcDbLine
 10
0.078125
 20
2.546841600891551
 30
0.0
 11
0.078125
 21
2.456630621330671
 31
0.0
  0
LINE
  5
145
330
12D
100
AcDbEntity
  8
AM_4
100
AcDbLine
 10
0.078125
 20
2.456630621330671
 30
0.0
 11
0.0
 21
2.411525131550232
 31
0.0
  0
ARC
  5
146
330
12D
100
AcDbEntity
  8
AM_5
100
AcDbCircle
 10
0.0
 20
2.501736111111111
 30
0.0
 40
0.09525
100
AcDbArc
 50
345.0
 51
285.0
  0
CIRCLE
  5
147
330
12D
100
AcDbEntity
  8
AM_4
100
AcDbCircle
 10
0.0
 20
2.501736111111111
 30
0.0
 40
0.2185000000000001
  0
CIRCLE
  5
148
330
12D
100
AcDbEntity
  8
AM_5
100
AcDbCircle
 10
0.0000000000000005
 20
2.501736111111111
 30
0.0
 40
0.1063999999999998
  0
ENDBLK
  5
130
330
12D
100
AcDbEntity
  8
0
100
AcDbBlockEnd
  0
BLOCK
  5
14B
330
149
100
AcDbEntity
  8
0
100
AcDbBlockBegin
  2
5_070907LW_0_in_069395_0
 70
     2
 10
0.0
 20
0.0
 30
0.0
  3
5_070907LW_0_in_069395_0
  1

  0
ATTDEF
  5
14D
330
149
100
AcDbEntity
  8
AM_6
100
AcDbText
 10
7.78125
 20
2.78125
 30
0.0
 40
0.5
  1
Imperial Insert Lockwasher -Inch
100
AcDbAttributeDefinition
  3

  2
NN
 70
     8
280
     0
  0
ATTDEF
  5
14E
330
149
100
AcDbEntity
  8
AM_6
100
AcDbText
 10
7.78125
 20
2.28125
 30
0.0
 40
0.5
  1
Imperial Bearings
100
AcDbAttributeDefinition
  3

  2
NT
 70
     8
280
     0
  0
ATTDEF
  5
14F
330
149
100
AcDbEntity
  8
AM_6
100
AcDbText
 10
7.78125
 20
1.78125
 30
0.0
 40
0.5
  1
070907LW
100
AcDbAttributeDefinition
  3

  2
NB
 70
     8
280
     0
  0
ATTDEF
  5
150
330
149
100
AcDbEntity
  8
AM_6
100
AcDbText
 10
7.78125
 20
1.28125
 30
0.0
 40
0.5
  1
$PN.LW
100
AcDbAttributeDefinition
  3

  2
NBSYN
 70
     8
280
     0
  0
ATTDEF
  5
151
330
149
100
AcDbEntity
  8
AM_6
100
AcDbText
 10
7.78125
 20
0.7812499999999996
 30
0.0
 40
0.5
  1
070907
100
AcDbAttributeDefinition
  3

  2
LINA
 70
     8
280
     0
  0
ATTDEF
  5
152
330
149
100
AcDbEntity
  8
AM_6
100
AcDbText
 10
7.78125
 20
0.2812499999999996
 30
0.0
 40
0.5
  1
4
100
AcDbAttributeDefinition
  3

  2
SS
 70
     8
280
     0
  0
ATTDEF
  5
153
330
149
100
AcDbEntity
  8
AM_6
100
AcDbText
 10
7.78125
 20
-0.2187500000000004
 30
0.0
 40
0.5
  1
4.000000
100
AcDbAttributeDefinition
  3

  2
SS1
 70
     8
280
     0
  0
ATTDEF
  5
154
330
149
100
AcDbEntity
  8
AM_6
100
AcDbText
 10
7.78125
 20
-0.7187500000000004
 30
0.0
 40
0.5
  1
070907
100
AcDbAttributeDefinition
  3

  2
PN
 70
     8
280
     0
  0
ATTDEF
  5
155
330
149
100
AcDbEntity
  8
AM_6
100
AcDbText
 10
7.78125
 20
-1.21875
 30
0.0
 40
0.5
  1
INS-IP-400R
100
AcDbAttributeDefinition
  3

  2
DESCRIPTION
 70
     8
280
     0
  0
ATTDEF
  5
156
330
149
100
AcDbEntity
  8
AM_6
100
AcDbText
 10
7.78125
 20
-1.71875
 30
0.0
 40
0.5
  1
7.0866
100
AcDbAttributeDefinition
  3

  2
A
 70
     8
280
     0
  0
ATTDEF
  5
157
330
149
100
AcDbEntity
  8
AM_6
100
AcDbText
 10
7.78125
 20
-2.21875
 30
0.0
 40
0.5
  1
1-7/8
100
AcDbAttributeDefinition
  3

  2
B
 70
     8
280
     0
  0
ATTDEF
  5
158
330
149
100
AcDbEntity
  8
AM_6
100
AcDbText
 10
7.78125
 20
-2.71875
 30
0.0
 40
0.5
  1
4-45/64
100
AcDbAttributeDefinition
  3

  2
C
 70
     8
280
     0
  0
ATTDEF
  5
159
330
149
100
AcDbEntity
  8
AM_6
100
AcDbText
 10
7.78125
 20
-3.21875
 30
0.0
 40
0.5
  1
1.646
100
AcDbAttributeDefinition
  3

  2
D
 70
     8
280
     0
  0
ATTDEF
  5
15A
330
149
100
AcDbEntity
  8
AM_6
100
AcDbText
 10
7.78125
 20
-3.71875
 30
0.0
 40
0.5
  1
5-9/16
100
AcDbAttributeDefinition
  3

  2
E
 70
     8
280
     0
  0
ATTDEF
  5
15B
330
149
100
AcDbEntity
  8
AM_6
100
AcDbText
 10
7.78125
 20
-4.21875
 30
0.0
 40
0.5
  1
0.2500
100
AcDbAttributeDefinition
  3

  2
NDM
 70
     8
280
     0
  0
ATTDEF
  5
15C
330
149
100
AcDbEntity
  8
AM_6
100
AcDbText
 10
7.78125
 20
-4.71875
 30
0.0
 40
0.5
  1
0.1960
100
AcDbAttributeDefinition
  3

  2
KDM
 70
     8
280
     0
  0
ATTDEF
  5
15D
330
149
100
AcDbEntity
  8
AM_6
100
AcDbText
 10
7.78125
 20
-5.21875
 30
0.0
 40
0.5
  1
4.83
100
AcDbAttributeDefinition
  3

  2
AL
 70
     8
280
     0
  0
ATTDEF
  5
15E
330
149
100
AcDbEntity
  8
AM_6
100
AcDbText
 10
7.78125
 20
-5.71875
 30
0.0
 40
0.5
  1
0.50
100
AcDbAttributeDefinition
  3

  2
BL
 70
     8
280
     0
  0
ATTDEF
  5
15F
330
149
100
AcDbEntity
  8
AM_6
100
AcDbText
 10
7.78125
 20
-6.21875
 30
0.0
 40
0.5
  1
0.07
100
AcDbAttributeDefinition
  3

  2
CL
 70
     8
280
     0
  0
ATTDEF
  5
160
330
149
100
AcDbEntity
  8
AM_6
100
AcDbText
 10
7.78125
 20
-6.71875
 30
0.0
 40
0.5
  1
0.50
100
AcDbAttributeDefinition
  3

  2
DL
 70
     8
280
     0
  0
ATTDEF
  5
161
330
149
100
AcDbEntity
  8
AM_6
100
AcDbText
 10
7.78125
 20
-7.21875
 30
0.0
 40
0.5
  1
baldor
100
AcDbAttributeDefinition
  3

  2
COMPANY
 70
     8
280
     0
  0
ARC
  5
162
330
149
100
AcDbEntity
  8
AM_9
100
AcDbCircle
 10
0.0000000000001351
 20
-0.0000000000003371
 30
0.0
 40
2.1052631578951
100
AcDbArc
 50
109.0960610542848
 51
115.903938945715
  0
LINE
  5
163
330
149
100
AcDbEntity
  8
AM_9
100
AcDbLine
 10
0.1249999999999998
 20
2.501736111111112
 30
0.0
 11
0.1249999999999998
 21
2.322523248849498
 31
0.0
  0
LINE
  5
164
330
149
100
AcDbEntity
  8
AM_9
100
AcDbLine
 10
-0.1250000000000004
 20
2.322523248849498
 30
0.0
 11
-0.1250000000000004
 21
2.501736111111112
 31
0.0
  0
LINE
  5
165
330
149
100
AcDbEntity
  8
AM_9
100
AcDbLine
 10
-0.1249999999999987
 20
-2.501736111111112
 30
0.0
 11
-0.1249999999999988
 21
-2.322523248849497
 31
0.0
  0
LINE
  5
166
330
149
100
AcDbEntity
  8
AM_9
100
AcDbLine
 10
0.125000000000001
 20
-2.322523248849498
 30
0.0
 11
0.1250000000000011
 21
-2.501736111111111
 31
0.0
  0
ARC
  5
167
330
149
100
AcDbEntity
  8
AM_9
100
AcDbCircle
 10
0.0000000000000013
 20
-2.504860893976602
 30
0.0
 40
0.1250390509719122
100
AcDbArc
 50
178.5680032808017
 51
1.431996719198232
  0
LINE
  5
168
330
149
100
AcDbEntity
  8
AM_7
100
AcDbLine
 10
-1.900272184203945
 20
1.769022177801037
 30
0.0
 11
-1.637772171398128
 21
1.769022177801037
 31
0.0
  0
LINE
  5
169
330
149
100
AcDbEntity
  8
AM_7
100
AcDbLine
 10
-1.769022177801037
 20
1.637772171398128
 30
0.0
 11
-1.769022177801037
 21
1.900272184203945
 31
0.0
  0
LINE
  5
16A
330
149
100
AcDbEntity
  8
AM_7
100
AcDbLine
 10
-0.1312910035205064
 20
-2.504860893976602
 30
0.0
 11
0.1312910035205092
 21
-2.504860893976602
 31
0.0
  0
LINE
  5
16B
330
149
100
AcDbEntity
  8
AM_7
100
AcDbLine
 10
-2.501775155985015
 20
-0.1312500064029107
 30
0.0
 11
-2.501775155985015
 21
0.1312500064029073
 31
0.0
  0
LINE
  5
16C
330
149
100
AcDbEntity
  8
AM_7
100
AcDbLine
 10
1.637772171398128
 20
-1.769022177801035
 30
0.0
 11
1.900272184203946
 21
-1.769022177801035
 31
0.0
  0
LINE
  5
16D
330
149
100
AcDbEntity
  8
AM_7
100
AcDbLine
 10
1.769022177801037
 20
-1.900272184203945
 30
0.0
 11
1.769022177801037
 21
-1.637772171398126
 31
0.0
  0
LINE
  5
16E
330
149
100
AcDbEntity
  8
AM_7
100
AcDbLine
 10
1.637772171398127
 20
1.769022177801037
 30
0.0
 11
1.900272184203945
 21
1.769022177801037
 31
0.0
  0
LINE
  5
16F
330
149
100
AcDbEntity
  8
AM_7
100
AcDbLine
 10
1.769022177801036
 20
1.637772171398128
 30
0.0
 11
1.769022177801036
 21
1.900272184203946
 31
0.0
  0
LINE
  5
170
330
149
100
AcDbEntity
  8
AM_7
100
AcDbLine
 10
-1.900272184203944
 20
-1.769022177801038
 30
0.0
 11
-1.637772171398126
 21
-1.769022177801038
 31
0.0
  0
LINE
  5
171
330
149
100
AcDbEntity
  8
AM_7
100
AcDbLine
 10
-1.769022177801035
 20
-1.900272184203947
 30
0.0
 11
-1.769022177801035
 21
-1.637772171398129
 31
0.0
  0
LINE
  5
172
330
149
100
AcDbEntity
  8
AM_7
100
AcDbLine
 10
2.501775155985015
 20
-0.1312500064029075
 30
0.0
 11
2.501775155985015
 21
0.1312500064029096
 31
0.0
  0
LINE
  5
173
330
149
100
AcDbEntity
  8
AM_4
100
AcDbLine
 10
0.1249999999999998
 20
2.322523248849498
 30
0.0
 11
0.1249999999999996
 21
2.158545856702089
 31
0.0
  0
ARC
  5
174
330
149
100
AcDbEntity
  8
AM_4
100
AcDbCircle
 10
-2.501775155985015
 20
-0.0000000000000017
 30
0.0
 40
0.1250000060980084
100
AcDbArc
 50
89.98210314869137
 51
270.0178968513086
  0
ARC
  5
175
330
149
100
AcDbEntity
  8
AM_4
100
AcDbCircle
 10
0.0000000000000007
 20
-0.0000000000000009
 30
0.0
 40
2.162162162162162
100
AcDbArc
 50
228.3142602048741
 51
266.6857397951259
  0
ARC
  5
176
330
149
100
AcDbEntity
  8
AM_4
100
AcDbCircle
 10
-0.0000000000000024
 20
-0.0000000000000091
 30
0.0
 40
2.162162162162171
100
AcDbArc
 50
48.31426020487432
 51
86.68573979512584
  0
ARC
  5
177
330
149
100
AcDbEntity
  8
AM_4
100
AcDbCircle
 10
0.0000000000000062
 20
0.0000000000000033
 30
0.0
 40
2.162162162162155
100
AcDbArc
 50
3.314260204873952
 51
41.68573979512595
  0
LINE
  5
178
330
149
100
AcDbEntity
  8
AM_4
100
AcDbLine
 10
1.857382916554247
 20
1.680606221257611
 30
0.0
 11
1.614710760424491
 21
1.437934065127855
 31
0.0
  0
LINE
  5
179
330
149
100
AcDbEntity
  8
AM_4
100
AcDbLine
 10
-0.1250000000000004
 20
2.158545856702089
 30
0.0
 11
-0.1250000000000004
 21
2.322523248849498
 31
0.0
  0
LINE
  5
17A
330
149
100
AcDbEntity
  8
AM_4
100
AcDbLine
 10
-0.1249999999999988
 20
-2.322523248849497
 30
0.0
 11
-0.1249999999999989
 21
-2.158545856702089
 31
0.0
  0
ARC
  5
17B
330
149
100
AcDbEntity
  8
AM_4
100
AcDbCircle
 10
-0.0000000000000098
 20
0.0000000000000422
 30
0.0
 40
2.162162162162119
100
AcDbArc
 50
93.31426020487393
 51
109.185739795126
  0
LINE
  5
17C
330
149
100
AcDbEntity
  8
AM_4
100
AcDbLine
 10
-0.6887430216057255
 20
1.989413484969461
 30
0.0
 11
-0.7105547957962882
 21
2.042071766039737
 31
0.0
  0
ARC
  5
17D
330
149
100
AcDbEntity
  8
AM_4
100
AcDbCircle
 10
-0.0000000000000384
 20
0.0000000000000886
 30
0.0
 40
1.999999999999903
100
AcDbArc
 50
108.9166783015278
 51
116.0833216984721
  0
LINE
  5
17E
330
149
100
AcDbEntity
  8
AM_4
100
AcDbLine
 10
-0.9415246789241096
 20
1.946400907948464
 30
0.0
 11
-0.9197129047335469
 21
1.893742626878189
 31
0.0
  0
LINE
  5
17F
330
149
100
AcDbEntity
  8
AM_4
100
AcDbLine
 10
1.437934065127852
 20
1.614710760424494
 30
0.0
 11
1.68060622125761
 21
1.857382916554247
 31
0.0
  0
ARC
  5
180
330
149
100
AcDbEntity
  8
AM_4
100
AcDbCircle
 10
1.769022177801036
 20
1.769022177801037
 30
0.0
 40
0.1250000060980085
100
AcDbArc
 50
314.9821031486917
 51
135.0178968513083
  0
LINE
  5
181
330
149
100
AcDbEntity
  8
AM_4
100
AcDbLine
 10
2.158545856702089
 20
0.1250000000000014
 30
0.0
 11
2.501736111111111
 21
0.1250000000000009
 31
0.0
  0
ARC
  5
182
330
149
100
AcDbEntity
  8
AM_4
100
AcDbCircle
 10
2.501775155985015
 20
0.0000000000000012
 30
0.0
 40
0.1250000060980084
100
AcDbArc
 50
269.9821031486914
 51
90.01789685130863
  0
LINE
  5
183
330
149
100
AcDbEntity
  8
AM_4
100
AcDbLine
 10
2.501736111111111
 20
-0.1249999999999987
 30
0.0
 11
2.158545856702089
 21
-0.1249999999999992
 31
0.0
  0
ARC
  5
184
330
149
100
AcDbEntity
  8
AM_4
100
AcDbCircle
 10
-0.0000000000000004
 20
0.0000000000000009
 30
0.0
 40
2.162162162162163
100
AcDbArc
 50
318.3142602048741
 51
356.6857397951259
  0
LINE
  5
185
330
149
100
AcDbEntity
  8
AM_4
100
AcDbLine
 10
1.614710760424492
 20
-1.437934065127853
 30
0.0
 11
1.857382916554248
 21
-1.680606221257609
 31
0.0
  0
ARC
  5
186
330
149
100
AcDbEntity
  8
AM_4
100
AcDbCircle
 10
1.769022177801037
 20
-1.769022177801036
 30
0.0
 40
0.1250000060980086
100
AcDbArc
 50
224.9821031486938
 51
45.01789685130816
  0
LINE
  5
187
330
149
100
AcDbEntity
  8
AM_4
100
AcDbLine
 10
1.680606221257614
 20
-1.857382916554249
 30
0.0
 11
1.437934065127854
 21
-1.61471076042449
 31
0.0
  0
ARC
  5
188
330
149
100
AcDbEntity
  8
AM_4
100
AcDbCircle
 10
-0.0000000000000026
 20
0.0000000000000036
 30
0.0
 40
2.162162162162166
100
AcDbArc
 50
273.3142602048742
 51
311.6857397951259
  0
LINE
  5
189
330
149
100
AcDbEntity
  8
AM_4
100
AcDbLine
 10
0.125000000000001
 20
-2.158545856702089
 30
0.0
 11
0.125000000000001
 21
-2.322523248849498
 31
0.0
  0
LINE
  5
18A
330
149
100
AcDbEntity
  8
AM_4
100
AcDbLine
 10
-1.437934065127854
 20
-1.614710760424492
 30
0.0
 11
-1.680606221257609
 21
-1.857382916554248
 31
0.0
  0
ARC
  5
18B
330
149
100
AcDbEntity
  8
AM_4
100
AcDbCircle
 10
-1.769022177801035
 20
-1.769022177801038
 30
0.0
 40
0.1250000060980085
100
AcDbArc
 50
134.9821031486917
 51
315.0178968513083
  0
LINE
  5
18C
330
149
100
AcDbEntity
  8
AM_4
100
AcDbLine
 10
-1.857382916554246
 20
-1.680606221257612
 30
0.0
 11
-1.61471076042449
 21
-1.437934065127855
 31
0.0
  0
ARC
  5
18D
330
149
100
AcDbEntity
  8
AM_4
100
AcDbCircle
 10
0.0000000000000022
 20
0.0000000000000032
 30
0.0
 40
2.162162162162165
100
AcDbArc
 50
183.3142602048743
 51
221.6857397951259
  0
LINE
  5
18E
330
149
100
AcDbEntity
  8
AM_4
100
AcDbLine
 10
-2.158545856702089
 20
-0.1250000000000015
 30
0.0
 11
-2.501736111111111
 21
-0.1250000000000015
 31
0.0
  0
LINE
  5
18F
330
149
100
AcDbEntity
  8
AM_4
100
AcDbLine
 10
-2.501736111111111
 20
0.1249999999999981
 30
0.0
 11
-2.15854585670209
 21
0.1249999999999985
 31
0.0
  0
ARC
  5
190
330
149
100
AcDbEntity
  8
AM_4
100
AcDbCircle
 10
0.0000000000000038
 20
-0.0000000000000024
 30
0.0
 40
2.162162162162166
100
AcDbArc
 50
138.3142602048742
 51
176.685739795126
  0
LINE
  5
191
330
149
100
AcDbEntity
  8
AM_4
100
AcDbLine
 10
-1.614710760424492
 20
1.437934065127854
 30
0.0
 11
-1.857382916554247
 21
1.68060622125761
 31
0.0
  0
ARC
  5
192
330
149
100
AcDbEntity
  8
AM_4
100
AcDbCircle
 10
-1.769022177801037
 20
1.769022177801036
 30
0.0
 40
0.1250000060980083
100
AcDbArc
 50
44.98210314869365
 51
225.0178968513083
  0
LINE
  5
193
330
149
100
AcDbEntity
  8
AM_4
100
AcDbLine
 10
-1.680606221257614
 20
1.85738291655425
 30
0.0
 11
-1.437934065127855
 21
1.614710760424491
 31
0.0
  0
ARC
  5
194
330
149
100
AcDbEntity
  8
AM_4
100
AcDbCircle
 10
0.000000000000048
 20
-0.0000000000000755
 30
0.0
 40
2.16216216216225
100
AcDbArc
 50
115.8142602048744
 51
131.6857397951255
  0
CIRCLE
  5
195
330
149
100
AcDbEntity
  8
AM_4
100
AcDbCircle
 10
0.0
 20
0.0
 30
0.0
 40
2.78125
  0
ENDBLK
  5
14C
330
149
100
AcDbEntity
  8
0
100
AcDbBlockEnd
  0
BLOCK
  5
198
330
196
100
AcDbEntity
  8
0
100
AcDbBlockBegin
  2
6_070907I_0_in_069395_0
 70
     2
 10
0.0
 20
0.0
 30
0.0
  3
6_070907I_0_in_069395_0
  1

  0
ATTDEF
  5
19A
330
196
100
AcDbEntity
  8
AM_6
100
AcDbText
 10
8.493300000000001
 20
3.493300000000001
 30
0.0
 40
0.5
  1
Imperial Insert -Inch
100
AcDbAttributeDefinition
  3

  2
NN
 70
     8
280
     0
  0
ATTDEF
  5
19B
330
196
100
AcDbEntity
  8
AM_6
100
AcDbText
 10
8.493300000000001
 20
2.993300000000001
 30
0.0
 40
0.5
  1
Imperial Bearings
100
AcDbAttributeDefinition
  3

  2
NT
 70
     8
280
     0
  0
ATTDEF
  5
19C
330
196
100
AcDbEntity
  8
AM_6
100
AcDbText
 10
8.493300000000001
 20
2.493300000000001
 30
0.0
 40
0.5
  1
070907I
100
AcDbAttributeDefinition
  3

  2
NB
 70
     8
280
     0
  0
ATTDEF
  5
19D
330
196
100
AcDbEntity
  8
AM_6
100
AcDbText
 10
8.493300000000001
 20
1.993300000000001
 30
0.0
 40
0.5
  1
$PN.I
100
AcDbAttributeDefinition
  3

  2
NBSYN
 70
     8
280
     0
  0
ATTDEF
  5
19E
330
196
100
AcDbEntity
  8
AM_6
100
AcDbText
 10
8.493300000000001
 20
1.493300000000001
 30
0.0
 40
0.5
  1
070907
100
AcDbAttributeDefinition
  3

  2
LINA
 70
     8
280
     0
  0
ATTDEF
  5
19F
330
196
100
AcDbEntity
  8
AM_6
100
AcDbText
 10
8.493300000000001
 20
0.9933000000000005
 30
0.0
 40
0.5
  1
4
100
AcDbAttributeDefinition
  3

  2
SS
 70
     8
280
     0
  0
ATTDEF
  5
1A0
330
196
100
AcDbEntity
  8
AM_6
100
AcDbText
 10
8.493300000000001
 20
0.4933000000000005
 30
0.0
 40
0.5
  1
4.000000
100
AcDbAttributeDefinition
  3

  2
SS1
 70
     8
280
     0
  0
ATTDEF
  5
1A1
330
196
100
AcDbEntity
  8
AM_6
100
AcDbText
 10
8.493300000000001
 20
-0.0066999999999995
 30
0.0
 40
0.5
  1
070907
100
AcDbAttributeDefinition
  3

  2
PN
 70
     8
280
     0
  0
ATTDEF
  5
1A2
330
196
100
AcDbEntity
  8
AM_6
100
AcDbText
 10
8.493300000000001
 20
-0.5066999999999995
 30
0.0
 40
0.5
  1
INS-IP-400R
100
AcDbAttributeDefinition
  3

  2
DESCRIPTION
 70
     8
280
     0
  0
ATTDEF
  5
1A3
330
196
100
AcDbEntity
  8
AM_6
100
AcDbText
 10
8.493300000000001
 20
-1.006699999999999
 30
0.0
 40
0.5
  1
Contact Seal
100
AcDbAttributeDefinition
  3

  2
ST
 70
     8
280
     0
  0
ATTDEF
  5
1A4
330
196
100
AcDbEntity
  8
AM_6
100
AcDbText
 10
8.493300000000001
 20
-1.506699999999999
 30
0.0
 40
0.5
  1
7.0866
100
AcDbAttributeDefinition
  3

  2
A
 70
     8
280
     0
  0
ATTDEF
  5
1A5
330
196
100
AcDbEntity
  8
AM_6
100
AcDbText
 10
8.493300000000001
 20
-2.006699999999999
 30
0.0
 40
0.5
  1
1-7/8
100
AcDbAttributeDefinition
  3

  2
B
 70
     8
280
     0
  0
ATTDEF
  5
1A6
330
196
100
AcDbEntity
  8
AM_6
100
AcDbText
 10
8.493300000000001
 20
-2.506699999999999
 30
0.0
 40
0.5
  1
4-45/64
100
AcDbAttributeDefinition
  3

  2
C
 70
     8
280
     0
  0
ATTDEF
  5
1A7
330
196
100
AcDbEntity
  8
AM_6
100
AcDbText
 10
8.493300000000001
 20
-3.006699999999999
 30
0.0
 40
0.5
  1
1.646
100
AcDbAttributeDefinition
  3

  2
D
 70
     8
280
     0
  0
ATTDEF
  5
1A8
330
196
100
AcDbEntity
  8
AM_6
100
AcDbText
 10
8.493300000000001
 20
-3.506699999999999
 30
0.0
 40
0.5
  1
5-9/16
100
AcDbAttributeDefinition
  3

  2
E
 70
     8
280
     0
  0
ATTDEF
  5
1A9
330
196
100
AcDbEntity
  8
AM_6
100
AcDbText
 10
8.493300000000001
 20
-4.006699999999999
 30
0.0
 40
0.5
  1
0.2500
100
AcDbAttributeDefinition
  3

  2
NDM
 70
     8
280
     0
  0
ATTDEF
  5
1AA
330
196
100
AcDbEntity
  8
AM_6
100
AcDbText
 10
8.493300000000001
 20
-4.506699999999999
 30
0.0
 40
0.5
  1
0.132
100
AcDbAttributeDefinition
  3

  2
H
 70
     8
280
     0
  0
ATTDEF
  5
1AB
330
196
100
AcDbEntity
  8
AM_6
100
AcDbText
 10
8.493300000000001
 20
-5.006699999999999
 30
0.0
 40
0.5
  1
0.1960
100
AcDbAttributeDefinition
  3

  2
KDM
 70
     8
280
     0
  0
ATTDEF
  5
1AC
330
196
100
AcDbEntity
  8
AM_6
100
AcDbText
 10
8.493300000000001
 20
-5.506699999999999
 30
0.0
 40
0.5
  1
4.83
100
AcDbAttributeDefinition
  3

  2
AL
 70
     8
280
     0
  0
ATTDEF
  5
1AD
330
196
100
AcDbEntity
  8
AM_6
100
AcDbText
 10
8.493300000000001
 20
-6.006699999999999
 30
0.0
 40
0.5
  1
0.50
100
AcDbAttributeDefinition
  3

  2
BL
 70
     8
280
     0
  0
ATTDEF
  5
1AE
330
196
100
AcDbEntity
  8
AM_6
100
AcDbText
 10
8.493300000000001
 20
-6.506699999999999
 30
0.0
 40
0.5
  1
0.07
100
AcDbAttributeDefinition
  3

  2
CL
 70
     8
280
     0
  0
ATTDEF
  5
1AF
330
196
100
AcDbEntity
  8
AM_6
100
AcDbText
 10
8.493300000000001
 20
-7.006699999999999
 30
0.0
 40
0.5
  1
0.50
100
AcDbAttributeDefinition
  3

  2
DL
 70
     8
280
     0
  0
ATTDEF
  5
1B0
330
196
100
AcDbEntity
  8
AM_6
100
AcDbText
 10
8.493300000000001
 20
-7.506699999999999
 30
0.0
 40
0.5
  1
0.8000
100
AcDbAttributeDefinition
  3

  2
LL
 70
     8
280
     0
  0
ATTDEF
  5
1B1
330
196
100
AcDbEntity
  8
AM_6
100
AcDbText
 10
8.493300000000001
 20
-8.006699999999999
 30
0.0
 40
0.5
  1
0.025
100
AcDbAttributeDefinition
  3

  2
Y
 70
     8
280
     0
  0
ATTDEF
  5
1B2
330
196
100
AcDbEntity
  8
AM_6
100
AcDbText
 10
8.493300000000001
 20
-8.506699999999999
 30
0.0
 40
0.5
  1
0.025000
100
AcDbAttributeDefinition
  3

  2
Y1
 70
     8
280
     0
  0
ATTDEF
  5
1B3
330
196
100
AcDbEntity
  8
AM_6
100
AcDbText
 10
8.493300000000001
 20
-9.006699999999999
 30
0.0
 40
0.5
  1
4-1/2
100
AcDbAttributeDefinition
  3

  2
Z
 70
     8
280
     0
  0
ATTDEF
  5
1B4
330
196
100
AcDbEntity
  8
AM_6
100
AcDbText
 10
8.493300000000001
 20
-9.506699999999999
 30
0.0
 40
0.5
  1
4.500000
100
AcDbAttributeDefinition
  3

  2
Z1
 70
     8
280
     0
  0
ATTDEF
  5
1B5
330
196
100
AcDbEntity
  8
AM_6
100
AcDbText
 10
8.493300000000001
 20
-10.0067
 30
0.0
 40
0.5
  1
baldor
100
AcDbAttributeDefinition
  3

  2
COMPANY
 70
     8
280
     0
  0
CIRCLE
  5
1B6
330
196
100
AcDbEntity
  8
AM_9
100
AcDbCircle
 10
0.0
 20
0.0
 30
0.0
 40
2.25
  0
CIRCLE
  5
1B7
330
196
100
AcDbEntity
  8
AM_9
100
AcDbCircle
 10
0.0
 20
0.0
 30
0.0
 40
2.442307692307692
  0
CIRCLE
  5
1B8
330
196
100
AcDbEntity
  8
AM_9
100
AcDbCircle
 10
0.0
 20
0.0
 30
0.0
 40
2.5
  0
CIRCLE
  5
1B9
330
196
100
AcDbEntity
  8
AM_9
100
AcDbCircle
 10
0.0
 20
0.0
 30
0.0
 40
3.069058622134927
  0
CIRCLE
  5
1BA
330
196
100
AcDbEntity
  8
AM_9
100
AcDbCircle
 10
0.0
 20
0.0
 30
0.0
 40
3.155661162513371
  0
CIRCLE
  5
1BB
330
196
100
AcDbEntity
  8
AM_9
100
AcDbCircle
 10
0.0
 20
0.0
 30
0.0
 40
3.3433
  0
CIRCLE
  5
1BC
330
196
100
AcDbEntity
  8
AM_9
100
AcDbCircle
 10
0.0
 20
0.0
 30
0.0
 40
3.44955
  0
LINE
  5
1BD
330
196
100
AcDbEntity
  8
AM_9
100
AcDbLine
 10
1.783099293808579
 20
-2.136652684401853
 30
0.0
 11
1.530886181268875
 21
-1.884439571862149
 31
0.0
  0
LINE
  5
1BE
330
196
100
AcDbEntity
  8
AM_9
100
AcDbLine
 10
-1.530886181268876
 20
-1.884439571862149
 30
0.0
 11
-1.783099293808579
 21
-2.136652684401852
 31
0.0
  0
LINE
  5
1BF
330
196
100
AcDbEntity
  8
AM_9
100
AcDbLine
 10
2.136652684401853
 20
1.783099293808579
 30
0.0
 11
1.884439571862149
 21
1.530886181268875
 31
0.0
  0
LINE
  5
1C0
330
196
100
AcDbEntity
  8
AM_9
100
AcDbLine
 10
1.884439571862149
 20
-1.530886181268876
 30
0.0
 11
2.136652684401853
 21
-1.783099293808579
 31
0.0
  0
CIRCLE
  5
1C1
330
196
100
AcDbEntity
  8
AM_9
100
AcDbCircle
 10
0.0
 20
2.501736111111111
 30
0.0
 40
0.09795
  0
LINE
  5
1C2
330
196
100
AcDbEntity
  8
AM_9
100
AcDbLine
 10
-1.884439571862149
 20
1.530886181268876
 30
0.0
 11
-2.136652684401852
 21
1.783099293808579
 31
0.0
  0
LINE
  5
1C3
330
196
100
AcDbEntity
  8
AM_9
100
AcDbLine
 10
-2.136652684401853
 20
-1.783099293808579
 30
0.0
 11
-1.884439571862149
 21
-1.530886181268875
 31
0.0
  0
CIRCLE
  5
1C4
330
196
100
AcDbEntity
  8
AM_9
100
AcDbCircle
 10
0.0
 20
-2.501736111111111
 30
0.0
 40
0.09795
  0
LINE
  5
1C5
330
196
100
AcDbEntity
  8
AM_9
100
AcDbLine
 10
1.530886181268876
 20
1.884439571862148
 30
0.0
 11
1.78309929380858
 21
2.136652684401852
 31
0.0
  0
LINE
  5
1C6
330
196
100
AcDbEntity
  8
AM_9
100
AcDbLine
 10
-1.783099293808579
 20
2.136652684401853
 30
0.0
 11
-1.530886181268875
 21
1.884439571862149
 31
0.0
  0
LINE
  5
1C7
330
196
100
AcDbEntity
  8
AM_9
100
AcDbLine
 10
-1.796051224213831
 20
1.619274528917193
 30
0.0
 11
-1.884439571862149
 21
1.530886181268876
 31
0.0
  0
LINE
  5
1C8
330
196
100
AcDbEntity
  8
AM_9
100
AcDbLine
 10
-1.530886181268875
 20
1.884439571862149
 30
0.0
 11
-1.619274528917194
 21
1.79605122421383
 31
0.0
  0
ARC
  5
1C9
330
196
100
AcDbEntity
  8
AM_9
100
AcDbCircle
 10
-0.0000000000000004
 20
0.0000000000000006
 30
0.0
 40
2.732965561259649
100
AcDbArc
 50
140.2485100253665
 51
219.7514899746335
  0
LINE
  5
1CA
330
196
100
AcDbEntity
  8
AM_9
100
AcDbLine
 10
-1.619274528917193
 20
-1.796051224213832
 30
0.0
 11
-1.530886181268876
 21
-1.884439571862149
 31
0.0
  0
LINE
  5
1CB
330
196
100
AcDbEntity
  8
AM_9
100
AcDbLine
 10
-1.884439571862149
 20
-1.530886181268875
 30
0.0
 11
-1.79605122421383
 21
-1.619274528917195
 31
0.0
  0
ARC
  5
1CC
330
196
100
AcDbEntity
  8
AM_9
100
AcDbCircle
 10
-0.0000000000000006
 20
-0.0000000000000004
 30
0.0
 40
2.732965561259649
100
AcDbArc
 50
230.2485100253665
 51
309.7514899746336
  0
LINE
  5
1CD
330
196
100
AcDbEntity
  8
AM_9
100
AcDbLine
 10
1.796051224213832
 20
-1.619274528917193
 30
0.0
 11
1.884439571862149
 21
-1.530886181268876
 31
0.0
  0
LINE
  5
1CE
330
196
100
AcDbEntity
  8
AM_9
100
AcDbLine
 10
1.530886181268875
 20
-1.884439571862149
 30
0.0
 11
1.619274528917194
 21
-1.79605122421383
 31
0.0
  0
ARC
  5
1CF
330
196
100
AcDbEntity
  8
AM_9
100
AcDbCircle
 10
0.0000000000000004
 20
-0.0000000000000007
 30
0.0
 40
2.732965561259649
100
AcDbArc
 50
320.2485100253664
 51
39.75148997463354
  0
LINE
  5
1D0
330
196
100
AcDbEntity
  8
AM_9
100
AcDbLine
 10
1.619274528917193
 20
1.796051224213832
 30
0.0
 11
1.530886181268876
 21
1.884439571862148
 31
0.0
  0
LINE
  5
1D1
330
196
100
AcDbEntity
  8
AM_9
100
AcDbLine
 10
1.884439571862149
 20
1.530886181268875
 30
0.0
 11
1.79605122421383
 21
1.619274528917195
 31
0.0
  0
ARC
  5
1D2
330
196
100
AcDbEntity
  8
AM_9
100
AcDbCircle
 10
-0.0000000000000961
 20
0.000000000000224
 30
0.0
 40
2.110817941952263
100
AcDbArc
 50
109.1050293004379
 51
115.894970699562
  0
ARC
  5
1D3
330
196
100
AcDbEntity
  8
AM_9
100
AcDbCircle
 10
0.0000000000000002
 20
-0.0000000000000009
 30
0.0
 40
2.73296556125965
100
AcDbArc
 50
50.24851002536647
 51
129.7514899746335
  0
ARC
  5
1D4
330
196
100
AcDbEntity
  8
AM_5
100
AcDbCircle
 10
0.0000000000000003
 20
2.501736111111111
 30
0.0
 40
0.1250000000000001
100
AcDbArc
 50
75.0000000000001
 51
14.99999999999994
  0
ARC
  5
1D5
330
196
100
AcDbEntity
  8
AM_5
100
AcDbCircle
 10
0.0000000000000003
 20
-2.501736111111111
 30
0.0
 40
0.1250000000000001
100
AcDbArc
 50
75.0000000000001
 51
14.99999999999994
  0
CIRCLE
  5
1D6
330
196
100
AcDbEntity
  8
AM_4
100
AcDbCircle
 10
0.0
 20
0.0
 30
0.0
 40
3.493300000000001
  0
LINE
  5
1D7
330
196
100
AcDbEntity
  8
AM_4
100
AcDbLine
 10
-1.794299129942516
 20
2.147852520535789
 30
0.0
 11
-1.783099293808579
 21
2.136652684401853
 31
0.0
  0
LINE
  5
1D8
330
196
100
AcDbEntity
  8
AM_4
100
AcDbLine
 10
1.794299129942516
 20
-2.147852520535789
 30
0.0
 11
1.783099293808579
 21
-2.136652684401853
 31
0.0
  0
LINE
  5
1D9
330
196
100
AcDbEntity
  8
AM_4
100
AcDbLine
 10
-2.136652684401852
 20
1.783099293808579
 30
0.0
 11
-2.147852520535789
 21
1.794299129942517
 31
0.0
  0
LINE
  5
1DA
330
196
100
AcDbEntity
  8
AM_4
100
AcDbLine
 10
1.78309929380858
 20
2.136652684401852
 30
0.0
 11
1.794299129942517
 21
2.147852520535789
 31
0.0
  0
LINE
  5
1DB
330
196
100
AcDbEntity
  8
AM_4
100
AcDbLine
 10
-1.783099293808579
 20
-2.136652684401852
 30
0.0
 11
-1.794299129942517
 21
-2.147852520535789
 31
0.0
  0
LINE
  5
1DC
330
196
100
AcDbEntity
  8
AM_4
100
AcDbLine
 10
2.14785252053579
 20
1.794299129942516
 30
0.0
 11
2.136652684401853
 21
1.783099293808579
 31
0.0
  0
LINE
  5
1DD
330
196
100
AcDbEntity
  8
AM_4
100
AcDbLine
 10
2.136652684401853
 20
-1.783099293808579
 30
0.0
 11
2.147852520535789
 21
-1.794299129942517
 31
0.0
  0
LINE
  5
1DE
330
196
100
AcDbEntity
  8
AM_4
100
AcDbLine
 10
-2.14785252053579
 20
-1.794299129942516
 30
0.0
 11
-2.136652684401853
 21
-1.783099293808579
 31
0.0
  0
CIRCLE
  5
1DF
330
196
100
AcDbEntity
  8
AM_4
100
AcDbCircle
 10
0.0
 20
0.0
 30
0.0
 40
2.843244551072289
  0
ARC
  5
1E0
330
196
100
AcDbEntity
  8
AM_4
100
AcDbCircle
 10
0.0000000000000522
 20
-0.0000000000000462
 30
0.0
 40
2.798710384745807
100
AcDbArc
 50
309.8751171869936
 51
320.1248828130062
  0
ARC
  5
1E1
330
196
100
AcDbEntity
  8
AM_4
100
AcDbCircle
 10
0.0000000000000395
 20
0.0000000000000362
 30
0.0
 40
2.79871038474593
100
AcDbArc
 50
219.8751171869939
 51
230.124882813006
  0
ARC
  5
1E2
330
196
100
AcDbEntity
  8
AM_4
100
AcDbCircle
 10
-0.0000000000000113
 20
0.000000000000004
 30
0.0
 40
2.798710384745866
100
AcDbArc
 50
129.8751171869937
 51
140.1248828130061
  0
ARC
  5
1E3
330
196
100
AcDbEntity
  8
AM_4
100
AcDbCircle
 10
-0.0000000000000751
 20
-0.0000000000000737
 30
0.0
 40
2.798710384745982
100
AcDbArc
 50
39.87511718699401
 51
50.12488281300591
  0
ARC
  5
1E4
330
196
100
AcDbEntity
  8
AM_4
100
AcDbCircle
 10
0.0000000000000001
 20
-0.0000000000000004
 30
0.0
 40
2.782935102610604
100
AcDbArc
 50
230.1540119949408
 51
309.8459880050592
  0
ARC
  5
1E5
330
196
100
AcDbEntity
  8
AM_4
100
AcDbCircle
 10
-0.0000000000000009
 20
0.0
 30
0.0
 40
2.782935102610606
100
AcDbArc
 50
320.1540119949408
 51
39.84598800505921
  0
ARC
  5
1E6
330
196
100
AcDbEntity
  8
AM_4
100
AcDbCircle
 10
0.0
 20
0.0
 30
0.0
 40
2.782935102610605
100
AcDbArc
 50
140.1540119949408
 51
219.8459880050592
  0
LINE
  5
1E7
330
196
100
AcDbEntity
  8
AM_4
100
AcDbLine
 10
-1.619274528917194
 20
1.79605122421383
 30
0.0
 11
-1.796051224213831
 21
1.619274528917193
 31
0.0
  0
LINE
  5
1E8
330
196
100
AcDbEntity
  8
AM_4
100
AcDbLine
 10
-1.79605122421383
 20
-1.619274528917195
 30
0.0
 11
-1.619274528917193
 21
-1.796051224213832
 31
0.0
  0
LINE
  5
1E9
330
196
100
AcDbEntity
  8
AM_4
100
AcDbLine
 10
1.619274528917194
 20
-1.79605122421383
 30
0.0
 11
1.796051224213832
 21
-1.619274528917193
 31
0.0
  0
LINE
  5
1EA
330
196
100
AcDbEntity
  8
AM_4
100
AcDbLine
 10
1.79605122421383
 20
1.619274528917195
 30
0.0
 11
1.619274528917193
 21
1.796051224213832
 31
0.0
  0
ARC
  5
1EB
330
196
100
AcDbEntity
  8
AM_4
100
AcDbCircle
 10
0.0000000000000002
 20
-0.0000000000000009
 30
0.0
 40
2.782935102610606
100
AcDbArc
 50
50.15401199494077
 51
129.8459880050592
  0
ARC
  5
1EC
330
196
100
AcDbEntity
  8
AM_4
100
AcDbCircle
 10
0.000000000000002
 20
0.0000000000000004
 30
0.0
 40
2.105263157894737
100
AcDbArc
 50
115.9039389457158
 51
109.0960610542844
  0
ARC
  5
1ED
330
196
100
AcDbEntity
  8
AM_4
100
AcDbCircle
 10
0.0000000000000018
 20
0.0000000000000007
 30
0.0
 40
2.0
100
AcDbArc
 50
116.083321698472
 51
108.9166783015281
  0
LINE
  5
1EE
330
196
100
AcDbEntity
  8
AM_4
100
AcDbLine
 10
-0.6483856033289557
 20
1.891982058423321
 30
0.0
 11
-0.688743021605725
 21
1.98941348496946
 31
0.0
  0
LINE
  5
1EF
330
196
100
AcDbEntity
  8
AM_4
100
AcDbLine
 10
-0.9197129047335467
 20
1.893742626878188
 30
0.0
 11
-0.8793554864567775
 21
1.796311200332048
 31
0.0
  0
ARC
  5
1F0
330
196
100
AcDbEntity
  8
AM_5
100
AcDbCircle
 10
-0.0000000000000002
 20
2.501736111111111
 30
0.0
 40
0.1249999999999998
100
AcDbArc
 50
165.0000000000001
 51
104.9999999999999
  0
ARC
  5
1F1
330
196
100
AcDbEntity
  8
AM_5
100
AcDbCircle
 10
-0.0000000000000002
 20
-2.501736111111111
 30
0.0
 40
0.1249999999999998
100
AcDbArc
 50
165.0000000000001
 51
104.9999999999999
  0
ARC
  5
1F2
330
196
100
AcDbEntity
  8
AM_5
100
AcDbCircle
 10
0.0000000000000001
 20
2.501736111111111
 30
0.0
 40
0.1250000000000002
100
AcDbArc
 50
105.0
 51
14.99999999999992
  0
ARC
  5
1F3
330
196
100
AcDbEntity
  8
AM_5
100
AcDbCircle
 10
0.0000000000000001
 20
-2.501736111111111
 30
0.0
 40
0.1250000000000002
100
AcDbArc
 50
105.0
 51
14.99999999999992
  0
ENDBLK
  5
199
330
196
100
AcDbEntity
  8
0
100
AcDbBlockEnd
  0
BLOCK
  5
1F6
330
1F4
100
AcDbEntity
  8
0
100
AcDbBlockBegin
  2
7_069395H_0_in_069395_0
 70
     2
 10
0.0
 20
0.0
 30
0.0
  3
7_069395H_0_in_069395_0
  1

  0
ATTDEF
  5
1F8
330
1F4
100
AcDbEntity
  8
AM_6
100
AcDbText
 10
13.478125
 20
4.71875
 30
0.0
 40
0.5
  1
WSTU-IP -Housing -Inch
100
AcDbAttributeDefinition
  3

  2
NN
 70
     8
280
     0
  0
ATTDEF
  5
1F9
330
1F4
100
AcDbEntity
  8
AM_6
100
AcDbText
 10
13.478125
 20
4.21875
 30
0.0
 40
0.5
  1
Imperial Wide Slot Take-Up Bearings
100
AcDbAttributeDefinition
  3

  2
NT
 70
     8
280
     0
  0
ATTDEF
  5
1FA
330
1F4
100
AcDbEntity
  8
AM_6
100
AcDbText
 10
13.478125
 20
3.71875
 30
0.0
 40
0.5
  1
069395H
100
AcDbAttributeDefinition
  3

  2
NB
 70
     8
280
     0
  0
ATTDEF
  5
1FB
330
1F4
100
AcDbEntity
  8
AM_6
100
AcDbText
 10
13.478125
 20
3.21875
 30
0.0
 40
0.5
  1
$PN.H
100
AcDbAttributeDefinition
  3

  2
NBSYN
 70
     8
280
     0
  0
ATTDEF
  5
1FC
330
1F4
100
AcDbEntity
  8
AM_6
100
AcDbText
 10
13.478125
 20
2.71875
 30
0.0
 40
0.5
  1
069395
100
AcDbAttributeDefinition
  3

  2
LINA
 70
     8
280
     0
  0
ATTDEF
  5
1FD
330
1F4
100
AcDbEntity
  8
AM_6
100
AcDbText
 10
13.478125
 20
2.21875
 30
0.0
 40
0.5
  1
4
100
AcDbAttributeDefinition
  3

  2
SS
 70
     8
280
     0
  0
ATTDEF
  5
1FE
330
1F4
100
AcDbEntity
  8
AM_6
100
AcDbText
 10
13.478125
 20
1.71875
 30
0.0
 40
0.5
  1
069395
100
AcDbAttributeDefinition
  3

  2
PN
 70
     8
280
     0
  0
ATTDEF
  5
1FF
330
1F4
100
AcDbEntity
  8
AM_6
100
AcDbText
 10
13.478125
 20
1.21875
 30
0.0
 40
0.5
  1
WSTU-IP-400RE
100
AcDbAttributeDefinition
  3

  2
DESCRIPTION
 70
     8
280
     0
  0
ATTDEF
  5
200
330
1F4
100
AcDbEntity
  8
AM_6
100
AcDbText
 10
13.478125
 20
0.71875
 30
0.0
 40
0.5
  1
Expansion
100
AcDbAttributeDefinition
  3

  2
EF
 70
     8
280
     0
  0
ATTDEF
  5
201
330
1F4
100
AcDbEntity
  8
AM_6
100
AcDbText
 10
13.478125
 20
0.21875
 30
0.0
 40
0.5
  1
Contact Seal
100
AcDbAttributeDefinition
  3

  2
ST
 70
     8
280
     0
  0
ATTDEF
  5
202
330
1F4
100
AcDbEntity
  8
AM_6
100
AcDbText
 10
13.478125
 20
-0.28125
 30
0.0
 40
0.5
  1
4-45/64
100
AcDbAttributeDefinition
  3

  2
A
 70
     8
280
     0
  0
ATTDEF
  5
203
330
1F4
100
AcDbEntity
  8
AM_6
100
AcDbText
 10
13.478125
 20
-0.78125
 30
0.0
 40
0.5
  1
12-9/16
100
AcDbAttributeDefinition
  3

  2
B
 70
     8
280
     0
  0
ATTDEF
  5
204
330
1F4
100
AcDbEntity
  8
AM_6
100
AcDbText
 10
13.478125
 20
-1.28125
 30
0.0
 40
0.5
  1
2-1/16
100
AcDbAttributeDefinition
  3

  2
C
 70
     8
280
     0
  0
ATTDEF
  5
205
330
1F4
100
AcDbEntity
  8
AM_6
100
AcDbText
 10
13.478125
 20
-1.78125
 30
0.0
 40
0.5
  1
7
100
AcDbAttributeDefinition
  3

  2
D
 70
     8
280
     0
  0
ATTDEF
  5
206
330
1F4
100
AcDbEntity
  8
AM_6
100
AcDbText
 10
13.478125
 20
-2.28125
 30
0.0
 40
0.5
  1
8-3/8
100
AcDbAttributeDefinition
  3

  2
E
 70
     8
280
     0
  0
ATTDEF
  5
207
330
1F4
100
AcDbEntity
  8
AM_6
100
AcDbText
 10
13.478125
 20
-2.78125
 30
0.0
 40
0.5
  1
2-1/8
100
AcDbAttributeDefinition
  3

  2
F
 70
     8
280
     0
  0
ATTDEF
  5
208
330
1F4
100
AcDbEntity
  8
AM_6
100
AcDbText
 10
13.478125
 20
-3.28125
 30
0.0
 40
0.5
  1
2-1/16
100
AcDbAttributeDefinition
  3

  2
G
 70
     8
280
     0
  0
ATTDEF
  5
209
330
1F4
100
AcDbEntity
  8
AM_6
100
AcDbText
 10
13.478125
 20
-3.78125
 30
0.0
 40
0.5
  1
2-1/8
100
AcDbAttributeDefinition
  3

  2
H
 70
     8
280
     0
  0
ATTDEF
  5
20A
330
1F4
100
AcDbEntity
  8
AM_6
100
AcDbText
 10
13.478125
 20
-4.28125
 30
0.0
 40
0.5
  1
6
100
AcDbAttributeDefinition
  3

  2
J
 70
     8
280
     0
  0
ATTDEF
  5
20B
330
1F4
100
AcDbEntity
  8
AM_6
100
AcDbText
 10
13.478125
 20
-4.78125
 30
0.0
 40
0.5
  1
3-3/8
100
AcDbAttributeDefinition
  3

  2
K
 70
     8
280
     0
  0
ATTDEF
  5
20C
330
1F4
100
AcDbEntity
  8
AM_6
100
AcDbText
 10
13.478125
 20
-5.28125
 30
0.0
 40
0.5
  1
5-9/16
100
AcDbAttributeDefinition
  3

  2
L
 70
     8
280
     0
  0
ATTDEF
  5
20D
330
1F4
100
AcDbEntity
  8
AM_6
100
AcDbText
 10
13.478125
 20
-5.78125
 30
0.0
 40
0.5
  1
8-5/8
100
AcDbAttributeDefinition
  3

  2
M
 70
     8
280
     0
  0
ATTDEF
  5
20E
330
1F4
100
AcDbEntity
  8
AM_6
100
AcDbText
 10
13.478125
 20
-6.28125
 30
0.0
 40
0.5
  1
9-7/16
100
AcDbAttributeDefinition
  3

  2
N
 70
     8
280
     0
  0
ATTDEF
  5
20F
330
1F4
100
AcDbEntity
  8
AM_6
100
AcDbText
 10
13.478125
 20
-6.78125
 30
0.0
 40
0.5
  1
4-51/64
100
AcDbAttributeDefinition
  3

  2
R
 70
     8
280
     0
  0
ATTDEF
  5
210
330
1F4
100
AcDbEntity
  8
AM_6
100
AcDbText
 10
13.478125
 20
-7.28125
 30
0.0
 40
0.5
  1
3-3/64
100
AcDbAttributeDefinition
  3

  2
S
 70
     8
280
     0
  0
ATTDEF
  5
211
330
1F4
100
AcDbEntity
  8
AM_6
100
AcDbText
 10
13.478125
 20
-7.78125
 30
0.0
 40
0.5
  1
3-7/16
100
AcDbAttributeDefinition
  3

  2
T
 70
     8
280
     0
  0
ATTDEF
  5
212
330
1F4
100
AcDbEntity
  8
AM_6
100
AcDbText
 10
13.478125
 20
-8.28125
 30
0.0
 40
0.5
  1
5/16
100
AcDbAttributeDefinition
  3

  2
X
 70
     8
280
     0
  0
ATTDEF
  5
213
330
1F4
100
AcDbEntity
  8
AM_6
100
AcDbText
 10
13.478125
 20
-8.78125
 30
0.0
 40
0.5
  1
0.025
100
AcDbAttributeDefinition
  3

  2
Y
 70
     8
280
     0
  0
ATTDEF
  5
214
330
1F4
100
AcDbEntity
  8
AM_6
100
AcDbText
 10
13.478125
 20
-9.28125
 30
0.0
 40
0.5
  1
4-1/2
100
AcDbAttributeDefinition
  3

  2
Z
 70
     8
280
     0
  0
ATTDEF
  5
215
330
1F4
100
AcDbEntity
  8
AM_6
100
AcDbText
 10
13.478125
 20
-9.78125
 30
0.0
 40
0.5
  1
baldor
100
AcDbAttributeDefinition
  3

  2
COMPANY
 70
     8
280
     0
  0
LINE
  5
216
330
1F4
100
AcDbEntity
  8
AM_9
100
AcDbLine
 10
3.5
 20
4.3125
 30
0.0
 11
-3.5
 21
4.3125
 31
0.0
  0
LINE
  5
217
330
1F4
100
AcDbEntity
  8
AM_9
100
AcDbLine
 10
3.5
 20
-4.3125
 30
0.0
 11
-3.5
 21
-4.3125
 31
0.0
  0
LINE
  5
218
330
1F4
100
AcDbEntity
  8
AM_9
100
AcDbLine
 10
8.375
 20
1.0625
 30
0.0
 11
6.3125
 21
1.0625
 31
0.0
  0
LINE
  5
219
330
1F4
100
AcDbEntity
  8
AM_9
100
AcDbLine
 10
6.3125
 20
-1.0625
 30
0.0
 11
8.375
 21
-1.0625
 31
0.0
  0
LINE
  5
21A
330
1F4
100
AcDbEntity
  8
AM_7
100
AcDbLine
 10
-4.17375
 20
0.0
 30
0.0
 11
4.17375
 21
0.0
 31
0.0
  0
LINE
  5
21B
330
1F4
100
AcDbEntity
  8
AM_7
100
AcDbLine
 10
0.0
 20
-4.17375
 30
0.0
 11
0.0
 21
4.17375
 31
0.0
  0
LINE
  5
21C
330
1F4
100
AcDbEntity
  8
AM_7
100
AcDbLine
 10
-4.496551949694367
 20
-1.816724913506731
 30
0.0
 11
0.3753610924559446
 21
0.1516557255103367
 31
0.0
  0
LINE
  5
21D
330
1F4
100
AcDbEntity
  8
AM_7
100
AcDbLine
 10
6.209375
 20
0.0
 30
0.0
 11
8.478125
 21
0.0
 31
0.0
  0
LINE
  5
21E
330
1F4
100
AcDbEntity
  8
AM_4
100
AcDbLine
 10
-4.042290714546582
 20
-1.093924089787963
 30
0.0
 11
-4.069885687706378
 21
-1.105073182645738
 31
0.0
  0
LINE
  5
21F
330
1F4
100
AcDbEntity
  8
AM_4
100
AcDbLine
 10
-3.695279094290466
 20
-2.032257037212526
 30
0.0
 11
-4.069885687706378
 21
-1.105073182645738
 31
0.0
  0
LINE
  5
220
330
1F4
100
AcDbEntity
  8
AM_4
100
AcDbLine
 10
-3.825458139088737
 20
-1.976999311097438
 30
0.0
 11
-4.125143413513366
 21
-1.235252228206583
 31
0.0
  0
ARC
  5
221
330
1F4
100
AcDbEntity
  8
AM_4
100
AcDbCircle
 10
-4.032425028364786
 20
-1.197791568102418
 30
0.0
 40
0.1000000000000011
100
AcDbArc
 50
112.0000000000004
 51
201.9999999999995
  0
ARC
  5
222
330
1F4
100
AcDbEntity
  8
AM_4
100
AcDbCircle
 10
-3.732739753632058
 20
-1.939538651755846
 30
0.0
 40
0.1000000000000011
100
AcDbArc
 50
202.0000000000003
 51
292.0000000000002
  0
LINE
  5
223
330
1F4
100
AcDbEntity
  8
AM_4
100
AcDbLine
 10
-3.695279094290466
 20
-2.032257037212526
 30
0.0
 11
-3.667502606038471
 21
-2.021034607497117
 31
0.0
  0
LINE
  5
224
330
1F4
100
AcDbEntity
  8
AM_4
100
AcDbLine
 10
4.1875
 20
1.510416666666667
 30
0.0
 11
4.1875
 21
-1.510416666666667
 31
0.0
  0
LINE
  5
225
330
1F4
100
AcDbEntity
  8
AM_4
100
AcDbLine
 10
6.135416666666667
 20
1.6875
 30
0.0
 11
4.364583333333333
 21
1.6875
 31
0.0
  0
ARC
  5
226
330
1F4
100
AcDbEntity
  8
AM_4
100
AcDbCircle
 10
6.135416666666667
 20
1.510416666666667
 30
0.0
 40
0.177083333333333
100
AcDbArc
 50
0.0
 51
90.0
  0
ARC
  5
227
330
1F4
100
AcDbEntity
  8
AM_4
100
AcDbCircle
 10
4.364583333333333
 20
1.510416666666667
 30
0.0
 40
0.1770833333333328
100
AcDbArc
 50
90.0
 51
180.0
  0
LINE
  5
228
330
1F4
100
AcDbEntity
  8
AM_4
100
AcDbLine
 10
8.375
 20
2.7875
 30
0.0
 11
3.5
 21
2.7875
 31
0.0
  0
LINE
  5
229
330
1F4
100
AcDbEntity
  8
AM_4
100
AcDbLine
 10
8.375
 20
3.0
 30
0.0
 11
3.5
 21
3.0
 31
0.0
  0
ARC
  5
22A
330
1F4
100
AcDbEntity
  8
AM_4
100
AcDbCircle
 10
6.135416666666668
 20
-1.510416666666668
 30
0.0
 40
0.1770833333333317
100
AcDbArc
 50
270.0
 51
0.0
  0
LINE
  5
22B
330
1F4
100
AcDbEntity
  8
AM_4
100
AcDbLine
 10
4.364583333333333
 20
-1.6875
 30
0.0
 11
6.135416666666667
 21
-1.6875
 31
0.0
  0
ARC
  5
22C
330
1F4
100
AcDbEntity
  8
AM_4
100
AcDbCircle
 10
4.364583333333333
 20
-1.510416666666667
 30
0.0
 40
0.177083333333333
100
AcDbArc
 50
180.0
 51
270.0
  0
LINE
  5
22D
330
1F4
100
AcDbEntity
  8
AM_4
100
AcDbLine
 10
8.375
 20
3.0
 30
0.0
 11
8.375
 21
-3.0
 31
0.0
  0
LINE
  5
22E
330
1F4
100
AcDbEntity
  8
AM_4
100
AcDbLine
 10
8.375
 20
-3.0
 30
0.0
 11
3.5
 21
-3.0
 31
0.0
  0
LINE
  5
22F
330
1F4
100
AcDbEntity
  8
AM_4
100
AcDbLine
 10
8.375
 20
-2.7875
 30
0.0
 11
3.5
 21
-2.7875
 31
0.0
  0
ARC
  5
230
330
1F4
100
AcDbEntity
  8
AM_4
100
AcDbCircle
 10
3.287499999999999
 20
4.506249999999999
 30
0.0
 40
0.2125000000000008
100
AcDbArc
 50
0.0
 51
90.0
  0
LINE
  5
231
330
1F4
100
AcDbEntity
  8
AM_4
100
AcDbLine
 10
3.287499999999999
 20
4.71875
 30
0.0
 11
-3.2875
 21
4.71875
 31
0.0
  0
ARC
  5
232
330
1F4
100
AcDbEntity
  8
AM_4
100
AcDbCircle
 10
-3.287499999999999
 20
4.50625
 30
0.0
 40
0.2125000000000004
100
AcDbArc
 50
90.0
 51
180.0
  0
LINE
  5
233
330
1F4
100
AcDbEntity
  8
AM_4
100
AcDbLine
 10
-3.5
 20
4.50625
 30
0.0
 11
-3.5
 21
2.291799836340218
 31
0.0
  0
LINE
  5
234
330
1F4
100
AcDbEntity
  8
AM_4
100
AcDbLine
 10
3.5
 20
2.291799836340218
 30
0.0
 11
3.5
 21
4.506249999999999
 31
0.0
  0
ARC
  5
235
330
1F4
100
AcDbEntity
  8
AM_4
100
AcDbCircle
 10
3.287499999999997
 20
-4.506249999999998
 30
0.0
 40
0.2125000000000021
100
AcDbArc
 50
270.0
 51
0.0
  0
LINE
  5
236
330
1F4
100
AcDbEntity
  8
AM_4
100
AcDbLine
 10
-3.5
 20
-2.291799836340218
 30
0.0
 11
-3.5
 21
-4.506249996833502
 31
0.0
  0
ARC
  5
237
330
1F4
100
AcDbEntity
  8
AM_4
100
AcDbCircle
 10
-3.287499999999997
 20
-4.506249999999997
 30
0.0
 40
0.2125000000000026
100
AcDbArc
 50
180.0
 51
270.0
  0
LINE
  5
238
330
1F4
100
AcDbEntity
  8
AM_4
100
AcDbLine
 10
-3.287499999999999
 20
-4.71875
 30
0.0
 11
3.2875
 21
-4.71875
 31
0.0
  0
LINE
  5
239
330
1F4
100
AcDbEntity
  8
AM_4
100
AcDbLine
 10
3.5
 20
-4.506249999999999
 30
0.0
 11
3.5
 21
-2.291799836340218
 31
0.0
  0
CIRCLE
  5
23A
330
1F4
100
AcDbEntity
  8
AM_4
100
AcDbCircle
 10
0.0
 20
0.0
 30
0.0
 40
3.5433
  0
CIRCLE
  5
23B
330
1F4
100
AcDbEntity
  8
AM_4
100
AcDbCircle
 10
0.0
 20
0.0
 30
0.0
 40
3.975
  0
ARC
  5
23C
330
1F4
100
AcDbEntity
  8
AM_4
100
AcDbCircle
 10
-0.0000000000000013
 20
0.0
 30
0.0
 40
4.187500000000001
100
AcDbArc
 50
326.7014124448675
 51
33.29858755513247
  0
ARC
  5
23D
330
1F4
100
AcDbEntity
  8
AM_4
100
AcDbCircle
 10
0.0
 20
0.0000000000000004
 30
0.0
 40
4.183580582449565
100
AcDbArc
 50
33.21677732780628
 51
146.7832226721937
  0
ARC
  5
23E
330
1F4
100
AcDbEntity
  8
AM_4
100
AcDbCircle
 10
0.0000000000000009
 20
0.0000000000000002
 30
0.0
 40
4.187500000000001
100
AcDbArc
 50
146.7014124448675
 51
213.2985875551325
  0
ARC
  5
23F
330
1F4
100
AcDbEntity
  8
AM_4
100
AcDbCircle
 10
0.0000000000000002
 20
0.0
 30
0.0
 40
4.183580582449566
100
AcDbArc
 50
213.2167773278063
 51
326.7832226721937
  0
LINE
  5
240
330
1F4
100
AcDbEntity
  8
AM_4
100
AcDbLine
 10
6.3125
 20
1.6875
 30
0.0
 11
6.3125
 21
-1.6875
 31
0.0
  0
LINE
  5
241
330
1F4
100
AcDbEntity
  8
AM_4
100
AcDbLine
 10
6.3125
 20
-1.6875
 30
0.0
 11
8.375
 21
-1.6875
 31
0.0
  0
LINE
  5
242
330
1F4
100
AcDbEntity
  8
AM_4
100
AcDbLine
 10
8.375
 20
1.6875
 30
0.0
 11
6.3125
 21
1.6875
 31
0.0
  0
ENDBLK
  5
1F7
330
1F4
100
AcDbEntity
  8
0
100
AcDbBlockEnd
  0
ENDSEC
  0
SECTION
  2
ENTITIES
  0
INSERT
  5
6F
330
1F
100
AcDbEntity
  8
0
100
AcDbBlockReference
  2
1_069395_0
 10
0.0
 20
0.0
 30
0.0
  0
POINT
  5
244
330
1F
100
AcDbEntity
  8
ConnectionPoints
100
AcDbPoint
 10
0.0
 20
-2.501736111111111
 30
2.460041666666667
  0
POINT
  5
245
330
1F
100
AcDbEntity
  8
ConnectionPoints
100
AcDbPoint
 10
0.0
 20
2.501736111111111
 30
2.460041666666667
  0
POINT
  5
246
330
1F
100
AcDbEntity
  8
ConnectionPoints
100
AcDbPoint
 10
0.0
 20
0.0
 30
2.390041666666667
  0
POINT
  5
247
330
1F
100
AcDbEntity
  8
ConnectionPoints
100
AcDbPoint
 10
0.0
 20
0.0
 30
2.734375
  0
POINT
  5
248
330
1F
100
AcDbEntity
  8
ConnectionPoints
100
AcDbPoint
 10
0.0
 20
0.0
 30
2.589041666666667
  0
POINT
  5
249
330
1F
100
AcDbEntity
  8
ConnectionPoints
100
AcDbPoint
 10
0.0
 20
2.501736111111111
 30
2.390041666666667
  0
POINT
  5
24A
330
1F
100
AcDbEntity
  8
ConnectionPoints
100
AcDbPoint
 10
0.0
 20
2.501736111111111
 30
2.602375
  0
POINT
  5
24B
330
1F
100
AcDbEntity
  8
ConnectionPoints
100
AcDbPoint
 10
0.0
 20
-2.501736111111111
 30
2.390041666666667
  0
POINT
  5
24C
330
1F
100
AcDbEntity
  8
ConnectionPoints
100
AcDbPoint
 10
0.0
 20
-2.501736111111111
 30
2.602375
  0
POINT
  5
24D
330
1F
100
AcDbEntity
  8
ConnectionPoints
100
AcDbPoint
 10
0.0
 20
0.0
 30
2.390041666666667
  0
POINT
  5
24E
330
1F
100
AcDbEntity
  8
ConnectionPoints
100
AcDbPoint
 10
-3.975300776455101
 20
-1.606125769270723
 30
0.0
  0
POINT
  5
24F
330
1F
100
AcDbEntity
  8
ConnectionPoints
100
AcDbPoint
 10
0.0
 20
0.0
 30
2.734375
  0
POINT
  5
250
330
1F
100
AcDbEntity
  8
ConnectionPoints
100
AcDbPoint
 10
0.0
 20
0.0
 30
3.046875
  0
ENDSEC
  0
SECTION
  2
OBJECTS
  0
DICTIONARY
  5
C
330
0
100
AcDbDictionary
281
     1
  3
ACAD_DETAILVIEWSTYLE
350
258
  3
ACAD_GROUP
350
D
  3
ACAD_LAYOUT
350
1A
  3
ACAD_MATERIAL
350
43
  3
ACAD_MLEADERSTYLE
350
6B
  3
ACAD_MLINESTYLE
350
17
  3
ACAD_PLOTSETTINGS
350
19
  3
ACAD_PLOTSTYLENAME
350
E
  3
ACAD_SCALELIST
350
47
  3
ACAD_SECTIONVIEWSTYLE
350
259
  3
ACAD_TABLESTYLE
350
69
  3
ACAD_VISUALSTYLE
350
2A
  3
ACDB_RECOMPOSE_DATA
350
255
  3
AcDbVariableDictionary
350
251
  0
SUN
  5
6D
330
29
100
AcDbSun
 90
        1
290
     0
 63
     7
421
 16777215
 40
1.0
291
     1
 91
  2455826
 92
 54000000
292
     0
 70
     2
 71
   256
280
     1
  0
DICTIONARY
  5
258
102
{ACAD_REACTORS
330
C
102
}
330
C
100
AcDbDictionary
281
     1
  0
DICTIONARY
  5
D
102
{ACAD_REACTORS
330
C
102
}
330
C
100
AcDbDictionary
281
     1
  0
DICTIONARY
  5
1A
102
{ACAD_REACTORS
330
C
102
}
330
C
100
AcDbDictionary
281
     1
  3
Layout1
350
1E
  3
Layout2
350
26
  3
Model
350
22
  0
DICTIONARY
  5
43
102
{ACAD_REACTORS
330
C
102
}
330
C
100
AcDbDictionary
281
     1
  3
ByBlock
350
45
  3
ByLayer
350
44
  3
Global
350
46
  0
DICTIONARY
  5
6B
102
{ACAD_REACTORS
330
C
102
}
330
C
100
AcDbDictionary
281
     1
  3
Standard
350
6C
  0
DICTIONARY
  5
17
102
{ACAD_REACTORS
330
C
102
}
330
C
100
AcDbDictionary
281
     1
  3
Standard
350
18
  0
DICTIONARY
  5
19
102
{ACAD_REACTORS
330
C
102
}
330
C
100
AcDbDictionary
281
     1
  0
ACDBDICTIONARYWDFLT
  5
E
102
{ACAD_REACTORS
330
C
102
}
330
C
100
AcDbDictionary
281
     1
  3
Normal
350
F
100
AcDbDictionaryWithDefault
340
F
  0
DICTIONARY
  5
47
102
{ACAD_REACTORS
330
C
102
}
330
C
100
AcDbDictionary
281
     1
  3
A0
350
48
  3
A1
350
49
  3
A2
350
4A
  3
A3
350
4B
  3
A4
350
4C
  3
A5
350
4D
  3
A6
350
4E
  3
A7
350
4F
  3
A8
350
50
  3
A9
350
51
  3
B0
350
52
  3
B1
350
53
  3
B2
350
54
  3
B3
350
55
  3
B4
350
56
  3
B5
350
57
  3
B6
350
58
  3
B7
350
59
  3
B8
350
5A
  3
B9
350
5B
  3
C0
350
5C
  3
C1
350
5D
  3
C2
350
5E
  3
C3
350
5F
  3
C4
350
60
  3
C5
350
61
  3
C6
350
62
  3
C7
350
63
  3
C8
350
64
  3
C9
350
65
  3
D0
350
66
  3
D1
350
67
  3
D2
350
68
  0
DICTIONARY
  5
259
102
{ACAD_REACTORS
330
C
102
}
330
C
100
AcDbDictionary
281
     1
  0
DICTIONARY
  5
69
102
{ACAD_REACTORS
330
C
102
}
330
C
100
AcDbDictionary
281
     1
  3
Standard
350
6A
  0
DICTIONARY
  5
2A
102
{ACAD_REACTORS
330
C
102
}
330
C
100
AcDbDictionary
281
     1
  3
2dWireframe
350
2F
  3
Basic
350
32
  3
Brighten
350
36
  3
ColorChange
350
3A
  3
Conceptual
350
34
  3
Dim
350
35
  3
EdgeColorOff
350
3D
  3
Facepattern
350
39
  3
Flat
350
2B
  3
FlatWithEdges
350
2C
  3
Gouraud
350
2D
  3
GouraudWithEdges
350
2E
  3
Hidden
350
31
  3
JitterOff
350
3B
  3
Linepattern
350
38
  3
OverhangOff
350
3C
  3
Realistic
350
33
  3
Shaded
350
42
  3
Shaded with edges
350
41
  3
Shades of Gray
350
3E
  3
Sketchy
350
3F
  3
Thicken
350
37
  3
Wireframe
350
30
  3
X-Ray
350
40
  0
XRECORD
  5
255
102
{ACAD_REACTORS
330
C
102
}
330
C
100
AcDbXrecord
280
     1
 90
        1
330
6A
  0
DICTIONARY
  5
251
102
{ACAD_REACTORS
330
C
102
}
330
C
100
AcDbDictionary
281
     1
  3
CANNOSCALE
350
252
  3
CMLEADERSTYLE
350
257
  3
CTABLESTYLE
350
256
  0
LAYOUT
  5
1E
102
{ACAD_REACTORS
330
1A
102
}
330
1A
100
AcDbPlotSettings
  1

  2
none_device
  4

  6

 40
0.0
 41
0.0
 42
0.0
 43
0.0
 44
0.0
 45
0.0
 46
0.0
 47
0.0
 48
0.0
 49
0.0
140
0.0
141
0.0
142
1.0
143
1.0
 70
   688
 72
     0
 73
     0
 74
     5
  7

 75
    16
 76
     0
 77
     2
 78
   300
147
1.0
148
0.0
149
0.0
100
AcDbLayout
  1
Layout1
 70
     1
 71
     1
 10
0.0
 20
0.0
 11
12.0
 21
9.0
 12
0.0
 22
0.0
 32
0.0
 14
1.000000000000000E+20
 24
1.000000000000000E+20
 34
1.000000000000000E+20
 15
-1.000000000000000E+20
 25
-1.000000000000000E+20
 35
-1.000000000000000E+20
146
0.0
 13
0.0
 23
0.0
 33
0.0
 16
1.0
 26
0.0
 36
0.0
 17
0.0
 27
1.0
 37
0.0
 76
     0
330
1B
  0
LAYOUT
  5
26
102
{ACAD_REACTORS
330
1A
102
}
330
1A
100
AcDbPlotSettings
  1

  2
none_device
  4

  6

 40
0.0
 41
0.0
 42
0.0
 43
0.0
 44
0.0
 45
0.0
 46
0.0
 47
0.0
 48
0.0
 49
0.0
140
0.0
141
0.0
142
1.0
143
1.0
 70
   688
 72
     0
 73
     0
 74
     5
  7

 75
    16
 76
     0
 77
     2
 78
   300
147
1.0
148
0.0
149
0.0
100
AcDbLayout
  1
Layout2
 70
     1
 71
     2
 10
0.0
 20
0.0
 11
0.0
 21
0.0
 12
0.0
 22
0.0
 32
0.0
 14
0.0
 24
0.0
 34
0.0
 15
0.0
 25
0.0
 35
0.0
146
0.0
 13
0.0
 23
0.0
 33
0.0
 16
1.0
 26
0.0
 36
0.0
 17
0.0
 27
1.0
 37
0.0
 76
     0
330
23
  0
LAYOUT
  5
22
102
{ACAD_REACTORS
330
1A
102
}
330
1A
100
AcDbPlotSettings
  1

  2
none_device
  4
Letter_(8.50_x_11.00_Inches)
  6

 40
6.35
 41
6.35
 42
6.35000508
 43
6.35000508
 44
215.9
 45
279.4
 46
0.0
 47
0.0
 48
0.0
 49
0.0
140
0.0
141
0.0
142
1.0
143
1.0
 70
  1712
 72
     0
 73
     0
 74
     0
  7

 75
     0
 76
     0
 77
     2
 78
   300
147
1.0
148
0.0
149
0.0
100
AcDbLayout
  1
Model
 70
     1
 71
     0
 10
0.0
 20
0.0
 11
12.0
 21
9.0
 12
0.0
 22
0.0
 32
0.0
 14
1.000000000000000E+20
 24
1.000000000000000E+20
 34
1.000000000000000E+20
 15
-1.000000000000000E+20
 25
-1.000000000000000E+20
 35
-1.000000000000000E+20
146
0.0
 13
0.0
 23
0.0
 33
0.0
 16
1.0
 26
0.0
 36
0.0
 17
0.0
 27
1.0
 37
0.0
 76
     0
330
1F
331
29
  0
MATERIAL
  5
45
102
{ACAD_REACTORS
330
43
102
}
330
43
100
AcDbMaterial
  1
ByBlock
 72
     1
 94
      127
  0
MATERIAL
  5
44
102
{ACAD_REACTORS
330
43
102
}
330
43
100
AcDbMaterial
  1
ByLayer
 72
     1
 94
      127
  0
MATERIAL
  5
46
102
{ACAD_REACTORS
330
43
102
}
330
43
100
AcDbMaterial
  1
Global
 72
     1
 94
      127
  0
MLEADERSTYLE
  5
6C
102
{ACAD_REACTORS
330
6B
102
}
330
6B
100
AcDbMLeaderStyle
179
     2
170
     2
171
     1
172
     0
 90
        2
 40
0.0
 41
0.0
173
     1
 91
-1056964608
340
14
 92
       -2
290
     1
 42
0.09
291
     1
 43
0.36
  3
Standard
341
0
 44
0.18
300

342
11
174
     1
178
     6
175
     1
176
     0
 93
-1056964608
 45
0.18
292
     0
297
     0
 46
0.18
343
0
 94
-1056964608
 47
1.0
 49
1.0
140
1.0
293
     1
141
0.0
294
     1
177
     0
142
1.0
295
     0
296
     0
143
0.125
271
     0
272
     9
273
     9
298
     0
  0
MLINESTYLE
  5
18
102
{ACAD_REACTORS
330
17
102
}
330
17
100
AcDbMlineStyle
  2
Standard
 70
     0
  3

 62
   256
 51
90.0
 52
90.0
 71
     2
 49
0.5
 62
   256
  6
BYLAYER
 49
-0.5
 62
   256
  6
BYLAYER
  0
ACDBPLACEHOLDER
  5
F
102
{ACAD_REACTORS
330
E
102
}
330
E
  0
SCALE
  5
48
102
{ACAD_REACTORS
330
47
102
}
330
47
100
AcDbScale
 70
     0
300
1:1
140
1.0
141
1.0
290
     1
  0
SCALE
  5
49
102
{ACAD_REACTORS
330
47
102
}
330
47
100
AcDbScale
 70
     0
300
1:2
140
1.0
141
2.0
290
     0
  0
SCALE
  5
4A
102
{ACAD_REACTORS
330
47
102
}
330
47
100
AcDbScale
 70
     0
300
1:4
140
1.0
141
4.0
290
     0
  0
SCALE
  5
4B
102
{ACAD_REACTORS
330
47
102
}
330
47
100
AcDbScale
 70
     0
300
1:5
140
1.0
141
5.0
290
     0
  0
SCALE
  5
4C
102
{ACAD_REACTORS
330
47
102
}
330
47
100
AcDbScale
 70
     0
300
1:8
140
1.0
141
8.0
290
     0
  0
SCALE
  5
4D
102
{ACAD_REACTORS
330
47
102
}
330
47
100
AcDbScale
 70
     0
300
1:10
140
1.0
141
10.0
290
     0
  0
SCALE
  5
4E
102
{ACAD_REACTORS
330
47
102
}
330
47
100
AcDbScale
 70
     0
300
1:16
140
1.0
141
16.0
290
     0
  0
SCALE
  5
4F
102
{ACAD_REACTORS
330
47
102
}
330
47
100
AcDbScale
 70
     0
300
1:20
140
1.0
141
20.0
290
     0
  0
SCALE
  5
50
102
{ACAD_REACTORS
330
47
102
}
330
47
100
AcDbScale
 70
     0
300
1:30
140
1.0
141
30.0
290
     0
  0
SCALE
  5
51
102
{ACAD_REACTORS
330
47
102
}
330
47
100
AcDbScale
 70
     0
300
1:40
140
1.0
141
40.0
290
     0
  0
SCALE
  5
52
102
{ACAD_REACTORS
330
47
102
}
330
47
100
AcDbScale
 70
     0
300
1:50
140
1.0
141
50.0
290
     0
  0
SCALE
  5
53
102
{ACAD_REACTORS
330
47
102
}
330
47
100
AcDbScale
 70
     0
300
1:100
140
1.0
141
100.0
290
     0
  0
SCALE
  5
54
102
{ACAD_REACTORS
330
47
102
}
330
47
100
AcDbScale
 70
     0
300
2:1
140
2.0
141
1.0
290
     0
  0
SCALE
  5
55
102
{ACAD_REACTORS
330
47
102
}
330
47
100
AcDbScale
 70
     0
300
4:1
140
4.0
141
1.0
290
     0
  0
SCALE
  5
56
102
{ACAD_REACTORS
330
47
102
}
330
47
100
AcDbScale
 70
     0
300
8:1
140
8.0
141
1.0
290
     0
  0
SCALE
  5
57
102
{ACAD_REACTORS
330
47
102
}
330
47
100
AcDbScale
 70
     0
300
10:1
140
10.0
141
1.0
290
     0
  0
SCALE
  5
58
102
{ACAD_REACTORS
330
47
102
}
330
47
100
AcDbScale
 70
     0
300
100:1
140
100.0
141
1.0
290
     0
  0
SCALE
  5
59
102
{ACAD_REACTORS
330
47
102
}
330
47
100
AcDbScale
 70
     0
300
1/128" = 1'-0"
140
0.0078125
141
12.0
290
     0
  0
SCALE
  5
5A
102
{ACAD_REACTORS
330
47
102
}
330
47
100
AcDbScale
 70
     0
300
1/64" = 1'-0"
140
0.015625
141
12.0
290
     0
  0
SCALE
  5
5B
102
{ACAD_REACTORS
330
47
102
}
330
47
100
AcDbScale
 70
     0
300
1/32" = 1'-0"
140
0.03125
141
12.0
290
     0
  0
SCALE
  5
5C
102
{ACAD_REACTORS
330
47
102
}
330
47
100
AcDbScale
 70
     0
300
1/16" = 1'-0"
140
0.0625
141
12.0
290
     0
  0
SCALE
  5
5D
102
{ACAD_REACTORS
330
47
102
}
330
47
100
AcDbScale
 70
     0
300
3/32" = 1'-0"
140
0.09375
141
12.0
290
     0
  0
SCALE
  5
5E
102
{ACAD_REACTORS
330
47
102
}
330
47
100
AcDbScale
 70
     0
300
1/8" = 1'-0"
140
0.125
141
12.0
290
     0
  0
SCALE
  5
5F
102
{ACAD_REACTORS
330
47
102
}
330
47
100
AcDbScale
 70
     0
300
3/16" = 1'-0"
140
0.1875
141
12.0
290
     0
  0
SCALE
  5
60
102
{ACAD_REACTORS
330
47
102
}
330
47
100
AcDbScale
 70
     0
300
1/4" = 1'-0"
140
0.25
141
12.0
290
     0
  0
SCALE
  5
61
102
{ACAD_REACTORS
330
47
102
}
330
47
100
AcDbScale
 70
     0
300
3/8" = 1'-0"
140
0.375
141
12.0
290
     0
  0
SCALE
  5
62
102
{ACAD_REACTORS
330
47
102
}
330
47
100
AcDbScale
 70
     0
300
1/2" = 1'-0"
140
0.5
141
12.0
290
     0
  0
SCALE
  5
63
102
{ACAD_REACTORS
330
47
102
}
330
47
100
AcDbScale
 70
     0
300
3/4" = 1'-0"
140
0.75
141
12.0
290
     0
  0
SCALE
  5
64
102
{ACAD_REACTORS
330
47
102
}
330
47
100
AcDbScale
 70
     0
300
1" = 1'-0"
140
1.0
141
12.0
290
     0
  0
SCALE
  5
65
102
{ACAD_REACTORS
330
47
102
}
330
47
100
AcDbScale
 70
     0
300
1-1/2" = 1'-0"
140
1.5
141
12.0
290
     0
  0
SCALE
  5
66
102
{ACAD_REACTORS
330
47
102
}
330
47
100
AcDbScale
 70
     0
300
3" = 1'-0"
140
3.0
141
12.0
290
     0
  0
SCALE
  5
67
102
{ACAD_REACTORS
330
47
102
}
330
47
100
AcDbScale
 70
     0
300
6" = 1'-0"
140
6.0
141
12.0
290
     0
  0
SCALE
  5
68
102
{ACAD_REACTORS
330
47
102
}
330
47
100
AcDbScale
 70
     0
300
1'-0" = 1'-0"
140
12.0
141
12.0
290
     0
  0
TABLESTYLE
  5
6A
102
{ACAD_REACTORS
330
69
102
}
102
{ACAD_XDICTIONARY
360
253
102
}
330
69
100
AcDbTableStyle
  3
Standard
 70
     0
 71
     0
 40
0.06
 41
0.06
280
     0
281
     0
  7
Standard
140
0.18
170
     2
 62
     0
 63
   257
283
     0
 90
        4
 91
        0
  1

274
    -2
284
     1
 64
     0
275
    -2
285
     1
 65
     0
276
    -2
286
     1
 66
     0
277
    -2
287
     1
 67
     0
278
    -2
288
     1
 68
     0
279
    -2
289
     1
 69
     0
  7
Standard
140
0.25
170
     5
 62
     0
 63
   257
283
     0
 90
        4
 91
        0
  1

274
    -2
284
     1
 64
     0
275
    -2
285
     1
 65
     0
276
    -2
286
     1
 66
     0
277
    -2
287
     1
 67
     0
278
    -2
288
     1
 68
     0
279
    -2
289
     1
 69
     0
  7
Standard
140
0.18
170
     5
 62
     0
 63
   257
283
     0
 90
        4
 91
        0
  1

274
    -2
284
     1
 64
     0
275
    -2
285
     1
 65
     0
276
    -2
286
     1
 66
     0
277
    -2
287
     1
 67
     0
278
    -2
288
     1
 68
     0
279
    -2
289
     1
 69
     0
  0
VISUALSTYLE
  5
2F
102
{ACAD_REACTORS
330
2A
102
}
330
2A
100
AcDbVisualStyle
  2
2dWireframe
 70
     4
177
     3
291
     0
 70
    58
 90
        0
176
     1
 90
        2
176
     1
 90
        0
176
     1
 90
        0
176
     1
 40
0.6
176
     1
 40
30.0
176
     1
 62
     7
420
 16777215
176
     1
 90
        1
176
     1
 90
        4
176
     1
 62
     7
176
     1
 62
   257
176
     1
 90
        1
176
     1
 90
        1
176
     1
 40
1.0
176
     1
 90
        0
176
     1
 62
   257
176
     1
 40
1.0
176
     1
 90
        1
176
     1
 90
        6
176
     1
 90
        2
176
     1
 62
     7
176
     1
 90
        5
176
     1
 90
        0
176
     1
 90
        0
176
     1
290
     0
176
     1
 90
        1
176
     1
 40
0.0
176
     1
 90
        0
176
     1
290
     1
176
     1
290
     1
176
     1
290
     0
176
     1
290
     0
176
     1
290
     0
176
     1
290
     0
176
     1
290
     0
176
     1
290
     0
176
     1
290
     0
176
     1
 90
       50
176
     1
 40
0.0
176
     1
 40
1.0
176
     1
 90
        0
176
     1
 62
    18
420
        0
176
     1
 90
       50
176
     1
 90
        3
176
     1
 62
     5
420
      255
176
     1
290
     0
176
     1
 90
       50
176
     1
 90
       50
176
     1
 90
       50
176
     1
290
     0
176
     1
 90
       50
176
     1
 62
   256
176
     0
 40
1.0
176
     0
 90
        2
176
     1
  1
strokes_ogs.tif
176
     1
290
     0
176
     1
 40
1.0
176
     1
 40
1.0
176
     1
  0
VISUALSTYLE
  5
32
102
{ACAD_REACTORS
330
2A
102
}
330
2A
100
AcDbVisualStyle
  2
Basic
 70
     7
177
     3
291
     1
 70
    58
 90
        1
176
     1
 90
        0
176
     1
 90
        1
176
     1
 90
        0
176
     1
 40
0.6
176
     1
 40
30.0
176
     1
 62
     7
420
 16777215
176
     1
 90
        0
176
     1
 90
        4
176
     1
 62
     7
176
     1
 62
   257
176
     1
 90
        1
176
     1
 90
        1
176
     1
 40
1.0
176
     1
 90
        8
176
     1
 62
     7
176
     1
 40
1.0
176
     1
 90
        1
176
     1
 90
        6
176
     1
 90
        2
176
     1
 62
     7
176
     1
 90
        5
176
     1
 90
        0
176
     1
 90
        0
176
     1
290
     0
176
     1
 90
        1
176
     1
 40
0.0
176
     1
 90
        0
176
     1
290
     0
176
     1
290
     1
176
     1
290
     1
176
     1
290
     0
176
     1
290
     0
176
     1
290
     0
176
     1
290
     0
176
     1
290
     0
176
     1
290
     0
176
     1
 90
       50
176
     1
 40
0.0
176
     1
 40
1.0
176
     1
 90
        0
176
     1
 62
    18
420
        0
176
     1
 90
       50
176
     1
 90
        3
176
     1
 62
     5
420
      255
176
     1
290
     0
176
     1
 90
       50
176
     1
 90
       50
176
     1
 90
       50
176
     1
290
     0
176
     1
 90
       50
176
     1
 62
   256
176
     0
 40
1.0
176
     0
 90
        2
176
     1
  1
strokes_ogs.tif
176
     1
290
     0
176
     1
 40
1.0
176
     1
 40
1.0
176
     1
  0
VISUALSTYLE
  5
36
102
{ACAD_REACTORS
330
2A
102
}
330
2A
100
AcDbVisualStyle
  2
Brighten
 70
    12
177
     3
291
     1
 70
    58
 90
        2
176
     1
 90
        2
176
     1
 90
        0
176
     1
 90
        0
176
     1
 40
0.6
176
     1
 40
30.0
176
     1
 62
     7
420
 16777215
176
     1
 90
        1
176
     1
 90
        4
176
     1
 62
     7
176
     1
 62
   257
176
     1
 90
        1
176
     1
 90
        1
176
     1
 40
1.0
176
     1
 90
        8
176
     1
 62
     7
176
     1
 40
1.0
176
     1
 90
        1
176
     1
 90
        6
176
     1
 90
        2
176
     1
 62
     7
176
     1
 90
        5
176
     1
 90
        0
176
     1
 90
        0
176
     1
290
     0
176
     1
 90
        1
176
     1
 40
50.0
176
     1
 90
        0
176
     1
290
     0
176
     1
290
     1
176
     1
290
     1
176
     1
290
     0
176
     1
290
     0
176
     1
290
     0
176
     1
290
     0
176
     1
290
     0
176
     1
290
     0
176
     1
 90
       50
176
     1
 40
0.0
176
     1
 40
1.0
176
     1
 90
        0
176
     1
 62
    18
420
        0
176
     1
 90
       50
176
     1
 90
        3
176
     1
 62
     5
420
      255
176
     1
290
     0
176
     1
 90
       50
176
     1
 90
       50
176
     1
 90
       50
176
     1
290
     0
176
     1
 90
       50
176
     1
 62
   256
176
     0
 40
1.0
176
     0
 90
        2
176
     1
  1
strokes_ogs.tif
176
     1
290
     0
176
     1
 40
1.0
176
     1
 40
1.0
176
     1
  0
VISUALSTYLE
  5
3A
102
{ACAD_REACTORS
330
2A
102
}
330
2A
100
AcDbVisualStyle
  2
ColorChange
 70
    16
177
     3
291
     1
 70
    58
 90
        2
176
     1
 90
        2
176
     1
 90
        3
176
     1
 90
        0
176
     1
 40
0.6
176
     1
 40
30.0
176
     1
 62
     8
420
  8421504
176
     1
 90
        1
176
     1
 90
        4
176
     1
 62
     7
176
     1
 62
   257
176
     1
 90
        1
176
     1
 90
        1
176
     1
 40
1.0
176
     1
 90
        8
176
     1
 62
     8
420
  8421504
176
     1
 40
1.0
176
     1
 90
        1
176
     1
 90
        6
176
     1
 90
        2
176
     1
 62
     7
176
     1
 90
        5
176
     1
 90
        0
176
     1
 90
        0
176
     1
290
     0
176
     1
 90
        1
176
     1
 40
0.0
176
     1
 90
        0
176
     1
290
     0
176
     1
290
     1
176
     1
290
     1
176
     1
290
     0
176
     1
290
     0
176
     1
290
     0
176
     1
290
     0
176
     1
290
     0
176
     1
290
     0
176
     1
 90
       50
176
     1
 40
0.0
176
     1
 40
1.0
176
     1
 90
        0
176
     1
 62
    18
420
        0
176
     1
 90
       50
176
     1
 90
        3
176
     1
 62
     5
420
      255
176
     1
290
     0
176
     1
 90
       50
176
     1
 90
       50
176
     1
 90
       50
176
     1
290
     0
176
     1
 90
       50
176
     1
 62
   256
176
     0
 40
1.0
176
     0
 90
        2
176
     1
  1
strokes_ogs.tif
176
     1
290
     0
176
     1
 40
1.0
176
     1
 40
1.0
176
     1
  0
VISUALSTYLE
  5
34
102
{ACAD_REACTORS
330
2A
102
}
330
2A
100
AcDbVisualStyle
  2
Conceptual
 70
     9
177
     3
291
     0
 70
    58
 90
        3
176
     1
 90
        2
176
     1
 90
        0
176
     1
 90
        0
176
     1
 40
0.6
176
     1
 40
30.0
176
     1
 62
     7
420
 16777215
176
     1
 90
        2
176
     1
 90
        2
176
     1
 62
     7
176
     1
 62
   257
176
     1
 90
        1
176
     1
 90
        1
176
     1
 40
179.0
176
     1
 90
        8
176
     1
 62
     7
176
     1
 40
1.0
176
     1
 90
        1
176
     1
 90
        6
176
     1
 90
        2
176
     1
 62
     7
176
     1
 90
        3
176
     1
 90
        0
176
     1
 90
        0
176
     1
290
     0
176
     1
 90
        1
176
     1
 40
0.0
176
     1
 90
        0
176
     1
290
     0
176
     1
290
     1
176
     1
290
     1
176
     1
290
     0
176
     1
290
     0
176
     1
290
     0
176
     1
290
     0
176
     1
290
     0
176
     1
290
     0
176
     1
 90
       50
176
     1
 40
0.0
176
     1
 40
1.0
176
     1
 90
        0
176
     1
 62
    18
420
        0
176
     1
 90
       50
176
     1
 90
        3
176
     1
 62
     5
420
      255
176
     1
290
     0
176
     1
 90
       50
176
     1
 90
       50
176
     1
 90
       50
176
     1
290
     0
176
     1
 90
       50
176
     1
 62
   256
176
     0
 40
1.0
176
     0
 90
        2
176
     1
  1
strokes_ogs.tif
176
     1
290
     0
176
     1
 40
1.0
176
     1
 40
1.0
176
     1
  0
VISUALSTYLE
  5
35
102
{ACAD_REACTORS
330
2A
102
}
330
2A
100
AcDbVisualStyle
  2
Dim
 70
    11
177
     3
291
     1
 70
    58
 90
        2
176
     1
 90
        2
176
     1
 90
        0
176
     1
 90
        0
176
     1
 40
0.6
176
     1
 40
30.0
176
     1
 62
     7
420
 16777215
176
     1
 90
        1
176
     1
 90
        4
176
     1
 62
     7
176
     1
 62
   257
176
     1
 90
        1
176
     1
 90
        1
176
     1
 40
1.0
176
     1
 90
        8
176
     1
 62
     7
176
     1
 40
1.0
176
     1
 90
        1
176
     1
 90
        6
176
     1
 90
        2
176
     1
 62
     7
176
     1
 90
        5
176
     1
 90
        0
176
     1
 90
        0
176
     1
290
     0
176
     1
 90
        1
176
     1
 40
-50.0
176
     1
 90
        0
176
     1
290
     0
176
     1
290
     1
176
     1
290
     1
176
     1
290
     0
176
     1
290
     0
176
     1
290
     0
176
     1
290
     0
176
     1
290
     0
176
     1
290
     0
176
     1
 90
       50
176
     1
 40
0.0
176
     1
 40
1.0
176
     1
 90
        0
176
     1
 62
    18
420
        0
176
     1
 90
       50
176
     1
 90
        3
176
     1
 62
     5
420
      255
176
     1
290
     0
176
     1
 90
       50
176
     1
 90
       50
176
     1
 90
       50
176
     1
290
     0
176
     1
 90
       50
176
     1
 62
   256
176
     0
 40
1.0
176
     0
 90
        2
176
     1
  1
strokes_ogs.tif
176
     1
290
     0
176
     1
 40
1.0
176
     1
 40
1.0
176
     1
  0
VISUALSTYLE
  5
3D
102
{ACAD_REACTORS
330
2A
102
}
330
2A
100
AcDbVisualStyle
  2
EdgeColorOff
 70
    22
177
     3
291
     1
 70
    58
 90
        2
176
     0
 90
        2
176
     0
 90
        0
176
     0
 90
        0
176
     0
 40
0.6
176
     0
 40
30.0
176
     0
 62
     7
420
 16777215
176
     0
 90
        1
176
     0
 90
        4
176
     0
 62
     7
176
     0
 62
   257
176
     0
 90
        1
176
     0
 90
        1
176
     0
 40
1.0
176
     0
 90
        8
176
     2
 62
     7
176
     0
 40
1.0
176
     0
 90
        1
176
     0
 90
        6
176
     0
 90
        2
176
     0
 62
     7
176
     0
 90
        5
176
     0
 90
        0
176
     0
 90
        0
176
     0
290
     0
176
     0
 90
        1
176
     0
 40
0.0
176
     0
 90
        0
176
     0
290
     0
176
     0
290
     1
176
     0
290
     1
176
     0
290
     0
176
     0
290
     0
176
     0
290
     0
176
     0
290
     0
176
     0
290
     0
176
     0
290
     0
176
     0
 90
       50
176
     0
 40
0.0
176
     0
 40
1.0
176
     0
 90
        0
176
     0
 62
    18
420
        0
176
     0
 90
       50
176
     0
 90
        3
176
     0
 62
     5
420
      255
176
     0
290
     0
176
     0
 90
       50
176
     0
 90
       50
176
     0
 90
       50
176
     0
290
     0
176
     0
 90
       50
176
     0
 62
   256
176
     0
 40
1.0
176
     0
 90
        2
176
     0
  1
strokes_ogs.tif
176
     0
290
     0
176
     0
 40
1.0
176
     0
 40
1.0
176
     0
  0
VISUALSTYLE
  5
39
102
{ACAD_REACTORS
330
2A
102
}
330
2A
100
AcDbVisualStyle
  2
Facepattern
 70
    15
177
     3
291
     1
 70
    58
 90
        2
176
     1
 90
        2
176
     1
 90
        0
176
     1
 90
        0
176
     1
 40
0.6
176
     1
 40
30.0
176
     1
 62
     7
420
 16777215
176
     1
 90
        1
176
     1
 90
        4
176
     1
 62
     7
176
     1
 62
   257
176
     1
 90
        1
176
     1
 90
        1
176
     1
 40
1.0
176
     1
 90
        8
176
     1
 62
     7
176
     1
 40
1.0
176
     1
 90
        1
176
     1
 90
        6
176
     1
 90
        2
176
     1
 62
     7
176
     1
 90
        5
176
     1
 90
        0
176
     1
 90
        0
176
     1
290
     0
176
     1
 90
        1
176
     1
 40
0.0
176
     1
 90
        0
176
     1
290
     0
176
     1
290
     1
176
     1
290
     1
176
     1
290
     0
176
     1
290
     0
176
     1
290
     0
176
     1
290
     0
176
     1
290
     0
176
     1
290
     0
176
     1
 90
       50
176
     1
 40
0.0
176
     1
 40
1.0
176
     1
 90
        0
176
     1
 62
    18
420
        0
176
     1
 90
       50
176
     1
 90
        3
176
     1
 62
     5
420
      255
176
     1
290
     0
176
     1
 90
       50
176
     1
 90
       50
176
     1
 90
       50
176
     1
290
     0
176
     1
 90
       50
176
     1
 62
   256
176
     0
 40
1.0
176
     0
 90
        2
176
     1
  1
strokes_ogs.tif
176
     1
290
     0
176
     1
 40
1.0
176
     1
 40
1.0
176
     1
  0
VISUALSTYLE
  5
2B
102
{ACAD_REACTORS
330
2A
102
}
330
2A
100
AcDbVisualStyle
  2
Flat
 70
     0
177
     3
291
     1
 70
    58
 90
        2
176
     1
 90
        1
176
     1
 90
        1
176
     1
 90
        2
176
     1
 40
0.6
176
     1
 40
30.0
176
     1
 62
     7
420
 16777215
176
     1
 90
        0
176
     1
 90
        0
176
     1
 62
     7
176
     1
 62
   257
176
     1
 90
        1
176
     1
 90
        1
176
     1
 40
1.0
176
     1
 90
        8
176
     1
 62
     7
176
     1
 40
1.0
176
     1
 90
        1
176
     1
 90
        6
176
     1
 90
        2
176
     1
 62
     7
176
     1
 90
        5
176
     1
 90
        0
176
     1
 90
        0
176
     1
290
     0
176
     1
 90
       13
176
     1
 40
0.0
176
     1
 90
        0
176
     1
290
     0
176
     1
290
     1
176
     1
290
     1
176
     1
290
     0
176
     1
290
     0
176
     1
290
     0
176
     1
290
     0
176
     1
290
     0
176
     1
290
     0
176
     1
 90
       50
176
     1
 40
0.0
176
     1
 40
1.0
176
     1
 90
        0
176
     1
 62
    18
420
        0
176
     1
 90
       50
176
     1
 90
        3
176
     1
 62
     5
420
      255
176
     1
290
     0
176
     1
 90
       50
176
     1
 90
       50
176
     1
 90
       50
176
     1
290
     0
176
     1
 90
       50
176
     1
 62
   256
176
     0
 40
1.0
176
     0
 90
        2
176
     1
  1
strokes_ogs.tif
176
     1
290
     0
176
     1
 40
1.0
176
     1
 40
1.0
176
     1
  0
VISUALSTYLE
  5
2C
102
{ACAD_REACTORS
330
2A
102
}
330
2A
100
AcDbVisualStyle
  2
FlatWithEdges
 70
     1
177
     3
291
     1
 70
    58
 90
        2
176
     1
 90
        1
176
     1
 90
        1
176
     1
 90
        2
176
     1
 40
0.6
176
     1
 40
30.0
176
     1
 62
     7
420
 16777215
176
     1
 90
        1
176
     1
 90
        0
176
     1
 62
     7
176
     1
 62
   257
176
     1
 90
        1
176
     1
 90
        1
176
     1
 40
1.0
176
     1
 90
        0
176
     1
 62
   257
176
     1
 40
1.0
176
     1
 90
        1
176
     1
 90
        6
176
     1
 90
        2
176
     1
 62
     7
176
     1
 90
        5
176
     1
 90
        0
176
     1
 90
        0
176
     1
290
     0
176
     1
 90
       13
176
     1
 40
0.0
176
     1
 90
        0
176
     1
290
     0
176
     1
290
     1
176
     1
290
     1
176
     1
290
     0
176
     1
290
     0
176
     1
290
     0
176
     1
290
     0
176
     1
290
     0
176
     1
290
     0
176
     1
 90
       50
176
     1
 40
0.0
176
     1
 40
1.0
176
     1
 90
        0
176
     1
 62
    18
420
        0
176
     1
 90
       50
176
     1
 90
        3
176
     1
 62
     5
420
      255
176
     1
290
     0
176
     1
 90
       50
176
     1
 90
       50
176
     1
 90
       50
176
     1
290
     0
176
     1
 90
       50
176
     1
 62
   256
176
     0
 40
1.0
176
     0
 90
        2
176
     1
  1
strokes_ogs.tif
176
     1
290
     0
176
     1
 40
1.0
176
     1
 40
1.0
176
     1
  0
VISUALSTYLE
  5
2D
102
{ACAD_REACTORS
330
2A
102
}
330
2A
100
AcDbVisualStyle
  2
Gouraud
 70
     2
177
     3
291
     1
 70
    58
 90
        2
176
     1
 90
        2
176
     1
 90
        1
176
     1
 90
        2
176
     1
 40
0.6
176
     1
 40
30.0
176
     1
 62
     7
420
 16777215
176
     1
 90
        0
176
     1
 90
        0
176
     1
 62
     7
176
     1
 62
   257
176
     1
 90
        1
176
     1
 90
        1
176
     1
 40
1.0
176
     1
 90
        0
176
     1
 62
     7
176
     1
 40
1.0
176
     1
 90
        1
176
     1
 90
        6
176
     1
 90
        2
176
     1
 62
     7
176
     1
 90
        5
176
     1
 90
        0
176
     1
 90
        0
176
     1
290
     0
176
     1
 90
       13
176
     1
 40
0.0
176
     1
 90
        0
176
     1
290
     0
176
     1
290
     1
176
     1
290
     1
176
     1
290
     0
176
     1
290
     0
176
     1
290
     0
176
     1
290
     0
176
     1
290
     0
176
     1
290
     0
176
     1
 90
       50
176
     1
 40
0.0
176
     1
 40
1.0
176
     1
 90
        0
176
     1
 62
    18
420
        0
176
     1
 90
       50
176
     1
 90
        3
176
     1
 62
     5
420
      255
176
     1
290
     0
176
     1
 90
       50
176
     1
 90
       50
176
     1
 90
       50
176
     1
290
     0
176
     1
 90
       50
176
     1
 62
   256
176
     0
 40
1.0
176
     0
 90
        2
176
     1
  1
strokes_ogs.tif
176
     1
290
     0
176
     1
 40
1.0
176
     1
 40
1.0
176
     1
  0
VISUALSTYLE
  5
2E
102
{ACAD_REACTORS
330
2A
102
}
330
2A
100
AcDbVisualStyle
  2
GouraudWithEdges
 70
     3
177
     3
291
     1
 70
    58
 90
        2
176
     1
 90
        2
176
     1
 90
        1
176
     1
 90
        2
176
     1
 40
0.6
176
     1
 40
30.0
176
     1
 62
     7
420
 16777215
176
     1
 90
        1
176
     1
 90
        0
176
     1
 62
     7
176
     1
 62
   257
176
     1
 90
        1
176
     1
 90
        1
176
     1
 40
1.0
176
     1
 90
        0
176
     1
 62
   257
176
     1
 40
1.0
176
     1
 90
        1
176
     1
 90
        6
176
     1
 90
        2
176
     1
 62
     7
176
     1
 90
        5
176
     1
 90
        0
176
     1
 90
        0
176
     1
290
     0
176
     1
 90
       13
176
     1
 40
0.0
176
     1
 90
        0
176
     1
290
     0
176
     1
290
     1
176
     1
290
     1
176
     1
290
     0
176
     1
290
     0
176
     1
290
     0
176
     1
290
     0
176
     1
290
     0
176
     1
290
     0
176
     1
 90
       50
176
     1
 40
0.0
176
     1
 40
1.0
176
     1
 90
        0
176
     1
 62
    18
420
        0
176
     1
 90
       50
176
     1
 90
        3
176
     1
 62
     5
420
      255
176
     1
290
     0
176
     1
 90
       50
176
     1
 90
       50
176
     1
 90
       50
176
     1
290
     0
176
     1
 90
       50
176
     1
 62
   256
176
     0
 40
1.0
176
     0
 90
        2
176
     1
  1
strokes_ogs.tif
176
     1
290
     0
176
     1
 40
1.0
176
     1
 40
1.0
176
     1
  0
VISUALSTYLE
  5
31
102
{ACAD_REACTORS
330
2A
102
}
330
2A
100
AcDbVisualStyle
  2
Hidden
 70
     6
177
     3
291
     0
 70
    58
 90
        1
176
     1
 90
        2
176
     1
 90
        2
176
     1
 90
        0
176
     1
 40
0.6
176
     1
 40
30.0
176
     1
 62
     7
420
 16777215
176
     1
 90
        2
176
     1
 90
        2
176
     1
 62
     7
176
     1
 62
   257
176
     1
 90
        2
176
     1
 90
        1
176
     1
 40
40.0
176
     1
 90
        0
176
     1
 62
   257
176
     1
 40
1.0
176
     1
 90
        1
176
     1
 90
        6
176
     1
 90
        2
176
     1
 62
     7
176
     1
 90
        3
176
     1
 90
        0
176
     1
 90
        0
176
     1
290
     0
176
     1
 90
        1
176
     1
 40
0.0
176
     1
 90
        0
176
     1
290
     0
176
     1
290
     1
176
     1
290
     1
176
     1
290
     0
176
     1
290
     0
176
     1
290
     0
176
     1
290
     0
176
     1
290
     0
176
     1
290
     0
176
     1
 90
       50
176
     1
 40
0.0
176
     1
 40
1.0
176
     1
 90
        0
176
     1
 62
    18
420
        0
176
     1
 90
       50
176
     1
 90
        3
176
     1
 62
     5
420
      255
176
     1
290
     0
176
     1
 90
       50
176
     1
 90
       50
176
     1
 90
       50
176
     1
290
     0
176
     1
 90
       50
176
     1
 62
   256
176
     0
 40
1.0
176
     0
 90
        2
176
     1
  1
strokes_ogs.tif
176
     1
290
     0
176
     1
 40
1.0
176
     1
 40
1.0
176
     1
  0
VISUALSTYLE
  5
3B
102
{ACAD_REACTORS
330
2A
102
}
330
2A
100
AcDbVisualStyle
  2
JitterOff
 70
    20
177
     3
291
     1
 70
    58
 90
        2
176
     0
 90
        2
176
     0
 90
        0
176
     0
 90
        0
176
     0
 40
0.6
176
     0
 40
30.0
176
     0
 62
     7
420
 16777215
176
     0
 90
        1
176
     0
 90
        4
176
     0
 62
     7
176
     0
 62
   257
176
     0
 90
        1
176
     0
 90
        1
176
     0
 40
1.0
176
     0
 90
       10
176
     2
 62
     7
176
     0
 40
1.0
176
     0
 90
        1
176
     0
 90
        6
176
     0
 90
        2
176
     0
 62
     7
176
     0
 90
        5
176
     0
 90
        0
176
     0
 90
        0
176
     0
290
     0
176
     0
 90
        1
176
     0
 40
0.0
176
     0
 90
        0
176
     0
290
     0
176
     0
290
     1
176
     0
290
     1
176
     0
290
     0
176
     0
290
     0
176
     0
290
     0
176
     0
290
     0
176
     0
290
     0
176
     0
290
     0
176
     0
 90
       50
176
     0
 40
0.0
176
     0
 40
1.0
176
     0
 90
        0
176
     0
 62
    18
420
        0
176
     0
 90
       50
176
     0
 90
        3
176
     0
 62
     5
420
      255
176
     0
290
     0
176
     0
 90
       50
176
     0
 90
       50
176
     0
 90
       50
176
     0
290
     0
176
     0
 90
       50
176
     0
 62
   256
176
     0
 40
1.0
176
     0
 90
        2
176
     0
  1
strokes_ogs.tif
176
     0
290
     0
176
     0
 40
1.0
176
     0
 40
1.0
176
     0
  0
VISUALSTYLE
  5
38
102
{ACAD_REACTORS
330
2A
102
}
330
2A
100
AcDbVisualStyle
  2
Linepattern
 70
    14
177
     3
291
     1
 70
    58
 90
        2
176
     1
 90
        2
176
     1
 90
        0
176
     1
 90
        0
176
     1
 40
0.6
176
     1
 40
30.0
176
     1
 62
     7
420
 16777215
176
     1
 90
        1
176
     1
 90
        4
176
     1
 62
     7
176
     1
 62
   257
176
     1
 90
        7
176
     1
 90
        7
176
     1
 40
1.0
176
     1
 90
        8
176
     1
 62
     7
176
     1
 40
1.0
176
     1
 90
        1
176
     1
 90
        6
176
     1
 90
        2
176
     1
 62
     7
176
     1
 90
        5
176
     1
 90
        0
176
     1
 90
        0
176
     1
290
     0
176
     1
 90
        1
176
     1
 40
0.0
176
     1
 90
        0
176
     1
290
     0
176
     1
290
     1
176
     1
290
     1
176
     1
290
     0
176
     1
290
     0
176
     1
290
     0
176
     1
290
     0
176
     1
290
     0
176
     1
290
     0
176
     1
 90
       50
176
     1
 40
0.0
176
     1
 40
1.0
176
     1
 90
        0
176
     1
 62
    18
420
        0
176
     1
 90
       50
176
     1
 90
        3
176
     1
 62
     5
420
      255
176
     1
290
     0
176
     1
 90
       50
176
     1
 90
       50
176
     1
 90
       50
176
     1
290
     0
176
     1
 90
       50
176
     1
 62
   256
176
     0
 40
1.0
176
     0
 90
        2
176
     1
  1
strokes_ogs.tif
176
     1
290
     0
176
     1
 40
1.0
176
     1
 40
1.0
176
     1
  0
VISUALSTYLE
  5
3C
102
{ACAD_REACTORS
330
2A
102
}
330
2A
100
AcDbVisualStyle
  2
OverhangOff
 70
    21
177
     3
291
     1
 70
    58
 90
        2
176
     0
 90
        2
176
     0
 90
        0
176
     0
 90
        0
176
     0
 40
0.6
176
     0
 40
30.0
176
     0
 62
     7
420
 16777215
176
     0
 90
        1
176
     0
 90
        4
176
     0
 62
     7
176
     0
 62
   257
176
     0
 90
        1
176
     0
 90
        1
176
     0
 40
1.0
176
     0
 90
        9
176
     2
 62
     7
176
     0
 40
1.0
176
     0
 90
        1
176
     0
 90
        6
176
     0
 90
        2
176
     0
 62
     7
176
     0
 90
        5
176
     0
 90
        0
176
     0
 90
        0
176
     0
290
     0
176
     0
 90
        1
176
     0
 40
0.0
176
     0
 90
        0
176
     0
290
     0
176
     0
290
     1
176
     0
290
     1
176
     0
290
     0
176
     0
290
     0
176
     0
290
     0
176
     0
290
     0
176
     0
290
     0
176
     0
290
     0
176
     0
 90
       50
176
     0
 40
0.0
176
     0
 40
1.0
176
     0
 90
        0
176
     0
 62
    18
420
        0
176
     0
 90
       50
176
     0
 90
        3
176
     0
 62
     5
420
      255
176
     0
290
     0
176
     0
 90
       50
176
     0
 90
       50
176
     0
 90
       50
176
     0
290
     0
176
     0
 90
       50
176
     0
 62
   256
176
     0
 40
1.0
176
     0
 90
        2
176
     0
  1
strokes_ogs.tif
176
     0
290
     0
176
     0
 40
1.0
176
     0
 40
1.0
176
     0
  0
VISUALSTYLE
  5
33
102
{ACAD_REACTORS
330
2A
102
}
330
2A
100
AcDbVisualStyle
  2
Realistic
 70
     8
177
     3
291
     0
 70
    58
 90
        2
176
     1
 90
        3
176
     1
 90
        0
176
     1
 90
        2
176
     1
 40
0.6
176
     1
 40
30.0
176
     1
 62
     7
420
 16777215
176
     1
 90
        0
176
     1
 90
        0
176
     1
 62
     7
176
     1
 62
   257
176
     1
 90
        1
176
     1
 90
        1
176
     1
 40
1.0
176
     1
 90
        8
176
     1
 62
   257
176
     1
 40
1.0
176
     1
 90
        1
176
     1
 90
        6
176
     1
 90
        2
176
     1
 62
     7
176
     1
 90
        3
176
     1
 90
        0
176
     1
 90
        0
176
     1
290
     0
176
     1
 90
       13
176
     1
 40
0.0
176
     1
 90
        0
176
     1
290
     0
176
     1
290
     1
176
     1
290
     1
176
     1
290
     0
176
     1
290
     0
176
     1
290
     0
176
     1
290
     0
176
     1
290
     0
176
     1
290
     0
176
     1
 90
       50
176
     1
 40
0.0
176
     1
 40
1.0
176
     1
 90
        0
176
     1
 62
    18
420
        0
176
     1
 90
       50
176
     1
 90
        3
176
     1
 62
     5
420
      255
176
     1
290
     0
176
     1
 90
       50
176
     1
 90
       50
176
     1
 90
       50
176
     1
290
     0
176
     1
 90
       50
176
     1
 62
   256
176
     0
 40
1.0
176
     0
 90
        2
176
     1
  1
strokes_ogs.tif
176
     1
290
     0
176
     1
 40
1.0
176
     1
 40
1.0
176
     1
  0
VISUALSTYLE
  5
42
102
{ACAD_REACTORS
330
2A
102
}
330
2A
100
AcDbVisualStyle
  2
Shaded
 70
    27
177
     3
291
     0
 70
    58
 90
        2
176
     1
 90
        2
176
     1
 90
        1
176
     1
 90
        2
176
     1
 40
0.6
176
     1
 40
30.0
176
     1
 62
     7
420
 16777215
176
     1
 90
        0
176
     1
 90
        4
176
     1
 62
     7
176
     1
 62
   257
176
     1
 90
        1
176
     1
 90
        1
176
     1
 40
1.0
176
     1
 90
        8
176
     1
 62
   257
176
     1
 40
1.0
176
     1
 90
        1
176
     1
 90
        6
176
     1
 90
        2
176
     1
 62
     8
420
  7895160
176
     1
 90
        3
176
     1
 90
        0
176
     1
 90
        0
176
     1
290
     0
176
     1
 90
        5
176
     1
 40
0.0
176
     1
 90
        0
176
     1
290
     0
176
     1
290
     1
176
     1
290
     1
176
     1
290
     0
176
     1
290
     0
176
     1
290
     0
176
     1
290
     0
176
     1
290
     0
176
     1
290
     0
176
     1
 90
       50
176
     1
 40
0.0
176
     1
 40
1.0
176
     1
 90
        0
176
     1
 62
    18
420
        0
176
     1
 90
       50
176
     1
 90
        3
176
     1
 62
     5
420
      255
176
     1
290
     0
176
     1
 90
       50
176
     1
 90
       50
176
     1
 90
       50
176
     1
290
     0
176
     1
 90
       50
176
     1
 62
   256
176
     0
 40
1.0
176
     0
 90
        2
176
     1
  1
strokes_ogs.tif
176
     1
290
     0
176
     1
 40
1.0
176
     1
 40
1.0
176
     1
  0
VISUALSTYLE
  5
41
102
{ACAD_REACTORS
330
2A
102
}
330
2A
100
AcDbVisualStyle
  2
Shaded with edges
 70
    26
177
     3
291
     0
 70
    58
 90
        2
176
     1
 90
        2
176
     1
 90
        1
176
     1
 90
        2
176
     1
 40
0.6
176
     1
 40
30.0
176
     1
 62
     7
420
 16777215
176
     1
 90
        1
176
     1
 90
       10
176
     1
 62
     7
176
     1
 62
   257
176
     1
 90
        2
176
     1
 90
        1
176
     1
 40
1.0
176
     1
 90
        8
176
     1
 62
   257
176
     1
 40
1.0
176
     1
 90
        1
176
     1
 90
        6
176
     1
 90
        2
176
     1
 62
     7
176
     1
 90
        3
176
     1
 90
        0
176
     1
 90
        0
176
     1
290
     0
176
     1
 90
        5
176
     1
 40
0.0
176
     1
 90
        0
176
     1
290
     0
176
     1
290
     1
176
     1
290
     1
176
     1
290
     0
176
     1
290
     0
176
     1
290
     0
176
     1
290
     0
176
     1
290
     0
176
     1
290
     0
176
     1
 90
       50
176
     1
 40
0.0
176
     1
 40
1.0
176
     1
 90
        0
176
     1
 62
    18
420
        0
176
     1
 90
       50
176
     1
 90
        3
176
     1
 62
     5
420
      255
176
     1
290
     0
176
     1
 90
       50
176
     1
 90
       50
176
     1
 90
       50
176
     1
290
     0
176
     1
 90
       50
176
     1
 62
   256
176
     0
 40
1.0
176
     0
 90
        2
176
     1
  1
strokes_ogs.tif
176
     1
290
     0
176
     1
 40
1.0
176
     1
 40
1.0
176
     1
  0
VISUALSTYLE
  5
3E
102
{ACAD_REACTORS
330
2A
102
}
330
2A
100
AcDbVisualStyle
  2
Shades of Gray
 70
    23
177
     3
291
     0
 70
    58
 90
        2
176
     1
 90
        2
176
     1
 90
        3
176
     1
 90
        0
176
     1
 40
0.6
176
     1
 40
30.0
176
     1
 62
     7
420
 16777215
176
     1
 90
        2
176
     1
 90
        2
176
     1
 62
     7
176
     1
 62
     7
176
     1
 90
        1
176
     1
 90
        1
176
     1
 40
40.0
176
     1
 90
        8
176
     1
 62
     7
176
     1
 40
1.0
176
     1
 90
        1
176
     1
 90
        6
176
     1
 90
        2
176
     1
 62
     7
176
     1
 90
        3
176
     1
 90
        0
176
     1
 90
        0
176
     1
290
     0
176
     1
 90
        1
176
     1
 40
0.0
176
     1
 90
        0
176
     1
290
     0
176
     1
290
     1
176
     1
290
     1
176
     1
290
     0
176
     1
290
     0
176
     1
290
     0
176
     1
290
     0
176
     1
290
     0
176
     1
290
     0
176
     1
 90
       50
176
     1
 40
0.0
176
     1
 40
1.0
176
     1
 90
        0
176
     1
 62
    18
420
        0
176
     1
 90
       50
176
     1
 90
        3
176
     1
 62
     5
420
      255
176
     1
290
     0
176
     1
 90
       50
176
     1
 90
       50
176
     1
 90
       50
176
     1
290
     0
176
     1
 90
       50
176
     1
 62
   256
176
     0
 40
1.0
176
     0
 90
        2
176
     1
  1
strokes_ogs.tif
176
     1
290
     0
176
     1
 40
1.0
176
     1
 40
1.0
176
     1
  0
VISUALSTYLE
  5
3F
102
{ACAD_REACTORS
330
2A
102
}
330
2A
100
AcDbVisualStyle
  2
Sketchy
 70
    24
177
     3
291
     0
 70
    58
 90
        1
176
     1
 90
        2
176
     1
 90
        2
176
     1
 90
        0
176
     1
 40
0.6
176
     1
 40
30.0
176
     1
 62
     7
420
 16777215
176
     1
 90
        2
176
     1
 90
        2
176
     1
 62
     7
176
     1
 62
     7
176
     1
 90
        1
176
     1
 90
        1
176
     1
 40
40.0
176
     1
 90
       11
176
     1
 62
     7
176
     1
 40
1.0
176
     1
 90
        1
176
     1
 90
        6
176
     1
 90
        2
176
     1
 62
     7
176
     1
 90
        6
176
     1
 90
        0
176
     1
 90
        0
176
     1
290
     0
176
     1
 90
        1
176
     1
 40
0.0
176
     1
 90
        0
176
     1
290
     0
176
     1
290
     1
176
     1
290
     1
176
     1
290
     0
176
     1
290
     0
176
     1
290
     0
176
     1
290
     0
176
     1
290
     0
176
     1
290
     0
176
     1
 90
       50
176
     1
 40
0.0
176
     1
 40
1.0
176
     1
 90
        0
176
     1
 62
    18
420
        0
176
     1
 90
       50
176
     1
 90
        3
176
     1
 62
     5
420
      255
176
     1
290
     0
176
     1
 90
       50
176
     1
 90
       50
176
     1
 90
       50
176
     1
290
     0
176
     1
 90
       50
176
     1
 62
   256
176
     0
 40
1.0
176
     0
 90
        2
176
     1
  1
strokes_ogs.tif
176
     1
290
     0
176
     1
 40
1.0
176
     1
 40
1.0
176
     1
  0
VISUALSTYLE
  5
37
102
{ACAD_REACTORS
330
2A
102
}
330
2A
100
AcDbVisualStyle
  2
Thicken
 70
    13
177
     3
291
     1
 70
    58
 90
        2
176
     1
 90
        2
176
     1
 90
        0
176
     1
 90
        0
176
     1
 40
0.6
176
     1
 40
30.0
176
     1
 62
     7
420
 16777215
176
     1
 90
        1
176
     1
 90
        4
176
     1
 62
     7
176
     1
 62
   257
176
     1
 90
        1
176
     1
 90
        1
176
     1
 40
1.0
176
     1
 90
       12
176
     1
 62
     7
176
     1
 40
1.0
176
     1
 90
        1
176
     1
 90
        6
176
     1
 90
        2
176
     1
 62
     7
176
     1
 90
        5
176
     1
 90
        0
176
     1
 90
        0
176
     1
290
     0
176
     1
 90
        1
176
     1
 40
0.0
176
     1
 90
        0
176
     1
290
     0
176
     1
290
     1
176
     1
290
     1
176
     1
290
     0
176
     1
290
     0
176
     1
290
     0
176
     1
290
     0
176
     1
290
     0
176
     1
290
     0
176
     1
 90
       50
176
     1
 40
0.0
176
     1
 40
1.0
176
     1
 90
        0
176
     1
 62
    18
420
        0
176
     1
 90
       50
176
     1
 90
        3
176
     1
 62
     5
420
      255
176
     1
290
     0
176
     1
 90
       50
176
     1
 90
       50
176
     1
 90
       50
176
     1
290
     0
176
     1
 90
       50
176
     1
 62
   256
176
     0
 40
1.0
176
     0
 90
        2
176
     1
  1
strokes_ogs.tif
176
     1
290
     0
176
     1
 40
1.0
176
     1
 40
1.0
176
     1
  0
VISUALSTYLE
  5
30
102
{ACAD_REACTORS
330
2A
102
}
330
2A
100
AcDbVisualStyle
  2
Wireframe
 70
     5
177
     3
291
     0
 70
    58
 90
        0
176
     1
 90
        2
176
     1
 90
        0
176
     1
 90
        0
176
     1
 40
0.6
176
     1
 40
30.0
176
     1
 62
     7
420
 16777215
176
     1
 90
        1
176
     1
 90
        4
176
     1
 62
     7
176
     1
 62
   257
176
     1
 90
        1
176
     1
 90
        1
176
     1
 40
1.0
176
     1
 90
        0
176
     1
 62
   257
176
     1
 40
1.0
176
     1
 90
        1
176
     1
 90
        6
176
     1
 90
        2
176
     1
 62
     7
176
     1
 90
        3
176
     1
 90
        0
176
     1
 90
        0
176
     1
290
     0
176
     1
 90
        1
176
     1
 40
0.0
176
     1
 90
        0
176
     1
290
     0
176
     1
290
     1
176
     1
290
     1
176
     1
290
     0
176
     1
290
     0
176
     1
290
     0
176
     1
290
     0
176
     1
290
     0
176
     1
290
     0
176
     1
 90
       50
176
     1
 40
0.0
176
     1
 40
1.0
176
     1
 90
        0
176
     1
 62
    18
420
        0
176
     1
 90
       50
176
     1
 90
        3
176
     1
 62
     5
420
      255
176
     1
290
     0
176
     1
 90
       50
176
     1
 90
       50
176
     1
 90
       50
176
     1
290
     0
176
     1
 90
       50
176
     1
 62
   256
176
     0
 40
1.0
176
     0
 90
        2
176
     1
  1
strokes_ogs.tif
176
     1
290
     0
176
     1
 40
1.0
176
     1
 40
1.0
176
     1
  0
VISUALSTYLE
  5
40
102
{ACAD_REACTORS
330
2A
102
}
330
2A
100
AcDbVisualStyle
  2
X-Ray
 70
    25
177
     3
291
     0
 70
    58
 90
        2
176
     1
 90
        2
176
     1
 90
        1
176
     1
 90
        1
176
     1
 40
0.5
176
     1
 40
30.0
176
     1
 62
     7
420
 16777215
176
     1
 90
        1
176
     1
 90
        0
176
     1
 62
     7
176
     1
 62
   257
176
     1
 90
        1
176
     1
 90
        1
176
     1
 40
1.0
176
     1
 90
        8
176
     1
 62
     7
176
     1
 40
1.0
176
     1
 90
        1
176
     1
 90
        6
176
     1
 90
        2
176
     1
 62
     7
176
     1
 90
        3
176
     1
 90
        0
176
     1
 90
        0
176
     1
290
     0
176
     1
 90
       13
176
     1
 40
0.0
176
     1
 90
        0
176
     1
290
     0
176
     1
290
     1
176
     1
290
     1
176
     1
290
     0
176
     1
290
     0
176
     1
290
     0
176
     1
290
     0
176
     1
290
     0
176
     1
290
     0
176
     1
 90
       50
176
     1
 40
0.0
176
     1
 40
1.0
176
     1
 90
        0
176
     1
 62
    18
420
        0
176
     1
 90
       50
176
     1
 90
        3
176
     1
 62
     5
420
      255
176
     1
290
     0
176
     1
 90
       50
176
     1
 90
       50
176
     1
 90
       50
176
     1
290
     0
176
     1
 90
       50
176
     1
 62
   256
176
     0
 40
1.0
176
     0
 90
        2
176
     1
  1
strokes_ogs.tif
176
     1
290
     0
176
     1
 40
1.0
176
     1
 40
1.0
176
     1
  0
DICTIONARYVAR
  5
252
102
{ACAD_REACTORS
330
251
102
}
330
251
100
DictionaryVariables
280
     0
  1
1:1
  0
DICTIONARYVAR
  5
257
102
{ACAD_REACTORS
330
251
102
}
330
251
100
DictionaryVariables
280
     0
  1
Standard
  0
DICTIONARYVAR
  5
256
102
{ACAD_REACTORS
330
251
102
}
330
251
100
DictionaryVariables
280
     0
  1
Standard
  0
DICTIONARY
  5
253
330
6A
100
AcDbDictionary
280
     1
281
     1
  3
ACAD_ROUNDTRIP_2008_TABLESTYLE_CELLSTYLEMAP
360
254
  0
CELLSTYLEMAP
  5
254
102
{ACAD_REACTORS
330
253
102
}
330
253
100
AcDbCellStyleMap
 90
        3
300
CELLSTYLE
  1
TABLEFORMAT_BEGIN
 90
        5
170
     1
 91
        0
 92
    32768
 62
   257
 93
        1
300
CONTENTFORMAT
  1
CONTENTFORMAT_BEGIN
 90
        0
 91
        0
 92
        4
 93
        0
300

 40
0.0
140
1.0
 94
        5
 62
     0
340
11
144
0.25
309
CONTENTFORMAT_END
171
     1
301
MARGIN
  1
CELLMARGIN_BEGIN
 40
0.06
 40
0.06
 40
0.06
 40
0.06
 40
0.06
 40
0.06
309
CELLMARGIN_END
 94
        6
 95
        1
302
GRIDFORMAT
  1
GRIDFORMAT_BEGIN
 90
        0
 91
        1
 62
     0
 92
       -2
340
14
 93
        0
 40
0.045
309
GRIDFORMAT_END
 95
        2
302
GRIDFORMAT
  1
GRIDFORMAT_BEGIN
 90
        0
 91
        1
 62
     0
 92
       -2
340
14
 93
        0
 40
0.045
309
GRIDFORMAT_END
 95
        4
302
GRIDFORMAT
  1
GRIDFORMAT_BEGIN
 90
        0
 91
        1
 62
     0
 92
       -2
340
14
 93
        0
 40
0.045
309
GRIDFORMAT_END
 95
        8
302
GRIDFORMAT
  1
GRIDFORMAT_BEGIN
 90
        0
 91
        1
 62
     0
 92
       -2
340
14
 93
        0
 40
0.045
309
GRIDFORMAT_END
 95
       16
302
GRIDFORMAT
  1
GRIDFORMAT_BEGIN
 90
        0
 91
        1
 62
     0
 92
       -2
340
14
 93
        0
 40
0.045
309
GRIDFORMAT_END
 95
       32
302
GRIDFORMAT
  1
GRIDFORMAT_BEGIN
 90
        0
 91
        1
 62
     0
 92
       -2
340
14
 93
        0
 40
0.045
309
GRIDFORMAT_END
309
TABLEFORMAT_END
  1
CELLSTYLE_BEGIN
 90
        1
 91
        1
300
_TITLE
309
CELLSTYLE_END
300
CELLSTYLE
  1
TABLEFORMAT_BEGIN
 90
        5
170
     1
 91
        0
 92
        0
 62
   257
 93
        1
300
CONTENTFORMAT
  1
CONTENTFORMAT_BEGIN
 90
        0
 91
        0
 92
        4
 93
        0
300

 40
0.0
140
1.0
 94
        5
 62
     0
340
11
144
0.18
309
CONTENTFORMAT_END
171
     1
301
MARGIN
  1
CELLMARGIN_BEGIN
 40
0.06
 40
0.06
 40
0.06
 40
0.06
 40
0.06
 40
0.06
309
CELLMARGIN_END
 94
        6
 95
        1
302
GRIDFORMAT
  1
GRIDFORMAT_BEGIN
 90
        0
 91
        1
 62
     0
 92
       -2
340
14
 93
        0
 40
0.045
309
GRIDFORMAT_END
 95
        2
302
GRIDFORMAT
  1
GRIDFORMAT_BEGIN
 90
        0
 91
        1
 62
     0
 92
       -2
340
14
 93
        0
 40
0.045
309
GRIDFORMAT_END
 95
        4
302
GRIDFORMAT
  1
GRIDFORMAT_BEGIN
 90
        0
 91
        1
 62
     0
 92
       -2
340
14
 93
        0
 40
0.045
309
GRIDFORMAT_END
 95
        8
302
GRIDFORMAT
  1
GRIDFORMAT_BEGIN
 90
        0
 91
        1
 62
     0
 92
       -2
340
14
 93
        0
 40
0.045
309
GRIDFORMAT_END
 95
       16
302
GRIDFORMAT
  1
GRIDFORMAT_BEGIN
 90
        0
 91
        1
 62
     0
 92
       -2
340
14
 93
        0
 40
0.045
309
GRIDFORMAT_END
 95
       32
302
GRIDFORMAT
  1
GRIDFORMAT_BEGIN
 90
        0
 91
        1
 62
     0
 92
       -2
340
14
 93
        0
 40
0.045
309
GRIDFORMAT_END
309
TABLEFORMAT_END
  1
CELLSTYLE_BEGIN
 90
        2
 91
        1
300
_HEADER
309
CELLSTYLE_END
300
CELLSTYLE
  1
TABLEFORMAT_BEGIN
 90
        5
170
     1
 91
        0
 92
        0
 62
   257
 93
        1
300
CONTENTFORMAT
  1
CONTENTFORMAT_BEGIN
 90
        0
 91
        0
 92
        4
 93
        0
300

 40
0.0
140
1.0
 94
        2
 62
     0
340
11
144
0.18
309
CONTENTFORMAT_END
171
     1
301
MARGIN
  1
CELLMARGIN_BEGIN
 40
0.06
 40
0.06
 40
0.06
 40
0.06
 40
0.06
 40
0.06
309
CELLMARGIN_END
 94
        6
 95
        1
302
GRIDFORMAT
  1
GRIDFORMAT_BEGIN
 90
        0
 91
        1
 62
     0
 92
       -2
340
14
 93
        0
 40
0.045
309
GRIDFORMAT_END
 95
        2
302
GRIDFORMAT
  1
GRIDFORMAT_BEGIN
 90
        0
 91
        1
 62
     0
 92
       -2
340
14
 93
        0
 40
0.045
309
GRIDFORMAT_END
 95
        4
302
GRIDFORMAT
  1
GRIDFORMAT_BEGIN
 90
        0
 91
        1
 62
     0
 92
       -2
340
14
 93
        0
 40
0.045
309
GRIDFORMAT_END
 95
        8
302
GRIDFORMAT
  1
GRIDFORMAT_BEGIN
 90
        0
 91
        1
 62
     0
 92
       -2
340
14
 93
        0
 40
0.045
309
GRIDFORMAT_END
 95
       16
302
GRIDFORMAT
  1
GRIDFORMAT_BEGIN
 90
        0
 91
        1
 62
     0
 92
       -2
340
14
 93
        0
 40
0.045
309
GRIDFORMAT_END
 95
       32
302
GRIDFORMAT
  1
GRIDFORMAT_BEGIN
 90
        0
 91
        1
 62
     0
 92
       -2
340
14
 93
        0
 40
0.045
309
GRIDFORMAT_END
309
TABLEFORMAT_END
  1
CELLSTYLE_BEGIN
 90
        3
 91
        2
300
_DATA
309
CELLSTYLE_END
  0
ENDSEC
  0
EOF