0
SECTION
  2
HEADER
  9
$ACADVER
  1
AC1027
  9
$ACADMAINTVER
 70
     8
  9
$DWGCODEPAGE
  3
ANSI_1252
  9
$REQUIREDVERSIONS
160
                 0
  9
$COMMENTS
  1
File was created by Cadenas
  9
$CUSTOMPROPERTYTAG
  1
NN
  9
$CUSTOMPROPERTY
  1
Imperial - IP Wide Slot Take-Up
  9
$CUSTOMPROPERTYTAG
  1
NT
  9
$CUSTOMPROPERTY
  1
Imperial Wide Slot Take-Up Bearings
  9
$CUSTOMPROPERTYTAG
  1
NB
  9
$CUSTOMPROPERTY
  1
069393
  9
$CUSTOMPROPERTYTAG
  1
NBSYN
  9
$CUSTOMPROPERTY
  1
$PN.
  9
$CUSTOMPROPERTYTAG
  1
LINA
  9
$CUSTOMPROPERTY
  1
069393
  9
$CUSTOMPROPERTYTAG
  1
SS
  9
$CUSTOMPROPERTY
  1
3-11/16
  9
$CUSTOMPROPERTYTAG
  1
PN
  9
$CUSTOMPROPERTY
  1
069393
  9
$CUSTOMPROPERTYTAG
  1
DESCRIPTION
  9
$CUSTOMPROPERTY
  1
WSTU-IP-311RE
  9
$CUSTOMPROPERTYTAG
  1
EF
  9
$CUSTOMPROPERTY
  1
Expansion
  9
$CUSTOMPROPERTYTAG
  1
ST
  9
$CUSTOMPROPERTY
  1
Contact Seal
  9
$CUSTOMPROPERTYTAG
  1
A
  9
$CUSTOMPROPERTY
  1
4-45/64
  9
$CUSTOMPROPERTYTAG
  1
B
  9
$CUSTOMPROPERTY
  1
12-9/16
  9
$CUSTOMPROPERTYTAG
  1
C
  9
$CUSTOMPROPERTY
  1
2-1/16
  9
$CUSTOMPROPERTYTAG
  1
D
  9
$CUSTOMPROPERTY
  1
7
  9
$CUSTOMPROPERTYTAG
  1
E
  9
$CUSTOMPROPERTY
  1
8-3/8
  9
$CUSTOMPROPERTYTAG
  1
F
  9
$CUSTOMPROPERTY
  1
2-1/8
  9
$CUSTOMPROPERTYTAG
  1
G
  9
$CUSTOMPROPERTY
  1
2-1/16
  9
$CUSTOMPROPERTYTAG
  1
H
  9
$CUSTOMPROPERTY
  1
2-1/8
  9
$CUSTOMPROPERTYTAG
  1
J
  9
$CUSTOMPROPERTY
  1
6
  9
$CUSTOMPROPERTYTAG
  1
K
  9
$CUSTOMPROPERTY
  1
3-3/8
  9
$CUSTOMPROPERTYTAG
  1
L
  9
$CUSTOMPROPERTY
  1
5-9/16
  9
$CUSTOMPROPERTYTAG
  1
M
  9
$CUSTOMPROPERTY
  1
8-5/8
  9
$CUSTOMPROPERTYTAG
  1
N
  9
$CUSTOMPROPERTY
  1
9-7/16
  9
$CUSTOMPROPERTYTAG
  1
R
  9
$CUSTOMPROPERTY
  1
4-51/64
  9
$CUSTOMPROPERTYTAG
  1
S
  9
$CUSTOMPROPERTY
  1
3-3/64
  9
$CUSTOMPROPERTYTAG
  1
T
  9
$CUSTOMPROPERTY
  1
3-7/16
  9
$CUSTOMPROPERTYTAG
  1
X
  9
$CUSTOMPROPERTY
  1
5/16
  9
$CUSTOMPROPERTYTAG
  1
Y
  9
$CUSTOMPROPERTY
  1
0.025
  9
$CUSTOMPROPERTYTAG
  1
Z
  9
$CUSTOMPROPERTY
  1
4-1/2
  9
$CUSTOMPROPERTYTAG
  1
COMPANY
  9
$CUSTOMPROPERTY
  1
baldor
  9
$INSBASE
 10
0.0
 20
0.0
 30
0.0
  9
$EXTMIN
 10
1.000000000000000E+20
 20
1.000000000000000E+20
 30
1.000000000000000E+20
  9
$EXTMAX
 10
-1.000000000000000E+20
 20
-1.000000000000000E+20
 30
-1.000000000000000E+20
  9
$LIMMIN
 10
0.0
 20
0.0
  9
$LIMMAX
 10
12.0
 20
9.0
  9
$ORTHOMODE
 70
     0
  9
$REGENMODE
 70
     1
  9
$FILLMODE
 70
     1
  9
$QTEXTMODE
 70
     0
  9
$MIRRTEXT
 70
     1
  9
$LTSCALE
 40
1.0
  9
$ATTMODE
 70
     1
  9
$TEXTSIZE
 40
0.2
  9
$TRACEWID
 40
0.05
  9
$TEXTSTYLE
  7
Standard
  9
$CLAYER
  8
0
  9
$CELTYPE
  6
ByLayer
  9
$CECOLOR
 62
   256
  9
$CELTSCALE
 40
1.0
  9
$DISPSILH
 70
     0
  9
$DIMSCALE
 40
1.0
  9
$DIMASZ
 40
0.18
  9
$DIMEXO
 40
0.0625
  9
$DIMDLI
 40
0.38
  9
$DIMRND
 40
0.0
  9
$DIMDLE
 40
0.0
  9
$DIMEXE
 40
0.18
  9
$DIMTP
 40
0.0
  9
$DIMTM
 40
0.0
  9
$DIMTXT
 40
0.18
  9
$DIMCEN
 40
0.09
  9
$DIMTSZ
 40
0.0
  9
$DIMTOL
 70
     0
  9
$DIMLIM
 70
     0
  9
$DIMTIH
 70
     1
  9
$DIMTOH
 70
     1
  9
$DIMSE1
 70
     0
  9
$DIMSE2
 70
     0
  9
$DIMTAD
 70
     0
  9
$DIMZIN
 70
     0
  9
$DIMBLK
  1

  9
$DIMASO
 70
     1
  9
$DIMSHO
 70
     1
  9
$DIMPOST
  1

  9
$DIMAPOST
  1

  9
$DIMALT
 70
     0
  9
$DIMALTD
 70
     2
  9
$DIMALTF
 40
25.4
  9
$DIMLFAC
 40
1.0
  9
$DIMTOFL
 70
     0
  9
$DIMTVP
 40
0.0
  9
$DIMTIX
 70
     0
  9
$DIMSOXD
 70
     0
  9
$DIMSAH
 70
     0
  9
$DIMBLK1
  1

  9
$DIMBLK2
  1

  9
$DIMSTYLE
  2
Standard
  9
$DIMCLRD
 70
     0
  9
$DIMCLRE
 70
     0
  9
$DIMCLRT
 70
     0
  9
$DIMTFAC
 40
1.0
  9
$DIMGAP
 40
0.09
  9
$DIMJUST
 70
     0
  9
$DIMSD1
 70
     0
  9
$DIMSD2
 70
     0
  9
$DIMTOLJ
 70
     1
  9
$DIMTZIN
 70
     0
  9
$DIMALTZ
 70
     0
  9
$DIMALTTZ
 70
     0
  9
$DIMUPT
 70
     0
  9
$DIMDEC
 70
     4
  9
$DIMTDEC
 70
     4
  9
$DIMALTU
 70
     2
  9
$DIMALTTD
 70
     2
  9
$DIMTXSTY
  7
Standard
  9
$DIMAUNIT
 70
     0
  9
$DIMADEC
 70
     0
  9
$DIMALTRND
 40
0.0
  9
$DIMAZIN
 70
     0
  9
$DIMDSEP
 70
    46
  9
$DIMATFIT
 70
     3
  9
$DIMFRAC
 70
     0
  9
$DIMLDRBLK
  1

  9
$DIMLUNIT
 70
     2
  9
$DIMLWD
 70
    -2
  9
$DIMLWE
 70
    -2
  9
$DIMTMOVE
 70
     0
  9
$DIMFXL
 40
1.0
  9
$DIMFXLON
 70
     0
  9
$DIMJOGANG
 40
0.7853981633974483
  9
$DIMTFILL
 70
     0
  9
$DIMTFILLCLR
 70
     0
  9
$DIMARCSYM
 70
     0
  9
$DIMLTYPE
  6

  9
$DIMLTEX1
  6

  9
$DIMLTEX2
  6

  9
$DIMTXTDIRECTION
 70
     0
  9
$LUNITS
 70
     2
  9
$LUPREC
 70
     4
  9
$SKETCHINC
 40
0.1
  9
$FILLETRAD
 40
0.5
  9
$AUNITS
 70
     0
  9
$AUPREC
 70
     0
  9
$MENU
  1
.
  9
$ELEVATION
 40
0.0
  9
$PELEVATION
 40
0.0
  9
$THICKNESS
 40
0.0
  9
$LIMCHECK
 70
     0
  9
$CHAMFERA
 40
0.0
  9
$CHAMFERB
 40
0.0
  9
$CHAMFERC
 40
0.0
  9
$CHAMFERD
 40
0.0
  9
$SKPOLY
 70
     0
  9
$TDCREATE
 40
2458168.988004873
  9
$TDUCREATE
 40
2458168.946338206
  9
$TDUPDATE
 40
2458168.988005046
  9
$TDUUPDATE
 40
2458168.94633838
  9
$TDINDWG
 40
0.0000000116
  9
$TDUSRTIMER
 40
0.0000000116
  9
$USRTIMER
 70
     1
  9
$ANGBASE
 50
0.0
  9
$ANGDIR
 70
     0
  9
$PDMODE
 70
     0
  9
$PDSIZE
 40
0.0
  9
$PLINEWID
 40
0.0
  9
$SPLFRAME
 70
     0
  9
$SPLINETYPE
 70
     6
  9
$SPLINESEGS
 70
     8
  9
$HANDSEED
  5
26C
  9
$SURFTAB1
 70
     6
  9
$SURFTAB2
 70
     6
  9
$SURFTYPE
 70
     6
  9
$SURFU
 70
     6
  9
$SURFV
 70
     6
  9
$UCSBASE
  2

  9
$UCSNAME
  2

  9
$UCSORG
 10
0.0
 20
0.0
 30
0.0
  9
$UCSXDIR
 10
1.0
 20
0.0
 30
0.0
  9
$UCSYDIR
 10
0.0
 20
1.0
 30
0.0
  9
$UCSORTHOREF
  2

  9
$UCSORTHOVIEW
 70
     0
  9
$UCSORGTOP
 10
0.0
 20
0.0
 30
0.0
  9
$UCSORGBOTTOM
 10
0.0
 20
0.0
 30
0.0
  9
$UCSORGLEFT
 10
0.0
 20
0.0
 30
0.0
  9
$UCSORGRIGHT
 10
0.0
 20
0.0
 30
0.0
  9
$UCSORGFRONT
 10
0.0
 20
0.0
 30
0.0
  9
$UCSORGBACK
 10
0.0
 20
0.0
 30
0.0
  9
$PUCSBASE
  2

  9
$PUCSNAME
  2

  9
$PUCSORG
 10
0.0
 20
0.0
 30
0.0
  9
$PUCSXDIR
 10
1.0
 20
0.0
 30
0.0
  9
$PUCSYDIR
 10
0.0
 20
1.0
 30
0.0
  9
$PUCSORTHOREF
  2

  9
$PUCSORTHOVIEW
 70
     0
  9
$PUCSORGTOP
 10
0.0
 20
0.0
 30
0.0
  9
$PUCSORGBOTTOM
 10
0.0
 20
0.0
 30
0.0
  9
$PUCSORGLEFT
 10
0.0
 20
0.0
 30
0.0
  9
$PUCSORGRIGHT
 10
0.0
 20
0.0
 30
0.0
  9
$PUCSORGFRONT
 10
0.0
 20
0.0
 30
0.0
  9
$PUCSORGBACK
 10
0.0
 20
0.0
 30
0.0
  9
$USERI1
 70
     0
  9
$USERI2
 70
     0
  9
$USERI3
 70
     0
  9
$USERI4
 70
     0
  9
$USERI5
 70
     0
  9
$USERR1
 40
0.0
  9
$USERR2
 40
0.0
  9
$USERR3
 40
0.0
  9
$USERR4
 40
0.0
  9
$USERR5
 40
0.0
  9
$WORLDVIEW
 70
     1
  9
$SHADEDGE
 70
     3
  9
$SHADEDIF
 70
    70
  9
$TILEMODE
 70
     1
  9
$MAXACTVP
 70
    64
  9
$PINSBASE
 10
0.0
 20
0.0
 30
0.0
  9
$PLIMCHECK
 70
     0
  9
$PEXTMIN
 10
1.000000000000000E+20
 20
1.000000000000000E+20
 30
1.000000000000000E+20
  9
$PEXTMAX
 10
-1.000000000000000E+20
 20
-1.000000000000000E+20
 30
-1.000000000000000E+20
  9
$PLIMMIN
 10
0.0
 20
0.0
  9
$PLIMMAX
 10
12.0
 20
9.0
  9
$UNITMODE
 70
     0
  9
$VISRETAIN
 70
     1
  9
$PLINEGEN
 70
     0
  9
$PSLTSCALE
 70
     1
  9
$TREEDEPTH
 70
  3020
  9
$CMLSTYLE
  2
Standard
  9
$CMLJUST
 70
     0
  9
$CMLSCALE
 40
1.0
  9
$PROXYGRAPHICS
 70
     1
  9
$MEASUREMENT
 70
     0
  9
$CELWEIGHT
370
    -1
  9
$ENDCAPS
280
     0
  9
$JOINSTYLE
280
     0
  9
$LWDISPLAY
290
     0
  9
$INSUNITS
 70
     1
  9
$HYPERLINKBASE
  1

  9
$STYLESHEET
  1

  9
$XEDIT
290
     1
  9
$CEPSNTYPE
380
     0
  9
$PSTYLEMODE
290
     1
  9
$FINGERPRINTGUID
  2
{332A7B24-D85A-4EDB-B690-BBE45ACCF967}
  9
$VERSIONGUID
  2
{FAEB1C32-E019-11D5-929B-00C0DF256EC4}
  9
$EXTNAMES
290
     1
  9
$PSVPSCALE
 40
0.0
  9
$OLESTARTUP
290
     0
  9
$SORTENTS
280
   127
  9
$INDEXCTL
280
     0
  9
$HIDETEXT
280
     1
  9
$XCLIPFRAME
280
     2
  9
$HALOGAP
280
     0
  9
$OBSCOLOR
 70
   257
  9
$OBSLTYPE
280
     0
  9
$INTERSECTIONDISPLAY
280
     0
  9
$INTERSECTIONCOLOR
 70
   257
  9
$DIMASSOC
280
     2
  9
$PROJECTNAME
  1

  9
$CAMERADISPLAY
290
     0
  9
$LENSLENGTH
 40
50.0
  9
$CAMERAHEIGHT
 40
0.0
  9
$STEPSPERSEC
 40
2.0
  9
$STEPSIZE
 40
6.0
  9
$3DDWFPREC
 40
2.0
  9
$PSOLWIDTH
 40
0.25
  9
$PSOLHEIGHT
 40
4.0
  9
$LOFTANG1
 40
1.570796326794897
  9
$LOFTANG2
 40
1.570796326794897
  9
$LOFTMAG1
 40
0.0
  9
$LOFTMAG2
 40
0.0
  9
$LOFTPARAM
 70
     7
  9
$LOFTNORMALS
280
     1
  9
$LATITUDE
 40
37.795
  9
$LONGITUDE
 40
-122.394
  9
$NORTHDIRECTION
 40
0.0
  9
$TIMEZONE
 70
 -8000
  9
$LIGHTGLYPHDISPLAY
280
     1
  9
$TILEMODELIGHTSYNCH
280
     1
  9
$CMATERIAL
347
44
  9
$SOLIDHIST
280
     0
  9
$SHOWHIST
280
     1
  9
$DWFFRAME
280
     2
  9
$DGNFRAME
280
     2
  9
$REALWORLDSCALE
290
     1
  9
$INTERFERECOLOR
 62
   256
  9
$CSHADOW
280
     0
  9
$SHADOWPLANELOCATION
 40
0.0
  0
ENDSEC
  0
SECTION
  2
CLASSES
  0
CLASS
  1
ACDBDICTIONARYWDFLT
  2
AcDbDictionaryWithDefault
  3
ObjectDBX Classes
 90
        0
 91
        4
280
     0
281
     0
  0
CLASS
  1
VISUALSTYLE
  2
AcDbVisualStyle
  3
ObjectDBX Classes
 90
     4095
 91
        4
280
     0
281
     0
  0
CLASS
  1
MATERIAL
  2
AcDbMaterial
  3
ObjectDBX Classes
 90
     1153
 91
        4
280
     0
281
     0
  0
CLASS
  1
SCALE
  2
AcDbScale
  3
ObjectDBX Classes
 90
     1153
 91
        4
280
     0
281
     0
  0
CLASS
  1
TABLESTYLE
  2
AcDbTableStyle
  3
ObjectDBX Classes
 90
     4095
 91
        4
280
     0
281
     0
  0
CLASS
  1
MLEADERSTYLE
  2
AcDbMLeaderStyle
  3
ACDB_MLEADERSTYLE_CLASS
 90
     4095
 91
        4
280
     0
281
     0
  0
CLASS
  1
SUN
  2
AcDbSun
  3
SCENEOE
 90
     1153
 91
        4
280
     0
281
     0
  0
CLASS
  1
DICTIONARYVAR
  2
AcDbDictionaryVar
  3
ObjectDBX Classes
 90
        0
 91
        4
280
     0
281
     0
  0
CLASS
  1
CELLSTYLEMAP
  2
AcDbCellStyleMap
  3
ObjectDBX Classes
 90
     1152
 91
        4
280
     0
281
     0
  0
ENDSEC
  0
SECTION
  2
TABLES
  0
TABLE
  2
VPORT
  5
8
330
0
100
AcDbSymbolTable
 70
     1
  0
VPORT
  5
29
330
8
100
AcDbSymbolTableRecord
100
AcDbViewportTableRecord
  2
*Active
 70
     0
 10
0.0
 20
0.0
 11
1.0
 21
1.0
 12
1.956114900210524
 22
-0.4083593749999999
 13
0.0
 23
0.0
 14
0.5
 24
0.5
 15
0.5
 25
0.5
 16
0.0
 26
0.0
 36
1.0
 17
0.0
 27
0.0
 37
0.0
 40
5.382571875
 41
2.471848200553854
 42
50.0
 43
0.0
 44
0.0
 50
0.0
 51
0.0
 71
     0
 72
   100
 73
     1
 74
     3
 75
     0
 76
     0
 77
     0
 78
     0
281
     0
 65
     1
110
0.0
120
0.0
130
0.0
111
1.0
121
0.0
131
0.0
112
0.0
122
1.0
132
0.0
 79
     0
146
0.0
348
2F
 60
     3
 61
     5
292
     1
282
     1
141
0.0
142
0.0
 63
   250
361
6D
  0
ENDTAB
  0
TABLE
  2
LTYPE
  5
5
330
0
100
AcDbSymbolTable
 70
     3
  0
LTYPE
  5
14
330
5
100
AcDbSymbolTableRecord
100
AcDbLinetypeTableRecord
  2
ByBlock
 70
     0
  3

 72
    65
 73
     0
 40
0.0
  0
LTYPE
  5
15
330
5
100
AcDbSymbolTableRecord
100
AcDbLinetypeTableRecord
  2
ByLayer
 70
     0
  3

 72
    65
 73
     0
 40
0.0
  0
LTYPE
  5
16
330
5
100
AcDbSymbolTableRecord
100
AcDbLinetypeTableRecord
  2
Continuous
 70
     0
  3
Solid line
 72
    65
 73
     0
 40
0.0
  0
LTYPE
  5
A2
330
5
100
AcDbSymbolTableRecord
100
AcDbLinetypeTableRecord
  2
Dashed
 70
     0
  3

 72
    65
 73
     2
 40
2.0
 49
1.0
 74
     0
 49
-1.0
 74
     0
  0
LTYPE
  5
1E3
330
5
100
AcDbSymbolTableRecord
100
AcDbLinetypeTableRecord
  2
Center
 70
     0
  3

 72
    65
 73
     4
 40
1.5
 49
0.45
 74
     0
 49
-0.5
 74
     0
 49
0.05
 74
     0
 49
-0.5
 74
     0
  0
ENDTAB
  0
TABLE
  2
LAYER
  5
2
330
0
100
AcDbSymbolTable
 70
     7
  0
LAYER
  5
10
330
2
100
AcDbSymbolTableRecord
100
AcDbLayerTableRecord
  2
0
 70
     0
 62
     7
  6
Continuous
370
    -3
390
F
347
46
348
0
  0
LAYER
  5
72
330
2
100
AcDbSymbolTableRecord
100
AcDbLayerTableRecord
  2
AM_6
 70
     0
 62
    -2
  6
Continuous
370
    35
390
F
347
46
348
0
  0
LAYER
  5
A3
330
2
100
AcDbSymbolTableRecord
100
AcDbLayerTableRecord
  2
AM_9
 70
     0
 62
     6
  6
Dashed
370
    25
390
F
347
46
348
0
  0
LAYER
  5
E3
330
2
100
AcDbSymbolTableRecord
100
AcDbLayerTableRecord
  2
AM_4
 70
     0
 62
     7
  6
Continuous
370
    50
390
F
347
46
348
0
  0
LAYER
  5
129
330
2
100
AcDbSymbolTableRecord
100
AcDbLayerTableRecord
  2
AM_5
 70
     0
 62
     3
  6
Continuous
370
    25
390
F
347
46
348
0
  0
LAYER
  5
1E4
330
2
100
AcDbSymbolTableRecord
100
AcDbLayerTableRecord
  2
AM_7
 70
     0
 62
     7
  6
Center
370
    25
390
F
347
46
348
0
  0
LAYER
  5
255
330
2
100
AcDbSymbolTableRecord
100
AcDbLayerTableRecord
  2
ConnectionPoints
 70
     0
 62
     7
  6
Continuous
370
    50
390
F
347
46
348
0
  0
ENDTAB
  0
TABLE
  2
STYLE
  5
3
330
0
100
AcDbSymbolTable
 70
     1
  0
STYLE
  5
11
330
3
100
AcDbSymbolTableRecord
100
AcDbTextStyleTableRecord
  2
Standard
 70
     0
 40
0.0
 41
1.0
 50
0.0
 71
     0
 42
0.2
  3
txt
  4

  0
ENDTAB
  0
TABLE
  2
VIEW
  5
6
330
0
100
AcDbSymbolTable
 70
     0
  0
ENDTAB
  0
TABLE
  2
UCS
  5
7
330
0
100
AcDbSymbolTable
 70
     0
  0
ENDTAB
  0
TABLE
  2
APPID
  5
9
330
0
100
AcDbSymbolTable
 70
     1
  0
APPID
  5
12
330
9
100
AcDbSymbolTableRecord
100
AcDbRegAppTableRecord
  2
ACAD
 70
     0
  0
ENDTAB
  0
TABLE
  2
DIMSTYLE
  5
A
330
0
100
AcDbSymbolTable
 70
     1
100
AcDbDimStyleTable
  0
DIMSTYLE
105
27
330
A
100
AcDbSymbolTableRecord
100
AcDbDimStyleTableRecord
  2
Standard
 70
     0
178
     0
340
11
  0
ENDTAB
  0
TABLE
  2
BLOCK_RECORD
  5
1
330
0
100
AcDbSymbolTable
 70
     8
  0
BLOCK_RECORD
  5
1F
330
1
100
AcDbSymbolTableRecord
100
AcDbBlockTableRecord
  2
*Model_Space
340
22
 70
     0
280
     1
281
     0
  0
BLOCK_RECORD
  5
1B
330
1
100
AcDbSymbolTableRecord
100
AcDbBlockTableRecord
  2
*Paper_Space
340
1E
 70
     0
280
     1
281
     0
  0
BLOCK_RECORD
  5
23
330
1
100
AcDbSymbolTableRecord
100
AcDbBlockTableRecord
  2
*Paper_Space0
340
26
 70
     0
280
     1
281
     0
  0
BLOCK_RECORD
  5
6E
330
1
100
AcDbSymbolTableRecord
100
AcDbBlockTableRecord
  2
1_069393_4
340
0
102
{BLKREFS
331
6F
102
}
 70
     0
280
     1
281
     0
  0
BLOCK_RECORD
  5
91
330
1
100
AcDbSymbolTableRecord
100
AcDbBlockTableRecord
  2
2_405016_Inch_0_in_069393_4
340
0
102
{BLKREFS
331
92
102
}
 70
     0
280
     1
281
     0
  0
BLOCK_RECORD
  5
119
330
1
100
AcDbSymbolTableRecord
100
AcDbBlockTableRecord
  2
3_ASME_B18_3_1_4_1_0_in_069393_4
340
0
102
{BLKREFS
331
11A
102
}
 70
     0
280
     1
281
     0
  0
BLOCK_RECORD
  5
12C
330
1
100
AcDbSymbolTableRecord
100
AcDbBlockTableRecord
  2
4_ASME_B18_3_1_4_2_0_in_069393_4
340
0
102
{BLKREFS
331
12D
102
}
 70
     0
280
     1
281
     0
  0
BLOCK_RECORD
  5
14E
330
1
100
AcDbSymbolTableRecord
100
AcDbBlockTableRecord
  2
5_070905LW_0_in_069393_4
340
0
102
{BLKREFS
331
14F
102
}
 70
     0
280
     1
281
     0
  0
BLOCK_RECORD
  5
184
330
1
100
AcDbSymbolTableRecord
100
AcDbBlockTableRecord
  2
6_070905I_0_in_069393_4
340
0
102
{BLKREFS
331
185
102
}
 70
     0
280
     1
281
     0
  0
BLOCK_RECORD
  5
205
330
1
100
AcDbSymbolTableRecord
100
AcDbBlockTableRecord
  2
7_069393H_0_in_069393_4
340
0
102
{BLKREFS
331
206
102
}
 70
     0
280
     1
281
     0
  0
ENDTAB
  0
ENDSEC
  0
SECTION
  2
BLOCKS
  0
BLOCK
  5
20
330
1F
100
AcDbEntity
  8
0
100
AcDbBlockBegin
  2
*Model_Space
 70
     0
 10
0.0
 20
0.0
 30
0.0
  3
*Model_Space
  1

  0
ENDBLK
  5
21
330
1F
100
AcDbEntity
  8
0
100
AcDbBlockEnd
  0
BLOCK
  5
1C
330
1B
100
AcDbEntity
 67
     1
  8
0
100
AcDbBlockBegin
  2
*Paper_Space
 70
     0
 10
0.0
 20
0.0
 30
0.0
  3
*Paper_Space
  1

  0
ENDBLK
  5
1D
330
1B
100
AcDbEntity
 67
     1
  8
0
100
AcDbBlockEnd
  0
BLOCK
  5
24
330
23
100
AcDbEntity
  8
0
100
AcDbBlockBegin
  2
*Paper_Space0
 70
     0
 10
0.0
 20
0.0
 30
0.0
  3
*Paper_Space0
  1

  0
ENDBLK
  5
25
330
23
100
AcDbEntity
  8
0
100
AcDbBlockEnd
  0
BLOCK
  5
70
330
6E
100
AcDbEntity
  8
0
100
AcDbBlockBegin
  2
1_069393_4
 70
     2
 10
0.0
 20
0.0
 30
0.0
  3
1_069393_4
  1

  0
ATTDEF
  5
73
330
6E
100
AcDbEntity
  8
AM_6
100
AcDbText
 10
13.478125
 20
2.23015625
 30
0.0
 40
0.5
  1
Imperial - IP Wide Slot Take-Up
100
AcDbAttributeDefinition
  3

  2
NN
 70
     8
280
     0
  0
ATTDEF
  5
74
330
6E
100
AcDbEntity
  8
AM_6
100
AcDbText
 10
13.478125
 20
1.73015625
 30
0.0
 40
0.5
  1
Imperial Wide Slot Take-Up Bearings
100
AcDbAttributeDefinition
  3

  2
NT
 70
     8
280
     0
  0
ATTDEF
  5
75
330
6E
100
AcDbEntity
  8
AM_6
100
AcDbText
 10
13.478125
 20
1.23015625
 30
0.0
 40
0.5
  1
069393
100
AcDbAttributeDefinition
  3

  2
NB
 70
     8
280
     0
  0
ATTDEF
  5
76
330
6E
100
AcDbEntity
  8
AM_6
100
AcDbText
 10
13.478125
 20
0.7301562500000003
 30
0.0
 40
0.5
  1
$PN.
100
AcDbAttributeDefinition
  3

  2
NBSYN
 70
     8
280
     0
  0
ATTDEF
  5
77
330
6E
100
AcDbEntity
  8
AM_6
100
AcDbText
 10
13.478125
 20
0.2301562500000003
 30
0.0
 40
0.5
  1
069393
100
AcDbAttributeDefinition
  3

  2
LINA
 70
     8
280
     0
  0
ATTDEF
  5
78
330
6E
100
AcDbEntity
  8
AM_6
100
AcDbText
 10
13.478125
 20
-0.2698437499999997
 30
0.0
 40
0.5
  1
3-11/16
100
AcDbAttributeDefinition
  3

  2
SS
 70
     8
280
     0
  0
ATTDEF
  5
79
330
6E
100
AcDbEntity
  8
AM_6
100
AcDbText
 10
13.478125
 20
-0.7698437499999997
 30
0.0
 40
0.5
  1
069393
100
AcDbAttributeDefinition
  3

  2
PN
 70
     8
280
     0
  0
ATTDEF
  5
7A
330
6E
100
AcDbEntity
  8
AM_6
100
AcDbText
 10
13.478125
 20
-1.26984375
 30
0.0
 40
0.5
  1
WSTU-IP-311RE
100
AcDbAttributeDefinition
  3

  2
DESCRIPTION
 70
     8
280
     0
  0
ATTDEF
  5
7B
330
6E
100
AcDbEntity
  8
AM_6
100
AcDbText
 10
13.478125
 20
-1.76984375
 30
0.0
 40
0.5
  1
Expansion
100
AcDbAttributeDefinition
  3

  2
EF
 70
     8
280
     0
  0
ATTDEF
  5
7C
330
6E
100
AcDbEntity
  8
AM_6
100
AcDbText
 10
13.478125
 20
-2.26984375
 30
0.0
 40
0.5
  1
Contact Seal
100
AcDbAttributeDefinition
  3

  2
ST
 70
     8
280
     0
  0
ATTDEF
  5
7D
330
6E
100
AcDbEntity
  8
AM_6
100
AcDbText
 10
13.478125
 20
-2.76984375
 30
0.0
 40
0.5
  1
4-45/64
100
AcDbAttributeDefinition
  3

  2
A
 70
     8
280
     0
  0
ATTDEF
  5
7E
330
6E
100
AcDbEntity
  8
AM_6
100
AcDbText
 10
13.478125
 20
-3.26984375
 30
0.0
 40
0.5
  1
12-9/16
100
AcDbAttributeDefinition
  3

  2
B
 70
     8
280
     0
  0
ATTDEF
  5
7F
330
6E
100
AcDbEntity
  8
AM_6
100
AcDbText
 10
13.478125
 20
-3.76984375
 30
0.0
 40
0.5
  1
2-1/16
100
AcDbAttributeDefinition
  3

  2
C
 70
     8
280
     0
  0
ATTDEF
  5
80
330
6E
100
AcDbEntity
  8
AM_6
100
AcDbText
 10
13.478125
 20
-4.26984375
 30
0.0
 40
0.5
  1
7
100
AcDbAttributeDefinition
  3

  2
D
 70
     8
280
     0
  0
ATTDEF
  5
81
330
6E
100
AcDbEntity
  8
AM_6
100
AcDbText
 10
13.478125
 20
-4.76984375
 30
0.0
 40
0.5
  1
8-3/8
100
AcDbAttributeDefinition
  3

  2
E
 70
     8
280
     0
  0
ATTDEF
  5
82
330
6E
100
AcDbEntity
  8
AM_6
100
AcDbText
 10
13.478125
 20
-5.26984375
 30
0.0
 40
0.5
  1
2-1/8
100
AcDbAttributeDefinition
  3

  2
F
 70
     8
280
     0
  0
ATTDEF
  5
83
330
6E
100
AcDbEntity
  8
AM_6
100
AcDbText
 10
13.478125
 20
-5.76984375
 30
0.0
 40
0.5
  1
2-1/16
100
AcDbAttributeDefinition
  3

  2
G
 70
     8
280
     0
  0
ATTDEF
  5
84
330
6E
100
AcDbEntity
  8
AM_6
100
AcDbText
 10
13.478125
 20
-6.26984375
 30
0.0
 40
0.5
  1
2-1/8
100
AcDbAttributeDefinition
  3

  2
H
 70
     8
280
     0
  0
ATTDEF
  5
85
330
6E
100
AcDbEntity
  8
AM_6
100
AcDbText
 10
13.478125
 20
-6.76984375
 30
0.0
 40
0.5
  1
6
100
AcDbAttributeDefinition
  3

  2
J
 70
     8
280
     0
  0
ATTDEF
  5
86
330
6E
100
AcDbEntity
  8
AM_6
100
AcDbText
 10
13.478125
 20
-7.26984375
 30
0.0
 40
0.5
  1
3-3/8
100
AcDbAttributeDefinition
  3

  2
K
 70
     8
280
     0
  0
ATTDEF
  5
87
330
6E
100
AcDbEntity
  8
AM_6
100
AcDbText
 10
13.478125
 20
-7.76984375
 30
0.0
 40
0.5
  1
5-9/16
100
AcDbAttributeDefinition
  3

  2
L
 70
     8
280
     0
  0
ATTDEF
  5
88
330
6E
100
AcDbEntity
  8
AM_6
100
AcDbText
 10
13.478125
 20
-8.26984375
 30
0.0
 40
0.5
  1
8-5/8
100
AcDbAttributeDefinition
  3

  2
M
 70
     8
280
     0
  0
ATTDEF
  5
89
330
6E
100
AcDbEntity
  8
AM_6
100
AcDbText
 10
13.478125
 20
-8.76984375
 30
0.0
 40
0.5
  1
9-7/16
100
AcDbAttributeDefinition
  3

  2
N
 70
     8
280
     0
  0
ATTDEF
  5
8A
330
6E
100
AcDbEntity
  8
AM_6
100
AcDbText
 10
13.478125
 20
-9.26984375
 30
0.0
 40
0.5
  1
4-51/64
100
AcDbAttributeDefinition
  3

  2
R
 70
     8
280
     0
  0
ATTDEF
  5
8B
330
6E
100
AcDbEntity
  8
AM_6
100
AcDbText
 10
13.478125
 20
-9.76984375
 30
0.0
 40
0.5
  1
3-3/64
100
AcDbAttributeDefinition
  3

  2
S
 70
     8
280
     0
  0
ATTDEF
  5
8C
330
6E
100
AcDbEntity
  8
AM_6
100
AcDbText
 10
13.478125
 20
-10.26984375
 30
0.0
 40
0.5
  1
3-7/16
100
AcDbAttributeDefinition
  3

  2
T
 70
     8
280
     0
  0
ATTDEF
  5
8D
330
6E
100
AcDbEntity
  8
AM_6
100
AcDbText
 10
13.478125
 20
-10.76984375
 30
0.0
 40
0.5
  1
5/16
100
AcDbAttributeDefinition
  3

  2
X
 70
     8
280
     0
  0
ATTDEF
  5
8E
330
6E
100
AcDbEntity
  8
AM_6
100
AcDbText
 10
13.478125
 20
-11.26984375
 30
0.0
 40
0.5
  1
0.025
100
AcDbAttributeDefinition
  3

  2
Y
 70
     8
280
     0
  0
ATTDEF
  5
8F
330
6E
100
AcDbEntity
  8
AM_6
100
AcDbText
 10
13.478125
 20
-11.76984375
 30
0.0
 40
0.5
  1
4-1/2
100
AcDbAttributeDefinition
  3

  2
Z
 70
     8
280
     0
  0
ATTDEF
  5
90
330
6E
100
AcDbEntity
  8
AM_6
100
AcDbText
 10
13.478125
 20
-12.26984375
 30
0.0
 40
0.5
  1
baldor
100
AcDbAttributeDefinition
  3

  2
COMPANY
 70
     8
280
     0
  0
INSERT
  5
92
330
6E
100
AcDbEntity
  8
0
100
AcDbBlockReference
  2
2_405016_Inch_0_in_069393_4
 10
0.0
 20
0.0
 30
0.0
  0
INSERT
  5
11A
330
6E
100
AcDbEntity
  8
0
100
AcDbBlockReference
  2
3_ASME_B18_3_1_4_1_0_in_069393_4
 10
0.0
 20
0.0
 30
0.0
  0
INSERT
  5
12D
330
6E
100
AcDbEntity
  8
0
100
AcDbBlockReference
  2
4_ASME_B18_3_1_4_2_0_in_069393_4
 10
0.0
 20
0.0
 30
0.0
  0
INSERT
  5
14F
330
6E
100
AcDbEntity
  8
0
100
AcDbBlockReference
  2
5_070905LW_0_in_069393_4
 10
0.0
 20
0.0
 30
0.0
  0
INSERT
  5
185
330
6E
100
AcDbEntity
  8
0
100
AcDbBlockReference
  2
6_070905I_0_in_069393_4
 10
0.0
 20
0.0
 30
0.0
  0
INSERT
  5
206
330
6E
100
AcDbEntity
  8
0
100
AcDbBlockReference
  2
7_069393H_0_in_069393_4
 10
0.0
 20
0.0
 30
0.0
  0
ENDBLK
  5
71
330
6E
100
AcDbEntity
  8
0
100
AcDbBlockEnd
  0
BLOCK
  5
93
330
91
100
AcDbEntity
  8
0
100
AcDbBlockBegin
  2
2_405016_Inch_0_in_069393_4
 70
     2
 10
0.0
 20
0.0
 30
0.0
  3
2_405016_Inch_0_in_069393_4
  1

  0
ATTDEF
  5
95
330
91
100
AcDbEntity
  8
AM_6
100
AcDbText
 10
1.288080989361174
 20
0.2187500000000009
 30
0.0
 40
0.5
  1
405016 -Inch
100
AcDbAttributeDefinition
  3

  2
NN
 70
     8
280
     0
  0
ATTDEF
  5
96
330
91
100
AcDbEntity
  8
AM_6
100
AcDbText
 10
1.288080989361174
 20
-0.2812499999999991
 30
0.0
 40
0.5
  1
Grease Fitting
100
AcDbAttributeDefinition
  3

  2
NT
 70
     8
280
     0
  0
ATTDEF
  5
97
330
91
100
AcDbEntity
  8
AM_6
100
AcDbText
 10
1.288080989361174
 20
-0.7812499999999991
 30
0.0
 40
0.5
  1
405016-Inch
100
AcDbAttributeDefinition
  3

  2
NB
 70
     8
280
     0
  0
ATTDEF
  5
98
330
91
100
AcDbEntity
  8
AM_6
100
AcDbText
 10
1.288080989361174
 20
-1.281249999999999
 30
0.0
 40
0.5
  1
$MN.-Inch
100
AcDbAttributeDefinition
  3

  2
NBSYN
 70
     8
280
     0
  0
ATTDEF
  5
99
330
91
100
AcDbEntity
  8
AM_6
100
AcDbText
 10
1.288080989361174
 20
-1.781249999999999
 30
0.0
 40
0.5
  1
405016
100
AcDbAttributeDefinition
  3

  2
LINA
 70
     8
280
     0
  0
ATTDEF
  5
9A
330
91
100
AcDbEntity
  8
AM_6
100
AcDbText
 10
1.288080989361174
 20
-2.281249999999999
 30
0.0
 40
0.5
  1
405016
100
AcDbAttributeDefinition
  3

  2
MN
 70
     8
280
     0
  0
ATTDEF
  5
9B
330
91
100
AcDbEntity
  8
AM_6
100
AcDbText
 10
1.288080989361174
 20
-2.781249999999999
 30
0.0
 40
0.5
  1
7/16 HEX
100
AcDbAttributeDefinition
  3

  2
H
 70
     8
280
     0
  0
ATTDEF
  5
9C
330
91
100
AcDbEntity
  8
AM_6
100
AcDbText
 10
1.288080989361174
 20
-3.281249999999999
 30
0.0
 40
0.5
  1
0.383
100
AcDbAttributeDefinition
  3

  2
NDR
 70
     8
280
     0
  0
ATTDEF
  5
9D
330
91
100
AcDbEntity
  8
AM_6
100
AcDbText
 10
1.288080989361174
 20
-3.781249999999999
 30
0.0
 40
0.5
  1
0.337
100
AcDbAttributeDefinition
  3

  2
KDR
 70
     8
280
     0
  0
ATTDEF
  5
9E
330
91
100
AcDbEntity
  8
AM_6
100
AcDbText
 10
1.288080989361174
 20
-4.281249999999999
 30
0.0
 40
0.5
  1
0.1575
100
AcDbAttributeDefinition
  3

  2
BZE
 70
     8
280
     0
  0
ATTDEF
  5
9F
330
91
100
AcDbEntity
  8
AM_6
100
AcDbText
 10
1.288080989361174
 20
-4.781249999999999
 30
0.0
 40
0.5
  1
0.4375
100
AcDbAttributeDefinition
  3

  2
HEX
 70
     8
280
     0
  0
ATTDEF
  5
A0
330
91
100
AcDbEntity
  8
AM_6
100
AcDbText
 10
1.288080989361174
 20
-5.281249999999999
 30
0.0
 40
0.5
  1
0.281250
100
AcDbAttributeDefinition
  3

  2
HEX2
 70
     8
280
     0
  0
ATTDEF
  5
A1
330
91
100
AcDbEntity
  8
AM_6
100
AcDbText
 10
1.288080989361174
 20
-5.781249999999999
 30
0.0
 40
0.5
  1
baldor
100
AcDbAttributeDefinition
  3

  2
COMPANY
 70
     8
280
     0
  0
LWPOLYLINE
  5
A4
330
91
100
AcDbEntity
  8
AM_9
100
AcDbPolyline
 90
        3
 70
     0
 43
0.0
 10
-4.037425910833798
 20
-0.0000000000000001
 10
-4.055369123194631
 20
-0.0544416102741497
 10
-4.069488782291582
 20
-0.109375
  0
LWPOLYLINE
  5
A5
330
91
100
AcDbEntity
  8
AM_9
100
AcDbPolyline
 90
        3
 70
     0
 43
0.0
 10
-4.069488782291582
 20
0.1093749999999999
 10
-4.055441908560163
 20
0.0546874999999999
 10
-4.037425910833798
 20
-0.0000000000000001
  0
LINE
  5
A6
330
91
100
AcDbEntity
  8
AM_9
100
AcDbLine
 10
-4.445361433679112
 20
-0.1510741298357571
 30
0.0
 11
-4.457482532962808
 21
-0.1791093260592887
 31
0.0
  0
LINE
  5
A7
330
91
100
AcDbEntity
  8
AM_9
100
AcDbLine
 10
-4.29655814417876
 20
-0.2099962668917054
 30
0.0
 11
-4.30907074017393
 21
-0.2389369657326277
 31
0.0
  0
LWPOLYLINE
  5
A8
330
91
100
AcDbEntity
  8
AM_9
100
AcDbPolyline
 90
        3
 70
     0
 43
0.0
 10
-3.976770396834904
 20
-0.1093750000000001
 10
-3.967161731146913
 20
-0.0546875000000001
 10
-3.96152218945387
 20
-0.0000000000000001
  0
LWPOLYLINE
  5
A9
330
91
100
AcDbEntity
  8
AM_9
100
AcDbPolyline
 90
        3
 70
     0
 43
0.0
 10
-3.96152218945387
 20
-0.0000000000000001
 10
-3.967128154837424
 20
0.0544416102741495
 10
-3.976770396834904
 20
0.1093749999999999
  0
LWPOLYLINE
  5
AA
330
91
100
AcDbEntity
  8
AM_9
100
AcDbPolyline
 90
        3
 70
     0
 43
0.0
 10
-4.221488758634477
 20
-0.2987675689889718
 10
-4.241132348797606
 20
-0.2912216284034025
 10
-4.260084911640108
 20
-0.2813919000363599
  0
LWPOLYLINE
  5
AB
330
91
100
AcDbEntity
  8
AM_9
100
AcDbPolyline
 90
        3
 70
     0
 43
0.0
 10
-4.084736989672615
 20
0.2187499999999999
 10
-4.079131024289061
 20
0.1643083897258503
 10
-4.069488782291582
 20
0.1093749999999999
  0
LINE
  5
AC
330
91
100
AcDbEntity
  8
AM_9
100
AcDbLine
 10
-4.037425910833798
 20
-0.0000000000000001
 30
0.0
 11
-3.96152218945387
 21
-0.0000000000000001
 31
0.0
  0
LWPOLYLINE
  5
AD
330
91
100
AcDbEntity
  8
AM_9
100
AcDbPolyline
 90
        3
 70
     0
 43
0.0
 10
-4.069488782291582
 20
-0.109375
 10
-4.079097447979573
 20
-0.1640625000000001
 10
-4.084736989672615
 20
-0.2187500000000001
  0
LWPOLYLINE
  5
AE
330
91
100
AcDbEntity
  8
AM_9
100
AcDbPolyline
 90
        3
 70
     0
 43
0.0
 10
-4.240492670193555
 20
-0.2360765106845278
 10
-4.228836034746386
 20
-0.2462091938631852
 10
-4.222323642209091
 20
-0.252796981496867
  0
LINE
  5
AF
330
91
100
AcDbEntity
  8
AM_9
100
AcDbLine
 10
-4.002283019589221
 20
0.2000413016192556
 30
0.0
 11
-4.008833268292689
 21
0.2187499999999999
 31
0.0
  0
LWPOLYLINE
  5
B0
330
91
100
AcDbEntity
  8
AM_9
100
AcDbPolyline
 90
        3
 70
     0
 43
0.0
 10
-3.976770396834904
 20
0.1093749999999999
 10
-3.990817270566323
 20
0.1640624999999999
 10
-4.002283019589221
 20
0.2000413016192556
  0
LWPOLYLINE
  5
B1
330
91
100
AcDbEntity
  8
AM_9
100
AcDbPolyline
 90
        3
 70
     0
 43
0.0
 10
-4.002282916898861
 20
-0.2000409996967265
 10
-3.990890055931855
 20
-0.1643083897258505
 10
-3.976770396834904
 20
-0.1093750000000001
  0
LINE
  5
B2
330
91
100
AcDbEntity
  8
AM_9
100
AcDbLine
 10
-4.008833268292689
 20
-0.2187500000000001
 30
0.0
 11
-4.002282916898861
 21
-0.2000409996967265
 31
0.0
  0
ELLIPSE
  5
B3
330
91
100
AcDbEntity
  8
AM_9
100
AcDbEllipse
 10
-4.467832779243804
 20
-0.4687499999999999
 30
0.0
 11
-0.0949850206941107
 21
0.04106705218388634
 31
0.0
210
0.0
220
0.0
230
1.0
 40
0.1583155873460443
 41
3.066756133314176
 42
6.358021827455151
  0
ELLIPSE
  5
B4
330
91
100
AcDbEntity
  8
AM_9
100
AcDbEllipse
 10
-4.437862213130753
 20
-0.3994303217889762
 30
0.0
 11
-0.1277221801207923
 21
0.05522105904416085
 31
0.0
210
0.0
220
0.0
230
1.0
 40
0.1583155873460368
 41
3.058444011245693
 42
5.932176524882757
  0
LINE
  5
B5
330
91
100
AcDbEntity
  8
AM_9
100
AcDbLine
 10
-4.436150808605776
 20
-0.1182889283861136
 30
0.0
 11
-4.436797241784498
 21
-0.1197840799880168
 31
0.0
  0
LINE
  5
B6
330
91
100
AcDbEntity
  8
AM_9
100
AcDbLine
 10
-4.231797027603287
 20
-0.2
 30
0.0
 11
-4.230232286778941
 21
-0.1963808714851039
 31
0.0
  0
ELLIPSE
  5
B7
330
91
100
AcDbEntity
  8
AM_9
100
AcDbEllipse
 10
-4.352238554709142
 20
-0.2013892028241956
 30
0.0
 11
-0.1009671980072442
 21
0.04365346408438532
 31
0.0
210
0.0
220
0.0
230
1.0
 40
0.1583155873460557
 41
3.141592653589793
 42
6.283185307179586
  0
LWPOLYLINE
  5
B8
330
91
100
AcDbEntity
  8
AM_9
100
AcDbPolyline
 90
        3
 70
     0
 43
0.0
 10
-4.436153719374282
 20
-0.1182956618802584
 10
-4.435849953345591
 20
-0.1208367673933812
 10
-4.43496915090822
 20
-0.1221902561649289
  0
LWPOLYLINE
  5
B9
330
91
100
AcDbEntity
  8
AM_9
100
AcDbPolyline
 90
        4
 70
     0
 43
0.0
 10
-4.230237519962866
 20
-0.1963929740740921
 10
-4.230686841241389
 20
-0.1971856748420371
 10
-4.234214977339493
 20
-0.1994144431868155
 10
-4.239105466419367
 20
-0.1999999999699529
  0
LWPOLYLINE
  5
BA
330
91
100
AcDbEntity
  8
AM_9
100
AcDbPolyline
 90
        5
 70
     0
 43
0.0
 10
-4.457482532962808
 20
-0.1791093260592887
 10
-4.474529886193708
 20
-0.1842540823997054
 10
-4.490440944689841
 20
-0.1862220679364951
 10
-4.505128614673287
 20
-0.1844124966919382
 10
-4.518311062898432
 20
-0.1791093260592887
  0
LWPOLYLINE
  5
BB
330
91
100
AcDbEntity
  8
AM_9
100
AcDbPolyline
 90
        3
 70
     0
 43
0.0
 10
-4.386249254809981
 20
-0.2162150840763211
 10
-4.422029809765223
 20
-0.1996402057054678
 10
-4.457482532962808
 20
-0.1791093260592887
  0
LWPOLYLINE
  5
BC
330
91
100
AcDbEntity
  8
AM_9
100
AcDbPolyline
 90
        4
 70
     0
 43
0.0
 10
-4.334487542901122
 20
-0.2330731529818582
 10
-4.347475432021453
 20
-0.2295338871417796
 10
-4.385072968734169
 20
-0.2166871171046321
 10
-4.386249254809981
 20
-0.2162150840763211
  0
LINE
  5
BD
330
91
100
AcDbEntity
  8
AM_9
100
AcDbLine
 10
-4.30907074017393
 20
-0.2389369657326277
 30
0.0
 11
-4.334487542901122
 21
-0.2330731529818582
 31
0.0
  0
LWPOLYLINE
  5
BE
330
91
100
AcDbEntity
  8
AM_9
100
AcDbPolyline
 90
        3
 70
     0
 43
0.0
 10
-4.275203199862696
 20
-0.2711532636537957
 10
-4.292660498944329
 20
-0.2561815527589921
 10
-4.30907074017393
 20
-0.2389369657326277
  0
LWPOLYLINE
  5
BF
330
91
100
AcDbEntity
  8
AM_9
100
AcDbPolyline
 90
        3
 70
     0
 43
0.0
 10
-4.29655814417876
 20
-0.2099962668917054
 10
-4.275667385903598
 20
-0.2163479371246913
 10
-4.255610958416143
 20
-0.2258378743019629
  0
LWPOLYLINE
  5
C0
330
91
100
AcDbEntity
  8
AM_9
100
AcDbPolyline
 90
        4
 70
     0
 43
0.0
 10
-4.47183239038408
 20
-0.141958509815605
 10
-4.468940929494485
 20
-0.1420496512545706
 10
-4.458354730921689
 20
-0.1441228263802215
 10
-4.445361433679112
 20
-0.1510741298357571
  0
ELLIPSE
  5
C1
330
91
100
AcDbEntity
  8
AM_9
100
AcDbEllipse
 10
-4.352238554709142
 20
-0.2013892028241885
 30
0.0
 11
-0.129077383816079
 21
0.05580698533514242
 31
0.0
210
0.0
220
0.0
230
1.0
 40
0.1583155873460415
 41
3.937411257393418
 42
5.610613825799293
  0
ELLIPSE
  5
C2
330
91
100
AcDbEntity
  8
AM_9
100
AcDbEllipse
 10
-4.426433367706194
 20
-0.3729962569746643
 30
0.0
 11
-0.1222564956648747
 21
0.05285795434479277
 31
0.0
210
0.0
220
0.0
230
1.0
 40
0.1583155873460386
 41
3.347405278274826
 42
5.932176524882761
  0
LINE
  5
C3
330
91
100
AcDbEntity
  8
AM_9
100
AcDbLine
 10
-4.260084911640108
 20
-0.2813919000363599
 30
0.0
 11
-4.275203199862696
 21
-0.2711532636537957
 31
0.0
  0
ELLIPSE
  5
C4
330
91
100
AcDbEntity
  8
AM_9
100
AcDbEllipse
 10
-4.371830796155698
 20
-0.2467045921760186
 30
0.0
 11
-0.1290773838160809
 21
0.05580698533514405
 31
0.0
210
0.0
220
0.0
230
1.0
 40
0.158315587346037
 41
2.931540131874944
 42
3.73815158758569
  0
LWPOLYLINE
  5
C5
330
91
100
AcDbEntity
  8
AM_9
100
AcDbPolyline
 90
        3
 70
     0
 43
0.0
 10
-4.499319521316822
 20
-0.1973625869063078
 10
-4.497705996025058
 20
-0.2001664590552851
 10
-4.496015520225604
 20
-0.2034724254892862
  0
ELLIPSE
  5
C6
330
91
100
AcDbEntity
  8
AM_9
100
AcDbEllipse
 10
-4.371830796155695
 20
-0.2467045921760224
 30
0.0
 11
-0.12907738381608
 21
0.05580698533514208
 31
0.0
210
0.0
220
0.0
230
1.0
 40
0.1583155873460506
 41
3.937411257393403
 42
6.739367744568559
  0
LINE
  5
C7
330
91
100
AcDbEntity
  8
AM_9
100
AcDbLine
 10
-4.255610958416143
 20
-0.2258378743019629
 30
0.0
 11
-4.245831560953658
 21
-0.2324608261325392
 31
0.0
  0
LWPOLYLINE
  5
C8
330
91
100
AcDbEntity
  8
AM_9
100
AcDbPolyline
 90
       17
 70
     0
 43
0.0
 10
-4.243243771606256
 20
-0.1790373738501779
 10
-4.253292833529086
 20
-0.1733931390117467
 10
-4.2659132505761
 20
-0.1670729780242511
 10
-4.280047385931721
 20
-0.1606047421316796
 10
-4.296098181410917
 20
-0.1538031670974777
 10
-4.312732838256317
 20
-0.1472336073736393
 10
-4.330418874746427
 20
-0.1407130262602577
 10
-4.347664256668246
 20
-0.1347930597680667
 10
-4.364973344858031
 20
-0.1293028157827817
 10
-4.380863601264148
 20
-0.1247141396218193
 10
-4.395821885594026
 20
-0.1208880884981782
 10
-4.408561557853374
 20
-0.1181545989145989
 10
-4.419482985077612
 20
-0.1164278875396128
 10
-4.427653469686271
 20
-0.1158549073091554
 10
-4.433329631772436
 20
-0.1164156227038168
 10
-4.436033783532618
 20
-0.1180609686233502
 10
-4.436153719374282
 20
-0.1182956618802584
  0
LWPOLYLINE
  5
C9
330
91
100
AcDbEntity
  8
AM_9
100
AcDbPolyline
 90
        5
 70
     0
 43
0.0
 10
-4.243243771606256
 20
-0.1790373738501784
 10
-4.236111293422029
 20
-0.1842628795203941
 10
-4.231789253934338
 20
-0.1891729979031394
 10
-4.229930892218545
 20
-0.1936098952159724
 10
-4.230237519962866
 20
-0.1963929740740921
  0
LINE
  5
CA
330
91
100
AcDbEntity
  8
AM_9
100
AcDbLine
 10
-4.14045540054981
 20
0.1999999999999998
 30
0.0
 11
-4.1875
 21
0.1999999999999998
 31
0.0
  0
LINE
  5
CB
330
91
100
AcDbEntity
  8
AM_9
100
AcDbLine
 10
-4.1875
 20
-0.2
 30
0.0
 11
-4.14045540054981
 21
-0.2
 31
0.0
  0
LINE
  5
CC
330
91
100
AcDbEntity
  8
AM_9
100
AcDbLine
 10
-3.975300776455101
 20
0.1999999999999998
 30
0.0
 11
-4.047737015093132
 21
0.1999999999999998
 31
0.0
  0
LINE
  5
CD
330
91
100
AcDbEntity
  8
AM_9
100
AcDbLine
 10
-4.047737015093132
 20
-0.2
 30
0.0
 11
-3.975300776455101
 21
-0.2
 31
0.0
  0
LINE
  5
CE
330
91
100
AcDbEntity
  8
AM_9
100
AcDbLine
 10
-4.179359147350254
 20
-0.2187500000000001
 30
0.0
 11
-4.187912673086386
 21
-0.1940929050555964
 31
0.0
  0
LINE
  5
CF
330
91
100
AcDbEntity
  8
AM_9
100
AcDbLine
 10
-4.179359147350254
 20
-0.2187500000000001
 30
0.0
 11
-4.008833268292689
 21
-0.2187500000000001
 31
0.0
  0
LINE
  5
D0
330
91
100
AcDbEntity
  8
AM_9
100
AcDbLine
 10
-4.130462022278266
 20
-0.0625653532703691
 30
0.0
 11
-4.118703633351359
 21
-0.1093750000000001
 31
0.0
  0
LWPOLYLINE
  5
D1
330
91
100
AcDbEntity
  8
AM_9
100
AcDbPolyline
 90
        3
 70
     0
 43
0.0
 10
-4.150766504809145
 20
-0.0000000000000001
 10
-4.13282329244831
 20
-0.0544416102741497
 10
-4.130462022278266
 20
-0.0625653532703691
  0
LINE
  5
D2
330
91
100
AcDbEntity
  8
AM_9
100
AcDbLine
 10
-4.179359147350254
 20
0.2187499999999999
 30
0.0
 11
-4.008833268292689
 21
0.2187499999999999
 31
0.0
  0
LINE
  5
D3
330
91
100
AcDbEntity
  8
AM_9
100
AcDbLine
 10
-4.187916321452259
 20
0.194081961609382
 30
0.0
 11
-4.179359147350254
 21
0.2187499999999999
 31
0.0
  0
LINE
  5
D4
330
91
100
AcDbEntity
  8
AM_9
100
AcDbLine
 10
-4.1875
 20
-0.0000000000000001
 30
0.0
 11
-4.150766504809145
 21
-0.0000000000000001
 31
0.0
  0
LWPOLYLINE
  5
D5
330
91
100
AcDbEntity
  8
AM_9
100
AcDbPolyline
 90
        3
 70
     0
 43
0.0
 10
-4.130412631532854
 20
0.0627386705864942
 10
-4.132750507082778
 20
0.0546874999999999
 10
-4.150766504809145
 20
-0.0000000000000001
  0
LINE
  5
D6
330
91
100
AcDbEntity
  8
AM_9
100
AcDbLine
 10
-4.118703633351359
 20
0.1093749999999999
 30
0.0
 11
-4.130412631532854
 21
0.0627386705864942
 31
0.0
  0
LINE
  5
D7
330
91
100
AcDbEntity
  8
AM_9
100
AcDbLine
 10
-3.793626215269454
 20
0.1854025098511931
 30
0.0
 11
-3.974394937584539
 21
0.191495967186768
 31
0.0
  0
LINE
  5
D8
330
91
100
AcDbEntity
  8
AM_9
100
AcDbLine
 10
-3.974394937584539
 20
-0.1914959671867681
 30
0.0
 11
-3.793626215269454
 21
-0.1854025098511933
 31
0.0
  0
ELLIPSE
  5
D9
330
91
100
AcDbEntity
  8
AM_9
100
AcDbEllipse
 10
-3.975300776455102
 20
-0.0000000000000005
 30
0.0
 11
1.172668097677221E-17
 21
0.1915112338502299
 31
0.0
210
0.0
220
0.0
230
1.0
 40
0.3746065934159116
 41
1.99114363747545
 42
7.430269228605867
  0
LINE
  5
DA
330
91
100
AcDbEntity
  8
AM_9
100
AcDbLine
 10
-3.748011359781798
 20
0.1478814731883058
 30
0.0
 11
-3.766440158461542
 21
0.1696099849128764
 31
0.0
  0
LINE
  5
DB
330
91
100
AcDbEntity
  8
AM_9
100
AcDbLine
 10
-3.766440158461542
 20
-0.1696099849128767
 30
0.0
 11
-3.748011359781798
 21
-0.1478814731883061
 31
0.0
  0
ELLIPSE
  5
DC
330
91
100
AcDbEntity
  8
AM_9
100
AcDbEllipse
 10
-4.140455400549814
 20
0.0
 30
0.0
 11
1.339457436567424E-17
 21
0.218750000000001
 31
0.0
210
0.0
220
0.0
230
1.0
 40
0.374606593415891
 41
0.0
 42
6.283185307179586
  0
ELLIPSE
  5
DD
330
91
100
AcDbEntity
  8
AM_9
100
AcDbEllipse
 10
-4.14045540054981
 20
-0.0000000000000002
 30
0.0
 11
1.224646799147351E-17
 21
0.1999999999999997
 31
0.0
210
0.0
220
0.0
230
1.0
 40
0.3746065934159098
 41
0.0
 42
6.283185307179586
  0
ELLIPSE
  5
DE
330
91
100
AcDbEntity
  8
AM_9
100
AcDbEllipse
 10
-4.04773701509313
 20
-0.0000000000000006
 30
0.0
 11
1.339457436567414E-17
 21
0.2187499999999993
 31
0.0
210
0.0
220
0.0
230
1.0
 40
0.3746065934159121
 41
0.0
 42
6.283185307179586
  0
ELLIPSE
  5
DF
330
91
100
AcDbEntity
  8
AM_9
100
AcDbEllipse
 10
-4.047737015093132
 20
0.0000000000000001
 30
0.0
 11
1.224646799147354E-17
 21
0.2000000000000001
 31
0.0
210
0.0
220
0.0
230
1.0
 40
0.3746065934159112
 41
0.0
 42
6.283185307179586
  0
ELLIPSE
  5
E0
330
91
100
AcDbEntity
  8
AM_9
100
AcDbEllipse
 10
-3.975300776455102
 20
0.0
 30
0.0
 11
1.224646799147352E-17
 21
0.1999999999999999
 31
0.0
210
0.0
220
0.0
230
1.0
 40
0.3746065934159184
 41
0.0
 42
6.283185307179586
  0
ELLIPSE
  5
E1
330
91
100
AcDbEntity
  8
AM_9
100
AcDbEllipse
 10
-3.794503230083865
 20
-0.0000000000000008
 30
0.0
 11
1.135353457964633E-17
 21
0.1854172907249846
 31
0.0
210
0.0
220
0.0
230
1.0
 40
0.3746065934159083
 41
0.0
 42
6.283185307179586
  0
ELLIPSE
  5
E2
330
91
100
AcDbEntity
  8
AM_9
100
AcDbEllipse
 10
-3.772479308268617
 20
0.0
 30
0.0
 11
9.899048221688866E-18
 21
0.1616637258772239
 31
0.0
210
0.0
220
0.0
230
1.0
 40
0.3746065934159154
 41
0.0
 42
6.283185307179586
  0
LINE
  5
E4
330
91
100
AcDbEntity
  8
AM_4
100
AcDbLine
 10
-4.222293868891277
 20
-0.2528286444668461
 30
0.0
 11
-4.227993580652972
 21
-0.2467669665417466
 31
0.0
  0
LWPOLYLINE
  5
E5
330
91
100
AcDbEntity
  8
AM_4
100
AcDbPolyline
 90
        3
 70
     0
 43
0.0
 10
-4.222323642209091
 20
-0.252796981496867
 10
-4.218438509271786
 20
-0.2570505402207574
 10
-4.208581743033535
 20
-0.2689146070947222
  0
ELLIPSE
  5
E6
330
91
100
AcDbEntity
  8
AM_4
100
AcDbEllipse
 10
-4.352238554709151
 20
-0.2013892028241807
 30
0.0
 11
-0.129077383816087
 21
0.05580698533515004
 31
0.0
210
0.0
220
0.0
230
1.0
 40
0.1583155873460357
 41
2.931540131874979
 42
3.738151587585657
  0
LWPOLYLINE
  5
E7
330
91
100
AcDbEntity
  8
AM_4
100
AcDbPolyline
 90
        3
 70
     0
 43
0.0
 10
-4.208581743033535
 20
-0.2689146070947223
 10
-4.217606669314023
 20
-0.2634308483997529
 10
-4.227840517509629
 20
-0.2602304684431306
  0
LWPOLYLINE
  5
E8
330
91
100
AcDbEntity
  8
AM_4
100
AcDbPolyline
 90
        3
 70
     0
 43
0.0
 10
-4.247432758956182
 20
-0.3055458577949631
 10
-4.234838525268342
 20
-0.3030753670497809
 10
-4.221488758634477
 20
-0.2987675689889718
  0
LINE
  5
E9
330
91
100
AcDbEntity
  8
AM_4
100
AcDbLine
 10
-4.208581743033535
 20
-0.2689146070947223
 30
0.0
 11
-4.221488758634477
 21
-0.2987675689889718
 31
0.0
  0
LINE
  5
EA
330
91
100
AcDbEntity
  8
AM_4
100
AcDbLine
 10
-4.373599716150943
 20
-0.5108264199512539
 30
0.0
 11
-4.311151157327124
 21
-0.456008633280415
 31
0.0
  0
LINE
  5
EB
330
91
100
AcDbEntity
  8
AM_4
100
AcDbLine
 10
-4.565880542668584
 20
-0.3458756366863984
 30
0.0
 11
-4.563038041703904
 21
-0.4289222044837946
 31
0.0
  0
ELLIPSE
  5
EC
330
91
100
AcDbEntity
  8
AM_4
100
AcDbEllipse
 10
-4.467832779243804
 20
-0.4687500000000003
 30
0.0
 11
-0.09498502069410984
 21
0.04106705218388632
 31
0.0
210
0.0
220
0.0
230
1.0
 40
0.1583155873460219
 41
0.0748365202755723
 42
3.066756133314222
  0
LWPOLYLINE
  5
ED
330
91
100
AcDbEntity
  8
AM_4
100
AcDbPolyline
 90
        7
 70
     0
 43
0.0
 10
-4.544381572446595
 20
-0.3172721843690895
 10
-4.54561653845131
 20
-0.3176574568448511
 10
-4.552905647900927
 20
-0.3211380249025229
 10
-4.559523625880714
 20
-0.3270369730967434
 10
-4.56417191477964
 20
-0.3351493529243341
 10
-4.565895199578952
 20
-0.3445309466733411
 10
-4.565798222950456
 20
-0.3472815323502451
  0
LWPOLYLINE
  5
EE
330
91
100
AcDbEntity
  8
AM_4
100
AcDbPolyline
 90
        7
 70
     0
 43
0.0
 10
-4.31212976657532
 20
-0.4568302134717965
 10
-4.30825081868703
 20
-0.4530670408518052
 10
-4.303459910015874
 20
-0.4450554143116227
 10
-4.30155812555178
 20
-0.4356210699860171
 10
-4.302471706822424
 20
-0.4275215486812921
 10
-4.305069170101119
 20
-0.4206951626326157
 10
-4.305798487501784
 20
-0.4193396633496431
  0
ELLIPSE
  5
EF
330
91
100
AcDbEntity
  8
AM_4
100
AcDbEllipse
 10
-4.437862213130754
 20
-0.399430321788976
 30
0.0
 11
-0.1277221801207924
 21
0.05522105904416074
 31
0.0
210
0.0
220
0.0
230
1.0
 40
0.1583155873460383
 41
0.084087802740922
 42
3.058444011245693
  0
LWPOLYLINE
  5
F0
330
91
100
AcDbEntity
  8
AM_4
100
AcDbPolyline
 90
        3
 70
     0
 43
0.0
 10
-4.282317288570101
 20
-0.2987675689889718
 10
-4.272735202211524
 20
-0.3030606061861223
 10
-4.262234514325495
 20
-0.3055458577949631
  0
LINE
  5
F1
330
91
100
AcDbEntity
  8
AM_4
100
AcDbLine
 10
-4.506189963614736
 20
-0.1510741298357571
 30
0.0
 11
-4.518311062898432
 21
-0.1791093260592887
 31
0.0
  0
LWPOLYLINE
  5
F2
330
91
100
AcDbEntity
  8
AM_4
100
AcDbPolyline
 90
        4
 70
     0
 43
0.0
 10
-4.24264227287894
 20
-0.2602304684431209
 10
-4.249761086038679
 20
-0.2616913382589204
 10
-4.259370276146828
 20
-0.2647402074337707
 10
-4.269410272969158
 20
-0.2689146070947223
  0
LINE
  5
F3
330
91
100
AcDbEntity
  8
AM_4
100
AcDbLine
 10
-4.436797241784498
 20
-0.1197840799880168
 30
0.0
 11
-4.453205752716386
 21
-0.1577357387398102
 31
0.0
  0
LINE
  5
F4
330
91
100
AcDbEntity
  8
AM_4
100
AcDbLine
 10
-4.251271356701899
 20
-0.245042666908566
 30
0.0
 11
-4.231797027603287
 21
-0.2
 31
0.0
  0
ELLIPSE
  5
F5
330
91
100
AcDbEntity
  8
AM_4
100
AcDbEllipse
 10
-4.352238554709142
 20
-0.2013892028241881
 30
0.0
 11
-0.1009671980072433
 21
0.04365346408437797
 31
0.0
210
0.0
220
0.0
230
1.0
 40
0.1583155873460341
 41
0.0
 42
3.141592653589793
  0
LWPOLYLINE
  5
F6
330
91
100
AcDbEntity
  8
AM_4
100
AcDbPolyline
 90
        3
 70
     0
 43
0.0
 10
-4.518311062898432
 20
-0.1791093260592887
 10
-4.49920517270345
 20
-0.1988355121406939
 10
-4.495070874947504
 20
-0.2025620431642225
  0
LINE
  5
F7
330
91
100
AcDbEntity
  8
AM_4
100
AcDbLine
 10
-4.49512700000585
 20
-0.2025128028333112
 30
0.0
 11
-4.491600907037462
 21
-0.2056064806068165
 31
0.0
  0
LWPOLYLINE
  5
F8
330
91
100
AcDbEntity
  8
AM_4
100
AcDbPolyline
 90
        4
 70
     0
 43
0.0
 10
-4.495070874947504
 20
-0.2025620431642225
 10
-4.478386109917391
 20
-0.2156330920108725
 10
-4.45532770373871
 20
-0.2290462109660021
 10
-4.43072780004518
 20
-0.2389369657326275
  0
LWPOLYLINE
  5
F9
330
91
100
AcDbEntity
  8
AM_4
100
AcDbPolyline
 90
        4
 70
     0
 43
0.0
 10
-4.506189963614736
 20
-0.1510741298357571
 10
-4.493066701178461
 20
-0.1458778226760521
 10
-4.480627699551524
 20
-0.1427138007556463
 10
-4.47183239038408
 20
-0.141958509815605
  0
LWPOLYLINE
  5
FA
330
91
100
AcDbEntity
  8
AM_4
100
AcDbPolyline
 90
        7
 70
     0
 43
0.0
 10
-4.418215204050008
 20
-0.2099962668917054
 10
-4.431565343863234
 20
-0.1943573015029059
 10
-4.446064335181086
 20
-0.1805491420332304
 10
-4.462099569452531
 20
-0.1688997677199809
 10
-4.479417320187866
 20
-0.1598729403210871
 10
-4.49260859761278
 20
-0.1549033058439656
 10
-4.506189963614736
 20
-0.1510741298357571
  0
LINE
  5
FB
330
91
100
AcDbEntity
  8
AM_4
100
AcDbLine
 10
-4.470407703563468
 20
-0.1419585097669024
 30
0.0
 11
-4.471947764995281
 21
-0.1419585097669024
 31
0.0
  0
ELLIPSE
  5
FC
330
91
100
AcDbEntity
  8
AM_4
100
AcDbEllipse
 10
-4.352238554709153
 20
-0.201389202824182
 30
0.0
 11
-0.1290773838160657
 21
0.05580698533513639
 31
0.0
210
0.0
220
0.0
230
1.0
 40
0.1583155873460387
 41
5.610613825799282
 42
7.92694179237218
  0
ELLIPSE
  5
FD
330
91
100
AcDbEntity
  8
AM_4
100
AcDbEllipse
 10
-4.371830796155695
 20
-0.2467045921760203
 30
0.0
 11
-0.1290773838160772
 21
0.05580698533514156
 31
0.0
210
0.0
220
0.0
230
1.0
 40
0.1583155873460394
 41
0.4561824373891117
 42
1.643756485192525
  0
LWPOLYLINE
  5
FE
330
91
100
AcDbEntity
  8
AM_4
100
AcDbPolyline
 90
        3
 70
     0
 43
0.0
 10
-4.262234514325495
 20
-0.3055458577949631
 10
-4.255275127414971
 20
-0.3064767622622302
 10
-4.247432758956182
 20
-0.3055458577949631
  0
ELLIPSE
  5
FF
330
91
100
AcDbEntity
  8
AM_4
100
AcDbEllipse
 10
-4.371830796155695
 20
-0.2467045921760163
 30
0.0
 11
-0.1290773838160808
 21
0.05580698533514586
 31
0.0
210
0.0
220
0.0
230
1.0
 40
0.158315587346057
 41
1.843016155000228
 42
2.649627610710967
  0
LWPOLYLINE
  5
100
330
91
100
AcDbEntity
  8
AM_4
100
AcDbPolyline
 90
       12
 70
     0
 43
0.0
 10
-4.304949073735955
 20
-0.420908869318401
 10
-4.3076132309028
 20
-0.414410994079394
 10
-4.310998940115996
 20
-0.401672830937315
 10
-4.312292247651241
 20
-0.3868178120927151
 10
-4.310746791485013
 20
-0.3710651996317634
 10
-4.306132565072631
 20
-0.3554947559795807
 10
-4.298043269930707
 20
-0.3401960809153743
 10
-4.287973461105072
 20
-0.3278316381330151
 10
-4.276894920981532
 20
-0.3184092835465447
 10
-4.265766399416584
 20
-0.3117872659703704
 10
-4.255652854596488
 20
-0.3076852451620598
 10
-4.248045653839286
 20
-0.3056778408863131
  0
LWPOLYLINE
  5
101
330
91
100
AcDbEntity
  8
AM_4
100
AcDbPolyline
 90
       12
 70
     0
 43
0.0
 10
-4.496015520225604
 20
-0.2034724254892862
 10
-4.493421368796876
 20
-0.2095624436968845
 10
-4.489884284462907
 20
-0.2220162486952904
 10
-4.488329117262392
 20
-0.2367092989165559
 10
-4.489562051219555
 20
-0.2524220087346871
 10
-4.493859087951614
 20
-0.268056541167087
 10
-4.501709343571795
 20
-0.2836213337709079
 10
-4.511637927560496
 20
-0.2962664514674296
 10
-4.522661083732139
 20
-0.3059593731955884
 10
-4.53382891699328
 20
-0.3128348965799654
 10
-4.544082620024914
 20
-0.3171544526224544
 10
-4.54491123571206
 20
-0.3174288072995905
  0
ELLIPSE
  5
102
330
91
100
AcDbEntity
  8
AM_4
100
AcDbEllipse
 10
-4.426433367706193
 20
-0.372996256974664
 30
0.0
 11
-0.1222564956648755
 21
0.05285795434479287
 31
0.0
210
0.0
220
0.0
230
1.0
 40
0.1583155873460368
 41
6.105168508172825
 42
9.601789440386309
  0
ELLIPSE
  5
103
330
91
100
AcDbEntity
  8
AM_4
100
AcDbEllipse
 10
-4.352238554709144
 20
-0.2013892028241888
 30
0.0
 11
-0.1290773838160879
 21
0.05580698533512919
 31
0.0
210
0.0
220
0.0
230
1.0
 40
0.1583155873460516
 41
1.843016155000204
 42
2.64962761071092
  0
LINE
  5
104
330
91
100
AcDbEntity
  8
AM_4
100
AcDbLine
 10
-4.227840517509629
 20
-0.2602304684431306
 30
0.0
 11
-4.24264227287894
 21
-0.2602304684431209
 31
0.0
  0
LINE
  5
105
330
91
100
AcDbEntity
  8
AM_4
100
AcDbLine
 10
-4.245831560953658
 20
-0.2324608261325392
 30
0.0
 11
-4.240492670193555
 21
-0.2360765106845277
 31
0.0
  0
LWPOLYLINE
  5
106
330
91
100
AcDbEntity
  8
AM_4
100
AcDbPolyline
 90
        3
 70
     0
 43
0.0
 10
-4.269410272969158
 20
-0.2689146070947223
 10
-4.296830539796217
 20
-0.251275593729576
 10
-4.326043269938575
 20
-0.2360765106845275
  0
LINE
  5
107
330
91
100
AcDbEntity
  8
AM_4
100
AcDbLine
 10
-4.326043269938575
 20
-0.2360765106845275
 30
0.0
 11
-4.351641011919114
 21
-0.2258378743019627
 31
0.0
  0
LWPOLYLINE
  5
108
330
91
100
AcDbEntity
  8
AM_4
100
AcDbPolyline
 90
        4
 70
     0
 43
0.0
 10
-4.351641011919114
 20
-0.2258378743019627
 10
-4.374331836012525
 20
-0.2189176876709015
 10
-4.396098570536125
 20
-0.2138633349839128
 10
-4.418215204050008
 20
-0.2099962668917054
  0
LINE
  5
109
330
91
100
AcDbEntity
  8
AM_4
100
AcDbLine
 10
-4.418215204050008
 20
-0.2099962668917054
 30
0.0
 11
-4.430727800045178
 21
-0.2389369657326277
 31
0.0
  0
LWPOLYLINE
  5
10A
330
91
100
AcDbEntity
  8
AM_4
100
AcDbPolyline
 90
        3
 70
     0
 43
0.0
 10
-4.430727800045178
 20
-0.2389369657326277
 10
-4.401681886454662
 20
-0.2560939713202353
 10
-4.371233253365665
 20
-0.2711532636537957
  0
LINE
  5
10B
330
91
100
AcDbEntity
  8
AM_4
100
AcDbLine
 10
-4.371233253365665
 20
-0.2711532636537957
 30
0.0
 11
-4.345635511385128
 21
-0.2813919000363599
 31
0.0
  0
LWPOLYLINE
  5
10C
330
91
100
AcDbEntity
  8
AM_4
100
AcDbPolyline
 90
        3
 70
     0
 43
0.0
 10
-4.345635511385128
 20
-0.2813919000363599
 10
-4.314404674128245
 20
-0.2911775952746243
 10
-4.282317288570101
 20
-0.2987675689889718
  0
LINE
  5
10D
330
91
100
AcDbEntity
  8
AM_4
100
AcDbLine
 10
-4.269410272969158
 20
-0.2689146070947223
 30
0.0
 11
-4.282317288570101
 21
-0.2987675689889718
 31
0.0
  0
ARC
  5
10E
330
91
100
AcDbEntity
  8
AM_4
100
AcDbCircle
 10
-4.27663552918931
 20
0.0000000000000016
 30
0.0
 40
0.1999999999999982
100
AcDbArc
 50
90.0
 51
217.7382912036816
  0
LWPOLYLINE
  5
10F
330
91
100
AcDbEntity
  8
AM_4
100
AcDbPolyline
 90
       11
 70
     0
 43
0.0
 10
-4.43496915090822
 20
-0.1221902561649289
 10
-4.432792367386937
 20
-0.1245107513506023
 10
-4.426774666315372
 20
-0.1291842652280563
 10
-4.418286012488728
 20
-0.134472979061152
 10
-4.407092753254979
 20
-0.140518627090196
 10
-4.394103037914598
 20
-0.1468270783017121
 10
-4.378966226689439
 20
-0.1535654953592165
 10
-4.362922282409231
 20
-0.1601799433259583
 10
-4.345534012197201
 20
-0.1668493358980661
 10
-4.327978404472812
 20
-0.1731116383367606
 10
-4.310027286772343
 20
-0.1790373738502115
  0
ELLIPSE
  5
110
330
91
100
AcDbEntity
  8
AM_4
100
AcDbEllipse
 10
-4.276635529189307
 20
-0.0000000000000001
 30
0.0
 11
1.224646799147354E-17
 21
0.2000000000000001
 31
0.0
210
0.0
220
0.0
230
1.0
 40
0.3746065934159047
 41
0.0
 42
2.679646633022821
  0
LINE
  5
111
330
91
100
AcDbEntity
  8
AM_4
100
AcDbLine
 10
-4.1875
 20
0.1999999999999998
 30
0.0
 11
-4.276635529189307
 21
0.1999999999999998
 31
0.0
  0
LINE
  5
112
330
91
100
AcDbEntity
  8
AM_4
100
AcDbLine
 10
-4.239264244253562
 20
-0.2
 30
0.0
 11
-4.1875
 21
-0.2
 31
0.0
  0
LWPOLYLINE
  5
113
330
91
100
AcDbEntity
  8
AM_4
100
AcDbPolyline
 90
        8
 70
     0
 43
0.0
 10
-4.239105466419367
 20
-0.1999999999699529
 10
-4.240228777438366
 20
-0.1999786710855128
 10
-4.248871321390927
 20
-0.1988321115509053
 10
-4.259349584167782
 20
-0.196164942998426
 10
-4.272094508548361
 20
-0.1920694300574958
 10
-4.28630568841053
 20
-0.1870948030566195
 10
-4.302464043225076
 20
-0.181500594761393
 10
-4.310027286772359
 20
-0.1790373738501785
  0
LWPOLYLINE
  5
114
330
91
100
AcDbEntity
  8
AM_4
100
AcDbPolyline
 90
        3
 70
     0
 43
0.0
 10
-4.211422018808038
 20
-0.109375
 10
-4.221030684496029
 20
-0.0546875
 10
-4.226670226189071
 20
-0.0000000000000001
  0
LWPOLYLINE
  5
115
330
91
100
AcDbEntity
  8
AM_4
100
AcDbPolyline
 90
        3
 70
     0
 43
0.0
 10
-4.187912673086386
 20
-0.1940929050555964
 10
-4.197302359711087
 20
-0.1643083897258505
 10
-4.211422018808038
 20
-0.109375
  0
LWPOLYLINE
  5
116
330
91
100
AcDbEntity
  8
AM_4
100
AcDbPolyline
 90
        3
 70
     0
 43
0.0
 10
-4.211422018808038
 20
0.1093749999999999
 10
-4.197375145076619
 20
0.1640624999999999
 10
-4.187916321452259
 20
0.194081961609382
  0
LWPOLYLINE
  5
117
330
91
100
AcDbEntity
  8
AM_4
100
AcDbPolyline
 90
        3
 70
     0
 43
0.0
 10
-4.226670226189071
 20
-0.0000000000000001
 10
-4.221064260805517
 20
0.0544416102741495
 10
-4.211422018808038
 20
0.1093749999999999
  0
LINE
  5
118
330
91
100
AcDbEntity
  8
AM_4
100
AcDbLine
 10
-4.226670226189071
 20
-0.0000000000000001
 30
0.0
 11
-4.1875
 21
-0.0000000000000001
 31
0.0
  0
ENDBLK
  5
94
330
91
100
AcDbEntity
  8
0
100
AcDbBlockEnd
  0
BLOCK
  5
11B
330
119
100
AcDbEntity
  8
0
100
AcDbBlockBegin
  2
3_ASME_B18_3_1_4_1_0_in_069393_4
 70
     2
 10
0.0
 20
0.0
 30
0.0
  3
3_ASME_B18_3_1_4_1_0_in_069393_4
  1

  0
ATTDEF
  5
11D
330
119
100
AcDbEntity
  8
AM_6
100
AcDbText
 10
5.125
 20
-2.380041666666667
 30
0.0
 40
0.5
  1
ANSI/ASME B18.3-1998
100
AcDbAttributeDefinition
  3

  2
NN
 70
     8
280
     0
  0
ATTDEF
  5
11E
330
119
100
AcDbEntity
  8
AM_6
100
AcDbText
 10
5.125
 20
-2.880041666666667
 30
0.0
 40
0.5
  1
Socket Button Head Cap Screws
100
AcDbAttributeDefinition
  3

  2
NT
 70
     8
280
     0
  0
ATTDEF
  5
11F
330
119
100
AcDbEntity
  8
AM_6
100
AcDbText
 10
5.125
 20
-3.380041666666667
 30
0.0
 40
0.5
  1
ASME B18.3-1/4
100
AcDbAttributeDefinition
  3

  2
NB
 70
     8
280
     0
  0
ATTDEF
  5
120
330
119
100
AcDbEntity
  8
AM_6
100
AcDbText
 10
5.125
 20
-3.880041666666667
 30
0.0
 40
0.5
  1
ASME B18.3-$NS.
100
AcDbAttributeDefinition
  3

  2
NBSYN
 70
     8
280
     0
  0
ATTDEF
  5
121
330
119
100
AcDbEntity
  8
AM_6
100
AcDbText
 10
5.125
 20
-4.380041666666667
 30
0.0
 40
0.5
  1
ASME B18.3-1/4
100
AcDbAttributeDefinition
  3

  2
LINA
 70
     8
280
     0
  0
ATTDEF
  5
122
330
119
100
AcDbEntity
  8
AM_6
100
AcDbText
 10
5.125
 20
-4.880041666666667
 30
0.0
 40
0.5
  1
1/4
100
AcDbAttributeDefinition
  3

  2
NS
 70
     8
280
     0
  0
ATTDEF
  5
123
330
119
100
AcDbEntity
  8
AM_6
100
AcDbText
 10
5.125
 20
-5.380041666666667
 30
0.0
 40
0.5
  1
0.437
100
AcDbAttributeDefinition
  3

  2
A
 70
     8
280
     0
  0
ATTDEF
  5
124
330
119
100
AcDbEntity
  8
AM_6
100
AcDbText
 10
5.125
 20
-5.880041666666667
 30
0.0
 40
0.5
  1
0.132
100
AcDbAttributeDefinition
  3

  2
H
 70
     8
280
     0
  0
ATTDEF
  5
125
330
119
100
AcDbEntity
  8
AM_6
100
AcDbText
 10
5.125
 20
-6.380041666666667
 30
0.0
 40
0.5
  1
0.800
100
AcDbAttributeDefinition
  3

  2
L
 70
     8
280
     0
  0
ATTDEF
  5
126
330
119
100
AcDbEntity
  8
AM_6
100
AcDbText
 10
5.125
 20
-6.880041666666667
 30
0.0
 40
0.5
  1
0.031
100
AcDbAttributeDefinition
  3

  2
S
 70
     8
280
     0
  0
ATTDEF
  5
127
330
119
100
AcDbEntity
  8
AM_6
100
AcDbText
 10
5.125
 20
-7.380041666666667
 30
0.0
 40
0.5
  1
0.156250
100
AcDbAttributeDefinition
  3

  2
J
 70
     8
280
     0
  0
ATTDEF
  5
128
330
119
100
AcDbEntity
  8
AM_6
100
AcDbText
 10
5.125
 20
-7.880041666666667
 30
0.0
 40
0.5
  1
baldor
100
AcDbAttributeDefinition
  3

  2
COMPANY
 70
     8
280
     0
  0
LINE
  5
12A
330
119
100
AcDbEntity
  8
AM_5
100
AcDbLine
 10
0.125
 20
-2.380041666666667
 30
0.0
 11
-0.125
 21
-2.380041666666667
 31
0.0
  0
LINE
  5
12B
330
119
100
AcDbEntity
  8
AM_5
100
AcDbLine
 10
0.1064
 20
-2.380041666666667
 30
0.0
 11
0.1250000000000001
 21
-2.412257811687448
 31
0.0
  0
ENDBLK
  5
11C
330
119
100
AcDbEntity
  8
0
100
AcDbBlockEnd
  0
BLOCK
  5
12E
330
12C
100
AcDbEntity
  8
0
100
AcDbBlockBegin
  2
4_ASME_B18_3_1_4_2_0_in_069393_4
 70
     2
 10
0.0
 20
0.0
 30
0.0
  3
4_ASME_B18_3_1_4_2_0_in_069393_4
  1

  0
ATTDEF
  5
130
330
12C
100
AcDbEntity
  8
AM_6
100
AcDbText
 10
5.2185
 20
-1.660041666666666
 30
0.0
 40
0.5
  1
ANSI/ASME B18.3-1998
100
AcDbAttributeDefinition
  3

  2
NN
 70
     8
280
     0
  0
ATTDEF
  5
131
330
12C
100
AcDbEntity
  8
AM_6
100
AcDbText
 10
5.2185
 20
-2.160041666666666
 30
0.0
 40
0.5
  1
Socket Button Head Cap Screws
100
AcDbAttributeDefinition
  3

  2
NT
 70
     8
280
     0
  0
ATTDEF
  5
132
330
12C
100
AcDbEntity
  8
AM_6
100
AcDbText
 10
5.2185
 20
-2.660041666666666
 30
0.0
 40
0.5
  1
ASME B18.3-1/4
100
AcDbAttributeDefinition
  3

  2
NB
 70
     8
280
     0
  0
ATTDEF
  5
133
330
12C
100
AcDbEntity
  8
AM_6
100
AcDbText
 10
5.2185
 20
-3.160041666666666
 30
0.0
 40
0.5
  1
ASME B18.3-$NS.
100
AcDbAttributeDefinition
  3

  2
NBSYN
 70
     8
280
     0
  0
ATTDEF
  5
134
330
12C
100
AcDbEntity
  8
AM_6
100
AcDbText
 10
5.2185
 20
-3.660041666666666
 30
0.0
 40
0.5
  1
ASME B18.3-1/4
100
AcDbAttributeDefinition
  3

  2
LINA
 70
     8
280
     0
  0
ATTDEF
  5
135
330
12C
100
AcDbEntity
  8
AM_6
100
AcDbText
 10
5.2185
 20
-4.160041666666666
 30
0.0
 40
0.5
  1
1/4
100
AcDbAttributeDefinition
  3

  2
NS
 70
     8
280
     0
  0
ATTDEF
  5
136
330
12C
100
AcDbEntity
  8
AM_6
100
AcDbText
 10
5.2185
 20
-4.660041666666666
 30
0.0
 40
0.5
  1
0.437
100
AcDbAttributeDefinition
  3

  2
A
 70
     8
280
     0
  0
ATTDEF
  5
137
330
12C
100
AcDbEntity
  8
AM_6
100
AcDbText
 10
5.2185
 20
-5.160041666666666
 30
0.0
 40
0.5
  1
0.132
100
AcDbAttributeDefinition
  3

  2
H
 70
     8
280
     0
  0
ATTDEF
  5
138
330
12C
100
AcDbEntity
  8
AM_6
100
AcDbText
 10
5.2185
 20
-5.660041666666666
 30
0.0
 40
0.5
  1
0.800
100
AcDbAttributeDefinition
  3

  2
L
 70
     8
280
     0
  0
ATTDEF
  5
139
330
12C
100
AcDbEntity
  8
AM_6
100
AcDbText
 10
5.2185
 20
-6.160041666666666
 30
0.0
 40
0.5
  1
0.031
100
AcDbAttributeDefinition
  3

  2
S
 70
     8
280
     0
  0
ATTDEF
  5
13A
330
12C
100
AcDbEntity
  8
AM_6
100
AcDbText
 10
5.2185
 20
-6.660041666666666
 30
0.0
 40
0.5
  1
0.156250
100
AcDbAttributeDefinition
  3

  2
J
 70
     8
280
     0
  0
ATTDEF
  5
13B
330
12C
100
AcDbEntity
  8
AM_6
100
AcDbText
 10
5.2185
 20
-7.160041666666666
 30
0.0
 40
0.5
  1
baldor
100
AcDbAttributeDefinition
  3

  2
COMPANY
 70
     8
280
     0
  0
LINE
  5
13C
330
12C
100
AcDbEntity
  8
AM_9
100
AcDbLine
 10
0.078125
 20
-2.522041666666666
 30
0.0
 11
0.078125
 21
-2.592041666666666
 31
0.0
  0
LINE
  5
13D
330
12C
100
AcDbEntity
  8
AM_9
100
AcDbLine
 10
-0.078125
 20
-2.522041666666666
 30
0.0
 11
-0.078125
 21
-2.592041666666666
 31
0.0
  0
LINE
  5
13E
330
12C
100
AcDbEntity
  8
AM_9
100
AcDbLine
 10
0.0
 20
-2.522041666666666
 30
0.0
 11
0.0
 21
-2.592041666666666
 31
0.0
  0
LINE
  5
13F
330
12C
100
AcDbEntity
  8
AM_9
100
AcDbLine
 10
-0.078125
 20
-2.522041666666666
 30
0.0
 11
0.078125
 21
-2.522041666666666
 31
0.0
  0
LINE
  5
140
330
12C
100
AcDbEntity
  8
AM_9
100
AcDbLine
 10
-0.1064
 20
-1.660041666666666
 30
0.0
 11
-0.125
 21
-1.678641666666666
 31
0.0
  0
LINE
  5
141
330
12C
100
AcDbEntity
  8
AM_9
100
AcDbLine
 10
0.125
 20
-1.678641666666666
 30
0.0
 11
0.1064
 21
-1.660041666666666
 31
0.0
  0
LINE
  5
142
330
12C
100
AcDbEntity
  8
AM_9
100
AcDbLine
 10
-0.1064
 20
-1.660041666666666
 30
0.0
 11
0.1064
 21
-1.660041666666666
 31
0.0
  0
LINE
  5
143
330
12C
100
AcDbEntity
  8
AM_9
100
AcDbLine
 10
0.125
 20
-2.460041666666666
 30
0.0
 11
0.125
 21
-1.678641666666666
 31
0.0
  0
LINE
  5
144
330
12C
100
AcDbEntity
  8
AM_9
100
AcDbLine
 10
-0.125
 20
-1.678641666666666
 30
0.0
 11
-0.125
 21
-2.460041666666666
 31
0.0
  0
LINE
  5
145
330
12C
100
AcDbEntity
  8
AM_9
100
AcDbLine
 10
-0.125
 20
-1.678641666666666
 30
0.0
 11
0.125
 21
-1.678641666666666
 31
0.0
  0
LINE
  5
146
330
12C
100
AcDbEntity
  8
AM_5
100
AcDbLine
 10
-0.1250000001014274
 20
-2.380041666666666
 30
0.0
 11
0.1250000001014271
 21
-2.380041666666666
 31
0.0
  0
LINE
  5
147
330
12C
100
AcDbEntity
  8
AM_5
100
AcDbLine
 10
-0.1064
 20
-2.380041666666666
 30
0.0
 11
-0.1250000070241711
 21
-2.412257823853669
 31
0.0
  0
LINE
  5
148
330
12C
100
AcDbEntity
  8
AM_4
100
AcDbLine
 10
-0.1174999960870104
 20
-2.592041666666666
 30
0.0
 11
0.1175
 21
-2.592041666666666
 31
0.0
  0
ARC
  5
149
330
12C
100
AcDbEntity
  8
AM_4
100
AcDbCircle
 10
0.1175000000000004
 20
-2.491041666666667
 30
0.0
 40
0.1009999999999995
100
AcDbArc
 50
270.0
 51
0.0
  0
ARC
  5
14A
330
12C
100
AcDbEntity
  8
AM_4
100
AcDbCircle
 10
-0.1175000000000004
 20
-2.491041666666667
 30
0.0
 40
0.1009999999999996
100
AcDbArc
 50
180.0
 51
270.0
  0
LINE
  5
14B
330
12C
100
AcDbEntity
  8
AM_4
100
AcDbLine
 10
0.2185
 20
-2.491041666666666
 30
0.0
 11
0.2185
 21
-2.460041666666666
 31
0.0
  0
LINE
  5
14C
330
12C
100
AcDbEntity
  8
AM_4
100
AcDbLine
 10
-0.2185
 20
-2.460041666666666
 30
0.0
 11
-0.2185
 21
-2.491041666666666
 31
0.0
  0
LINE
  5
14D
330
12C
100
AcDbEntity
  8
AM_4
100
AcDbLine
 10
-0.2185
 20
-2.491041666666666
 30
0.0
 11
0.2185
 21
-2.491041666666666
 31
0.0
  0
ENDBLK
  5
12F
330
12C
100
AcDbEntity
  8
0
100
AcDbBlockEnd
  0
BLOCK
  5
150
330
14E
100
AcDbEntity
  8
0
100
AcDbBlockBegin
  2
5_070905LW_0_in_069393_4
 70
     2
 10
0.0
 20
0.0
 30
0.0
  3
5_070905LW_0_in_069393_4
  1

  0
ATTDEF
  5
152
330
14E
100
AcDbEntity
  8
AM_6
100
AcDbText
 10
7.781249999999999
 20
-1.960041666666666
 30
0.0
 40
0.5
  1
Imperial Insert Lockwasher -Inch
100
AcDbAttributeDefinition
  3

  2
NN
 70
     8
280
     0
  0
ATTDEF
  5
153
330
14E
100
AcDbEntity
  8
AM_6
100
AcDbText
 10
7.781249999999999
 20
-2.460041666666666
 30
0.0
 40
0.5
  1
Imperial Bearings
100
AcDbAttributeDefinition
  3

  2
NT
 70
     8
280
     0
  0
ATTDEF
  5
154
330
14E
100
AcDbEntity
  8
AM_6
100
AcDbText
 10
7.781249999999999
 20
-2.960041666666666
 30
0.0
 40
0.5
  1
070905LW
100
AcDbAttributeDefinition
  3

  2
NB
 70
     8
280
     0
  0
ATTDEF
  5
155
330
14E
100
AcDbEntity
  8
AM_6
100
AcDbText
 10
7.781249999999999
 20
-3.460041666666666
 30
0.0
 40
0.5
  1
$PN.LW
100
AcDbAttributeDefinition
  3

  2
NBSYN
 70
     8
280
     0
  0
ATTDEF
  5
156
330
14E
100
AcDbEntity
  8
AM_6
100
AcDbText
 10
7.781249999999999
 20
-3.960041666666666
 30
0.0
 40
0.5
  1
070905
100
AcDbAttributeDefinition
  3

  2
LINA
 70
     8
280
     0
  0
ATTDEF
  5
157
330
14E
100
AcDbEntity
  8
AM_6
100
AcDbText
 10
7.781249999999999
 20
-4.460041666666666
 30
0.0
 40
0.5
  1
3-11/16
100
AcDbAttributeDefinition
  3

  2
SS
 70
     8
280
     0
  0
ATTDEF
  5
158
330
14E
100
AcDbEntity
  8
AM_6
100
AcDbText
 10
7.781249999999999
 20
-4.960041666666666
 30
0.0
 40
0.5
  1
3.687500
100
AcDbAttributeDefinition
  3

  2
SS1
 70
     8
280
     0
  0
ATTDEF
  5
159
330
14E
100
AcDbEntity
  8
AM_6
100
AcDbText
 10
7.781249999999999
 20
-5.460041666666666
 30
0.0
 40
0.5
  1
070905
100
AcDbAttributeDefinition
  3

  2
PN
 70
     8
280
     0
  0
ATTDEF
  5
15A
330
14E
100
AcDbEntity
  8
AM_6
100
AcDbText
 10
7.781249999999999
 20
-5.960041666666666
 30
0.0
 40
0.5
  1
INS-IP-311R
100
AcDbAttributeDefinition
  3

  2
DESCRIPTION
 70
     8
280
     0
  0
ATTDEF
  5
15B
330
14E
100
AcDbEntity
  8
AM_6
100
AcDbText
 10
7.781249999999999
 20
-6.460041666666666
 30
0.0
 40
0.5
  1
7.0866
100
AcDbAttributeDefinition
  3

  2
A
 70
     8
280
     0
  0
ATTDEF
  5
15C
330
14E
100
AcDbEntity
  8
AM_6
100
AcDbText
 10
7.781249999999999
 20
-6.960041666666666
 30
0.0
 40
0.5
  1
1-7/8
100
AcDbAttributeDefinition
  3

  2
B
 70
     8
280
     0
  0
ATTDEF
  5
15D
330
14E
100
AcDbEntity
  8
AM_6
100
AcDbText
 10
7.781249999999999
 20
-7.460041666666666
 30
0.0
 40
0.5
  1
4-45/64
100
AcDbAttributeDefinition
  3

  2
C
 70
     8
280
     0
  0
ATTDEF
  5
15E
330
14E
100
AcDbEntity
  8
AM_6
100
AcDbText
 10
7.781249999999999
 20
-7.960041666666666
 30
0.0
 40
0.5
  1
1.646
100
AcDbAttributeDefinition
  3

  2
D
 70
     8
280
     0
  0
ATTDEF
  5
15F
330
14E
100
AcDbEntity
  8
AM_6
100
AcDbText
 10
7.781249999999999
 20
-8.460041666666665
 30
0.0
 40
0.5
  1
5-9/16
100
AcDbAttributeDefinition
  3

  2
E
 70
     8
280
     0
  0
ATTDEF
  5
160
330
14E
100
AcDbEntity
  8
AM_6
100
AcDbText
 10
7.781249999999999
 20
-8.960041666666665
 30
0.0
 40
0.5
  1
0.2500
100
AcDbAttributeDefinition
  3

  2
NDM
 70
     8
280
     0
  0
ATTDEF
  5
161
330
14E
100
AcDbEntity
  8
AM_6
100
AcDbText
 10
7.781249999999999
 20
-9.460041666666665
 30
0.0
 40
0.5
  1
0.1960
100
AcDbAttributeDefinition
  3

  2
KDM
 70
     8
280
     0
  0
ATTDEF
  5
162
330
14E
100
AcDbEntity
  8
AM_6
100
AcDbText
 10
7.781249999999999
 20
-9.960041666666665
 30
0.0
 40
0.5
  1
4.83
100
AcDbAttributeDefinition
  3

  2
AL
 70
     8
280
     0
  0
ATTDEF
  5
163
330
14E
100
AcDbEntity
  8
AM_6
100
AcDbText
 10
7.781249999999999
 20
-10.46004166666667
 30
0.0
 40
0.5
  1
0.50
100
AcDbAttributeDefinition
  3

  2
BL
 70
     8
280
     0
  0
ATTDEF
  5
164
330
14E
100
AcDbEntity
  8
AM_6
100
AcDbText
 10
7.781249999999999
 20
-10.96004166666667
 30
0.0
 40
0.5
  1
0.07
100
AcDbAttributeDefinition
  3

  2
CL
 70
     8
280
     0
  0
ATTDEF
  5
165
330
14E
100
AcDbEntity
  8
AM_6
100
AcDbText
 10
7.781249999999999
 20
-11.46004166666667
 30
0.0
 40
0.5
  1
0.50
100
AcDbAttributeDefinition
  3

  2
DL
 70
     8
280
     0
  0
ATTDEF
  5
166
330
14E
100
AcDbEntity
  8
AM_6
100
AcDbText
 10
7.781249999999999
 20
-11.96004166666667
 30
0.0
 40
0.5
  1
baldor
100
AcDbAttributeDefinition
  3

  2
COMPANY
 70
     8
280
     0
  0
LINE
  5
167
330
14E
100
AcDbEntity
  8
AM_9
100
AcDbLine
 10
2.414930555555555
 20
-2.390041666666666
 30
0.0
 11
2.414930555555555
 21
-2.460041666666667
 31
0.0
  0
LINE
  5
168
330
14E
100
AcDbEntity
  8
AM_9
100
AcDbLine
 10
2.536735215274889
 20
-2.460041666666667
 30
0.0
 11
2.536735215274889
 21
-2.390041666666666
 31
0.0
  0
LINE
  5
169
330
14E
100
AcDbEntity
  8
AM_9
100
AcDbLine
 10
-2.414930555555556
 20
-2.390041666666666
 30
0.0
 11
-2.414930555555556
 21
-2.460041666666667
 31
0.0
  0
LINE
  5
16A
330
14E
100
AcDbEntity
  8
AM_9
100
AcDbLine
 10
-2.539972467743204
 20
-2.390041666666666
 30
0.0
 11
-2.539972467743204
 21
-2.460041666666667
 31
0.0
  0
LINE
  5
16B
330
14E
100
AcDbEntity
  8
AM_9
100
AcDbLine
 10
-1.989319890498972
 20
-2.390041666666666
 30
0.0
 11
-1.989319890498972
 21
-2.460041666666667
 31
0.0
  0
LINE
  5
16C
330
14E
100
AcDbEntity
  8
AM_9
100
AcDbLine
 10
1.989319890498972
 20
-2.390041666666666
 30
0.0
 11
1.989319890498972
 21
-2.460041666666667
 31
0.0
  0
LINE
  5
16D
330
14E
100
AcDbEntity
  8
AM_9
100
AcDbLine
 10
-1.495049932169422
 20
-2.390041666666666
 30
0.0
 11
-1.495049932169422
 21
-2.460041666666667
 31
0.0
  0
LINE
  5
16E
330
14E
100
AcDbEntity
  8
AM_9
100
AcDbLine
 10
1.495049932169422
 20
-2.390041666666666
 30
0.0
 11
1.495049932169422
 21
-2.460041666666667
 31
0.0
  0
LINE
  5
16F
330
14E
100
AcDbEntity
  8
AM_9
100
AcDbLine
 10
-0.8767647053322023
 20
-2.390041666666666
 30
0.0
 11
-0.8767647053322023
 21
-2.460041666666667
 31
0.0
  0
LINE
  5
170
330
14E
100
AcDbEntity
  8
AM_9
100
AcDbLine
 10
-0.819434112421218
 20
-1.960041666666666
 30
0.0
 11
-0.819434112421218
 21
-2.460041666666667
 31
0.0
  0
LINE
  5
171
330
14E
100
AcDbEntity
  8
AM_9
100
AcDbLine
 10
1.318273236872785
 20
-2.390041666666666
 30
0.0
 11
1.318273236872782
 21
-2.460041666666667
 31
0.0
  0
LINE
  5
172
330
14E
100
AcDbEntity
  8
AM_9
100
AcDbLine
 10
-1.318273236872785
 20
-2.390041666666666
 30
0.0
 11
-1.318273236872785
 21
-2.460041666666667
 31
0.0
  0
LINE
  5
173
330
14E
100
AcDbEntity
  8
AM_9
100
AcDbLine
 10
-1.796002119576248
 20
-2.390041666666666
 30
0.0
 11
-1.796002119576248
 21
-2.460041666666667
 31
0.0
  0
LINE
  5
174
330
14E
100
AcDbEntity
  8
AM_9
100
AcDbLine
 10
-1.619225424279636
 20
-2.390041666666666
 30
0.0
 11
-1.619225424279636
 21
-2.460041666666667
 31
0.0
  0
LINE
  5
175
330
14E
100
AcDbEntity
  8
AM_9
100
AcDbLine
 10
-1.832643410377362
 20
-2.390041666666666
 30
0.0
 11
-1.832643410377362
 21
-2.460041666666667
 31
0.0
  0
LINE
  5
176
330
14E
100
AcDbEntity
  8
AM_9
100
AcDbLine
 10
1.619225424279611
 20
-2.390041666666666
 30
0.0
 11
1.619225424279611
 21
-2.460041666666667
 31
0.0
  0
LINE
  5
177
330
14E
100
AcDbEntity
  8
AM_9
100
AcDbLine
 10
1.796002119576248
 20
-2.390041666666666
 30
0.0
 11
1.796002119576248
 21
-2.460041666666667
 31
0.0
  0
LINE
  5
178
330
14E
100
AcDbEntity
  8
AM_9
100
AcDbLine
 10
1.832643410377362
 20
-2.460041666666667
 30
0.0
 11
1.832643410377362
 21
-2.390041666666666
 31
0.0
  0
LINE
  5
179
330
14E
100
AcDbEntity
  8
AM_9
100
AcDbLine
 10
-0.6457948222043804
 20
-2.390041666666666
 30
0.0
 11
-0.6457948222043804
 21
-2.460041666666667
 31
0.0
  0
LINE
  5
17A
330
14E
100
AcDbEntity
  8
AM_9
100
AcDbLine
 10
-0.588464229293396
 20
-1.960041666666666
 30
0.0
 11
-0.8566508550101006
 21
-1.960041666666666
 31
0.0
  0
LINE
  5
17B
330
14E
100
AcDbEntity
  8
AM_9
100
AcDbLine
 10
-0.588464229293396
 20
-1.960041666666666
 30
0.0
 11
-0.588464229293396
 21
-2.460041666666667
 31
0.0
  0
LINE
  5
17C
330
14E
100
AcDbEntity
  8
AM_9
100
AcDbLine
 10
-0.6256809718822786
 20
-2.390041666666666
 30
0.0
 11
-0.6256809718822786
 21
-1.960041666666666
 31
0.0
  0
LINE
  5
17D
330
14E
100
AcDbEntity
  8
AM_9
100
AcDbLine
 10
-0.8566508550101006
 20
-1.960041666666666
 30
0.0
 11
-0.8566508550101003
 21
-2.390041666666666
 31
0.0
  0
LINE
  5
17E
330
14E
100
AcDbEntity
  8
AM_9
100
AcDbLine
 10
-0.1250000000000003
 20
-2.390041666666666
 30
0.0
 11
-0.1250000000000003
 21
-2.460041666666666
 31
0.0
  0
LINE
  5
17F
330
14E
100
AcDbEntity
  8
AM_9
100
AcDbLine
 10
0.1249999999999998
 20
-2.390041666666666
 30
0.0
 11
0.1249999999999998
 21
-2.460041666666666
 31
0.0
  0
LINE
  5
180
330
14E
100
AcDbEntity
  8
AM_4
100
AcDbLine
 10
-2.781249999999999
 20
-2.390041666666666
 30
0.0
 11
-2.781249999999999
 21
-2.460041666666667
 31
0.0
  0
LINE
  5
181
330
14E
100
AcDbEntity
  8
AM_4
100
AcDbLine
 10
2.781249999999999
 20
-2.460041666666667
 30
0.0
 11
2.781249999999999
 21
-2.390041666666666
 31
0.0
  0
LINE
  5
182
330
14E
100
AcDbEntity
  8
AM_4
100
AcDbLine
 10
-2.781249999999999
 20
-2.460041666666667
 30
0.0
 11
2.781249999999999
 21
-2.460041666666667
 31
0.0
  0
LINE
  5
183
330
14E
100
AcDbEntity
  8
AM_4
100
AcDbLine
 10
-2.781249999999999
 20
-2.390041666666666
 30
0.0
 11
2.781249999999999
 21
-2.390041666666666
 31
0.0
  0
ENDBLK
  5
151
330
14E
100
AcDbEntity
  8
0
100
AcDbBlockEnd
  0
BLOCK
  5
186
330
184
100
AcDbEntity
  8
0
100
AcDbBlockBegin
  2
6_070905I_0_in_069393_4
 70
     2
 10
0.0
 20
0.0
 30
0.0
  3
6_070905I_0_in_069393_4
  1

  0
ATTDEF
  5
188
330
184
100
AcDbEntity
  8
AM_6
100
AcDbText
 10
8.5433
 20
2.23015625
 30
0.0
 40
0.5
  1
Imperial Insert -Inch
100
AcDbAttributeDefinition
  3

  2
NN
 70
     8
280
     0
  0
ATTDEF
  5
189
330
184
100
AcDbEntity
  8
AM_6
100
AcDbText
 10
8.5433
 20
1.73015625
 30
0.0
 40
0.5
  1
Imperial Bearings
100
AcDbAttributeDefinition
  3

  2
NT
 70
     8
280
     0
  0
ATTDEF
  5
18A
330
184
100
AcDbEntity
  8
AM_6
100
AcDbText
 10
8.5433
 20
1.23015625
 30
0.0
 40
0.5
  1
070905I
100
AcDbAttributeDefinition
  3

  2
NB
 70
     8
280
     0
  0
ATTDEF
  5
18B
330
184
100
AcDbEntity
  8
AM_6
100
AcDbText
 10
8.5433
 20
0.7301562500000003
 30
0.0
 40
0.5
  1
$PN.I
100
AcDbAttributeDefinition
  3

  2
NBSYN
 70
     8
280
     0
  0
ATTDEF
  5
18C
330
184
100
AcDbEntity
  8
AM_6
100
AcDbText
 10
8.5433
 20
0.2301562500000003
 30
0.0
 40
0.5
  1
070905
100
AcDbAttributeDefinition
  3

  2
LINA
 70
     8
280
     0
  0
ATTDEF
  5
18D
330
184
100
AcDbEntity
  8
AM_6
100
AcDbText
 10
8.5433
 20
-0.2698437499999997
 30
0.0
 40
0.5
  1
3-11/16
100
AcDbAttributeDefinition
  3

  2
SS
 70
     8
280
     0
  0
ATTDEF
  5
18E
330
184
100
AcDbEntity
  8
AM_6
100
AcDbText
 10
8.5433
 20
-0.7698437499999997
 30
0.0
 40
0.5
  1
3.687500
100
AcDbAttributeDefinition
  3

  2
SS1
 70
     8
280
     0
  0
ATTDEF
  5
18F
330
184
100
AcDbEntity
  8
AM_6
100
AcDbText
 10
8.5433
 20
-1.26984375
 30
0.0
 40
0.5
  1
070905
100
AcDbAttributeDefinition
  3

  2
PN
 70
     8
280
     0
  0
ATTDEF
  5
190
330
184
100
AcDbEntity
  8
AM_6
100
AcDbText
 10
8.5433
 20
-1.76984375
 30
0.0
 40
0.5
  1
INS-IP-311R
100
AcDbAttributeDefinition
  3

  2
DESCRIPTION
 70
     8
280
     0
  0
ATTDEF
  5
191
330
184
100
AcDbEntity
  8
AM_6
100
AcDbText
 10
8.5433
 20
-2.26984375
 30
0.0
 40
0.5
  1
Contact Seal
100
AcDbAttributeDefinition
  3

  2
ST
 70
     8
280
     0
  0
ATTDEF
  5
192
330
184
100
AcDbEntity
  8
AM_6
100
AcDbText
 10
8.5433
 20
-2.76984375
 30
0.0
 40
0.5
  1
7.0866
100
AcDbAttributeDefinition
  3

  2
A
 70
     8
280
     0
  0
ATTDEF
  5
193
330
184
100
AcDbEntity
  8
AM_6
100
AcDbText
 10
8.5433
 20
-3.26984375
 30
0.0
 40
0.5
  1
1-7/8
100
AcDbAttributeDefinition
  3

  2
B
 70
     8
280
     0
  0
ATTDEF
  5
194
330
184
100
AcDbEntity
  8
AM_6
100
AcDbText
 10
8.5433
 20
-3.76984375
 30
0.0
 40
0.5
  1
4-45/64
100
AcDbAttributeDefinition
  3

  2
C
 70
     8
280
     0
  0
ATTDEF
  5
195
330
184
100
AcDbEntity
  8
AM_6
100
AcDbText
 10
8.5433
 20
-4.26984375
 30
0.0
 40
0.5
  1
1.646
100
AcDbAttributeDefinition
  3

  2
D
 70
     8
280
     0
  0
ATTDEF
  5
196
330
184
100
AcDbEntity
  8
AM_6
100
AcDbText
 10
8.5433
 20
-4.76984375
 30
0.0
 40
0.5
  1
5-9/16
100
AcDbAttributeDefinition
  3

  2
E
 70
     8
280
     0
  0
ATTDEF
  5
197
330
184
100
AcDbEntity
  8
AM_6
100
AcDbText
 10
8.5433
 20
-5.26984375
 30
0.0
 40
0.5
  1
0.2500
100
AcDbAttributeDefinition
  3

  2
NDM
 70
     8
280
     0
  0
ATTDEF
  5
198
330
184
100
AcDbEntity
  8
AM_6
100
AcDbText
 10
8.5433
 20
-5.76984375
 30
0.0
 40
0.5
  1
0.132
100
AcDbAttributeDefinition
  3

  2
H
 70
     8
280
     0
  0
ATTDEF
  5
199
330
184
100
AcDbEntity
  8
AM_6
100
AcDbText
 10
8.5433
 20
-6.26984375
 30
0.0
 40
0.5
  1
0.1960
100
AcDbAttributeDefinition
  3

  2
KDM
 70
     8
280
     0
  0
ATTDEF
  5
19A
330
184
100
AcDbEntity
  8
AM_6
100
AcDbText
 10
8.5433
 20
-6.76984375
 30
0.0
 40
0.5
  1
4.83
100
AcDbAttributeDefinition
  3

  2
AL
 70
     8
280
     0
  0
ATTDEF
  5
19B
330
184
100
AcDbEntity
  8
AM_6
100
AcDbText
 10
8.5433
 20
-7.26984375
 30
0.0
 40
0.5
  1
0.50
100
AcDbAttributeDefinition
  3

  2
BL
 70
     8
280
     0
  0
ATTDEF
  5
19C
330
184
100
AcDbEntity
  8
AM_6
100
AcDbText
 10
8.5433
 20
-7.76984375
 30
0.0
 40
0.5
  1
0.07
100
AcDbAttributeDefinition
  3

  2
CL
 70
     8
280
     0
  0
ATTDEF
  5
19D
330
184
100
AcDbEntity
  8
AM_6
100
AcDbText
 10
8.5433
 20
-8.26984375
 30
0.0
 40
0.5
  1
0.50
100
AcDbAttributeDefinition
  3

  2
DL
 70
     8
280
     0
  0
ATTDEF
  5
19E
330
184
100
AcDbEntity
  8
AM_6
100
AcDbText
 10
8.5433
 20
-8.76984375
 30
0.0
 40
0.5
  1
0.8000
100
AcDbAttributeDefinition
  3

  2
LL
 70
     8
280
     0
  0
ATTDEF
  5
19F
330
184
100
AcDbEntity
  8
AM_6
100
AcDbText
 10
8.5433
 20
-9.26984375
 30
0.0
 40
0.5
  1
0.025
100
AcDbAttributeDefinition
  3

  2
Y
 70
     8
280
     0
  0
ATTDEF
  5
1A0
330
184
100
AcDbEntity
  8
AM_6
100
AcDbText
 10
8.5433
 20
-9.76984375
 30
0.0
 40
0.5
  1
0.025000
100
AcDbAttributeDefinition
  3

  2
Y1
 70
     8
280
     0
  0
ATTDEF
  5
1A1
330
184
100
AcDbEntity
  8
AM_6
100
AcDbText
 10
8.5433
 20
-10.26984375
 30
0.0
 40
0.5
  1
4-1/2
100
AcDbAttributeDefinition
  3

  2
Z
 70
     8
280
     0
  0
ATTDEF
  5
1A2
330
184
100
AcDbEntity
  8
AM_6
100
AcDbText
 10
8.5433
 20
-10.76984375
 30
0.0
 40
0.5
  1
4.500000
100
AcDbAttributeDefinition
  3

  2
Z1
 70
     8
280
     0
  0
ATTDEF
  5
1A3
330
184
100
AcDbEntity
  8
AM_6
100
AcDbText
 10
8.5433
 20
-11.26984375
 30
0.0
 40
0.5
  1
baldor
100
AcDbAttributeDefinition
  3

  2
COMPANY
 70
     8
280
     0
  0
LINE
  5
1A4
330
184
100
AcDbEntity
  8
AM_9
100
AcDbLine
 10
-0.8586145731377339
 20
1.26025
 30
0.0
 11
-0.8586145731377339
 21
-2.390041666666666
 31
0.0
  0
LINE
  5
1A5
330
184
100
AcDbEntity
  8
AM_9
100
AcDbLine
 10
-0.6276446900099122
 20
1.26025
 30
0.0
 11
-0.6276446900099122
 21
-2.390041666666666
 31
0.0
  0
LINE
  5
1A6
330
184
100
AcDbEntity
  8
AM_9
100
AcDbLine
 10
-0.5884642292933959
 20
1.26025
 30
0.0
 11
-0.5884642292933959
 21
-2.734375
 31
0.0
  0
LINE
  5
1A7
330
184
100
AcDbEntity
  8
AM_9
100
AcDbLine
 10
-0.8194341124212176
 20
-2.460041666666667
 30
0.0
 11
-0.8194341124212177
 21
1.26025
 31
0.0
  0
LINE
  5
1A8
330
184
100
AcDbEntity
  8
AM_9
100
AcDbLine
 10
-1.84375
 20
1.26025
 30
0.0
 11
-1.84375
 21
-2.734374999999999
 31
0.0
  0
LINE
  5
1A9
330
184
100
AcDbEntity
  8
AM_9
100
AcDbLine
 10
1.84375
 20
-2.734374999999999
 30
0.0
 11
1.84375
 21
1.26025
 31
0.0
  0
LINE
  5
1AA
330
184
100
AcDbEntity
  8
AM_9
100
AcDbLine
 10
1.530886181268876
 20
-1.890041666666667
 30
0.0
 11
1.530886181268876
 21
-2.390041666666667
 31
0.0
  0
LINE
  5
1AB
330
184
100
AcDbEntity
  8
AM_9
100
AcDbLine
 10
-1.530886181268875
 20
-1.890041666666667
 30
0.0
 11
-1.530886181268875
 21
-2.390041666666667
 31
0.0
  0
LINE
  5
1AC
330
184
100
AcDbEntity
  8
AM_9
100
AcDbLine
 10
-1.940789473684211
 20
1.96875
 30
0.0
 11
-1.940789473684211
 21
1.26025
 31
0.0
  0
LINE
  5
1AD
330
184
100
AcDbEntity
  8
AM_9
100
AcDbLine
 10
1.940789473684211
 20
1.26025
 30
0.0
 11
1.940789473684211
 21
1.96875
 31
0.0
  0
LINE
  5
1AE
330
184
100
AcDbEntity
  8
AM_9
100
AcDbLine
 10
-0.6256809718822782
 20
-2.460041666666667
 30
0.0
 11
-0.625680971882278
 21
-2.390041666666667
 31
0.0
  0
LINE
  5
1AF
330
184
100
AcDbEntity
  8
AM_9
100
AcDbLine
 10
-0.8566508550100997
 20
-2.390041666666667
 30
0.0
 11
-0.8566508550100997
 21
-2.460041666666667
 31
0.0
  0
LINE
  5
1B0
330
184
100
AcDbEntity
  8
AM_9
100
AcDbLine
 10
-1.940789473684211
 20
-2.390041666666667
 30
0.0
 11
-1.940789473684211
 21
-2.460041666666667
 31
0.0
  0
LINE
  5
1B1
330
184
100
AcDbEntity
  8
AM_9
100
AcDbLine
 10
1.940789473684211
 20
-2.460041666666667
 30
0.0
 11
1.940789473684211
 21
-2.390041666666667
 31
0.0
  0
LINE
  5
1B2
330
184
100
AcDbEntity
  8
AM_9
100
AcDbLine
 10
-1.794299129942516
 20
-1.890041666666667
 30
0.0
 11
-1.530886181268875
 21
-1.890041666666667
 31
0.0
  0
LINE
  5
1B3
330
184
100
AcDbEntity
  8
AM_9
100
AcDbLine
 10
1.530886181268876
 20
-1.890041666666667
 30
0.0
 11
1.794299129942517
 21
-1.890041666666667
 31
0.0
  0
LINE
  5
1B4
330
184
100
AcDbEntity
  8
AM_9
100
AcDbLine
 10
2.25
 20
1.96875
 30
0.0
 11
-2.25
 21
1.96875
 31
0.0
  0
LINE
  5
1B5
330
184
100
AcDbEntity
  8
AM_9
100
AcDbLine
 10
-2.25
 20
1.993749999999999
 30
0.0
 11
-2.25
 21
1.96875
 31
0.0
  0
LINE
  5
1B6
330
184
100
AcDbEntity
  8
AM_9
100
AcDbLine
 10
2.25
 20
1.96875
 30
0.0
 11
2.25
 21
1.993749999999999
 31
0.0
  0
LINE
  5
1B7
330
184
100
AcDbEntity
  8
AM_9
100
AcDbLine
 10
-2.5
 20
1.71875
 30
0.0
 11
-2.5
 21
1.63525
 31
0.0
  0
LINE
  5
1B8
330
184
100
AcDbEntity
  8
AM_9
100
AcDbLine
 10
2.5
 20
1.63525
 30
0.0
 11
2.5
 21
1.71875
 31
0.0
  0
LINE
  5
1B9
330
184
100
AcDbEntity
  8
AM_9
100
AcDbLine
 10
-0.0979499999999997
 20
-1.595716501782949
 30
0.0
 11
-0.0979499999999997
 21
-2.362991666666667
 31
0.0
  0
LINE
  5
1BA
330
184
100
AcDbEntity
  8
AM_9
100
AcDbLine
 10
0.0979499999999997
 20
-2.362991666666667
 30
0.0
 11
0.0979499999999997
 21
-1.595716501782949
 31
0.0
  0
LINE
  5
1BB
330
184
100
AcDbEntity
  8
AM_9
100
AcDbLine
 10
0.0979499999999997
 20
-1.595716501782949
 30
0.0
 11
-0.0979499999999997
 21
-1.595716501782949
 31
0.0
  0
LINE
  5
1BC
330
184
100
AcDbEntity
  8
AM_9
100
AcDbLine
 10
0.0
 20
-1.550041666666667
 30
0.0
 11
-0.0979499999999997
 21
-1.595716501782949
 31
0.0
  0
LINE
  5
1BD
330
184
100
AcDbEntity
  8
AM_9
100
AcDbLine
 10
0.0979499999999997
 20
-1.595716501782949
 30
0.0
 11
0.0
 21
-1.550041666666667
 31
0.0
  0
LINE
  5
1BE
330
184
100
AcDbEntity
  8
AM_9
100
AcDbLine
 10
0.0979499999999997
 20
-2.362991666666667
 30
0.0
 11
-0.0979499999999997
 21
-2.362991666666667
 31
0.0
  0
LINE
  5
1BF
330
184
100
AcDbEntity
  8
AM_9
100
AcDbLine
 10
-0.0979499999999997
 20
-2.362991666666667
 30
0.0
 11
-0.1250000000000002
 21
-2.390041666666667
 31
0.0
  0
LINE
  5
1C0
330
184
100
AcDbEntity
  8
AM_9
100
AcDbLine
 10
0.1250000000000002
 20
-2.390041666666667
 30
0.0
 11
0.0979499999999997
 21
-2.362991666666667
 31
0.0
  0
LINE
  5
1C1
330
184
100
AcDbEntity
  8
AM_9
100
AcDbLine
 10
2.804692021553401
 20
-1.71875
 30
0.0
 11
2.843244551072289
 21
-0.61475
 31
0.0
  0
LINE
  5
1C2
330
184
100
AcDbEntity
  8
AM_9
100
AcDbLine
 10
-2.843244551072289
 20
-0.61475
 30
0.0
 11
-2.804692021553401
 21
-1.71875
 31
0.0
  0
LINE
  5
1C3
330
184
100
AcDbEntity
  8
AM_9
100
AcDbLine
 10
3.069058622134927
 20
1.63525
 30
0.0
 11
-3.06905862212222
 21
1.63525
 31
0.0
  0
ARC
  5
1C4
330
184
100
AcDbEntity
  8
AM_9
100
AcDbCircle
 10
-3.069058622134926
 20
1.535249999999998
 30
0.0
 40
0.1000000000000023
100
AcDbArc
 50
90.0
 51
149.9999999999994
  0
ARC
  5
1C5
330
184
100
AcDbEntity
  8
AM_9
100
AcDbCircle
 10
3.069058622134926
 20
1.535249999999998
 30
0.0
 40
0.1000000000000022
100
AcDbArc
 50
30.00000000000064
 51
90.0
  0
LINE
  5
1C6
330
184
100
AcDbEntity
  8
AM_9
100
AcDbLine
 10
3.155661162513371
 20
1.58525
 30
0.0
 11
-3.155661162513371
 21
1.58525
 31
0.0
  0
LINE
  5
1C7
330
184
100
AcDbEntity
  8
AM_9
100
AcDbLine
 10
-3.155661162513371
 20
1.58525
 30
0.0
 11
-3.3433
 21
1.26025
 31
0.0
  0
LINE
  5
1C8
330
184
100
AcDbEntity
  8
AM_9
100
AcDbLine
 10
3.3433
 20
1.26025
 30
0.0
 11
3.155661162513371
 21
1.58525
 31
0.0
  0
LINE
  5
1C9
330
184
100
AcDbEntity
  8
AM_9
100
AcDbLine
 10
-3.44955
 20
0.3768765877365273
 30
0.0
 11
-3.44955
 21
0.2686234122634728
 31
0.0
  0
LINE
  5
1CA
330
184
100
AcDbEntity
  8
AM_9
100
AcDbLine
 10
3.44955
 20
0.2686234122634728
 30
0.0
 11
3.44955
 21
0.3768765877365273
 31
0.0
  0
LINE
  5
1CB
330
184
100
AcDbEntity
  8
AM_9
100
AcDbLine
 10
3.44955
 20
0.3768765877365273
 30
0.0
 11
-3.44955
 21
0.3768765877365273
 31
0.0
  0
LINE
  5
1CC
330
184
100
AcDbEntity
  8
AM_9
100
AcDbLine
 10
3.44955
 20
0.3768765877365273
 30
0.0
 11
3.5433
 21
0.4310031754730551
 31
0.0
  0
LINE
  5
1CD
330
184
100
AcDbEntity
  8
AM_9
100
AcDbLine
 10
-3.5433
 20
0.4310031754730551
 30
0.0
 11
-3.44955
 21
0.3768765877365273
 31
0.0
  0
LINE
  5
1CE
330
184
100
AcDbEntity
  8
AM_9
100
AcDbLine
 10
3.493300000000001
 20
-0.61475
 30
0.0
 11
-3.493299999990886
 21
-0.61475
 31
0.0
  0
ARC
  5
1CF
330
184
100
AcDbEntity
  8
AM_9
100
AcDbCircle
 10
-3.493300000000019
 20
-0.5647500000000191
 30
0.0
 40
0.0499999999999807
100
AcDbArc
 50
180.0
 51
270.0
  0
ARC
  5
1D0
330
184
100
AcDbEntity
  8
AM_9
100
AcDbCircle
 10
3.493299999999998
 20
-0.5647499999999984
 30
0.0
 40
0.0500000000000016
100
AcDbArc
 50
270.0
 51
0.0
  0
LINE
  5
1D1
330
184
100
AcDbEntity
  8
AM_9
100
AcDbLine
 10
3.44955
 20
0.2686234122634728
 30
0.0
 11
-3.44955
 21
0.2686234122634728
 31
0.0
  0
LINE
  5
1D2
330
184
100
AcDbEntity
  8
AM_9
100
AcDbLine
 10
-3.44955
 20
0.2686234122634728
 30
0.0
 11
-3.5433
 21
0.214496824526945
 31
0.0
  0
LINE
  5
1D3
330
184
100
AcDbEntity
  8
AM_9
100
AcDbLine
 10
3.5433
 20
0.214496824526945
 30
0.0
 11
3.44955
 21
0.2686234122634728
 31
0.0
  0
LINE
  5
1D4
330
184
100
AcDbEntity
  8
AM_9
100
AcDbLine
 10
3.4933
 20
1.26025
 30
0.0
 11
-3.493299999990886
 21
1.26025
 31
0.0
  0
ARC
  5
1D5
330
184
100
AcDbEntity
  8
AM_9
100
AcDbCircle
 10
-3.493299999999999
 20
1.21025
 30
0.0
 40
0.0500000000000005
100
AcDbArc
 50
90.0
 51
180.0
  0
ARC
  5
1D6
330
184
100
AcDbEntity
  8
AM_9
100
AcDbCircle
 10
3.493299999999961
 20
1.210249999999962
 30
0.0
 40
0.0500000000000385
100
AcDbArc
 50
0.0
 51
90.0
  0
LINE
  5
1D7
330
184
100
AcDbEntity
  8
AM_9
100
AcDbLine
 10
3.5433
 20
1.21025
 30
0.0
 11
-3.5433
 21
1.21025
 31
0.0
  0
LINE
  5
1D8
330
184
100
AcDbEntity
  8
AM_9
100
AcDbLine
 10
3.5433
 20
0.4310031754730551
 30
0.0
 11
-3.5433
 21
0.4310031754730551
 31
0.0
  0
LINE
  5
1D9
330
184
100
AcDbEntity
  8
AM_9
100
AcDbLine
 10
-3.5433
 20
1.21025
 30
0.0
 11
-3.5433
 21
0.4310031754730551
 31
0.0
  0
LINE
  5
1DA
330
184
100
AcDbEntity
  8
AM_9
100
AcDbLine
 10
3.5433
 20
0.4310031754730551
 30
0.0
 11
3.5433
 21
1.21025
 31
0.0
  0
LINE
  5
1DB
330
184
100
AcDbEntity
  8
AM_9
100
AcDbLine
 10
3.5433
 20
0.214496824526945
 30
0.0
 11
-3.5433
 21
0.214496824526945
 31
0.0
  0
LINE
  5
1DC
330
184
100
AcDbEntity
  8
AM_9
100
AcDbLine
 10
3.5433
 20
-0.5647499999999992
 30
0.0
 11
-3.5433
 21
-0.5647499999999992
 31
0.0
  0
LINE
  5
1DD
330
184
100
AcDbEntity
  8
AM_9
100
AcDbLine
 10
-3.5433
 20
0.214496824526945
 30
0.0
 11
-3.5433
 21
-0.5647499999999992
 31
0.0
  0
LINE
  5
1DE
330
184
100
AcDbEntity
  8
AM_9
100
AcDbLine
 10
3.5433
 20
-0.5647499999999992
 30
0.0
 11
3.5433
 21
0.214496824526945
 31
0.0
  0
LINE
  5
1DF
330
184
100
AcDbEntity
  8
AM_5
100
AcDbLine
 10
0.1250000000000002
 20
-1.630041666666667
 30
0.0
 11
0.0979499999999997
 21
-1.614424341885087
 31
0.0
  0
LINE
  5
1E0
330
184
100
AcDbEntity
  8
AM_5
100
AcDbLine
 10
0.0979499999999997
 20
-1.630041666666687
 30
0.0
 11
0.1250000000000002
 21
-1.630041666666687
 31
0.0
  0
LINE
  5
1E1
330
184
100
AcDbEntity
  8
AM_5
100
AcDbLine
 10
-0.09795
 20
-1.630041666666687
 30
0.0
 11
-0.1250000000000002
 21
-1.630041666666687
 31
0.0
  0
LINE
  5
1E2
330
184
100
AcDbEntity
  8
AM_5
100
AcDbLine
 10
-0.1250000000000002
 20
-1.630041666666687
 30
0.0
 11
-0.0979499999999997
 21
-1.614424341885106
 31
0.0
  0
LINE
  5
1E5
330
184
100
AcDbEntity
  8
AM_7
100
AcDbLine
 10
0.0
 20
2.23015625
 30
0.0
 11
0.0
 21
-2.970781249999999
 31
0.0
  0
ARC
  5
1E6
330
184
100
AcDbEntity
  8
AM_4
100
AcDbCircle
 10
2.73296556125965
 20
-2.340041666666667
 30
0.0
 40
0.0499999999999994
100
AcDbArc
 50
270.0
 51
358.0000000000006
  0
ARC
  5
1E7
330
184
100
AcDbEntity
  8
AM_4
100
AcDbCircle
 10
-2.73296556125965
 20
-2.340041666666667
 30
0.0
 40
0.0499999999999994
100
AcDbArc
 50
181.9999999999994
 51
270.0
  0
LWPOLYLINE
  5
1E8
330
184
100
AcDbEntity
  8
AM_4
100
AcDbPolyline
 90
        6
 70
     0
 43
0.0
 10
2.136652684401853
 20
-2.341786641501792
 10
2.134257803231375
 20
-2.358173890176766
 10
2.128162669148618
 20
-2.372524248657491
 10
2.119042286506946
 20
-2.383246508438446
 10
2.107888383254296
 20
-2.389139060913803
 10
2.101172803044632
 20
-2.390041666666667
  0
LWPOLYLINE
  5
1E9
330
184
100
AcDbEntity
  8
AM_4
100
AcDbPolyline
 90
        6
 70
     0
 43
0.0
 10
-2.101172803044632
 20
-2.390041666666667
 10
-2.106402560521313
 20
-2.389496249552766
 10
-2.117780018141494
 20
-2.384234169704142
 10
-2.127266852350879
 20
-2.373945136382742
 10
-2.133775567744502
 20
-2.359830918800178
 10
-2.136652684401852
 20
-2.341786641501792
  0
LINE
  5
1EA
330
184
100
AcDbEntity
  8
AM_4
100
AcDbLine
 10
-0.8194341124212176
 20
-2.734375
 30
0.0
 11
-0.8194341124212176
 21
-2.460041666666667
 31
0.0
  0
LINE
  5
1EB
330
184
100
AcDbEntity
  8
AM_4
100
AcDbLine
 10
1.884439571862149
 20
-1.890041666666667
 30
0.0
 11
1.884439571862149
 21
-2.390041666666667
 31
0.0
  0
LINE
  5
1EC
330
184
100
AcDbEntity
  8
AM_4
100
AcDbLine
 10
-1.884439571862149
 20
-1.890041666666667
 30
0.0
 11
-1.884439571862149
 21
-2.390041666666667
 31
0.0
  0
LINE
  5
1ED
330
184
100
AcDbEntity
  8
AM_4
100
AcDbLine
 10
-0.6256809718822781
 20
-2.734375
 30
0.0
 11
-0.6256809718822782
 21
-2.460041666666667
 31
0.0
  0
LINE
  5
1EE
330
184
100
AcDbEntity
  8
AM_4
100
AcDbLine
 10
-0.8566508550100997
 20
-2.460041666666667
 30
0.0
 11
-0.8566508550101
 21
-2.734375
 31
0.0
  0
LINE
  5
1EF
330
184
100
AcDbEntity
  8
AM_4
100
AcDbLine
 10
-1.940789473684211
 20
-2.460041666666667
 30
0.0
 11
-1.940789473684211
 21
-2.734375
 31
0.0
  0
LINE
  5
1F0
330
184
100
AcDbEntity
  8
AM_4
100
AcDbLine
 10
1.940789473684211
 20
-2.734375
 30
0.0
 11
1.940789473684211
 21
-2.460041666666667
 31
0.0
  0
LINE
  5
1F1
330
184
100
AcDbEntity
  8
AM_4
100
AcDbLine
 10
1.940789473684211
 20
-2.734375
 30
0.0
 11
-1.940789473684211
 21
-2.734375
 31
0.0
  0
LINE
  5
1F2
330
184
100
AcDbEntity
  8
AM_4
100
AcDbLine
 10
2.442307692307692
 20
1.99375
 30
0.0
 11
-2.442307692305693
 21
1.99375
 31
0.0
  0
ARC
  5
1F3
330
184
100
AcDbEntity
  8
AM_4
100
AcDbCircle
 10
-2.442307692307692
 20
1.936057692307692
 30
0.0
 40
0.0576923076923084
100
AcDbArc
 50
90.0
 51
180.0
  0
ARC
  5
1F4
330
184
100
AcDbEntity
  8
AM_4
100
AcDbCircle
 10
2.442307692307692
 20
1.936057692307692
 30
0.0
 40
0.0576923076923084
100
AcDbArc
 50
0.0
 51
90.0
  0
LINE
  5
1F5
330
184
100
AcDbEntity
  8
AM_4
100
AcDbLine
 10
2.5
 20
1.936057692307691
 30
0.0
 11
-2.5
 21
1.936057692307691
 31
0.0
  0
LINE
  5
1F6
330
184
100
AcDbEntity
  8
AM_4
100
AcDbLine
 10
-2.5
 20
1.936057692307691
 30
0.0
 11
-2.5
 21
1.71875
 31
0.0
  0
LINE
  5
1F7
330
184
100
AcDbEntity
  8
AM_4
100
AcDbLine
 10
2.5
 20
1.71875
 30
0.0
 11
2.5
 21
1.936057692307691
 31
0.0
  0
LWPOLYLINE
  5
1F8
330
184
100
AcDbEntity
  8
AM_4
100
AcDbPolyline
 90
        6
 70
     0
 43
0.0
 10
1.74761941245136
 20
-2.390041666666667
 10
1.752849169928041
 20
-2.389496249552766
 10
1.764226627548221
 20
-2.384234169704142
 10
1.773713461757606
 20
-2.373945136382742
 10
1.78022217715123
 20
-2.359830918800179
 10
1.78309929380858
 20
-2.341786641501792
  0
LWPOLYLINE
  5
1F9
330
184
100
AcDbEntity
  8
AM_4
100
AcDbPolyline
 90
        6
 70
     0
 43
0.0
 10
-1.783099293808579
 20
-2.341786641501792
 10
-1.780704412638101
 20
-2.358173890176766
 10
-1.774609278555344
 20
-2.37252424865749
 10
-1.765488895913672
 20
-2.383246508438446
 10
-1.754334992661023
 20
-2.389139060913803
 10
-1.747619412451358
 20
-2.390041666666667
  0
LINE
  5
1FA
330
184
100
AcDbEntity
  8
AM_4
100
AcDbLine
 10
-2.136652684401852
 20
-2.341786641501792
 30
0.0
 11
-2.782935102610605
 21
-2.341786641501792
 31
0.0
  0
LINE
  5
1FB
330
184
100
AcDbEntity
  8
AM_4
100
AcDbLine
 10
-2.136652684401852
 20
-2.341786641501792
 30
0.0
 11
-2.147852520535789
 21
-1.890041666666667
 31
0.0
  0
LINE
  5
1FC
330
184
100
AcDbEntity
  8
AM_4
100
AcDbLine
 10
-2.147852520535789
 20
-1.890041666666667
 30
0.0
 11
-1.794299129942516
 21
-1.890041666666667
 31
0.0
  0
LINE
  5
1FD
330
184
100
AcDbEntity
  8
AM_4
100
AcDbLine
 10
-1.794299129942516
 20
-1.890041666666667
 30
0.0
 11
-1.783099293808579
 21
-2.341786641501792
 31
0.0
  0
LINE
  5
1FE
330
184
100
AcDbEntity
  8
AM_4
100
AcDbLine
 10
1.78309929380858
 20
-2.341786641501792
 30
0.0
 11
-1.783099293808579
 21
-2.341786641501792
 31
0.0
  0
LINE
  5
1FF
330
184
100
AcDbEntity
  8
AM_4
100
AcDbLine
 10
1.78309929380858
 20
-2.341786641501792
 30
0.0
 11
1.794299129942517
 21
-1.890041666666667
 31
0.0
  0
LINE
  5
200
330
184
100
AcDbEntity
  8
AM_4
100
AcDbLine
 10
1.794299129942517
 20
-1.890041666666667
 30
0.0
 11
2.14785252053579
 21
-1.890041666666667
 31
0.0
  0
LINE
  5
201
330
184
100
AcDbEntity
  8
AM_4
100
AcDbLine
 10
2.14785252053579
 20
-1.890041666666667
 30
0.0
 11
2.136652684401853
 21
-2.341786641501792
 31
0.0
  0
LINE
  5
202
330
184
100
AcDbEntity
  8
AM_4
100
AcDbLine
 10
2.782935102610605
 20
-2.341786641501792
 30
0.0
 11
2.804692021553401
 21
-1.71875
 31
0.0
  0
LINE
  5
203
330
184
100
AcDbEntity
  8
AM_4
100
AcDbLine
 10
-2.804692021553401
 20
-1.71875
 30
0.0
 11
-2.782935102610605
 21
-2.341786641501792
 31
0.0
  0
LINE
  5
204
330
184
100
AcDbEntity
  8
AM_4
100
AcDbLine
 10
2.782935102610605
 20
-2.341786641501792
 30
0.0
 11
2.136652684401853
 21
-2.341786641501792
 31
0.0
  0
ENDBLK
  5
187
330
184
100
AcDbEntity
  8
0
100
AcDbBlockEnd
  0
BLOCK
  5
207
330
205
100
AcDbEntity
  8
0
100
AcDbBlockBegin
  2
7_069393H_0_in_069393_4
 70
     2
 10
0.0
 20
0.0
 30
0.0
  3
7_069393H_0_in_069393_4
  1

  0
ATTDEF
  5
209
330
205
100
AcDbEntity
  8
AM_6
100
AcDbText
 10
13.478125
 20
2.107969583889095
 30
0.0
 40
0.5
  1
WSTU-IP -Housing -Inch
100
AcDbAttributeDefinition
  3

  2
NN
 70
     8
280
     0
  0
ATTDEF
  5
20A
330
205
100
AcDbEntity
  8
AM_6
100
AcDbText
 10
13.478125
 20
1.607969583889095
 30
0.0
 40
0.5
  1
Imperial Wide Slot Take-Up Bearings
100
AcDbAttributeDefinition
  3

  2
NT
 70
     8
280
     0
  0
ATTDEF
  5
20B
330
205
100
AcDbEntity
  8
AM_6
100
AcDbText
 10
13.478125
 20
1.107969583889095
 30
0.0
 40
0.5
  1
069393H
100
AcDbAttributeDefinition
  3

  2
NB
 70
     8
280
     0
  0
ATTDEF
  5
20C
330
205
100
AcDbEntity
  8
AM_6
100
AcDbText
 10
13.478125
 20
0.6079695838890946
 30
0.0
 40
0.5
  1
$PN.H
100
AcDbAttributeDefinition
  3

  2
NBSYN
 70
     8
280
     0
  0
ATTDEF
  5
20D
330
205
100
AcDbEntity
  8
AM_6
100
AcDbText
 10
13.478125
 20
0.1079695838890946
 30
0.0
 40
0.5
  1
069393
100
AcDbAttributeDefinition
  3

  2
LINA
 70
     8
280
     0
  0
ATTDEF
  5
20E
330
205
100
AcDbEntity
  8
AM_6
100
AcDbText
 10
13.478125
 20
-0.3920304161109054
 30
0.0
 40
0.5
  1
3-11/16
100
AcDbAttributeDefinition
  3

  2
SS
 70
     8
280
     0
  0
ATTDEF
  5
20F
330
205
100
AcDbEntity
  8
AM_6
100
AcDbText
 10
13.478125
 20
-0.8920304161109054
 30
0.0
 40
0.5
  1
069393
100
AcDbAttributeDefinition
  3

  2
PN
 70
     8
280
     0
  0
ATTDEF
  5
210
330
205
100
AcDbEntity
  8
AM_6
100
AcDbText
 10
13.478125
 20
-1.392030416110905
 30
0.0
 40
0.5
  1
WSTU-IP-311RE
100
AcDbAttributeDefinition
  3

  2
DESCRIPTION
 70
     8
280
     0
  0
ATTDEF
  5
211
330
205
100
AcDbEntity
  8
AM_6
100
AcDbText
 10
13.478125
 20
-1.892030416110905
 30
0.0
 40
0.5
  1
Expansion
100
AcDbAttributeDefinition
  3

  2
EF
 70
     8
280
     0
  0
ATTDEF
  5
212
330
205
100
AcDbEntity
  8
AM_6
100
AcDbText
 10
13.478125
 20
-2.392030416110905
 30
0.0
 40
0.5
  1
Contact Seal
100
AcDbAttributeDefinition
  3

  2
ST
 70
     8
280
     0
  0
ATTDEF
  5
213
330
205
100
AcDbEntity
  8
AM_6
100
AcDbText
 10
13.478125
 20
-2.892030416110905
 30
0.0
 40
0.5
  1
4-45/64
100
AcDbAttributeDefinition
  3

  2
A
 70
     8
280
     0
  0
ATTDEF
  5
214
330
205
100
AcDbEntity
  8
AM_6
100
AcDbText
 10
13.478125
 20
-3.392030416110905
 30
0.0
 40
0.5
  1
12-9/16
100
AcDbAttributeDefinition
  3

  2
B
 70
     8
280
     0
  0
ATTDEF
  5
215
330
205
100
AcDbEntity
  8
AM_6
100
AcDbText
 10
13.478125
 20
-3.892030416110905
 30
0.0
 40
0.5
  1
2-1/16
100
AcDbAttributeDefinition
  3

  2
C
 70
     8
280
     0
  0
ATTDEF
  5
216
330
205
100
AcDbEntity
  8
AM_6
100
AcDbText
 10
13.478125
 20
-4.392030416110906
 30
0.0
 40
0.5
  1
7
100
AcDbAttributeDefinition
  3

  2
D
 70
     8
280
     0
  0
ATTDEF
  5
217
330
205
100
AcDbEntity
  8
AM_6
100
AcDbText
 10
13.478125
 20
-4.892030416110906
 30
0.0
 40
0.5
  1
8-3/8
100
AcDbAttributeDefinition
  3

  2
E
 70
     8
280
     0
  0
ATTDEF
  5
218
330
205
100
AcDbEntity
  8
AM_6
100
AcDbText
 10
13.478125
 20
-5.392030416110906
 30
0.0
 40
0.5
  1
2-1/8
100
AcDbAttributeDefinition
  3

  2
F
 70
     8
280
     0
  0
ATTDEF
  5
219
330
205
100
AcDbEntity
  8
AM_6
100
AcDbText
 10
13.478125
 20
-5.892030416110906
 30
0.0
 40
0.5
  1
2-1/16
100
AcDbAttributeDefinition
  3

  2
G
 70
     8
280
     0
  0
ATTDEF
  5
21A
330
205
100
AcDbEntity
  8
AM_6
100
AcDbText
 10
13.478125
 20
-6.392030416110906
 30
0.0
 40
0.5
  1
2-1/8
100
AcDbAttributeDefinition
  3

  2
H
 70
     8
280
     0
  0
ATTDEF
  5
21B
330
205
100
AcDbEntity
  8
AM_6
100
AcDbText
 10
13.478125
 20
-6.892030416110906
 30
0.0
 40
0.5
  1
6
100
AcDbAttributeDefinition
  3

  2
J
 70
     8
280
     0
  0
ATTDEF
  5
21C
330
205
100
AcDbEntity
  8
AM_6
100
AcDbText
 10
13.478125
 20
-7.392030416110906
 30
0.0
 40
0.5
  1
3-3/8
100
AcDbAttributeDefinition
  3

  2
K
 70
     8
280
     0
  0
ATTDEF
  5
21D
330
205
100
AcDbEntity
  8
AM_6
100
AcDbText
 10
13.478125
 20
-7.892030416110906
 30
0.0
 40
0.5
  1
5-9/16
100
AcDbAttributeDefinition
  3

  2
L
 70
     8
280
     0
  0
ATTDEF
  5
21E
330
205
100
AcDbEntity
  8
AM_6
100
AcDbText
 10
13.478125
 20
-8.392030416110906
 30
0.0
 40
0.5
  1
8-5/8
100
AcDbAttributeDefinition
  3

  2
M
 70
     8
280
     0
  0
ATTDEF
  5
21F
330
205
100
AcDbEntity
  8
AM_6
100
AcDbText
 10
13.478125
 20
-8.892030416110906
 30
0.0
 40
0.5
  1
9-7/16
100
AcDbAttributeDefinition
  3

  2
N
 70
     8
280
     0
  0
ATTDEF
  5
220
330
205
100
AcDbEntity
  8
AM_6
100
AcDbText
 10
13.478125
 20
-9.392030416110906
 30
0.0
 40
0.5
  1
4-51/64
100
AcDbAttributeDefinition
  3

  2
R
 70
     8
280
     0
  0
ATTDEF
  5
221
330
205
100
AcDbEntity
  8
AM_6
100
AcDbText
 10
13.478125
 20
-9.892030416110906
 30
0.0
 40
0.5
  1
3-3/64
100
AcDbAttributeDefinition
  3

  2
S
 70
     8
280
     0
  0
ATTDEF
  5
222
330
205
100
AcDbEntity
  8
AM_6
100
AcDbText
 10
13.478125
 20
-10.39203041611091
 30
0.0
 40
0.5
  1
3-7/16
100
AcDbAttributeDefinition
  3

  2
T
 70
     8
280
     0
  0
ATTDEF
  5
223
330
205
100
AcDbEntity
  8
AM_6
100
AcDbText
 10
13.478125
 20
-10.89203041611091
 30
0.0
 40
0.5
  1
5/16
100
AcDbAttributeDefinition
  3

  2
X
 70
     8
280
     0
  0
ATTDEF
  5
224
330
205
100
AcDbEntity
  8
AM_6
100
AcDbText
 10
13.478125
 20
-11.39203041611091
 30
0.0
 40
0.5
  1
0.025
100
AcDbAttributeDefinition
  3

  2
Y
 70
     8
280
     0
  0
ATTDEF
  5
225
330
205
100
AcDbEntity
  8
AM_6
100
AcDbText
 10
13.478125
 20
-11.89203041611091
 30
0.0
 40
0.5
  1
4-1/2
100
AcDbAttributeDefinition
  3

  2
Z
 70
     8
280
     0
  0
ATTDEF
  5
226
330
205
100
AcDbEntity
  8
AM_6
100
AcDbText
 10
13.478125
 20
-12.39203041611091
 30
0.0
 40
0.5
  1
baldor
100
AcDbAttributeDefinition
  3

  2
COMPANY
 70
     8
280
     0
  0
ELLIPSE
  5
227
330
205
100
AcDbEntity
  8
AM_9
100
AcDbEllipse
 10
-3.975300776455102
 20
-0.0000000000000001
 30
0.0
 11
-7.347880794884114E-17
 21
-0.3999999999999997
 31
0.0
210
0.0
220
0.0
230
1.0
 40
0.3746065934159117
 41
0.0
 42
6.283185307179586
  0
LWPOLYLINE
  5
228
330
205
100
AcDbEntity
  8
AM_9
100
AcDbPolyline
 90
       40
 70
     0
 43
0.0
 10
-3.882681666279526
 20
0.4999999684383097
 10
-3.896777384211439
 20
0.4993537967683651
 10
-3.919591310249779
 20
0.495570670574145
 10
-3.941364214013174
 20
0.4886550275987584
 10
-3.962033886490196
 20
0.4788261715246873
 10
-3.981642591393344
 20
0.466181548174718
 10
-4.000312406760112
 20
0.4506511098449728
 10
-4.018190115029106
 20
0.4319819944453728
 10
-4.035351147668229
 20
0.4098142799308716
 10
-4.051678280912435
 20
0.3839289211547327
 10
-4.066832777473838
 20
0.3545803958429728
 10
-4.080425900866731
 20
0.3225481714705066
 10
-4.092289981985176
 20
0.2886116532426687
 10
-4.102490462779453
 20
0.2531310116813161
 10
-4.111116127983758
 20
0.2163274169472678
 10
-4.118235199722588
 20
0.1783810366864331
 10
-4.123890839476612
 20
0.1394741760968719
 10
-4.128107570075909
 20
0.0998042780445769
 10
-4.130898317845688
 20
0.0595849560877365
 10
-4.132269697355962
 20
0.019042787472345
 10
-4.132225388367489
 20
-0.0215872843180751
 10
-4.130767900138157
 20
-0.0620663238856034
 10
-4.12790061968537
 20
-0.1021381101065265
 10
-4.12362531444345
 20
-0.1415732074571343
 10
-4.117939228916207
 20
-0.1801541694660156
 10
-4.110830430015889
 20
-0.2176810022761593
 10
-4.102270241813341
 20
-0.2539765036847108
 10
-4.0922014947081
 20
-0.2888905668689145
 10
-4.080521067761727
 20
-0.3223007086133235
 10
-4.067056610689392
 20
-0.3541011210121505
 10
-4.051546114618854
 20
-0.3841603697632963
 10
-4.033662025889993
 20
-0.4122068256769599
 10
-4.015951695435197
 20
-0.4345482554178609
 10
-3.997406346133789
 20
-0.4533164239005266
 10
-3.978131713128359
 20
-0.4687045851189973
 10
-3.958101490070649
 20
-0.4809582919131107
 10
-3.937314275827389
 20
-0.4901976076392444
 10
-3.915859917479003
 20
-0.4964255520538982
 10
-3.891894997603059
 20
-0.4997221006721971
 10
-3.882483499995162
 20
-0.4999999686821769
  0
LINE
  5
229
330
205
100
AcDbEntity
  8
AM_9
100
AcDbLine
 10
8.375
 20
1.0625
 30
0.0
 11
6.3125
 21
1.0625
 31
0.0
  0
LINE
  5
22A
330
205
100
AcDbEntity
  8
AM_9
100
AcDbLine
 10
6.3125
 20
-1.0625
 30
0.0
 11
8.375
 21
-1.0625
 31
0.0
  0
LINE
  5
22B
330
205
100
AcDbEntity
  8
AM_9
100
AcDbLine
 10
4.364583333333333
 20
-1.26328125
 30
0.0
 11
4.364583333333333
 21
1.26328125
 31
0.0
  0
LINE
  5
22C
330
205
100
AcDbEntity
  8
AM_9
100
AcDbLine
 10
4.1875
 20
-1.26328125
 30
0.0
 11
4.1875
 21
1.26328125
 31
0.0
  0
LINE
  5
22D
330
205
100
AcDbEntity
  8
AM_9
100
AcDbLine
 10
6.135416666666667
 20
-1.26328125
 30
0.0
 11
6.135416666666667
 21
1.26328125
 31
0.0
  0
LINE
  5
22E
330
205
100
AcDbEntity
  8
AM_9
100
AcDbLine
 10
6.3125
 20
-1.26328125
 30
0.0
 11
6.3125
 21
1.26328125
 31
0.0
  0
LWPOLYLINE
  5
22F
330
205
100
AcDbEntity
  8
AM_9
100
AcDbPolyline
 90
       21
 70
     0
 43
0.0
 10
-3.882582390998423
 20
-0.4999999999999999
 10
-3.903279903895741
 20
-0.4968332994569556
 10
-3.932237177652355
 20
-0.4804623973086061
 10
-3.958455055637496
 20
-0.4507514083413126
 10
-3.981451405432371
 20
-0.4082536655516685
 10
-4.000913531093266
 20
-0.354392139818577
 10
-4.016716584247781
 20
-0.2900912497322045
 10
-4.028720168169924
 20
-0.2175804511145846
 10
-4.036887928000931
 20
-0.1387637957763405
 10
-4.041280954440059
 20
-0.0559811335737928
 10
-4.041896085841337
 20
0.0279084226592381
 10
-4.038808540452718
 20
0.1110072828857445
 10
-4.031994406425229
 20
0.1906827606674689
 10
-4.021457185653544
 20
0.2650231791237849
 10
-4.007061631578643
 20
0.3321827398489554
 10
-3.988925112999287
 20
0.3900376188170471
 10
-3.966987831403049
 20
0.4370499547808369
 10
-3.941644050206137
 20
0.4717137652796748
 10
-3.913331708489388
 20
0.4928055719315969
 10
-3.882666401817112
 20
0.4999999496989334
 10
-3.882582390998423
 20
0.4999999999999998
  0
LWPOLYLINE
  5
230
330
205
100
AcDbEntity
  8
AM_9
100
AcDbPolyline
 90
       21
 70
     0
 43
0.0
 10
-3.882582390998423
 20
0.4999999999999998
 10
-3.850576537708956
 20
0.4929518653891656
 10
-3.818015847317629
 20
0.4722100304966808
 10
-3.785951021828204
 20
0.4381473152055143
 10
-3.755590250261436
 20
0.3919255617591979
 10
-3.727993282456102
 20
0.334301495086069
 10
-3.704465798680998
 20
0.2672732295998504
 10
-3.68606953936235
 20
0.1923480215842529
 10
-3.673653102239554
 20
0.1119322582080757
 10
-3.669054926635652
 20
0.0563282561065047
 10
-3.667502606038471
 20
-0.0000000000000001
 10
-3.670948322494284
 20
-0.083598874860891
 10
-3.68100176362395
 20
-0.164833195132165
 10
-3.697282430665847
 20
-0.2413363077768071
 10
-3.718941172466991
 20
-0.3110736893685451
 10
-3.745211945474131
 20
-0.3722581266909345
 10
-3.774828131282458
 20
-0.4229837376089785
 10
-3.80671936676779
 20
-0.4617641419921311
 10
-3.839566198846037
 20
-0.4874830448569858
 10
-3.861277098652714
 20
-0.4968503438454647
 10
-3.882582390998423
 20
-0.4999999999999999
  0
LINE
  5
231
330
205
100
AcDbEntity
  8
AM_9
100
AcDbLine
 10
3.5433
 20
-1.71875
 30
0.0
 11
3.5433
 21
1.71875
 31
0.0
  0
LINE
  5
232
330
205
100
AcDbEntity
  8
AM_9
100
AcDbLine
 10
-3.5433
 20
1.71875
 30
0.0
 11
-3.5433
 21
-1.71875
 31
0.0
  0
ELLIPSE
  5
233
330
205
100
AcDbEntity
  8
AM_9
100
AcDbEllipse
 10
-3.882582390998422
 20
0.0000000000000001
 30
0.0
 11
3.061616997868381E-17
 21
0.4999999999999997
 31
0.0
210
0.0
220
0.0
230
1.0
 40
0.374606593415913
 41
0.0
 42
6.283185307179586
  0
LINE
  5
234
330
205
100
AcDbEntity
  8
AM_7
100
AcDbLine
 10
6.209375
 20
0.0
 30
0.0
 11
8.478125
 21
0.0
 31
0.0
  0
LINE
  5
235
330
205
100
AcDbEntity
  8
AM_4
100
AcDbLine
 10
8.375
 20
2.107969583889095
 30
0.0
 11
8.375
 21
-2.107969583889095
 31
0.0
  0
LINE
  5
236
330
205
100
AcDbEntity
  8
AM_4
100
AcDbLine
 10
6.3125
 20
-1.26328125
 30
0.0
 11
6.3125
 21
-2.107969583889095
 31
0.0
  0
LINE
  5
237
330
205
100
AcDbEntity
  8
AM_4
100
AcDbLine
 10
6.3125
 20
-2.107969583889095
 30
0.0
 11
8.375
 21
-2.107969583889095
 31
0.0
  0
LINE
  5
238
330
205
100
AcDbEntity
  8
AM_4
100
AcDbLine
 10
8.375
 20
2.107969583889095
 30
0.0
 11
6.3125
 21
2.107969583889095
 31
0.0
  0
LINE
  5
239
330
205
100
AcDbEntity
  8
AM_4
100
AcDbLine
 10
6.3125
 20
2.107969583889095
 30
0.0
 11
6.3125
 21
1.26328125
 31
0.0
  0
LINE
  5
23A
330
205
100
AcDbEntity
  8
AM_4
100
AcDbLine
 10
-4.1875
 20
1.50625
 30
0.0
 11
-4.1875
 21
-1.50625
 31
0.0
  0
LINE
  5
23B
330
205
100
AcDbEntity
  8
AM_4
100
AcDbLine
 10
4.1875
 20
1.26328125
 30
0.0
 11
4.1875
 21
1.50625
 31
0.0
  0
LINE
  5
23C
330
205
100
AcDbEntity
  8
AM_4
100
AcDbLine
 10
4.1875
 20
-1.50625
 30
0.0
 11
4.1875
 21
-1.26328125
 31
0.0
  0
LINE
  5
23D
330
205
100
AcDbEntity
  8
AM_4
100
AcDbLine
 10
8.375
 20
1.26328125
 30
0.0
 11
3.5
 21
1.26328125
 31
0.0
  0
LINE
  5
23E
330
205
100
AcDbEntity
  8
AM_4
100
AcDbLine
 10
8.375
 20
1.05078125
 30
0.0
 11
3.5
 21
1.05078125
 31
0.0
  0
LINE
  5
23F
330
205
100
AcDbEntity
  8
AM_4
100
AcDbLine
 10
8.375
 20
-1.26328125
 30
0.0
 11
3.5
 21
-1.26328125
 31
0.0
  0
LINE
  5
240
330
205
100
AcDbEntity
  8
AM_4
100
AcDbLine
 10
8.375
 20
-1.05078125
 30
0.0
 11
3.5
 21
-1.05078125
 31
0.0
  0
LINE
  5
241
330
205
100
AcDbEntity
  8
AM_4
100
AcDbLine
 10
-3.975
 20
-1.71875
 30
0.0
 11
3.974999999994788
 21
-1.71875
 31
0.0
  0
LINE
  5
242
330
205
100
AcDbEntity
  8
AM_4
100
AcDbLine
 10
3.5
 20
-1.506249999999999
 30
0.0
 11
4.1875
 21
-1.50625
 31
0.0
  0
ARC
  5
243
330
205
100
AcDbEntity
  8
AM_4
100
AcDbCircle
 10
3.974999999999999
 20
-1.506249999999999
 30
0.0
 40
0.2125000000000008
100
AcDbArc
 50
270.0
 51
0.0
  0
ARC
  5
244
330
205
100
AcDbEntity
  8
AM_4
100
AcDbCircle
 10
-3.974999999999999
 20
-1.506249999999999
 30
0.0
 40
0.2125000000000008
100
AcDbArc
 50
180.0
 51
270.0
  0
LINE
  5
245
330
205
100
AcDbEntity
  8
AM_4
100
AcDbLine
 10
-4.1875
 20
-1.50625
 30
0.0
 11
-3.5
 21
-1.506249999999999
 31
0.0
  0
LINE
  5
246
330
205
100
AcDbEntity
  8
AM_4
100
AcDbLine
 10
3.5
 20
1.50625
 30
0.0
 11
4.1875
 21
1.50625
 31
0.0
  0
LINE
  5
247
330
205
100
AcDbEntity
  8
AM_4
100
AcDbLine
 10
-3.975
 20
1.71875
 30
0.0
 11
3.974999999994788
 21
1.71875
 31
0.0
  0
ARC
  5
248
330
205
100
AcDbEntity
  8
AM_4
100
AcDbCircle
 10
3.975000000000001
 20
1.50625
 30
0.0
 40
0.2124999999999995
100
AcDbArc
 50
0.0
 51
90.0
  0
ARC
  5
249
330
205
100
AcDbEntity
  8
AM_4
100
AcDbCircle
 10
-3.975
 20
1.50625
 30
0.0
 40
0.2124999999999999
100
AcDbArc
 50
90.0
 51
180.0
  0
LINE
  5
24A
330
205
100
AcDbEntity
  8
AM_4
100
AcDbLine
 10
-4.1875
 20
1.50625
 30
0.0
 11
-3.5
 21
1.50625
 31
0.0
  0
LINE
  5
24B
330
205
100
AcDbEntity
  8
AM_4
100
AcDbLine
 10
3.287499999999999
 20
-1.546875
 30
0.0
 11
3.287499999999999
 21
-1.03125
 31
0.0
  0
LINE
  5
24C
330
205
100
AcDbEntity
  8
AM_4
100
AcDbLine
 10
3.5
 20
-1.546875
 30
0.0
 11
3.5
 21
1.546875
 31
0.0
  0
LINE
  5
24D
330
205
100
AcDbEntity
  8
AM_4
100
AcDbLine
 10
3.287499999999999
 20
1.03125
 30
0.0
 11
3.287499999999999
 21
1.546875
 31
0.0
  0
LINE
  5
24E
330
205
100
AcDbEntity
  8
AM_4
100
AcDbLine
 10
3.5
 20
1.03125
 30
0.0
 11
-3.5
 21
1.03125
 31
0.0
  0
LINE
  5
24F
330
205
100
AcDbEntity
  8
AM_4
100
AcDbLine
 10
-3.2875
 20
1.03125
 30
0.0
 11
-3.2875
 21
1.546875
 31
0.0
  0
LINE
  5
250
330
205
100
AcDbEntity
  8
AM_4
100
AcDbLine
 10
3.5
 20
1.546875
 30
0.0
 11
-3.5
 21
1.546875
 31
0.0
  0
LINE
  5
251
330
205
100
AcDbEntity
  8
AM_4
100
AcDbLine
 10
-3.5
 20
-1.546875
 30
0.0
 11
-3.5
 21
1.546875
 31
0.0
  0
LINE
  5
252
330
205
100
AcDbEntity
  8
AM_4
100
AcDbLine
 10
-3.5
 20
-1.03125
 30
0.0
 11
3.5
 21
-1.03125
 31
0.0
  0
LINE
  5
253
330
205
100
AcDbEntity
  8
AM_4
100
AcDbLine
 10
3.5
 20
-1.546875
 30
0.0
 11
-3.5
 21
-1.546875
 31
0.0
  0
LINE
  5
254
330
205
100
AcDbEntity
  8
AM_4
100
AcDbLine
 10
-3.2875
 20
-1.546875
 30
0.0
 11
-3.2875
 21
-1.03125
 31
0.0
  0
ENDBLK
  5
208
330
205
100
AcDbEntity
  8
0
100
AcDbBlockEnd
  0
ENDSEC
  0
SECTION
  2
ENTITIES
  0
INSERT
  5
6F
330
1F
100
AcDbEntity
  8
0
100
AcDbBlockReference
  2
1_069393_4
 10
0.0
 20
0.0
 30
0.0
  0
POINT
  5
256
330
1F
100
AcDbEntity
  8
ConnectionPoints
100
AcDbPoint
 10
0.0
 20
-2.460041666666667
 30
-2.414930555555555
  0
POINT
  5
257
330
1F
100
AcDbEntity
  8
ConnectionPoints
100
AcDbPoint
 10
0.0
 20
-2.460041666666667
 30
2.414930555555555
  0
POINT
  5
258
330
1F
100
AcDbEntity
  8
ConnectionPoints
100
AcDbPoint
 10
0.0
 20
-2.390041666666667
 30
0.0000000000000002
  0
POINT
  5
259
330
1F
100
AcDbEntity
  8
ConnectionPoints
100
AcDbPoint
 10
0.0
 20
-2.734375
 30
0.0000000000000002
  0
POINT
  5
25A
330
1F
100
AcDbEntity
  8
ConnectionPoints
100
AcDbPoint
 10
0.0
 20
-2.589041666666667
 30
0.0000000000000002
  0
POINT
  5
25B
330
1F
100
AcDbEntity
  8
ConnectionPoints
100
AcDbPoint
 10
0.0
 20
-2.390041666666667
 30
2.414930555555555
  0
POINT
  5
25C
330
1F
100
AcDbEntity
  8
ConnectionPoints
100
AcDbPoint
 10
0.0
 20
-2.602375
 30
2.414930555555555
  0
POINT
  5
25D
330
1F
100
AcDbEntity
  8
ConnectionPoints
100
AcDbPoint
 10
0.0
 20
-2.390041666666667
 30
-2.414930555555555
  0
POINT
  5
25E
330
1F
100
AcDbEntity
  8
ConnectionPoints
100
AcDbPoint
 10
0.0
 20
-2.602375
 30
-2.414930555555555
  0
POINT
  5
25F
330
1F
100
AcDbEntity
  8
ConnectionPoints
100
AcDbPoint
 10
0.0
 20
-2.390041666666667
 30
0.0000000000000001
  0
POINT
  5
260
330
1F
100
AcDbEntity
  8
ConnectionPoints
100
AcDbPoint
 10
-3.975300776455101
 20
-0.0000000000000001
 30
-1.606125769270723
  0
POINT
  5
261
330
1F
100
AcDbEntity
  8
ConnectionPoints
100
AcDbPoint
 10
0.0
 20
-2.734375
 30
0.0000000000000002
  0
POINT
  5
262
330
1F
100
AcDbEntity
  8
ConnectionPoints
100
AcDbPoint
 10
0.0
 20
-3.046875
 30
0.0000000000000002
  0
ENDSEC
  0
SECTION
  2
OBJECTS
  0
DICTIONARY
  5
C
330
0
100
AcDbDictionary
281
     1
  3
ACAD_DETAILVIEWSTYLE
350
26A
  3
ACAD_GROUP
350
D
  3
ACAD_LAYOUT
350
1A
  3
ACAD_MATERIAL
350
43
  3
ACAD_MLEADERSTYLE
350
6B
  3
ACAD_MLINESTYLE
350
17
  3
ACAD_PLOTSETTINGS
350
19
  3
ACAD_PLOTSTYLENAME
350
E
  3
ACAD_SCALELIST
350
47
  3
ACAD_SECTIONVIEWSTYLE
350
26B
  3
ACAD_TABLESTYLE
350
69
  3
ACAD_VISUALSTYLE
350
2A
  3
ACDB_RECOMPOSE_DATA
350
267
  3
AcDbVariableDictionary
350
263
  0
SUN
  5
6D
330
29
100
AcDbSun
 90
        1
290
     0
 63
     7
421
 16777215
 40
1.0
291
     1
 91
  2455826
 92
 54000000
292
     0
 70
     2
 71
   256
280
     1
  0
DICTIONARY
  5
26A
102
{ACAD_REACTORS
330
C
102
}
330
C
100
AcDbDictionary
281
     1
  0
DICTIONARY
  5
D
102
{ACAD_REACTORS
330
C
102
}
330
C
100
AcDbDictionary
281
     1
  0
DICTIONARY
  5
1A
102
{ACAD_REACTORS
330
C
102
}
330
C
100
AcDbDictionary
281
     1
  3
Layout1
350
1E
  3
Layout2
350
26
  3
Model
350
22
  0
DICTIONARY
  5
43
102
{ACAD_REACTORS
330
C
102
}
330
C
100
AcDbDictionary
281
     1
  3
ByBlock
350
45
  3
ByLayer
350
44
  3
Global
350
46
  0
DICTIONARY
  5
6B
102
{ACAD_REACTORS
330
C
102
}
330
C
100
AcDbDictionary
281
     1
  3
Standard
350
6C
  0
DICTIONARY
  5
17
102
{ACAD_REACTORS
330
C
102
}
330
C
100
AcDbDictionary
281
     1
  3
Standard
350
18
  0
DICTIONARY
  5
19
102
{ACAD_REACTORS
330
C
102
}
330
C
100
AcDbDictionary
281
     1
  0
ACDBDICTIONARYWDFLT
  5
E
102
{ACAD_REACTORS
330
C
102
}
330
C
100
AcDbDictionary
281
     1
  3
Normal
350
F
100
AcDbDictionaryWithDefault
340
F
  0
DICTIONARY
  5
47
102
{ACAD_REACTORS
330
C
102
}
330
C
100
AcDbDictionary
281
     1
  3
A0
350
48
  3
A1
350
49
  3
A2
350
4A
  3
A3
350
4B
  3
A4
350
4C
  3
A5
350
4D
  3
A6
350
4E
  3
A7
350
4F
  3
A8
350
50
  3
A9
350
51
  3
B0
350
52
  3
B1
350
53
  3
B2
350
54
  3
B3
350
55
  3
B4
350
56
  3
B5
350
57
  3
B6
350
58
  3
B7
350
59
  3
B8
350
5A
  3
B9
350
5B
  3
C0
350
5C
  3
C1
350
5D
  3
C2
350
5E
  3
C3
350
5F
  3
C4
350
60
  3
C5
350
61
  3
C6
350
62
  3
C7
350
63
  3
C8
350
64
  3
C9
350
65
  3
D0
350
66
  3
D1
350
67
  3
D2
350
68
  0
DICTIONARY
  5
26B
102
{ACAD_REACTORS
330
C
102
}
330
C
100
AcDbDictionary
281
     1
  0
DICTIONARY
  5
69
102
{ACAD_REACTORS
330
C
102
}
330
C
100
AcDbDictionary
281
     1
  3
Standard
350
6A
  0
DICTIONARY
  5
2A
102
{ACAD_REACTORS
330
C
102
}
330
C
100
AcDbDictionary
281
     1
  3
2dWireframe
350
2F
  3
Basic
350
32
  3
Brighten
350
36
  3
ColorChange
350
3A
  3
Conceptual
350
34
  3
Dim
350
35
  3
EdgeColorOff
350
3D
  3
Facepattern
350
39
  3
Flat
350
2B
  3
FlatWithEdges
350
2C
  3
Gouraud
350
2D
  3
GouraudWithEdges
350
2E
  3
Hidden
350
31
  3
JitterOff
350
3B
  3
Linepattern
350
38
  3
OverhangOff
350
3C
  3
Realistic
350
33
  3
Shaded
350
42
  3
Shaded with edges
350
41
  3
Shades of Gray
350
3E
  3
Sketchy
350
3F
  3
Thicken
350
37
  3
Wireframe
350
30
  3
X-Ray
350
40
  0
XRECORD
  5
267
102
{ACAD_REACTORS
330
C
102
}
330
C
100
AcDbXrecord
280
     1
 90
        1
330
6A
  0
DICTIONARY
  5
263
102
{ACAD_REACTORS
330
C
102
}
330
C
100
AcDbDictionary
281
     1
  3
CANNOSCALE
350
264
  3
CMLEADERSTYLE
350
269
  3
CTABLESTYLE
350
268
  0
LAYOUT
  5
1E
102
{ACAD_REACTORS
330
1A
102
}
330
1A
100
AcDbPlotSettings
  1

  2
none_device
  4

  6

 40
0.0
 41
0.0
 42
0.0
 43
0.0
 44
0.0
 45
0.0
 46
0.0
 47
0.0
 48
0.0
 49
0.0
140
0.0
141
0.0
142
1.0
143
1.0
 70
   688
 72
     0
 73
     0
 74
     5
  7

 75
    16
 76
     0
 77
     2
 78
   300
147
1.0
148
0.0
149
0.0
100
AcDbLayout
  1
Layout1
 70
     1
 71
     1
 10
0.0
 20
0.0
 11
12.0
 21
9.0
 12
0.0
 22
0.0
 32
0.0
 14
1.000000000000000E+20
 24
1.000000000000000E+20
 34
1.000000000000000E+20
 15
-1.000000000000000E+20
 25
-1.000000000000000E+20
 35
-1.000000000000000E+20
146
0.0
 13
0.0
 23
0.0
 33
0.0
 16
1.0
 26
0.0
 36
0.0
 17
0.0
 27
1.0
 37
0.0
 76
     0
330
1B
  0
LAYOUT
  5
26
102
{ACAD_REACTORS
330
1A
102
}
330
1A
100
AcDbPlotSettings
  1

  2
none_device
  4

  6

 40
0.0
 41
0.0
 42
0.0
 43
0.0
 44
0.0
 45
0.0
 46
0.0
 47
0.0
 48
0.0
 49
0.0
140
0.0
141
0.0
142
1.0
143
1.0
 70
   688
 72
     0
 73
     0
 74
     5
  7

 75
    16
 76
     0
 77
     2
 78
   300
147
1.0
148
0.0
149
0.0
100
AcDbLayout
  1
Layout2
 70
     1
 71
     2
 10
0.0
 20
0.0
 11
0.0
 21
0.0
 12
0.0
 22
0.0
 32
0.0
 14
0.0
 24
0.0
 34
0.0
 15
0.0
 25
0.0
 35
0.0
146
0.0
 13
0.0
 23
0.0
 33
0.0
 16
1.0
 26
0.0
 36
0.0
 17
0.0
 27
1.0
 37
0.0
 76
     0
330
23
  0
LAYOUT
  5
22
102
{ACAD_REACTORS
330
1A
102
}
330
1A
100
AcDbPlotSettings
  1

  2
none_device
  4
Letter_(8.50_x_11.00_Inches)
  6

 40
6.35
 41
6.35
 42
6.35000508
 43
6.35000508
 44
215.9
 45
279.4
 46
0.0
 47
0.0
 48
0.0
 49
0.0
140
0.0
141
0.0
142
1.0
143
1.0
 70
  1712
 72
     0
 73
     0
 74
     0
  7

 75
     0
 76
     0
 77
     2
 78
   300
147
1.0
148
0.0
149
0.0
100
AcDbLayout
  1
Model
 70
     1
 71
     0
 10
0.0
 20
0.0
 11
12.0
 21
9.0
 12
0.0
 22
0.0
 32
0.0
 14
1.000000000000000E+20
 24
1.000000000000000E+20
 34
1.000000000000000E+20
 15
-1.000000000000000E+20
 25
-1.000000000000000E+20
 35
-1.000000000000000E+20
146
0.0
 13
0.0
 23
0.0
 33
0.0
 16
1.0
 26
0.0
 36
0.0
 17
0.0
 27
1.0
 37
0.0
 76
     0
330
1F
331
29
  0
MATERIAL
  5
45
102
{ACAD_REACTORS
330
43
102
}
330
43
100
AcDbMaterial
  1
ByBlock
 72
     1
 94
      127
  0
MATERIAL
  5
44
102
{ACAD_REACTORS
330
43
102
}
330
43
100
AcDbMaterial
  1
ByLayer
 72
     1
 94
      127
  0
MATERIAL
  5
46
102
{ACAD_REACTORS
330
43
102
}
330
43
100
AcDbMaterial
  1
Global
 72
     1
 94
      127
  0
MLEADERSTYLE
  5
6C
102
{ACAD_REACTORS
330
6B
102
}
330
6B
100
AcDbMLeaderStyle
179
     2
170
     2
171
     1
172
     0
 90
        2
 40
0.0
 41
0.0
173
     1
 91
-1056964608
340
14
 92
       -2
290
     1
 42
0.09
291
     1
 43
0.36
  3
Standard
341
0
 44
0.18
300

342
11
174
     1
178
     6
175
     1
176
     0
 93
-1056964608
 45
0.18
292
     0
297
     0
 46
0.18
343
0
 94
-1056964608
 47
1.0
 49
1.0
140
1.0
293
     1
141
0.0
294
     1
177
     0
142
1.0
295
     0
296
     0
143
0.125
271
     0
272
     9
273
     9
298
     0
  0
MLINESTYLE
  5
18
102
{ACAD_REACTORS
330
17
102
}
330
17
100
AcDbMlineStyle
  2
Standard
 70
     0
  3

 62
   256
 51
90.0
 52
90.0
 71
     2
 49
0.5
 62
   256
  6
BYLAYER
 49
-0.5
 62
   256
  6
BYLAYER
  0
ACDBPLACEHOLDER
  5
F
102
{ACAD_REACTORS
330
E
102
}
330
E
  0
SCALE
  5
48
102
{ACAD_REACTORS
330
47
102
}
330
47
100
AcDbScale
 70
     0
300
1:1
140
1.0
141
1.0
290
     1
  0
SCALE
  5
49
102
{ACAD_REACTORS
330
47
102
}
330
47
100
AcDbScale
 70
     0
300
1:2
140
1.0
141
2.0
290
     0
  0
SCALE
  5
4A
102
{ACAD_REACTORS
330
47
102
}
330
47
100
AcDbScale
 70
     0
300
1:4
140
1.0
141
4.0
290
     0
  0
SCALE
  5
4B
102
{ACAD_REACTORS
330
47
102
}
330
47
100
AcDbScale
 70
     0
300
1:5
140
1.0
141
5.0
290
     0
  0
SCALE
  5
4C
102
{ACAD_REACTORS
330
47
102
}
330
47
100
AcDbScale
 70
     0
300
1:8
140
1.0
141
8.0
290
     0
  0
SCALE
  5
4D
102
{ACAD_REACTORS
330
47
102
}
330
47
100
AcDbScale
 70
     0
300
1:10
140
1.0
141
10.0
290
     0
  0
SCALE
  5
4E
102
{ACAD_REACTORS
330
47
102
}
330
47
100
AcDbScale
 70
     0
300
1:16
140
1.0
141
16.0
290
     0
  0
SCALE
  5
4F
102
{ACAD_REACTORS
330
47
102
}
330
47
100
AcDbScale
 70
     0
300
1:20
140
1.0
141
20.0
290
     0
  0
SCALE
  5
50
102
{ACAD_REACTORS
330
47
102
}
330
47
100
AcDbScale
 70
     0
300
1:30
140
1.0
141
30.0
290
     0
  0
SCALE
  5
51
102
{ACAD_REACTORS
330
47
102
}
330
47
100
AcDbScale
 70
     0
300
1:40
140
1.0
141
40.0
290
     0
  0
SCALE
  5
52
102
{ACAD_REACTORS
330
47
102
}
330
47
100
AcDbScale
 70
     0
300
1:50
140
1.0
141
50.0
290
     0
  0
SCALE
  5
53
102
{ACAD_REACTORS
330
47
102
}
330
47
100
AcDbScale
 70
     0
300
1:100
140
1.0
141
100.0
290
     0
  0
SCALE
  5
54
102
{ACAD_REACTORS
330
47
102
}
330
47
100
AcDbScale
 70
     0
300
2:1
140
2.0
141
1.0
290
     0
  0
SCALE
  5
55
102
{ACAD_REACTORS
330
47
102
}
330
47
100
AcDbScale
 70
     0
300
4:1
140
4.0
141
1.0
290
     0
  0
SCALE
  5
56
102
{ACAD_REACTORS
330
47
102
}
330
47
100
AcDbScale
 70
     0
300
8:1
140
8.0
141
1.0
290
     0
  0
SCALE
  5
57
102
{ACAD_REACTORS
330
47
102
}
330
47
100
AcDbScale
 70
     0
300
10:1
140
10.0
141
1.0
290
     0
  0
SCALE
  5
58
102
{ACAD_REACTORS
330
47
102
}
330
47
100
AcDbScale
 70
     0
300
100:1
140
100.0
141
1.0
290
     0
  0
SCALE
  5
59
102
{ACAD_REACTORS
330
47
102
}
330
47
100
AcDbScale
 70
     0
300
1/128" = 1'-0"
140
0.0078125
141
12.0
290
     0
  0
SCALE
  5
5A
102
{ACAD_REACTORS
330
47
102
}
330
47
100
AcDbScale
 70
     0
300
1/64" = 1'-0"
140
0.015625
141
12.0
290
     0
  0
SCALE
  5
5B
102
{ACAD_REACTORS
330
47
102
}
330
47
100
AcDbScale
 70
     0
300
1/32" = 1'-0"
140
0.03125
141
12.0
290
     0
  0
SCALE
  5
5C
102
{ACAD_REACTORS
330
47
102
}
330
47
100
AcDbScale
 70
     0
300
1/16" = 1'-0"
140
0.0625
141
12.0
290
     0
  0
SCALE
  5
5D
102
{ACAD_REACTORS
330
47
102
}
330
47
100
AcDbScale
 70
     0
300
3/32" = 1'-0"
140
0.09375
141
12.0
290
     0
  0
SCALE
  5
5E
102
{ACAD_REACTORS
330
47
102
}
330
47
100
AcDbScale
 70
     0
300
1/8" = 1'-0"
140
0.125
141
12.0
290
     0
  0
SCALE
  5
5F
102
{ACAD_REACTORS
330
47
102
}
330
47
100
AcDbScale
 70
     0
300
3/16" = 1'-0"
140
0.1875
141
12.0
290
     0
  0
SCALE
  5
60
102
{ACAD_REACTORS
330
47
102
}
330
47
100
AcDbScale
 70
     0
300
1/4" = 1'-0"
140
0.25
141
12.0
290
     0
  0
SCALE
  5
61
102
{ACAD_REACTORS
330
47
102
}
330
47
100
AcDbScale
 70
     0
300
3/8" = 1'-0"
140
0.375
141
12.0
290
     0
  0
SCALE
  5
62
102
{ACAD_REACTORS
330
47
102
}
330
47
100
AcDbScale
 70
     0
300
1/2" = 1'-0"
140
0.5
141
12.0
290
     0
  0
SCALE
  5
63
102
{ACAD_REACTORS
330
47
102
}
330
47
100
AcDbScale
 70
     0
300
3/4" = 1'-0"
140
0.75
141
12.0
290
     0
  0
SCALE
  5
64
102
{ACAD_REACTORS
330
47
102
}
330
47
100
AcDbScale
 70
     0
300
1" = 1'-0"
140
1.0
141
12.0
290
     0
  0
SCALE
  5
65
102
{ACAD_REACTORS
330
47
102
}
330
47
100
AcDbScale
 70
     0
300
1-1/2" = 1'-0"
140
1.5
141
12.0
290
     0
  0
SCALE
  5
66
102
{ACAD_REACTORS
330
47
102
}
330
47
100
AcDbScale
 70
     0
300
3" = 1'-0"
140
3.0
141
12.0
290
     0
  0
SCALE
  5
67
102
{ACAD_REACTORS
330
47
102
}
330
47
100
AcDbScale
 70
     0
300
6" = 1'-0"
140
6.0
141
12.0
290
     0
  0
SCALE
  5
68
102
{ACAD_REACTORS
330
47
102
}
330
47
100
AcDbScale
 70
     0
300
1'-0" = 1'-0"
140
12.0
141
12.0
290
     0
  0
TABLESTYLE
  5
6A
102
{ACAD_REACTORS
330
69
102
}
102
{ACAD_XDICTIONARY
360
265
102
}
330
69
100
AcDbTableStyle
  3
Standard
 70
     0
 71
     0
 40
0.06
 41
0.06
280
     0
281
     0
  7
Standard
140
0.18
170
     2
 62
     0
 63
   257
283
     0
 90
        4
 91
        0
  1

274
    -2
284
     1
 64
     0
275
    -2
285
     1
 65
     0
276
    -2
286
     1
 66
     0
277
    -2
287
     1
 67
     0
278
    -2
288
     1
 68
     0
279
    -2
289
     1
 69
     0
  7
Standard
140
0.25
170
     5
 62
     0
 63
   257
283
     0
 90
        4
 91
        0
  1

274
    -2
284
     1
 64
     0
275
    -2
285
     1
 65
     0
276
    -2
286
     1
 66
     0
277
    -2
287
     1
 67
     0
278
    -2
288
     1
 68
     0
279
    -2
289
     1
 69
     0
  7
Standard
140
0.18
170
     5
 62
     0
 63
   257
283
     0
 90
        4
 91
        0
  1

274
    -2
284
     1
 64
     0
275
    -2
285
     1
 65
     0
276
    -2
286
     1
 66
     0
277
    -2
287
     1
 67
     0
278
    -2
288
     1
 68
     0
279
    -2
289
     1
 69
     0
  0
VISUALSTYLE
  5
2F
102
{ACAD_REACTORS
330
2A
102
}
330
2A
100
AcDbVisualStyle
  2
2dWireframe
 70
     4
177
     3
291
     0
 70
    58
 90
        0
176
     1
 90
        2
176
     1
 90
        0
176
     1
 90
        0
176
     1
 40
0.6
176
     1
 40
30.0
176
     1
 62
     7
420
 16777215
176
     1
 90
        1
176
     1
 90
        4
176
     1
 62
     7
176
     1
 62
   257
176
     1
 90
        1
176
     1
 90
        1
176
     1
 40
1.0
176
     1
 90
        0
176
     1
 62
   257
176
     1
 40
1.0
176
     1
 90
        1
176
     1
 90
        6
176
     1
 90
        2
176
     1
 62
     7
176
     1
 90
        5
176
     1
 90
        0
176
     1
 90
        0
176
     1
290
     0
176
     1
 90
        1
176
     1
 40
0.0
176
     1
 90
        0
176
     1
290
     1
176
     1
290
     1
176
     1
290
     0
176
     1
290
     0
176
     1
290
     0
176
     1
290
     0
176
     1
290
     0
176
     1
290
     0
176
     1
290
     0
176
     1
 90
       50
176
     1
 40
0.0
176
     1
 40
1.0
176
     1
 90
        0
176
     1
 62
    18
420
        0
176
     1
 90
       50
176
     1
 90
        3
176
     1
 62
     5
420
      255
176
     1
290
     0
176
     1
 90
       50
176
     1
 90
       50
176
     1
 90
       50
176
     1
290
     0
176
     1
 90
       50
176
     1
 62
   256
176
     0
 40
1.0
176
     0
 90
        2
176
     1
  1
strokes_ogs.tif
176
     1
290
     0
176
     1
 40
1.0
176
     1
 40
1.0
176
     1
  0
VISUALSTYLE
  5
32
102
{ACAD_REACTORS
330
2A
102
}
330
2A
100
AcDbVisualStyle
  2
Basic
 70
     7
177
     3
291
     1
 70
    58
 90
        1
176
     1
 90
        0
176
     1
 90
        1
176
     1
 90
        0
176
     1
 40
0.6
176
     1
 40
30.0
176
     1
 62
     7
420
 16777215
176
     1
 90
        0
176
     1
 90
        4
176
     1
 62
     7
176
     1
 62
   257
176
     1
 90
        1
176
     1
 90
        1
176
     1
 40
1.0
176
     1
 90
        8
176
     1
 62
     7
176
     1
 40
1.0
176
     1
 90
        1
176
     1
 90
        6
176
     1
 90
        2
176
     1
 62
     7
176
     1
 90
        5
176
     1
 90
        0
176
     1
 90
        0
176
     1
290
     0
176
     1
 90
        1
176
     1
 40
0.0
176
     1
 90
        0
176
     1
290
     0
176
     1
290
     1
176
     1
290
     1
176
     1
290
     0
176
     1
290
     0
176
     1
290
     0
176
     1
290
     0
176
     1
290
     0
176
     1
290
     0
176
     1
 90
       50
176
     1
 40
0.0
176
     1
 40
1.0
176
     1
 90
        0
176
     1
 62
    18
420
        0
176
     1
 90
       50
176
     1
 90
        3
176
     1
 62
     5
420
      255
176
     1
290
     0
176
     1
 90
       50
176
     1
 90
       50
176
     1
 90
       50
176
     1
290
     0
176
     1
 90
       50
176
     1
 62
   256
176
     0
 40
1.0
176
     0
 90
        2
176
     1
  1
strokes_ogs.tif
176
     1
290
     0
176
     1
 40
1.0
176
     1
 40
1.0
176
     1
  0
VISUALSTYLE
  5
36
102
{ACAD_REACTORS
330
2A
102
}
330
2A
100
AcDbVisualStyle
  2
Brighten
 70
    12
177
     3
291
     1
 70
    58
 90
        2
176
     1
 90
        2
176
     1
 90
        0
176
     1
 90
        0
176
     1
 40
0.6
176
     1
 40
30.0
176
     1
 62
     7
420
 16777215
176
     1
 90
        1
176
     1
 90
        4
176
     1
 62
     7
176
     1
 62
   257
176
     1
 90
        1
176
     1
 90
        1
176
     1
 40
1.0
176
     1
 90
        8
176
     1
 62
     7
176
     1
 40
1.0
176
     1
 90
        1
176
     1
 90
        6
176
     1
 90
        2
176
     1
 62
     7
176
     1
 90
        5
176
     1
 90
        0
176
     1
 90
        0
176
     1
290
     0
176
     1
 90
        1
176
     1
 40
50.0
176
     1
 90
        0
176
     1
290
     0
176
     1
290
     1
176
     1
290
     1
176
     1
290
     0
176
     1
290
     0
176
     1
290
     0
176
     1
290
     0
176
     1
290
     0
176
     1
290
     0
176
     1
 90
       50
176
     1
 40
0.0
176
     1
 40
1.0
176
     1
 90
        0
176
     1
 62
    18
420
        0
176
     1
 90
       50
176
     1
 90
        3
176
     1
 62
     5
420
      255
176
     1
290
     0
176
     1
 90
       50
176
     1
 90
       50
176
     1
 90
       50
176
     1
290
     0
176
     1
 90
       50
176
     1
 62
   256
176
     0
 40
1.0
176
     0
 90
        2
176
     1
  1
strokes_ogs.tif
176
     1
290
     0
176
     1
 40
1.0
176
     1
 40
1.0
176
     1
  0
VISUALSTYLE
  5
3A
102
{ACAD_REACTORS
330
2A
102
}
330
2A
100
AcDbVisualStyle
  2
ColorChange
 70
    16
177
     3
291
     1
 70
    58
 90
        2
176
     1
 90
        2
176
     1
 90
        3
176
     1
 90
        0
176
     1
 40
0.6
176
     1
 40
30.0
176
     1
 62
     8
420
  8421504
176
     1
 90
        1
176
     1
 90
        4
176
     1
 62
     7
176
     1
 62
   257
176
     1
 90
        1
176
     1
 90
        1
176
     1
 40
1.0
176
     1
 90
        8
176
     1
 62
     8
420
  8421504
176
     1
 40
1.0
176
     1
 90
        1
176
     1
 90
        6
176
     1
 90
        2
176
     1
 62
     7
176
     1
 90
        5
176
     1
 90
        0
176
     1
 90
        0
176
     1
290
     0
176
     1
 90
        1
176
     1
 40
0.0
176
     1
 90
        0
176
     1
290
     0
176
     1
290
     1
176
     1
290
     1
176
     1
290
     0
176
     1
290
     0
176
     1
290
     0
176
     1
290
     0
176
     1
290
     0
176
     1
290
     0
176
     1
 90
       50
176
     1
 40
0.0
176
     1
 40
1.0
176
     1
 90
        0
176
     1
 62
    18
420
        0
176
     1
 90
       50
176
     1
 90
        3
176
     1
 62
     5
420
      255
176
     1
290
     0
176
     1
 90
       50
176
     1
 90
       50
176
     1
 90
       50
176
     1
290
     0
176
     1
 90
       50
176
     1
 62
   256
176
     0
 40
1.0
176
     0
 90
        2
176
     1
  1
strokes_ogs.tif
176
     1
290
     0
176
     1
 40
1.0
176
     1
 40
1.0
176
     1
  0
VISUALSTYLE
  5
34
102
{ACAD_REACTORS
330
2A
102
}
330
2A
100
AcDbVisualStyle
  2
Conceptual
 70
     9
177
     3
291
     0
 70
    58
 90
        3
176
     1
 90
        2
176
     1
 90
        0
176
     1
 90
        0
176
     1
 40
0.6
176
     1
 40
30.0
176
     1
 62
     7
420
 16777215
176
     1
 90
        2
176
     1
 90
        2
176
     1
 62
     7
176
     1
 62
   257
176
     1
 90
        1
176
     1
 90
        1
176
     1
 40
179.0
176
     1
 90
        8
176
     1
 62
     7
176
     1
 40
1.0
176
     1
 90
        1
176
     1
 90
        6
176
     1
 90
        2
176
     1
 62
     7
176
     1
 90
        3
176
     1
 90
        0
176
     1
 90
        0
176
     1
290
     0
176
     1
 90
        1
176
     1
 40
0.0
176
     1
 90
        0
176
     1
290
     0
176
     1
290
     1
176
     1
290
     1
176
     1
290
     0
176
     1
290
     0
176
     1
290
     0
176
     1
290
     0
176
     1
290
     0
176
     1
290
     0
176
     1
 90
       50
176
     1
 40
0.0
176
     1
 40
1.0
176
     1
 90
        0
176
     1
 62
    18
420
        0
176
     1
 90
       50
176
     1
 90
        3
176
     1
 62
     5
420
      255
176
     1
290
     0
176
     1
 90
       50
176
     1
 90
       50
176
     1
 90
       50
176
     1
290
     0
176
     1
 90
       50
176
     1
 62
   256
176
     0
 40
1.0
176
     0
 90
        2
176
     1
  1
strokes_ogs.tif
176
     1
290
     0
176
     1
 40
1.0
176
     1
 40
1.0
176
     1
  0
VISUALSTYLE
  5
35
102
{ACAD_REACTORS
330
2A
102
}
330
2A
100
AcDbVisualStyle
  2
Dim
 70
    11
177
     3
291
     1
 70
    58
 90
        2
176
     1
 90
        2
176
     1
 90
        0
176
     1
 90
        0
176
     1
 40
0.6
176
     1
 40
30.0
176
     1
 62
     7
420
 16777215
176
     1
 90
        1
176
     1
 90
        4
176
     1
 62
     7
176
     1
 62
   257
176
     1
 90
        1
176
     1
 90
        1
176
     1
 40
1.0
176
     1
 90
        8
176
     1
 62
     7
176
     1
 40
1.0
176
     1
 90
        1
176
     1
 90
        6
176
     1
 90
        2
176
     1
 62
     7
176
     1
 90
        5
176
     1
 90
        0
176
     1
 90
        0
176
     1
290
     0
176
     1
 90
        1
176
     1
 40
-50.0
176
     1
 90
        0
176
     1
290
     0
176
     1
290
     1
176
     1
290
     1
176
     1
290
     0
176
     1
290
     0
176
     1
290
     0
176
     1
290
     0
176
     1
290
     0
176
     1
290
     0
176
     1
 90
       50
176
     1
 40
0.0
176
     1
 40
1.0
176
     1
 90
        0
176
     1
 62
    18
420
        0
176
     1
 90
       50
176
     1
 90
        3
176
     1
 62
     5
420
      255
176
     1
290
     0
176
     1
 90
       50
176
     1
 90
       50
176
     1
 90
       50
176
     1
290
     0
176
     1
 90
       50
176
     1
 62
   256
176
     0
 40
1.0
176
     0
 90
        2
176
     1
  1
strokes_ogs.tif
176
     1
290
     0
176
     1
 40
1.0
176
     1
 40
1.0
176
     1
  0
VISUALSTYLE
  5
3D
102
{ACAD_REACTORS
330
2A
102
}
330
2A
100
AcDbVisualStyle
  2
EdgeColorOff
 70
    22
177
     3
291
     1
 70
    58
 90
        2
176
     0
 90
        2
176
     0
 90
        0
176
     0
 90
        0
176
     0
 40
0.6
176
     0
 40
30.0
176
     0
 62
     7
420
 16777215
176
     0
 90
        1
176
     0
 90
        4
176
     0
 62
     7
176
     0
 62
   257
176
     0
 90
        1
176
     0
 90
        1
176
     0
 40
1.0
176
     0
 90
        8
176
     2
 62
     7
176
     0
 40
1.0
176
     0
 90
        1
176
     0
 90
        6
176
     0
 90
        2
176
     0
 62
     7
176
     0
 90
        5
176
     0
 90
        0
176
     0
 90
        0
176
     0
290
     0
176
     0
 90
        1
176
     0
 40
0.0
176
     0
 90
        0
176
     0
290
     0
176
     0
290
     1
176
     0
290
     1
176
     0
290
     0
176
     0
290
     0
176
     0
290
     0
176
     0
290
     0
176
     0
290
     0
176
     0
290
     0
176
     0
 90
       50
176
     0
 40
0.0
176
     0
 40
1.0
176
     0
 90
        0
176
     0
 62
    18
420
        0
176
     0
 90
       50
176
     0
 90
        3
176
     0
 62
     5
420
      255
176
     0
290
     0
176
     0
 90
       50
176
     0
 90
       50
176
     0
 90
       50
176
     0
290
     0
176
     0
 90
       50
176
     0
 62
   256
176
     0
 40
1.0
176
     0
 90
        2
176
     0
  1
strokes_ogs.tif
176
     0
290
     0
176
     0
 40
1.0
176
     0
 40
1.0
176
     0
  0
VISUALSTYLE
  5
39
102
{ACAD_REACTORS
330
2A
102
}
330
2A
100
AcDbVisualStyle
  2
Facepattern
 70
    15
177
     3
291
     1
 70
    58
 90
        2
176
     1
 90
        2
176
     1
 90
        0
176
     1
 90
        0
176
     1
 40
0.6
176
     1
 40
30.0
176
     1
 62
     7
420
 16777215
176
     1
 90
        1
176
     1
 90
        4
176
     1
 62
     7
176
     1
 62
   257
176
     1
 90
        1
176
     1
 90
        1
176
     1
 40
1.0
176
     1
 90
        8
176
     1
 62
     7
176
     1
 40
1.0
176
     1
 90
        1
176
     1
 90
        6
176
     1
 90
        2
176
     1
 62
     7
176
     1
 90
        5
176
     1
 90
        0
176
     1
 90
        0
176
     1
290
     0
176
     1
 90
        1
176
     1
 40
0.0
176
     1
 90
        0
176
     1
290
     0
176
     1
290
     1
176
     1
290
     1
176
     1
290
     0
176
     1
290
     0
176
     1
290
     0
176
     1
290
     0
176
     1
290
     0
176
     1
290
     0
176
     1
 90
       50
176
     1
 40
0.0
176
     1
 40
1.0
176
     1
 90
        0
176
     1
 62
    18
420
        0
176
     1
 90
       50
176
     1
 90
        3
176
     1
 62
     5
420
      255
176
     1
290
     0
176
     1
 90
       50
176
     1
 90
       50
176
     1
 90
       50
176
     1
290
     0
176
     1
 90
       50
176
     1
 62
   256
176
     0
 40
1.0
176
     0
 90
        2
176
     1
  1
strokes_ogs.tif
176
     1
290
     0
176
     1
 40
1.0
176
     1
 40
1.0
176
     1
  0
VISUALSTYLE
  5
2B
102
{ACAD_REACTORS
330
2A
102
}
330
2A
100
AcDbVisualStyle
  2
Flat
 70
     0
177
     3
291
     1
 70
    58
 90
        2
176
     1
 90
        1
176
     1
 90
        1
176
     1
 90
        2
176
     1
 40
0.6
176
     1
 40
30.0
176
     1
 62
     7
420
 16777215
176
     1
 90
        0
176
     1
 90
        0
176
     1
 62
     7
176
     1
 62
   257
176
     1
 90
        1
176
     1
 90
        1
176
     1
 40
1.0
176
     1
 90
        8
176
     1
 62
     7
176
     1
 40
1.0
176
     1
 90
        1
176
     1
 90
        6
176
     1
 90
        2
176
     1
 62
     7
176
     1
 90
        5
176
     1
 90
        0
176
     1
 90
        0
176
     1
290
     0
176
     1
 90
       13
176
     1
 40
0.0
176
     1
 90
        0
176
     1
290
     0
176
     1
290
     1
176
     1
290
     1
176
     1
290
     0
176
     1
290
     0
176
     1
290
     0
176
     1
290
     0
176
     1
290
     0
176
     1
290
     0
176
     1
 90
       50
176
     1
 40
0.0
176
     1
 40
1.0
176
     1
 90
        0
176
     1
 62
    18
420
        0
176
     1
 90
       50
176
     1
 90
        3
176
     1
 62
     5
420
      255
176
     1
290
     0
176
     1
 90
       50
176
     1
 90
       50
176
     1
 90
       50
176
     1
290
     0
176
     1
 90
       50
176
     1
 62
   256
176
     0
 40
1.0
176
     0
 90
        2
176
     1
  1
strokes_ogs.tif
176
     1
290
     0
176
     1
 40
1.0
176
     1
 40
1.0
176
     1
  0
VISUALSTYLE
  5
2C
102
{ACAD_REACTORS
330
2A
102
}
330
2A
100
AcDbVisualStyle
  2
FlatWithEdges
 70
     1
177
     3
291
     1
 70
    58
 90
        2
176
     1
 90
        1
176
     1
 90
        1
176
     1
 90
        2
176
     1
 40
0.6
176
     1
 40
30.0
176
     1
 62
     7
420
 16777215
176
     1
 90
        1
176
     1
 90
        0
176
     1
 62
     7
176
     1
 62
   257
176
     1
 90
        1
176
     1
 90
        1
176
     1
 40
1.0
176
     1
 90
        0
176
     1
 62
   257
176
     1
 40
1.0
176
     1
 90
        1
176
     1
 90
        6
176
     1
 90
        2
176
     1
 62
     7
176
     1
 90
        5
176
     1
 90
        0
176
     1
 90
        0
176
     1
290
     0
176
     1
 90
       13
176
     1
 40
0.0
176
     1
 90
        0
176
     1
290
     0
176
     1
290
     1
176
     1
290
     1
176
     1
290
     0
176
     1
290
     0
176
     1
290
     0
176
     1
290
     0
176
     1
290
     0
176
     1
290
     0
176
     1
 90
       50
176
     1
 40
0.0
176
     1
 40
1.0
176
     1
 90
        0
176
     1
 62
    18
420
        0
176
     1
 90
       50
176
     1
 90
        3
176
     1
 62
     5
420
      255
176
     1
290
     0
176
     1
 90
       50
176
     1
 90
       50
176
     1
 90
       50
176
     1
290
     0
176
     1
 90
       50
176
     1
 62
   256
176
     0
 40
1.0
176
     0
 90
        2
176
     1
  1
strokes_ogs.tif
176
     1
290
     0
176
     1
 40
1.0
176
     1
 40
1.0
176
     1
  0
VISUALSTYLE
  5
2D
102
{ACAD_REACTORS
330
2A
102
}
330
2A
100
AcDbVisualStyle
  2
Gouraud
 70
     2
177
     3
291
     1
 70
    58
 90
        2
176
     1
 90
        2
176
     1
 90
        1
176
     1
 90
        2
176
     1
 40
0.6
176
     1
 40
30.0
176
     1
 62
     7
420
 16777215
176
     1
 90
        0
176
     1
 90
        0
176
     1
 62
     7
176
     1
 62
   257
176
     1
 90
        1
176
     1
 90
        1
176
     1
 40
1.0
176
     1
 90
        0
176
     1
 62
     7
176
     1
 40
1.0
176
     1
 90
        1
176
     1
 90
        6
176
     1
 90
        2
176
     1
 62
     7
176
     1
 90
        5
176
     1
 90
        0
176
     1
 90
        0
176
     1
290
     0
176
     1
 90
       13
176
     1
 40
0.0
176
     1
 90
        0
176
     1
290
     0
176
     1
290
     1
176
     1
290
     1
176
     1
290
     0
176
     1
290
     0
176
     1
290
     0
176
     1
290
     0
176
     1
290
     0
176
     1
290
     0
176
     1
 90
       50
176
     1
 40
0.0
176
     1
 40
1.0
176
     1
 90
        0
176
     1
 62
    18
420
        0
176
     1
 90
       50
176
     1
 90
        3
176
     1
 62
     5
420
      255
176
     1
290
     0
176
     1
 90
       50
176
     1
 90
       50
176
     1
 90
       50
176
     1
290
     0
176
     1
 90
       50
176
     1
 62
   256
176
     0
 40
1.0
176
     0
 90
        2
176
     1
  1
strokes_ogs.tif
176
     1
290
     0
176
     1
 40
1.0
176
     1
 40
1.0
176
     1
  0
VISUALSTYLE
  5
2E
102
{ACAD_REACTORS
330
2A
102
}
330
2A
100
AcDbVisualStyle
  2
GouraudWithEdges
 70
     3
177
     3
291
     1
 70
    58
 90
        2
176
     1
 90
        2
176
     1
 90
        1
176
     1
 90
        2
176
     1
 40
0.6
176
     1
 40
30.0
176
     1
 62
     7
420
 16777215
176
     1
 90
        1
176
     1
 90
        0
176
     1
 62
     7
176
     1
 62
   257
176
     1
 90
        1
176
     1
 90
        1
176
     1
 40
1.0
176
     1
 90
        0
176
     1
 62
   257
176
     1
 40
1.0
176
     1
 90
        1
176
     1
 90
        6
176
     1
 90
        2
176
     1
 62
     7
176
     1
 90
        5
176
     1
 90
        0
176
     1
 90
        0
176
     1
290
     0
176
     1
 90
       13
176
     1
 40
0.0
176
     1
 90
        0
176
     1
290
     0
176
     1
290
     1
176
     1
290
     1
176
     1
290
     0
176
     1
290
     0
176
     1
290
     0
176
     1
290
     0
176
     1
290
     0
176
     1
290
     0
176
     1
 90
       50
176
     1
 40
0.0
176
     1
 40
1.0
176
     1
 90
        0
176
     1
 62
    18
420
        0
176
     1
 90
       50
176
     1
 90
        3
176
     1
 62
     5
420
      255
176
     1
290
     0
176
     1
 90
       50
176
     1
 90
       50
176
     1
 90
       50
176
     1
290
     0
176
     1
 90
       50
176
     1
 62
   256
176
     0
 40
1.0
176
     0
 90
        2
176
     1
  1
strokes_ogs.tif
176
     1
290
     0
176
     1
 40
1.0
176
     1
 40
1.0
176
     1
  0
VISUALSTYLE
  5
31
102
{ACAD_REACTORS
330
2A
102
}
330
2A
100
AcDbVisualStyle
  2
Hidden
 70
     6
177
     3
291
     0
 70
    58
 90
        1
176
     1
 90
        2
176
     1
 90
        2
176
     1
 90
        0
176
     1
 40
0.6
176
     1
 40
30.0
176
     1
 62
     7
420
 16777215
176
     1
 90
        2
176
     1
 90
        2
176
     1
 62
     7
176
     1
 62
   257
176
     1
 90
        2
176
     1
 90
        1
176
     1
 40
40.0
176
     1
 90
        0
176
     1
 62
   257
176
     1
 40
1.0
176
     1
 90
        1
176
     1
 90
        6
176
     1
 90
        2
176
     1
 62
     7
176
     1
 90
        3
176
     1
 90
        0
176
     1
 90
        0
176
     1
290
     0
176
     1
 90
        1
176
     1
 40
0.0
176
     1
 90
        0
176
     1
290
     0
176
     1
290
     1
176
     1
290
     1
176
     1
290
     0
176
     1
290
     0
176
     1
290
     0
176
     1
290
     0
176
     1
290
     0
176
     1
290
     0
176
     1
 90
       50
176
     1
 40
0.0
176
     1
 40
1.0
176
     1
 90
        0
176
     1
 62
    18
420
        0
176
     1
 90
       50
176
     1
 90
        3
176
     1
 62
     5
420
      255
176
     1
290
     0
176
     1
 90
       50
176
     1
 90
       50
176
     1
 90
       50
176
     1
290
     0
176
     1
 90
       50
176
     1
 62
   256
176
     0
 40
1.0
176
     0
 90
        2
176
     1
  1
strokes_ogs.tif
176
     1
290
     0
176
     1
 40
1.0
176
     1
 40
1.0
176
     1
  0
VISUALSTYLE
  5
3B
102
{ACAD_REACTORS
330
2A
102
}
330
2A
100
AcDbVisualStyle
  2
JitterOff
 70
    20
177
     3
291
     1
 70
    58
 90
        2
176
     0
 90
        2
176
     0
 90
        0
176
     0
 90
        0
176
     0
 40
0.6
176
     0
 40
30.0
176
     0
 62
     7
420
 16777215
176
     0
 90
        1
176
     0
 90
        4
176
     0
 62
     7
176
     0
 62
   257
176
     0
 90
        1
176
     0
 90
        1
176
     0
 40
1.0
176
     0
 90
       10
176
     2
 62
     7
176
     0
 40
1.0
176
     0
 90
        1
176
     0
 90
        6
176
     0
 90
        2
176
     0
 62
     7
176
     0
 90
        5
176
     0
 90
        0
176
     0
 90
        0
176
     0
290
     0
176
     0
 90
        1
176
     0
 40
0.0
176
     0
 90
        0
176
     0
290
     0
176
     0
290
     1
176
     0
290
     1
176
     0
290
     0
176
     0
290
     0
176
     0
290
     0
176
     0
290
     0
176
     0
290
     0
176
     0
290
     0
176
     0
 90
       50
176
     0
 40
0.0
176
     0
 40
1.0
176
     0
 90
        0
176
     0
 62
    18
420
        0
176
     0
 90
       50
176
     0
 90
        3
176
     0
 62
     5
420
      255
176
     0
290
     0
176
     0
 90
       50
176
     0
 90
       50
176
     0
 90
       50
176
     0
290
     0
176
     0
 90
       50
176
     0
 62
   256
176
     0
 40
1.0
176
     0
 90
        2
176
     0
  1
strokes_ogs.tif
176
     0
290
     0
176
     0
 40
1.0
176
     0
 40
1.0
176
     0
  0
VISUALSTYLE
  5
38
102
{ACAD_REACTORS
330
2A
102
}
330
2A
100
AcDbVisualStyle
  2
Linepattern
 70
    14
177
     3
291
     1
 70
    58
 90
        2
176
     1
 90
        2
176
     1
 90
        0
176
     1
 90
        0
176
     1
 40
0.6
176
     1
 40
30.0
176
     1
 62
     7
420
 16777215
176
     1
 90
        1
176
     1
 90
        4
176
     1
 62
     7
176
     1
 62
   257
176
     1
 90
        7
176
     1
 90
        7
176
     1
 40
1.0
176
     1
 90
        8
176
     1
 62
     7
176
     1
 40
1.0
176
     1
 90
        1
176
     1
 90
        6
176
     1
 90
        2
176
     1
 62
     7
176
     1
 90
        5
176
     1
 90
        0
176
     1
 90
        0
176
     1
290
     0
176
     1
 90
        1
176
     1
 40
0.0
176
     1
 90
        0
176
     1
290
     0
176
     1
290
     1
176
     1
290
     1
176
     1
290
     0
176
     1
290
     0
176
     1
290
     0
176
     1
290
     0
176
     1
290
     0
176
     1
290
     0
176
     1
 90
       50
176
     1
 40
0.0
176
     1
 40
1.0
176
     1
 90
        0
176
     1
 62
    18
420
        0
176
     1
 90
       50
176
     1
 90
        3
176
     1
 62
     5
420
      255
176
     1
290
     0
176
     1
 90
       50
176
     1
 90
       50
176
     1
 90
       50
176
     1
290
     0
176
     1
 90
       50
176
     1
 62
   256
176
     0
 40
1.0
176
     0
 90
        2
176
     1
  1
strokes_ogs.tif
176
     1
290
     0
176
     1
 40
1.0
176
     1
 40
1.0
176
     1
  0
VISUALSTYLE
  5
3C
102
{ACAD_REACTORS
330
2A
102
}
330
2A
100
AcDbVisualStyle
  2
OverhangOff
 70
    21
177
     3
291
     1
 70
    58
 90
        2
176
     0
 90
        2
176
     0
 90
        0
176
     0
 90
        0
176
     0
 40
0.6
176
     0
 40
30.0
176
     0
 62
     7
420
 16777215
176
     0
 90
        1
176
     0
 90
        4
176
     0
 62
     7
176
     0
 62
   257
176
     0
 90
        1
176
     0
 90
        1
176
     0
 40
1.0
176
     0
 90
        9
176
     2
 62
     7
176
     0
 40
1.0
176
     0
 90
        1
176
     0
 90
        6
176
     0
 90
        2
176
     0
 62
     7
176
     0
 90
        5
176
     0
 90
        0
176
     0
 90
        0
176
     0
290
     0
176
     0
 90
        1
176
     0
 40
0.0
176
     0
 90
        0
176
     0
290
     0
176
     0
290
     1
176
     0
290
     1
176
     0
290
     0
176
     0
290
     0
176
     0
290
     0
176
     0
290
     0
176
     0
290
     0
176
     0
290
     0
176
     0
 90
       50
176
     0
 40
0.0
176
     0
 40
1.0
176
     0
 90
        0
176
     0
 62
    18
420
        0
176
     0
 90
       50
176
     0
 90
        3
176
     0
 62
     5
420
      255
176
     0
290
     0
176
     0
 90
       50
176
     0
 90
       50
176
     0
 90
       50
176
     0
290
     0
176
     0
 90
       50
176
     0
 62
   256
176
     0
 40
1.0
176
     0
 90
        2
176
     0
  1
strokes_ogs.tif
176
     0
290
     0
176
     0
 40
1.0
176
     0
 40
1.0
176
     0
  0
VISUALSTYLE
  5
33
102
{ACAD_REACTORS
330
2A
102
}
330
2A
100
AcDbVisualStyle
  2
Realistic
 70
     8
177
     3
291
     0
 70
    58
 90
        2
176
     1
 90
        3
176
     1
 90
        0
176
     1
 90
        2
176
     1
 40
0.6
176
     1
 40
30.0
176
     1
 62
     7
420
 16777215
176
     1
 90
        0
176
     1
 90
        0
176
     1
 62
     7
176
     1
 62
   257
176
     1
 90
        1
176
     1
 90
        1
176
     1
 40
1.0
176
     1
 90
        8
176
     1
 62
   257
176
     1
 40
1.0
176
     1
 90
        1
176
     1
 90
        6
176
     1
 90
        2
176
     1
 62
     7
176
     1
 90
        3
176
     1
 90
        0
176
     1
 90
        0
176
     1
290
     0
176
     1
 90
       13
176
     1
 40
0.0
176
     1
 90
        0
176
     1
290
     0
176
     1
290
     1
176
     1
290
     1
176
     1
290
     0
176
     1
290
     0
176
     1
290
     0
176
     1
290
     0
176
     1
290
     0
176
     1
290
     0
176
     1
 90
       50
176
     1
 40
0.0
176
     1
 40
1.0
176
     1
 90
        0
176
     1
 62
    18
420
        0
176
     1
 90
       50
176
     1
 90
        3
176
     1
 62
     5
420
      255
176
     1
290
     0
176
     1
 90
       50
176
     1
 90
       50
176
     1
 90
       50
176
     1
290
     0
176
     1
 90
       50
176
     1
 62
   256
176
     0
 40
1.0
176
     0
 90
        2
176
     1
  1
strokes_ogs.tif
176
     1
290
     0
176
     1
 40
1.0
176
     1
 40
1.0
176
     1
  0
VISUALSTYLE
  5
42
102
{ACAD_REACTORS
330
2A
102
}
330
2A
100
AcDbVisualStyle
  2
Shaded
 70
    27
177
     3
291
     0
 70
    58
 90
        2
176
     1
 90
        2
176
     1
 90
        1
176
     1
 90
        2
176
     1
 40
0.6
176
     1
 40
30.0
176
     1
 62
     7
420
 16777215
176
     1
 90
        0
176
     1
 90
        4
176
     1
 62
     7
176
     1
 62
   257
176
     1
 90
        1
176
     1
 90
        1
176
     1
 40
1.0
176
     1
 90
        8
176
     1
 62
   257
176
     1
 40
1.0
176
     1
 90
        1
176
     1
 90
        6
176
     1
 90
        2
176
     1
 62
     8
420
  7895160
176
     1
 90
        3
176
     1
 90
        0
176
     1
 90
        0
176
     1
290
     0
176
     1
 90
        5
176
     1
 40
0.0
176
     1
 90
        0
176
     1
290
     0
176
     1
290
     1
176
     1
290
     1
176
     1
290
     0
176
     1
290
     0
176
     1
290
     0
176
     1
290
     0
176
     1
290
     0
176
     1
290
     0
176
     1
 90
       50
176
     1
 40
0.0
176
     1
 40
1.0
176
     1
 90
        0
176
     1
 62
    18
420
        0
176
     1
 90
       50
176
     1
 90
        3
176
     1
 62
     5
420
      255
176
     1
290
     0
176
     1
 90
       50
176
     1
 90
       50
176
     1
 90
       50
176
     1
290
     0
176
     1
 90
       50
176
     1
 62
   256
176
     0
 40
1.0
176
     0
 90
        2
176
     1
  1
strokes_ogs.tif
176
     1
290
     0
176
     1
 40
1.0
176
     1
 40
1.0
176
     1
  0
VISUALSTYLE
  5
41
102
{ACAD_REACTORS
330
2A
102
}
330
2A
100
AcDbVisualStyle
  2
Shaded with edges
 70
    26
177
     3
291
     0
 70
    58
 90
        2
176
     1
 90
        2
176
     1
 90
        1
176
     1
 90
        2
176
     1
 40
0.6
176
     1
 40
30.0
176
     1
 62
     7
420
 16777215
176
     1
 90
        1
176
     1
 90
       10
176
     1
 62
     7
176
     1
 62
   257
176
     1
 90
        2
176
     1
 90
        1
176
     1
 40
1.0
176
     1
 90
        8
176
     1
 62
   257
176
     1
 40
1.0
176
     1
 90
        1
176
     1
 90
        6
176
     1
 90
        2
176
     1
 62
     7
176
     1
 90
        3
176
     1
 90
        0
176
     1
 90
        0
176
     1
290
     0
176
     1
 90
        5
176
     1
 40
0.0
176
     1
 90
        0
176
     1
290
     0
176
     1
290
     1
176
     1
290
     1
176
     1
290
     0
176
     1
290
     0
176
     1
290
     0
176
     1
290
     0
176
     1
290
     0
176
     1
290
     0
176
     1
 90
       50
176
     1
 40
0.0
176
     1
 40
1.0
176
     1
 90
        0
176
     1
 62
    18
420
        0
176
     1
 90
       50
176
     1
 90
        3
176
     1
 62
     5
420
      255
176
     1
290
     0
176
     1
 90
       50
176
     1
 90
       50
176
     1
 90
       50
176
     1
290
     0
176
     1
 90
       50
176
     1
 62
   256
176
     0
 40
1.0
176
     0
 90
        2
176
     1
  1
strokes_ogs.tif
176
     1
290
     0
176
     1
 40
1.0
176
     1
 40
1.0
176
     1
  0
VISUALSTYLE
  5
3E
102
{ACAD_REACTORS
330
2A
102
}
330
2A
100
AcDbVisualStyle
  2
Shades of Gray
 70
    23
177
     3
291
     0
 70
    58
 90
        2
176
     1
 90
        2
176
     1
 90
        3
176
     1
 90
        0
176
     1
 40
0.6
176
     1
 40
30.0
176
     1
 62
     7
420
 16777215
176
     1
 90
        2
176
     1
 90
        2
176
     1
 62
     7
176
     1
 62
     7
176
     1
 90
        1
176
     1
 90
        1
176
     1
 40
40.0
176
     1
 90
        8
176
     1
 62
     7
176
     1
 40
1.0
176
     1
 90
        1
176
     1
 90
        6
176
     1
 90
        2
176
     1
 62
     7
176
     1
 90
        3
176
     1
 90
        0
176
     1
 90
        0
176
     1
290
     0
176
     1
 90
        1
176
     1
 40
0.0
176
     1
 90
        0
176
     1
290
     0
176
     1
290
     1
176
     1
290
     1
176
     1
290
     0
176
     1
290
     0
176
     1
290
     0
176
     1
290
     0
176
     1
290
     0
176
     1
290
     0
176
     1
 90
       50
176
     1
 40
0.0
176
     1
 40
1.0
176
     1
 90
        0
176
     1
 62
    18
420
        0
176
     1
 90
       50
176
     1
 90
        3
176
     1
 62
     5
420
      255
176
     1
290
     0
176
     1
 90
       50
176
     1
 90
       50
176
     1
 90
       50
176
     1
290
     0
176
     1
 90
       50
176
     1
 62
   256
176
     0
 40
1.0
176
     0
 90
        2
176
     1
  1
strokes_ogs.tif
176
     1
290
     0
176
     1
 40
1.0
176
     1
 40
1.0
176
     1
  0
VISUALSTYLE
  5
3F
102
{ACAD_REACTORS
330
2A
102
}
330
2A
100
AcDbVisualStyle
  2
Sketchy
 70
    24
177
     3
291
     0
 70
    58
 90
        1
176
     1
 90
        2
176
     1
 90
        2
176
     1
 90
        0
176
     1
 40
0.6
176
     1
 40
30.0
176
     1
 62
     7
420
 16777215
176
     1
 90
        2
176
     1
 90
        2
176
     1
 62
     7
176
     1
 62
     7
176
     1
 90
        1
176
     1
 90
        1
176
     1
 40
40.0
176
     1
 90
       11
176
     1
 62
     7
176
     1
 40
1.0
176
     1
 90
        1
176
     1
 90
        6
176
     1
 90
        2
176
     1
 62
     7
176
     1
 90
        6
176
     1
 90
        0
176
     1
 90
        0
176
     1
290
     0
176
     1
 90
        1
176
     1
 40
0.0
176
     1
 90
        0
176
     1
290
     0
176
     1
290
     1
176
     1
290
     1
176
     1
290
     0
176
     1
290
     0
176
     1
290
     0
176
     1
290
     0
176
     1
290
     0
176
     1
290
     0
176
     1
 90
       50
176
     1
 40
0.0
176
     1
 40
1.0
176
     1
 90
        0
176
     1
 62
    18
420
        0
176
     1
 90
       50
176
     1
 90
        3
176
     1
 62
     5
420
      255
176
     1
290
     0
176
     1
 90
       50
176
     1
 90
       50
176
     1
 90
       50
176
     1
290
     0
176
     1
 90
       50
176
     1
 62
   256
176
     0
 40
1.0
176
     0
 90
        2
176
     1
  1
strokes_ogs.tif
176
     1
290
     0
176
     1
 40
1.0
176
     1
 40
1.0
176
     1
  0
VISUALSTYLE
  5
37
102
{ACAD_REACTORS
330
2A
102
}
330
2A
100
AcDbVisualStyle
  2
Thicken
 70
    13
177
     3
291
     1
 70
    58
 90
        2
176
     1
 90
        2
176
     1
 90
        0
176
     1
 90
        0
176
     1
 40
0.6
176
     1
 40
30.0
176
     1
 62
     7
420
 16777215
176
     1
 90
        1
176
     1
 90
        4
176
     1
 62
     7
176
     1
 62
   257
176
     1
 90
        1
176
     1
 90
        1
176
     1
 40
1.0
176
     1
 90
       12
176
     1
 62
     7
176
     1
 40
1.0
176
     1
 90
        1
176
     1
 90
        6
176
     1
 90
        2
176
     1
 62
     7
176
     1
 90
        5
176
     1
 90
        0
176
     1
 90
        0
176
     1
290
     0
176
     1
 90
        1
176
     1
 40
0.0
176
     1
 90
        0
176
     1
290
     0
176
     1
290
     1
176
     1
290
     1
176
     1
290
     0
176
     1
290
     0
176
     1
290
     0
176
     1
290
     0
176
     1
290
     0
176
     1
290
     0
176
     1
 90
       50
176
     1
 40
0.0
176
     1
 40
1.0
176
     1
 90
        0
176
     1
 62
    18
420
        0
176
     1
 90
       50
176
     1
 90
        3
176
     1
 62
     5
420
      255
176
     1
290
     0
176
     1
 90
       50
176
     1
 90
       50
176
     1
 90
       50
176
     1
290
     0
176
     1
 90
       50
176
     1
 62
   256
176
     0
 40
1.0
176
     0
 90
        2
176
     1
  1
strokes_ogs.tif
176
     1
290
     0
176
     1
 40
1.0
176
     1
 40
1.0
176
     1
  0
VISUALSTYLE
  5
30
102
{ACAD_REACTORS
330
2A
102
}
330
2A
100
AcDbVisualStyle
  2
Wireframe
 70
     5
177
     3
291
     0
 70
    58
 90
        0
176
     1
 90
        2
176
     1
 90
        0
176
     1
 90
        0
176
     1
 40
0.6
176
     1
 40
30.0
176
     1
 62
     7
420
 16777215
176
     1
 90
        1
176
     1
 90
        4
176
     1
 62
     7
176
     1
 62
   257
176
     1
 90
        1
176
     1
 90
        1
176
     1
 40
1.0
176
     1
 90
        0
176
     1
 62
   257
176
     1
 40
1.0
176
     1
 90
        1
176
     1
 90
        6
176
     1
 90
        2
176
     1
 62
     7
176
     1
 90
        3
176
     1
 90
        0
176
     1
 90
        0
176
     1
290
     0
176
     1
 90
        1
176
     1
 40
0.0
176
     1
 90
        0
176
     1
290
     0
176
     1
290
     1
176
     1
290
     1
176
     1
290
     0
176
     1
290
     0
176
     1
290
     0
176
     1
290
     0
176
     1
290
     0
176
     1
290
     0
176
     1
 90
       50
176
     1
 40
0.0
176
     1
 40
1.0
176
     1
 90
        0
176
     1
 62
    18
420
        0
176
     1
 90
       50
176
     1
 90
        3
176
     1
 62
     5
420
      255
176
     1
290
     0
176
     1
 90
       50
176
     1
 90
       50
176
     1
 90
       50
176
     1
290
     0
176
     1
 90
       50
176
     1
 62
   256
176
     0
 40
1.0
176
     0
 90
        2
176
     1
  1
strokes_ogs.tif
176
     1
290
     0
176
     1
 40
1.0
176
     1
 40
1.0
176
     1
  0
VISUALSTYLE
  5
40
102
{ACAD_REACTORS
330
2A
102
}
330
2A
100
AcDbVisualStyle
  2
X-Ray
 70
    25
177
     3
291
     0
 70
    58
 90
        2
176
     1
 90
        2
176
     1
 90
        1
176
     1
 90
        1
176
     1
 40
0.5
176
     1
 40
30.0
176
     1
 62
     7
420
 16777215
176
     1
 90
        1
176
     1
 90
        0
176
     1
 62
     7
176
     1
 62
   257
176
     1
 90
        1
176
     1
 90
        1
176
     1
 40
1.0
176
     1
 90
        8
176
     1
 62
     7
176
     1
 40
1.0
176
     1
 90
        1
176
     1
 90
        6
176
     1
 90
        2
176
     1
 62
     7
176
     1
 90
        3
176
     1
 90
        0
176
     1
 90
        0
176
     1
290
     0
176
     1
 90
       13
176
     1
 40
0.0
176
     1
 90
        0
176
     1
290
     0
176
     1
290
     1
176
     1
290
     1
176
     1
290
     0
176
     1
290
     0
176
     1
290
     0
176
     1
290
     0
176
     1
290
     0
176
     1
290
     0
176
     1
 90
       50
176
     1
 40
0.0
176
     1
 40
1.0
176
     1
 90
        0
176
     1
 62
    18
420
        0
176
     1
 90
       50
176
     1
 90
        3
176
     1
 62
     5
420
      255
176
     1
290
     0
176
     1
 90
       50
176
     1
 90
       50
176
     1
 90
       50
176
     1
290
     0
176
     1
 90
       50
176
     1
 62
   256
176
     0
 40
1.0
176
     0
 90
        2
176
     1
  1
strokes_ogs.tif
176
     1
290
     0
176
     1
 40
1.0
176
     1
 40
1.0
176
     1
  0
DICTIONARYVAR
  5
264
102
{ACAD_REACTORS
330
263
102
}
330
263
100
DictionaryVariables
280
     0
  1
1:1
  0
DICTIONARYVAR
  5
269
102
{ACAD_REACTORS
330
263
102
}
330
263
100
DictionaryVariables
280
     0
  1
Standard
  0
DICTIONARYVAR
  5
268
102
{ACAD_REACTORS
330
263
102
}
330
263
100
DictionaryVariables
280
     0
  1
Standard
  0
DICTIONARY
  5
265
330
6A
100
AcDbDictionary
280
     1
281
     1
  3
ACAD_ROUNDTRIP_2008_TABLESTYLE_CELLSTYLEMAP
360
266
  0
CELLSTYLEMAP
  5
266
102
{ACAD_REACTORS
330
265
102
}
330
265
100
AcDbCellStyleMap
 90
        3
300
CELLSTYLE
  1
TABLEFORMAT_BEGIN
 90
        5
170
     1
 91
        0
 92
    32768
 62
   257
 93
        1
300
CONTENTFORMAT
  1
CONTENTFORMAT_BEGIN
 90
        0
 91
        0
 92
        4
 93
        0
300

 40
0.0
140
1.0
 94
        5
 62
     0
340
11
144
0.25
309
CONTENTFORMAT_END
171
     1
301
MARGIN
  1
CELLMARGIN_BEGIN
 40
0.06
 40
0.06
 40
0.06
 40
0.06
 40
0.06
 40
0.06
309
CELLMARGIN_END
 94
        6
 95
        1
302
GRIDFORMAT
  1
GRIDFORMAT_BEGIN
 90
        0
 91
        1
 62
     0
 92
       -2
340
14
 93
        0
 40
0.045
309
GRIDFORMAT_END
 95
        2
302
GRIDFORMAT
  1
GRIDFORMAT_BEGIN
 90
        0
 91
        1
 62
     0
 92
       -2
340
14
 93
        0
 40
0.045
309
GRIDFORMAT_END
 95
        4
302
GRIDFORMAT
  1
GRIDFORMAT_BEGIN
 90
        0
 91
        1
 62
     0
 92
       -2
340
14
 93
        0
 40
0.045
309
GRIDFORMAT_END
 95
        8
302
GRIDFORMAT
  1
GRIDFORMAT_BEGIN
 90
        0
 91
        1
 62
     0
 92
       -2
340
14
 93
        0
 40
0.045
309
GRIDFORMAT_END
 95
       16
302
GRIDFORMAT
  1
GRIDFORMAT_BEGIN
 90
        0
 91
        1
 62
     0
 92
       -2
340
14
 93
        0
 40
0.045
309
GRIDFORMAT_END
 95
       32
302
GRIDFORMAT
  1
GRIDFORMAT_BEGIN
 90
        0
 91
        1
 62
     0
 92
       -2
340
14
 93
        0
 40
0.045
309
GRIDFORMAT_END
309
TABLEFORMAT_END
  1
CELLSTYLE_BEGIN
 90
        1
 91
        1
300
_TITLE
309
CELLSTYLE_END
300
CELLSTYLE
  1
TABLEFORMAT_BEGIN
 90
        5
170
     1
 91
        0
 92
        0
 62
   257
 93
        1
300
CONTENTFORMAT
  1
CONTENTFORMAT_BEGIN
 90
        0
 91
        0
 92
        4
 93
        0
300

 40
0.0
140
1.0
 94
        5
 62
     0
340
11
144
0.18
309
CONTENTFORMAT_END
171
     1
301
MARGIN
  1
CELLMARGIN_BEGIN
 40
0.06
 40
0.06
 40
0.06
 40
0.06
 40
0.06
 40
0.06
309
CELLMARGIN_END
 94
        6
 95
        1
302
GRIDFORMAT
  1
GRIDFORMAT_BEGIN
 90
        0
 91
        1
 62
     0
 92
       -2
340
14
 93
        0
 40
0.045
309
GRIDFORMAT_END
 95
        2
302
GRIDFORMAT
  1
GRIDFORMAT_BEGIN
 90
        0
 91
        1
 62
     0
 92
       -2
340
14
 93
        0
 40
0.045
309
GRIDFORMAT_END
 95
        4
302
GRIDFORMAT
  1
GRIDFORMAT_BEGIN
 90
        0
 91
        1
 62
     0
 92
       -2
340
14
 93
        0
 40
0.045
309
GRIDFORMAT_END
 95
        8
302
GRIDFORMAT
  1
GRIDFORMAT_BEGIN
 90
        0
 91
        1
 62
     0
 92
       -2
340
14
 93
        0
 40
0.045
309
GRIDFORMAT_END
 95
       16
302
GRIDFORMAT
  1
GRIDFORMAT_BEGIN
 90
        0
 91
        1
 62
     0
 92
       -2
340
14
 93
        0
 40
0.045
309
GRIDFORMAT_END
 95
       32
302
GRIDFORMAT
  1
GRIDFORMAT_BEGIN
 90
        0
 91
        1
 62
     0
 92
       -2
340
14
 93
        0
 40
0.045
309
GRIDFORMAT_END
309
TABLEFORMAT_END
  1
CELLSTYLE_BEGIN
 90
        2
 91
        1
300
_HEADER
309
CELLSTYLE_END
300
CELLSTYLE
  1
TABLEFORMAT_BEGIN
 90
        5
170
     1
 91
        0
 92
        0
 62
   257
 93
        1
300
CONTENTFORMAT
  1
CONTENTFORMAT_BEGIN
 90
        0
 91
        0
 92
        4
 93
        0
300

 40
0.0
140
1.0
 94
        2
 62
     0
340
11
144
0.18
309
CONTENTFORMAT_END
171
     1
301
MARGIN
  1
CELLMARGIN_BEGIN
 40
0.06
 40
0.06
 40
0.06
 40
0.06
 40
0.06
 40
0.06
309
CELLMARGIN_END
 94
        6
 95
        1
302
GRIDFORMAT
  1
GRIDFORMAT_BEGIN
 90
        0
 91
        1
 62
     0
 92
       -2
340
14
 93
        0
 40
0.045
309
GRIDFORMAT_END
 95
        2
302
GRIDFORMAT
  1
GRIDFORMAT_BEGIN
 90
        0
 91
        1
 62
     0
 92
       -2
340
14
 93
        0
 40
0.045
309
GRIDFORMAT_END
 95
        4
302
GRIDFORMAT
  1
GRIDFORMAT_BEGIN
 90
        0
 91
        1
 62
     0
 92
       -2
340
14
 93
        0
 40
0.045
309
GRIDFORMAT_END
 95
        8
302
GRIDFORMAT
  1
GRIDFORMAT_BEGIN
 90
        0
 91
        1
 62
     0
 92
       -2
340
14
 93
        0
 40
0.045
309
GRIDFORMAT_END
 95
       16
302
GRIDFORMAT
  1
GRIDFORMAT_BEGIN
 90
        0
 91
        1
 62
     0
 92
       -2
340
14
 93
        0
 40
0.045
309
GRIDFORMAT_END
 95
       32
302
GRIDFORMAT
  1
GRIDFORMAT_BEGIN
 90
        0
 91
        1
 62
     0
 92
       -2
340
14
 93
        0
 40
0.045
309
GRIDFORMAT_END
309
TABLEFORMAT_END
  1
CELLSTYLE_BEGIN
 90
        3
 91
        2
300
_DATA
309
CELLSTYLE_END
  0
ENDSEC
  0
EOF