0
SECTION
  2
HEADER
  9
$ACADVER
  1
AC1027
  9
$ACADMAINTVER
 70
     8
  9
$DWGCODEPAGE
  3
ANSI_1252
  9
$REQUIREDVERSIONS
160
                 0
  9
$COMMENTS
  1
File was created by Cadenas
  9
$CUSTOMPROPERTYTAG
  1
NN
  9
$CUSTOMPROPERTY
  1
Imperial - IP Wide Slot Take-Up
  9
$CUSTOMPROPERTYTAG
  1
NT
  9
$CUSTOMPROPERTY
  1
Imperial Wide Slot Take-Up Bearings
  9
$CUSTOMPROPERTYTAG
  1
NB
  9
$CUSTOMPROPERTY
  1
069389
  9
$CUSTOMPROPERTYTAG
  1
NBSYN
  9
$CUSTOMPROPERTY
  1
$PN.
  9
$CUSTOMPROPERTYTAG
  1
LINA
  9
$CUSTOMPROPERTY
  1
069389
  9
$CUSTOMPROPERTYTAG
  1
SS
  9
$CUSTOMPROPERTY
  1
3-3/16
  9
$CUSTOMPROPERTYTAG
  1
PN
  9
$CUSTOMPROPERTY
  1
069389
  9
$CUSTOMPROPERTYTAG
  1
DESCRIPTION
  9
$CUSTOMPROPERTY
  1
WSTU-IP-303RE
  9
$CUSTOMPROPERTYTAG
  1
EF
  9
$CUSTOMPROPERTY
  1
Expansion
  9
$CUSTOMPROPERTYTAG
  1
ST
  9
$CUSTOMPROPERTY
  1
Contact Seal
  9
$CUSTOMPROPERTYTAG
  1
A
  9
$CUSTOMPROPERTY
  1
4-5/32
  9
$CUSTOMPROPERTYTAG
  1
B
  9
$CUSTOMPROPERTY
  1
10-1/16
  9
$CUSTOMPROPERTYTAG
  1
C
  9
$CUSTOMPROPERTY
  1
1-13/16
  9
$CUSTOMPROPERTYTAG
  1
D
  9
$CUSTOMPROPERTY
  1
5-1/2
  9
$CUSTOMPROPERTYTAG
  1
E
  9
$CUSTOMPROPERTY
  1
6-3/8
  9
$CUSTOMPROPERTYTAG
  1
F
  9
$CUSTOMPROPERTY
  1
1-7/8
  9
$CUSTOMPROPERTYTAG
  1
G
  9
$CUSTOMPROPERTY
  1
1-1/16
  9
$CUSTOMPROPERTYTAG
  1
H
  9
$CUSTOMPROPERTY
  1
1-5/8
  9
$CUSTOMPROPERTYTAG
  1
J
  9
$CUSTOMPROPERTY
  1
5-1/8
  9
$CUSTOMPROPERTYTAG
  1
K
  9
$CUSTOMPROPERTY
  1
2-7/8
  9
$CUSTOMPROPERTYTAG
  1
L
  9
$CUSTOMPROPERTY
  1
5
  9
$CUSTOMPROPERTYTAG
  1
M
  9
$CUSTOMPROPERTY
  1
6-13/16
  9
$CUSTOMPROPERTYTAG
  1
N
  9
$CUSTOMPROPERTY
  1
7-13/16
  9
$CUSTOMPROPERTYTAG
  1
R
  9
$CUSTOMPROPERTY
  1
4-7/32
  9
$CUSTOMPROPERTYTAG
  1
S
  9
$CUSTOMPROPERTY
  1
2-11/16
  9
$CUSTOMPROPERTYTAG
  1
T
  9
$CUSTOMPROPERTY
  1
3-1/16
  9
$CUSTOMPROPERTYTAG
  1
X
  9
$CUSTOMPROPERTY
  1
1/4
  9
$CUSTOMPROPERTYTAG
  1
Y
  9
$CUSTOMPROPERTY
  1
0.025
  9
$CUSTOMPROPERTYTAG
  1
Z
  9
$CUSTOMPROPERTY
  1
4-3/64
  9
$CUSTOMPROPERTYTAG
  1
COMPANY
  9
$CUSTOMPROPERTY
  1
baldor
  9
$INSBASE
 10
0.0
 20
0.0
 30
0.0
  9
$EXTMIN
 10
1.000000000000000E+20
 20
1.000000000000000E+20
 30
1.000000000000000E+20
  9
$EXTMAX
 10
-1.000000000000000E+20
 20
-1.000000000000000E+20
 30
-1.000000000000000E+20
  9
$LIMMIN
 10
0.0
 20
0.0
  9
$LIMMAX
 10
12.0
 20
9.0
  9
$ORTHOMODE
 70
     0
  9
$REGENMODE
 70
     1
  9
$FILLMODE
 70
     1
  9
$QTEXTMODE
 70
     0
  9
$MIRRTEXT
 70
     1
  9
$LTSCALE
 40
1.0
  9
$ATTMODE
 70
     1
  9
$TEXTSIZE
 40
0.2
  9
$TRACEWID
 40
0.05
  9
$TEXTSTYLE
  7
Standard
  9
$CLAYER
  8
0
  9
$CELTYPE
  6
ByLayer
  9
$CECOLOR
 62
   256
  9
$CELTSCALE
 40
1.0
  9
$DISPSILH
 70
     0
  9
$DIMSCALE
 40
1.0
  9
$DIMASZ
 40
0.18
  9
$DIMEXO
 40
0.0625
  9
$DIMDLI
 40
0.38
  9
$DIMRND
 40
0.0
  9
$DIMDLE
 40
0.0
  9
$DIMEXE
 40
0.18
  9
$DIMTP
 40
0.0
  9
$DIMTM
 40
0.0
  9
$DIMTXT
 40
0.18
  9
$DIMCEN
 40
0.09
  9
$DIMTSZ
 40
0.0
  9
$DIMTOL
 70
     0
  9
$DIMLIM
 70
     0
  9
$DIMTIH
 70
     1
  9
$DIMTOH
 70
     1
  9
$DIMSE1
 70
     0
  9
$DIMSE2
 70
     0
  9
$DIMTAD
 70
     0
  9
$DIMZIN
 70
     0
  9
$DIMBLK
  1

  9
$DIMASO
 70
     1
  9
$DIMSHO
 70
     1
  9
$DIMPOST
  1

  9
$DIMAPOST
  1

  9
$DIMALT
 70
     0
  9
$DIMALTD
 70
     2
  9
$DIMALTF
 40
25.4
  9
$DIMLFAC
 40
1.0
  9
$DIMTOFL
 70
     0
  9
$DIMTVP
 40
0.0
  9
$DIMTIX
 70
     0
  9
$DIMSOXD
 70
     0
  9
$DIMSAH
 70
     0
  9
$DIMBLK1
  1

  9
$DIMBLK2
  1

  9
$DIMSTYLE
  2
Standard
  9
$DIMCLRD
 70
     0
  9
$DIMCLRE
 70
     0
  9
$DIMCLRT
 70
     0
  9
$DIMTFAC
 40
1.0
  9
$DIMGAP
 40
0.09
  9
$DIMJUST
 70
     0
  9
$DIMSD1
 70
     0
  9
$DIMSD2
 70
     0
  9
$DIMTOLJ
 70
     1
  9
$DIMTZIN
 70
     0
  9
$DIMALTZ
 70
     0
  9
$DIMALTTZ
 70
     0
  9
$DIMUPT
 70
     0
  9
$DIMDEC
 70
     4
  9
$DIMTDEC
 70
     4
  9
$DIMALTU
 70
     2
  9
$DIMALTTD
 70
     2
  9
$DIMTXSTY
  7
Standard
  9
$DIMAUNIT
 70
     0
  9
$DIMADEC
 70
     0
  9
$DIMALTRND
 40
0.0
  9
$DIMAZIN
 70
     0
  9
$DIMDSEP
 70
    46
  9
$DIMATFIT
 70
     3
  9
$DIMFRAC
 70
     0
  9
$DIMLDRBLK
  1

  9
$DIMLUNIT
 70
     2
  9
$DIMLWD
 70
    -2
  9
$DIMLWE
 70
    -2
  9
$DIMTMOVE
 70
     0
  9
$DIMFXL
 40
1.0
  9
$DIMFXLON
 70
     0
  9
$DIMJOGANG
 40
0.7853981633974483
  9
$DIMTFILL
 70
     0
  9
$DIMTFILLCLR
 70
     0
  9
$DIMARCSYM
 70
     0
  9
$DIMLTYPE
  6

  9
$DIMLTEX1
  6

  9
$DIMLTEX2
  6

  9
$DIMTXTDIRECTION
 70
     0
  9
$LUNITS
 70
     2
  9
$LUPREC
 70
     4
  9
$SKETCHINC
 40
0.1
  9
$FILLETRAD
 40
0.5
  9
$AUNITS
 70
     0
  9
$AUPREC
 70
     0
  9
$MENU
  1
.
  9
$ELEVATION
 40
0.0
  9
$PELEVATION
 40
0.0
  9
$THICKNESS
 40
0.0
  9
$LIMCHECK
 70
     0
  9
$CHAMFERA
 40
0.0
  9
$CHAMFERB
 40
0.0
  9
$CHAMFERC
 40
0.0
  9
$CHAMFERD
 40
0.0
  9
$SKPOLY
 70
     0
  9
$TDCREATE
 40
2458168.989681319
  9
$TDUCREATE
 40
2458168.948014653
  9
$TDUPDATE
 40
2458168.989681505
  9
$TDUUPDATE
 40
2458168.948014838
  9
$TDINDWG
 40
0.0000000116
  9
$TDUSRTIMER
 40
0.0000000116
  9
$USRTIMER
 70
     1
  9
$ANGBASE
 50
0.0
  9
$ANGDIR
 70
     0
  9
$PDMODE
 70
     0
  9
$PDSIZE
 40
0.0
  9
$PLINEWID
 40
0.0
  9
$SPLFRAME
 70
     0
  9
$SPLINETYPE
 70
     6
  9
$SPLINESEGS
 70
     8
  9
$HANDSEED
  5
26F
  9
$SURFTAB1
 70
     6
  9
$SURFTAB2
 70
     6
  9
$SURFTYPE
 70
     6
  9
$SURFU
 70
     6
  9
$SURFV
 70
     6
  9
$UCSBASE
  2

  9
$UCSNAME
  2

  9
$UCSORG
 10
0.0
 20
0.0
 30
0.0
  9
$UCSXDIR
 10
1.0
 20
0.0
 30
0.0
  9
$UCSYDIR
 10
0.0
 20
1.0
 30
0.0
  9
$UCSORTHOREF
  2

  9
$UCSORTHOVIEW
 70
     0
  9
$UCSORGTOP
 10
0.0
 20
0.0
 30
0.0
  9
$UCSORGBOTTOM
 10
0.0
 20
0.0
 30
0.0
  9
$UCSORGLEFT
 10
0.0
 20
0.0
 30
0.0
  9
$UCSORGRIGHT
 10
0.0
 20
0.0
 30
0.0
  9
$UCSORGFRONT
 10
0.0
 20
0.0
 30
0.0
  9
$UCSORGBACK
 10
0.0
 20
0.0
 30
0.0
  9
$PUCSBASE
  2

  9
$PUCSNAME
  2

  9
$PUCSORG
 10
0.0
 20
0.0
 30
0.0
  9
$PUCSXDIR
 10
1.0
 20
0.0
 30
0.0
  9
$PUCSYDIR
 10
0.0
 20
1.0
 30
0.0
  9
$PUCSORTHOREF
  2

  9
$PUCSORTHOVIEW
 70
     0
  9
$PUCSORGTOP
 10
0.0
 20
0.0
 30
0.0
  9
$PUCSORGBOTTOM
 10
0.0
 20
0.0
 30
0.0
  9
$PUCSORGLEFT
 10
0.0
 20
0.0
 30
0.0
  9
$PUCSORGRIGHT
 10
0.0
 20
0.0
 30
0.0
  9
$PUCSORGFRONT
 10
0.0
 20
0.0
 30
0.0
  9
$PUCSORGBACK
 10
0.0
 20
0.0
 30
0.0
  9
$USERI1
 70
     0
  9
$USERI2
 70
     0
  9
$USERI3
 70
     0
  9
$USERI4
 70
     0
  9
$USERI5
 70
     0
  9
$USERR1
 40
0.0
  9
$USERR2
 40
0.0
  9
$USERR3
 40
0.0
  9
$USERR4
 40
0.0
  9
$USERR5
 40
0.0
  9
$WORLDVIEW
 70
     1
  9
$SHADEDGE
 70
     3
  9
$SHADEDIF
 70
    70
  9
$TILEMODE
 70
     1
  9
$MAXACTVP
 70
    64
  9
$PINSBASE
 10
0.0
 20
0.0
 30
0.0
  9
$PLIMCHECK
 70
     0
  9
$PEXTMIN
 10
1.000000000000000E+20
 20
1.000000000000000E+20
 30
1.000000000000000E+20
  9
$PEXTMAX
 10
-1.000000000000000E+20
 20
-1.000000000000000E+20
 30
-1.000000000000000E+20
  9
$PLIMMIN
 10
0.0
 20
0.0
  9
$PLIMMAX
 10
12.0
 20
9.0
  9
$UNITMODE
 70
     0
  9
$VISRETAIN
 70
     1
  9
$PLINEGEN
 70
     0
  9
$PSLTSCALE
 70
     1
  9
$TREEDEPTH
 70
  3020
  9
$CMLSTYLE
  2
Standard
  9
$CMLJUST
 70
     0
  9
$CMLSCALE
 40
1.0
  9
$PROXYGRAPHICS
 70
     1
  9
$MEASUREMENT
 70
     0
  9
$CELWEIGHT
370
    -1
  9
$ENDCAPS
280
     0
  9
$JOINSTYLE
280
     0
  9
$LWDISPLAY
290
     0
  9
$INSUNITS
 70
     1
  9
$HYPERLINKBASE
  1

  9
$STYLESHEET
  1

  9
$XEDIT
290
     1
  9
$CEPSNTYPE
380
     0
  9
$PSTYLEMODE
290
     1
  9
$FINGERPRINTGUID
  2
{27E0D151-6623-487A-854C-C164028E486E}
  9
$VERSIONGUID
  2
{FAEB1C32-E019-11D5-929B-00C0DF256EC4}
  9
$EXTNAMES
290
     1
  9
$PSVPSCALE
 40
0.0
  9
$OLESTARTUP
290
     0
  9
$SORTENTS
280
   127
  9
$INDEXCTL
280
     0
  9
$HIDETEXT
280
     1
  9
$XCLIPFRAME
280
     2
  9
$HALOGAP
280
     0
  9
$OBSCOLOR
 70
   257
  9
$OBSLTYPE
280
     0
  9
$INTERSECTIONDISPLAY
280
     0
  9
$INTERSECTIONCOLOR
 70
   257
  9
$DIMASSOC
280
     2
  9
$PROJECTNAME
  1

  9
$CAMERADISPLAY
290
     0
  9
$LENSLENGTH
 40
50.0
  9
$CAMERAHEIGHT
 40
0.0
  9
$STEPSPERSEC
 40
2.0
  9
$STEPSIZE
 40
6.0
  9
$3DDWFPREC
 40
2.0
  9
$PSOLWIDTH
 40
0.25
  9
$PSOLHEIGHT
 40
4.0
  9
$LOFTANG1
 40
1.570796326794897
  9
$LOFTANG2
 40
1.570796326794897
  9
$LOFTMAG1
 40
0.0
  9
$LOFTMAG2
 40
0.0
  9
$LOFTPARAM
 70
     7
  9
$LOFTNORMALS
280
     1
  9
$LATITUDE
 40
37.795
  9
$LONGITUDE
 40
-122.394
  9
$NORTHDIRECTION
 40
0.0
  9
$TIMEZONE
 70
 -8000
  9
$LIGHTGLYPHDISPLAY
280
     1
  9
$TILEMODELIGHTSYNCH
280
     1
  9
$CMATERIAL
347
44
  9
$SOLIDHIST
280
     0
  9
$SHOWHIST
280
     1
  9
$DWFFRAME
280
     2
  9
$DGNFRAME
280
     2
  9
$REALWORLDSCALE
290
     1
  9
$INTERFERECOLOR
 62
   256
  9
$CSHADOW
280
     0
  9
$SHADOWPLANELOCATION
 40
0.0
  0
ENDSEC
  0
SECTION
  2
CLASSES
  0
CLASS
  1
ACDBDICTIONARYWDFLT
  2
AcDbDictionaryWithDefault
  3
ObjectDBX Classes
 90
        0
 91
        4
280
     0
281
     0
  0
CLASS
  1
VISUALSTYLE
  2
AcDbVisualStyle
  3
ObjectDBX Classes
 90
     4095
 91
        4
280
     0
281
     0
  0
CLASS
  1
MATERIAL
  2
AcDbMaterial
  3
ObjectDBX Classes
 90
     1153
 91
        4
280
     0
281
     0
  0
CLASS
  1
SCALE
  2
AcDbScale
  3
ObjectDBX Classes
 90
     1153
 91
        4
280
     0
281
     0
  0
CLASS
  1
TABLESTYLE
  2
AcDbTableStyle
  3
ObjectDBX Classes
 90
     4095
 91
        4
280
     0
281
     0
  0
CLASS
  1
MLEADERSTYLE
  2
AcDbMLeaderStyle
  3
ACDB_MLEADERSTYLE_CLASS
 90
     4095
 91
        4
280
     0
281
     0
  0
CLASS
  1
SUN
  2
AcDbSun
  3
SCENEOE
 90
     1153
 91
        4
280
     0
281
     0
  0
CLASS
  1
DICTIONARYVAR
  2
AcDbDictionaryVar
  3
ObjectDBX Classes
 90
        0
 91
        4
280
     0
281
     0
  0
CLASS
  1
CELLSTYLEMAP
  2
AcDbCellStyleMap
  3
ObjectDBX Classes
 90
     1152
 91
        4
280
     0
281
     0
  0
ENDSEC
  0
SECTION
  2
TABLES
  0
TABLE
  2
VPORT
  5
8
330
0
100
AcDbSymbolTable
 70
     1
  0
VPORT
  5
29
330
8
100
AcDbSymbolTableRecord
100
AcDbViewportTableRecord
  2
*Active
 70
     0
 10
0.0
 20
0.0
 11
1.0
 21
1.0
 12
1.162918192307405
 22
-0.3591406250000002
 13
0.0
 23
0.0
 14
0.5
 24
0.5
 15
0.5
 25
0.5
 16
0.0
 26
0.0
 36
1.0
 17
0.0
 27
0.0
 37
0.0
 40
4.749853125
 41
2.261337688771775
 42
50.0
 43
0.0
 44
0.0
 50
0.0
 51
0.0
 71
     0
 72
   100
 73
     1
 74
     3
 75
     0
 76
     0
 77
     0
 78
     0
281
     0
 65
     1
110
0.0
120
0.0
130
0.0
111
1.0
121
0.0
131
0.0
112
0.0
122
1.0
132
0.0
 79
     0
146
0.0
348
2F
 60
     3
 61
     5
292
     1
282
     1
141
0.0
142
0.0
 63
   250
361
6D
  0
ENDTAB
  0
TABLE
  2
LTYPE
  5
5
330
0
100
AcDbSymbolTable
 70
     3
  0
LTYPE
  5
14
330
5
100
AcDbSymbolTableRecord
100
AcDbLinetypeTableRecord
  2
ByBlock
 70
     0
  3

 72
    65
 73
     0
 40
0.0
  0
LTYPE
  5
15
330
5
100
AcDbSymbolTableRecord
100
AcDbLinetypeTableRecord
  2
ByLayer
 70
     0
  3

 72
    65
 73
     0
 40
0.0
  0
LTYPE
  5
16
330
5
100
AcDbSymbolTableRecord
100
AcDbLinetypeTableRecord
  2
Continuous
 70
     0
  3
Solid line
 72
    65
 73
     0
 40
0.0
  0
LTYPE
  5
A2
330
5
100
AcDbSymbolTableRecord
100
AcDbLinetypeTableRecord
  2
Dashed
 70
     0
  3

 72
    65
 73
     2
 40
2.0
 49
1.0
 74
     0
 49
-1.0
 74
     0
  0
LTYPE
  5
1E4
330
5
100
AcDbSymbolTableRecord
100
AcDbLinetypeTableRecord
  2
Center
 70
     0
  3

 72
    65
 73
     4
 40
1.5
 49
0.45
 74
     0
 49
-0.5
 74
     0
 49
0.05
 74
     0
 49
-0.5
 74
     0
  0
ENDTAB
  0
TABLE
  2
LAYER
  5
2
330
0
100
AcDbSymbolTable
 70
     7
  0
LAYER
  5
10
330
2
100
AcDbSymbolTableRecord
100
AcDbLayerTableRecord
  2
0
 70
     0
 62
     7
  6
Continuous
370
    -3
390
F
347
46
348
0
  0
LAYER
  5
72
330
2
100
AcDbSymbolTableRecord
100
AcDbLayerTableRecord
  2
AM_6
 70
     0
 62
    -2
  6
Continuous
370
    35
390
F
347
46
348
0
  0
LAYER
  5
A3
330
2
100
AcDbSymbolTableRecord
100
AcDbLayerTableRecord
  2
AM_9
 70
     0
 62
     6
  6
Dashed
370
    25
390
F
347
46
348
0
  0
LAYER
  5
E2
330
2
100
AcDbSymbolTableRecord
100
AcDbLayerTableRecord
  2
AM_4
 70
     0
 62
     7
  6
Continuous
370
    50
390
F
347
46
348
0
  0
LAYER
  5
12A
330
2
100
AcDbSymbolTableRecord
100
AcDbLayerTableRecord
  2
AM_5
 70
     0
 62
     3
  6
Continuous
370
    25
390
F
347
46
348
0
  0
LAYER
  5
1E5
330
2
100
AcDbSymbolTableRecord
100
AcDbLayerTableRecord
  2
AM_7
 70
     0
 62
     7
  6
Center
370
    25
390
F
347
46
348
0
  0
LAYER
  5
258
330
2
100
AcDbSymbolTableRecord
100
AcDbLayerTableRecord
  2
ConnectionPoints
 70
     0
 62
     7
  6
Continuous
370
    50
390
F
347
46
348
0
  0
ENDTAB
  0
TABLE
  2
STYLE
  5
3
330
0
100
AcDbSymbolTable
 70
     1
  0
STYLE
  5
11
330
3
100
AcDbSymbolTableRecord
100
AcDbTextStyleTableRecord
  2
Standard
 70
     0
 40
0.0
 41
1.0
 50
0.0
 71
     0
 42
0.2
  3
txt
  4

  0
ENDTAB
  0
TABLE
  2
VIEW
  5
6
330
0
100
AcDbSymbolTable
 70
     0
  0
ENDTAB
  0
TABLE
  2
UCS
  5
7
330
0
100
AcDbSymbolTable
 70
     0
  0
ENDTAB
  0
TABLE
  2
APPID
  5
9
330
0
100
AcDbSymbolTable
 70
     1
  0
APPID
  5
12
330
9
100
AcDbSymbolTableRecord
100
AcDbRegAppTableRecord
  2
ACAD
 70
     0
  0
ENDTAB
  0
TABLE
  2
DIMSTYLE
  5
A
330
0
100
AcDbSymbolTable
 70
     1
100
AcDbDimStyleTable
  0
DIMSTYLE
105
27
330
A
100
AcDbSymbolTableRecord
100
AcDbDimStyleTableRecord
  2
Standard
 70
     0
178
     0
340
11
  0
ENDTAB
  0
TABLE
  2
BLOCK_RECORD
  5
1
330
0
100
AcDbSymbolTable
 70
     8
  0
BLOCK_RECORD
  5
1F
330
1
100
AcDbSymbolTableRecord
100
AcDbBlockTableRecord
  2
*Model_Space
340
22
 70
     0
280
     1
281
     0
  0
BLOCK_RECORD
  5
1B
330
1
100
AcDbSymbolTableRecord
100
AcDbBlockTableRecord
  2
*Paper_Space
340
1E
 70
     0
280
     1
281
     0
  0
BLOCK_RECORD
  5
23
330
1
100
AcDbSymbolTableRecord
100
AcDbBlockTableRecord
  2
*Paper_Space0
340
26
 70
     0
280
     1
281
     0
  0
BLOCK_RECORD
  5
6E
330
1
100
AcDbSymbolTableRecord
100
AcDbBlockTableRecord
  2
1_069389_4
340
0
102
{BLKREFS
331
6F
102
}
 70
     0
280
     1
281
     0
  0
BLOCK_RECORD
  5
91
330
1
100
AcDbSymbolTableRecord
100
AcDbBlockTableRecord
  2
2_405016_Inch_0_in_069389_4
340
0
102
{BLKREFS
331
92
102
}
 70
     0
280
     1
281
     0
  0
BLOCK_RECORD
  5
11A
330
1
100
AcDbSymbolTableRecord
100
AcDbBlockTableRecord
  2
3_ASME_B18_3_1_4_1_0_in_069389_4
340
0
102
{BLKREFS
331
11B
102
}
 70
     0
280
     1
281
     0
  0
BLOCK_RECORD
  5
12D
330
1
100
AcDbSymbolTableRecord
100
AcDbBlockTableRecord
  2
4_ASME_B18_3_1_4_2_0_in_069389_4
340
0
102
{BLKREFS
331
12E
102
}
 70
     0
280
     1
281
     0
  0
BLOCK_RECORD
  5
14F
330
1
100
AcDbSymbolTableRecord
100
AcDbBlockTableRecord
  2
5_070901LW_0_in_069389_4
340
0
102
{BLKREFS
331
150
102
}
 70
     0
280
     1
281
     0
  0
BLOCK_RECORD
  5
185
330
1
100
AcDbSymbolTableRecord
100
AcDbBlockTableRecord
  2
6_070901I_0_in_069389_4
340
0
102
{BLKREFS
331
186
102
}
 70
     0
280
     1
281
     0
  0
BLOCK_RECORD
  5
206
330
1
100
AcDbSymbolTableRecord
100
AcDbBlockTableRecord
  2
7_069389H_0_in_069389_4
340
0
102
{BLKREFS
331
207
102
}
 70
     0
280
     1
281
     0
  0
ENDTAB
  0
ENDSEC
  0
SECTION
  2
BLOCKS
  0
BLOCK
  5
20
330
1F
100
AcDbEntity
  8
0
100
AcDbBlockBegin
  2
*Model_Space
 70
     0
 10
0.0
 20
0.0
 30
0.0
  3
*Model_Space
  1

  0
ENDBLK
  5
21
330
1F
100
AcDbEntity
  8
0
100
AcDbBlockEnd
  0
BLOCK
  5
1C
330
1B
100
AcDbEntity
 67
     1
  8
0
100
AcDbBlockBegin
  2
*Paper_Space
 70
     0
 10
0.0
 20
0.0
 30
0.0
  3
*Paper_Space
  1

  0
ENDBLK
  5
1D
330
1B
100
AcDbEntity
 67
     1
  8
0
100
AcDbBlockEnd
  0
BLOCK
  5
24
330
23
100
AcDbEntity
  8
0
100
AcDbBlockBegin
  2
*Paper_Space0
 70
     0
 10
0.0
 20
0.0
 30
0.0
  3
*Paper_Space0
  1

  0
ENDBLK
  5
25
330
23
100
AcDbEntity
  8
0
100
AcDbBlockEnd
  0
BLOCK
  5
70
330
6E
100
AcDbEntity
  8
0
100
AcDbBlockBegin
  2
1_069389_4
 70
     2
 10
0.0
 20
0.0
 30
0.0
  3
1_069389_4
  1

  0
ATTDEF
  5
73
330
6E
100
AcDbEntity
  8
AM_6
100
AcDbText
 10
11.428125
 20
1.96921875
 30
0.0
 40
0.5
  1
Imperial - IP Wide Slot Take-Up
100
AcDbAttributeDefinition
  3

  2
NN
 70
     8
280
     0
  0
ATTDEF
  5
74
330
6E
100
AcDbEntity
  8
AM_6
100
AcDbText
 10
11.428125
 20
1.46921875
 30
0.0
 40
0.5
  1
Imperial Wide Slot Take-Up Bearings
100
AcDbAttributeDefinition
  3

  2
NT
 70
     8
280
     0
  0
ATTDEF
  5
75
330
6E
100
AcDbEntity
  8
AM_6
100
AcDbText
 10
11.428125
 20
0.96921875
 30
0.0
 40
0.5
  1
069389
100
AcDbAttributeDefinition
  3

  2
NB
 70
     8
280
     0
  0
ATTDEF
  5
76
330
6E
100
AcDbEntity
  8
AM_6
100
AcDbText
 10
11.428125
 20
0.46921875
 30
0.0
 40
0.5
  1
$PN.
100
AcDbAttributeDefinition
  3

  2
NBSYN
 70
     8
280
     0
  0
ATTDEF
  5
77
330
6E
100
AcDbEntity
  8
AM_6
100
AcDbText
 10
11.428125
 20
-0.03078125
 30
0.0
 40
0.5
  1
069389
100
AcDbAttributeDefinition
  3

  2
LINA
 70
     8
280
     0
  0
ATTDEF
  5
78
330
6E
100
AcDbEntity
  8
AM_6
100
AcDbText
 10
11.428125
 20
-0.53078125
 30
0.0
 40
0.5
  1
3-3/16
100
AcDbAttributeDefinition
  3

  2
SS
 70
     8
280
     0
  0
ATTDEF
  5
79
330
6E
100
AcDbEntity
  8
AM_6
100
AcDbText
 10
11.428125
 20
-1.03078125
 30
0.0
 40
0.5
  1
069389
100
AcDbAttributeDefinition
  3

  2
PN
 70
     8
280
     0
  0
ATTDEF
  5
7A
330
6E
100
AcDbEntity
  8
AM_6
100
AcDbText
 10
11.428125
 20
-1.53078125
 30
0.0
 40
0.5
  1
WSTU-IP-303RE
100
AcDbAttributeDefinition
  3

  2
DESCRIPTION
 70
     8
280
     0
  0
ATTDEF
  5
7B
330
6E
100
AcDbEntity
  8
AM_6
100
AcDbText
 10
11.428125
 20
-2.03078125
 30
0.0
 40
0.5
  1
Expansion
100
AcDbAttributeDefinition
  3

  2
EF
 70
     8
280
     0
  0
ATTDEF
  5
7C
330
6E
100
AcDbEntity
  8
AM_6
100
AcDbText
 10
11.428125
 20
-2.53078125
 30
0.0
 40
0.5
  1
Contact Seal
100
AcDbAttributeDefinition
  3

  2
ST
 70
     8
280
     0
  0
ATTDEF
  5
7D
330
6E
100
AcDbEntity
  8
AM_6
100
AcDbText
 10
11.428125
 20
-3.03078125
 30
0.0
 40
0.5
  1
4-5/32
100
AcDbAttributeDefinition
  3

  2
A
 70
     8
280
     0
  0
ATTDEF
  5
7E
330
6E
100
AcDbEntity
  8
AM_6
100
AcDbText
 10
11.428125
 20
-3.53078125
 30
0.0
 40
0.5
  1
10-1/16
100
AcDbAttributeDefinition
  3

  2
B
 70
     8
280
     0
  0
ATTDEF
  5
7F
330
6E
100
AcDbEntity
  8
AM_6
100
AcDbText
 10
11.428125
 20
-4.03078125
 30
0.0
 40
0.5
  1
1-13/16
100
AcDbAttributeDefinition
  3

  2
C
 70
     8
280
     0
  0
ATTDEF
  5
80
330
6E
100
AcDbEntity
  8
AM_6
100
AcDbText
 10
11.428125
 20
-4.53078125
 30
0.0
 40
0.5
  1
5-1/2
100
AcDbAttributeDefinition
  3

  2
D
 70
     8
280
     0
  0
ATTDEF
  5
81
330
6E
100
AcDbEntity
  8
AM_6
100
AcDbText
 10
11.428125
 20
-5.03078125
 30
0.0
 40
0.5
  1
6-3/8
100
AcDbAttributeDefinition
  3

  2
E
 70
     8
280
     0
  0
ATTDEF
  5
82
330
6E
100
AcDbEntity
  8
AM_6
100
AcDbText
 10
11.428125
 20
-5.53078125
 30
0.0
 40
0.5
  1
1-7/8
100
AcDbAttributeDefinition
  3

  2
F
 70
     8
280
     0
  0
ATTDEF
  5
83
330
6E
100
AcDbEntity
  8
AM_6
100
AcDbText
 10
11.428125
 20
-6.03078125
 30
0.0
 40
0.5
  1
1-1/16
100
AcDbAttributeDefinition
  3

  2
G
 70
     8
280
     0
  0
ATTDEF
  5
84
330
6E
100
AcDbEntity
  8
AM_6
100
AcDbText
 10
11.428125
 20
-6.53078125
 30
0.0
 40
0.5
  1
1-5/8
100
AcDbAttributeDefinition
  3

  2
H
 70
     8
280
     0
  0
ATTDEF
  5
85
330
6E
100
AcDbEntity
  8
AM_6
100
AcDbText
 10
11.428125
 20
-7.03078125
 30
0.0
 40
0.5
  1
5-1/8
100
AcDbAttributeDefinition
  3

  2
J
 70
     8
280
     0
  0
ATTDEF
  5
86
330
6E
100
AcDbEntity
  8
AM_6
100
AcDbText
 10
11.428125
 20
-7.53078125
 30
0.0
 40
0.5
  1
2-7/8
100
AcDbAttributeDefinition
  3

  2
K
 70
     8
280
     0
  0
ATTDEF
  5
87
330
6E
100
AcDbEntity
  8
AM_6
100
AcDbText
 10
11.428125
 20
-8.03078125
 30
0.0
 40
0.5
  1
5
100
AcDbAttributeDefinition
  3

  2
L
 70
     8
280
     0
  0
ATTDEF
  5
88
330
6E
100
AcDbEntity
  8
AM_6
100
AcDbText
 10
11.428125
 20
-8.53078125
 30
0.0
 40
0.5
  1
6-13/16
100
AcDbAttributeDefinition
  3

  2
M
 70
     8
280
     0
  0
ATTDEF
  5
89
330
6E
100
AcDbEntity
  8
AM_6
100
AcDbText
 10
11.428125
 20
-9.03078125
 30
0.0
 40
0.5
  1
7-13/16
100
AcDbAttributeDefinition
  3

  2
N
 70
     8
280
     0
  0
ATTDEF
  5
8A
330
6E
100
AcDbEntity
  8
AM_6
100
AcDbText
 10
11.428125
 20
-9.53078125
 30
0.0
 40
0.5
  1
4-7/32
100
AcDbAttributeDefinition
  3

  2
R
 70
     8
280
     0
  0
ATTDEF
  5
8B
330
6E
100
AcDbEntity
  8
AM_6
100
AcDbText
 10
11.428125
 20
-10.03078125
 30
0.0
 40
0.5
  1
2-11/16
100
AcDbAttributeDefinition
  3

  2
S
 70
     8
280
     0
  0
ATTDEF
  5
8C
330
6E
100
AcDbEntity
  8
AM_6
100
AcDbText
 10
11.428125
 20
-10.53078125
 30
0.0
 40
0.5
  1
3-1/16
100
AcDbAttributeDefinition
  3

  2
T
 70
     8
280
     0
  0
ATTDEF
  5
8D
330
6E
100
AcDbEntity
  8
AM_6
100
AcDbText
 10
11.428125
 20
-11.03078125
 30
0.0
 40
0.5
  1
1/4
100
AcDbAttributeDefinition
  3

  2
X
 70
     8
280
     0
  0
ATTDEF
  5
8E
330
6E
100
AcDbEntity
  8
AM_6
100
AcDbText
 10
11.428125
 20
-11.53078125
 30
0.0
 40
0.5
  1
0.025
100
AcDbAttributeDefinition
  3

  2
Y
 70
     8
280
     0
  0
ATTDEF
  5
8F
330
6E
100
AcDbEntity
  8
AM_6
100
AcDbText
 10
11.428125
 20
-12.03078125
 30
0.0
 40
0.5
  1
4-3/64
100
AcDbAttributeDefinition
  3

  2
Z
 70
     8
280
     0
  0
ATTDEF
  5
90
330
6E
100
AcDbEntity
  8
AM_6
100
AcDbText
 10
11.428125
 20
-12.53078125
 30
0.0
 40
0.5
  1
baldor
100
AcDbAttributeDefinition
  3

  2
COMPANY
 70
     8
280
     0
  0
INSERT
  5
92
330
6E
100
AcDbEntity
  8
0
100
AcDbBlockReference
  2
2_405016_Inch_0_in_069389_4
 10
0.0
 20
0.0
 30
0.0
  0
INSERT
  5
11B
330
6E
100
AcDbEntity
  8
0
100
AcDbBlockReference
  2
3_ASME_B18_3_1_4_1_0_in_069389_4
 10
0.0
 20
0.0
 30
0.0
  0
INSERT
  5
12E
330
6E
100
AcDbEntity
  8
0
100
AcDbBlockReference
  2
4_ASME_B18_3_1_4_2_0_in_069389_4
 10
0.0
 20
0.0
 30
0.0
  0
INSERT
  5
150
330
6E
100
AcDbEntity
  8
0
100
AcDbBlockReference
  2
5_070901LW_0_in_069389_4
 10
0.0
 20
0.0
 30
0.0
  0
INSERT
  5
186
330
6E
100
AcDbEntity
  8
0
100
AcDbBlockReference
  2
6_070901I_0_in_069389_4
 10
0.0
 20
0.0
 30
0.0
  0
INSERT
  5
207
330
6E
100
AcDbEntity
  8
0
100
AcDbBlockReference
  2
7_069389H_0_in_069389_4
 10
0.0
 20
0.0
 30
0.0
  0
ENDBLK
  5
71
330
6E
100
AcDbEntity
  8
0
100
AcDbBlockEnd
  0
BLOCK
  5
93
330
91
100
AcDbEntity
  8
0
100
AcDbBlockBegin
  2
2_405016_Inch_0_in_069389_4
 70
     2
 10
0.0
 20
0.0
 30
0.0
  3
2_405016_Inch_0_in_069389_4
  1

  0
ATTDEF
  5
95
330
91
100
AcDbEntity
  8
AM_6
100
AcDbText
 10
1.751672916644567
 20
0.2187500000000014
 30
0.0
 40
0.5
  1
405016 -Inch
100
AcDbAttributeDefinition
  3

  2
NN
 70
     8
280
     0
  0
ATTDEF
  5
96
330
91
100
AcDbEntity
  8
AM_6
100
AcDbText
 10
1.751672916644567
 20
-0.2812499999999986
 30
0.0
 40
0.5
  1
Grease Fitting
100
AcDbAttributeDefinition
  3

  2
NT
 70
     8
280
     0
  0
ATTDEF
  5
97
330
91
100
AcDbEntity
  8
AM_6
100
AcDbText
 10
1.751672916644567
 20
-0.7812499999999986
 30
0.0
 40
0.5
  1
405016-Inch
100
AcDbAttributeDefinition
  3

  2
NB
 70
     8
280
     0
  0
ATTDEF
  5
98
330
91
100
AcDbEntity
  8
AM_6
100
AcDbText
 10
1.751672916644567
 20
-1.281249999999999
 30
0.0
 40
0.5
  1
$MN.-Inch
100
AcDbAttributeDefinition
  3

  2
NBSYN
 70
     8
280
     0
  0
ATTDEF
  5
99
330
91
100
AcDbEntity
  8
AM_6
100
AcDbText
 10
1.751672916644567
 20
-1.781249999999999
 30
0.0
 40
0.5
  1
405016
100
AcDbAttributeDefinition
  3

  2
LINA
 70
     8
280
     0
  0
ATTDEF
  5
9A
330
91
100
AcDbEntity
  8
AM_6
100
AcDbText
 10
1.751672916644567
 20
-2.281249999999999
 30
0.0
 40
0.5
  1
405016
100
AcDbAttributeDefinition
  3

  2
MN
 70
     8
280
     0
  0
ATTDEF
  5
9B
330
91
100
AcDbEntity
  8
AM_6
100
AcDbText
 10
1.751672916644567
 20
-2.781249999999999
 30
0.0
 40
0.5
  1
7/16 HEX
100
AcDbAttributeDefinition
  3

  2
H
 70
     8
280
     0
  0
ATTDEF
  5
9C
330
91
100
AcDbEntity
  8
AM_6
100
AcDbText
 10
1.751672916644567
 20
-3.281249999999999
 30
0.0
 40
0.5
  1
0.383
100
AcDbAttributeDefinition
  3

  2
NDR
 70
     8
280
     0
  0
ATTDEF
  5
9D
330
91
100
AcDbEntity
  8
AM_6
100
AcDbText
 10
1.751672916644567
 20
-3.781249999999999
 30
0.0
 40
0.5
  1
0.337
100
AcDbAttributeDefinition
  3

  2
KDR
 70
     8
280
     0
  0
ATTDEF
  5
9E
330
91
100
AcDbEntity
  8
AM_6
100
AcDbText
 10
1.751672916644567
 20
-4.281249999999998
 30
0.0
 40
0.5
  1
0.1575
100
AcDbAttributeDefinition
  3

  2
BZE
 70
     8
280
     0
  0
ATTDEF
  5
9F
330
91
100
AcDbEntity
  8
AM_6
100
AcDbText
 10
1.751672916644567
 20
-4.781249999999998
 30
0.0
 40
0.5
  1
0.4375
100
AcDbAttributeDefinition
  3

  2
HEX
 70
     8
280
     0
  0
ATTDEF
  5
A0
330
91
100
AcDbEntity
  8
AM_6
100
AcDbText
 10
1.751672916644567
 20
-5.281249999999998
 30
0.0
 40
0.5
  1
0.281250
100
AcDbAttributeDefinition
  3

  2
HEX2
 70
     8
280
     0
  0
ATTDEF
  5
A1
330
91
100
AcDbEntity
  8
AM_6
100
AcDbText
 10
1.751672916644567
 20
-5.781249999999998
 30
0.0
 40
0.5
  1
baldor
100
AcDbAttributeDefinition
  3

  2
COMPANY
 70
     8
280
     0
  0
LWPOLYLINE
  5
A4
330
91
100
AcDbEntity
  8
AM_9
100
AcDbPolyline
 90
        3
 70
     0
 43
0.0
 10
-3.605896855008189
 20
0.1093749999999999
 10
-3.591849981276769
 20
0.0546874999999999
 10
-3.573833983550404
 20
-0.0000000000000001
  0
LWPOLYLINE
  5
A5
330
91
100
AcDbEntity
  8
AM_9
100
AcDbPolyline
 90
        3
 70
     0
 43
0.0
 10
-3.573833983550404
 20
-0.0000000000000001
 10
-3.591777195911237
 20
-0.0544416102741497
 10
-3.605896855008189
 20
-0.109375
  0
LINE
  5
A6
330
91
100
AcDbEntity
  8
AM_9
100
AcDbLine
 10
-3.981769506395719
 20
-0.151074129835757
 30
0.0
 11
-3.993890605679415
 21
-0.1791093260592887
 31
0.0
  0
LINE
  5
A7
330
91
100
AcDbEntity
  8
AM_9
100
AcDbLine
 10
-3.832966216895366
 20
-0.2099962668917054
 30
0.0
 11
-3.845478812890537
 21
-0.2389369657326277
 31
0.0
  0
LWPOLYLINE
  5
A8
330
91
100
AcDbEntity
  8
AM_9
100
AcDbPolyline
 90
        3
 70
     0
 43
0.0
 10
-3.497930262170477
 20
-0.0000000000000001
 10
-3.503536227554031
 20
0.0544416102741495
 10
-3.51317846955151
 20
0.1093749999999999
  0
LWPOLYLINE
  5
A9
330
91
100
AcDbEntity
  8
AM_9
100
AcDbPolyline
 90
        3
 70
     0
 43
0.0
 10
-3.51317846955151
 20
-0.1093750000000001
 10
-3.50356980386352
 20
-0.0546875000000001
 10
-3.497930262170477
 20
-0.0000000000000001
  0
LINE
  5
AA
330
91
100
AcDbEntity
  8
AM_9
100
AcDbLine
 10
-3.757896831351084
 20
-0.2987675689889718
 30
0.0
 11
-3.796492984356715
 21
-0.2813919000363599
 31
0.0
  0
LWPOLYLINE
  5
AB
330
91
100
AcDbEntity
  8
AM_9
100
AcDbPolyline
 90
        3
 70
     0
 43
0.0
 10
-3.605896855008189
 20
-0.109375
 10
-3.615505520696179
 20
-0.1640625000000001
 10
-3.621145062389223
 20
-0.2187500000000001
  0
LINE
  5
AC
330
91
100
AcDbEntity
  8
AM_9
100
AcDbLine
 10
-3.573833983550404
 20
-0.0000000000000001
 30
0.0
 11
-3.497930262170477
 21
-0.0000000000000001
 31
0.0
  0
LWPOLYLINE
  5
AD
330
91
100
AcDbEntity
  8
AM_9
100
AcDbPolyline
 90
        3
 70
     0
 43
0.0
 10
-3.621145062389223
 20
0.2187499999999999
 10
-3.615539097005668
 20
0.1643083897258503
 10
-3.605896855008189
 20
0.1093749999999999
  0
LWPOLYLINE
  5
AE
330
91
100
AcDbEntity
  8
AM_9
100
AcDbPolyline
 90
        3
 70
     0
 43
0.0
 10
-3.776900742910161
 20
-0.2360765106845278
 10
-3.765244107462993
 20
-0.2462091938631852
 10
-3.758709388655388
 20
-0.2528207338751512
  0
LINE
  5
AF
330
91
100
AcDbEntity
  8
AM_9
100
AcDbLine
 10
-3.538691092305828
 20
0.2000413016192555
 30
0.0
 11
-3.545241341009295
 21
0.2187499999999999
 31
0.0
  0
LWPOLYLINE
  5
B0
330
91
100
AcDbEntity
  8
AM_9
100
AcDbPolyline
 90
        3
 70
     0
 43
0.0
 10
-3.51317846955151
 20
0.1093749999999999
 10
-3.527225343282929
 20
0.1640624999999999
 10
-3.538691092305828
 20
0.2000413016192555
  0
LWPOLYLINE
  5
B1
330
91
100
AcDbEntity
  8
AM_9
100
AcDbPolyline
 90
        3
 70
     0
 43
0.0
 10
-3.538690989615467
 20
-0.2000409996967265
 10
-3.527298128648462
 20
-0.1643083897258505
 10
-3.51317846955151
 20
-0.1093750000000001
  0
LINE
  5
B2
330
91
100
AcDbEntity
  8
AM_9
100
AcDbLine
 10
-3.545241341009295
 20
-0.2187500000000001
 30
0.0
 11
-3.538690989615467
 21
-0.2000409996967265
 31
0.0
  0
ELLIPSE
  5
B3
330
91
100
AcDbEntity
  8
AM_9
100
AcDbEllipse
 10
-4.00424085196041
 20
-0.4687500000000002
 30
0.0
 11
-0.09498502069410987
 21
0.04106705218388592
 31
0.0
210
0.0
220
0.0
230
1.0
 40
0.1583155873460457
 41
3.066756133314191
 42
6.358021827455172
  0
ELLIPSE
  5
B4
330
91
100
AcDbEntity
  8
AM_9
100
AcDbEllipse
 10
-3.974270285847359
 20
-0.3994303217889761
 30
0.0
 11
-0.127722180120792
 21
0.05522105904416057
 31
0.0
210
0.0
220
0.0
230
1.0
 40
0.1583155873460382
 41
3.062852529727669
 42
5.932176524882752
  0
LINE
  5
B5
330
91
100
AcDbEntity
  8
AM_9
100
AcDbLine
 10
-3.972525285959406
 20
-0.118211224823819
 30
0.0
 11
-3.973205314501104
 21
-0.1197840799880168
 31
0.0
  0
LINE
  5
B6
330
91
100
AcDbEntity
  8
AM_9
100
AcDbLine
 10
-3.768205100319894
 20
-0.2
 30
0.0
 11
-3.766608238027691
 21
-0.1963065769320039
 31
0.0
  0
ELLIPSE
  5
B7
330
91
100
AcDbEntity
  8
AM_9
100
AcDbEllipse
 10
-3.888646627425737
 20
-0.2013892028242015
 30
0.0
 11
-0.1009671980072553
 21
0.0436534640843912
 31
0.0
210
0.0
220
0.0
230
1.0
 40
0.1583155873460453
 41
3.141592653589793
 42
6.283185307179586
  0
LWPOLYLINE
  5
B8
330
91
100
AcDbEntity
  8
AM_9
100
AcDbPolyline
 90
        3
 70
     0
 43
0.0
 10
-3.972563718851011
 20
-0.1183001248685495
 10
-3.972258026062198
 20
-0.1208367673933812
 10
-3.971344562323331
 20
-0.122232265674844
  0
LWPOLYLINE
  5
B9
330
91
100
AcDbEntity
  8
AM_9
100
AcDbPolyline
 90
        3
 70
     0
 43
0.0
 10
-3.766639460652426
 20
-0.1963787400247985
 10
-3.770623050056099
 20
-0.1994144431868155
 10
-3.775507280050842
 20
-0.1999999995615473
  0
LWPOLYLINE
  5
BA
330
91
100
AcDbEntity
  8
AM_9
100
AcDbPolyline
 90
        5
 70
     0
 43
0.0
 10
-3.993890605679415
 20
-0.1791093260592887
 10
-4.010937958910315
 20
-0.1842540823997054
 10
-4.026849017406447
 20
-0.1862220679364951
 10
-4.041536687389894
 20
-0.1844124966919382
 10
-4.054719135615039
 20
-0.1791093260592887
  0
LWPOLYLINE
  5
BB
330
91
100
AcDbEntity
  8
AM_9
100
AcDbPolyline
 90
        4
 70
     0
 43
0.0
 10
-3.921149162323271
 20
-0.2168194786213518
 10
-3.921481041450776
 20
-0.2166871171046321
 10
-3.95843788248183
 20
-0.1996402057054678
 10
-3.993890605679415
 20
-0.1791093260592887
  0
LWPOLYLINE
  5
BC
330
91
100
AcDbEntity
  8
AM_9
100
AcDbPolyline
 90
        3
 70
     0
 43
0.0
 10
-3.870895615617731
 20
-0.2330731529818577
 10
-3.883883504738058
 20
-0.2295338871417796
 10
-3.921149162323271
 20
-0.2168194786213518
  0
LINE
  5
BD
330
91
100
AcDbEntity
  8
AM_9
100
AcDbLine
 10
-3.845478812890537
 20
-0.2389369657326277
 30
0.0
 11
-3.870895615617731
 21
-0.2330731529818577
 31
0.0
  0
LINE
  5
BE
330
91
100
AcDbEntity
  8
AM_9
100
AcDbLine
 10
-3.811611272579302
 20
-0.2711532636537957
 30
0.0
 11
-3.845478812890537
 21
-0.2389369657326277
 31
0.0
  0
LINE
  5
BF
330
91
100
AcDbEntity
  8
AM_9
100
AcDbLine
 10
-3.840911034898589
 20
-0.2045884858948122
 30
0.0
 11
-3.832966216895366
 21
-0.2099962668917054
 31
0.0
  0
LWPOLYLINE
  5
C0
330
91
100
AcDbEntity
  8
AM_9
100
AcDbPolyline
 90
        4
 70
     0
 43
0.0
 10
-3.981769506395719
 20
-0.151074129835757
 10
-3.924309624057221
 20
-0.1639940363880805
 10
-3.868768667013538
 20
-0.1876759562813858
 10
-3.840911034898589
 20
-0.2045884858948122
  0
LWPOLYLINE
  5
C1
330
91
100
AcDbEntity
  8
AM_9
100
AcDbPolyline
 90
        3
 70
     0
 43
0.0
 10
-3.832966216895366
 20
-0.2099962668917054
 10
-3.812075458620205
 20
-0.2163479371246913
 10
-3.79201903113275
 20
-0.2258378743019629
  0
LWPOLYLINE
  5
C2
330
91
100
AcDbEntity
  8
AM_9
100
AcDbPolyline
 90
        3
 70
     0
 43
0.0
 10
-4.00825368389666
 20
-0.1419585110678678
 10
-3.994762803638296
 20
-0.1441228263802215
 10
-3.981769506395719
 20
-0.1510741298357571
  0
ELLIPSE
  5
C3
330
91
100
AcDbEntity
  8
AM_9
100
AcDbEllipse
 10
-3.888646627425749
 20
-0.201389202824188
 30
0.0
 11
-0.1290773838160786
 21
0.05580698533514238
 31
0.0
210
0.0
220
0.0
230
1.0
 40
0.1583155873460361
 41
3.937411257393414
 42
5.6106138257993
  0
ELLIPSE
  5
C4
330
91
100
AcDbEntity
  8
AM_9
100
AcDbEllipse
 10
-3.9628414404228
 20
-0.3729962569746643
 30
0.0
 11
-0.1222564956648755
 21
0.05285795434479293
 31
0.0
210
0.0
220
0.0
230
1.0
 40
0.1583155873460352
 41
3.319197959833373
 42
5.932176524882762
  0
LINE
  5
C5
330
91
100
AcDbEntity
  8
AM_9
100
AcDbLine
 10
-3.796492984356715
 20
-0.2813919000363599
 30
0.0
 11
-3.811611272579302
 21
-0.2711532636537957
 31
0.0
  0
ELLIPSE
  5
C6
330
91
100
AcDbEntity
  8
AM_9
100
AcDbEllipse
 10
-3.908238868872294
 20
-0.2467045921760255
 30
0.0
 11
-0.1290773838160711
 21
0.05580698533513717
 31
0.0
210
0.0
220
0.0
230
1.0
 40
0.1583155873460384
 41
2.931540131874916
 42
3.738151587585734
  0
LWPOLYLINE
  5
C7
330
91
100
AcDbEntity
  8
AM_9
100
AcDbPolyline
 90
        3
 70
     0
 43
0.0
 10
-4.035671461784756
 20
-0.1974551229033043
 10
-4.033366814544768
 20
-0.2015760993887142
 10
-4.03245951461919
 20
-0.2033975989795159
  0
ELLIPSE
  5
C8
330
91
100
AcDbEntity
  8
AM_9
100
AcDbEllipse
 10
-3.908238868872301
 20
-0.2467045921760199
 30
0.0
 11
-0.1290773838160768
 21
0.05580698533514215
 31
0.0
210
0.0
220
0.0
230
1.0
 40
0.158315587346031
 41
3.937411257393407
 42
6.739367744568768
  0
LINE
  5
C9
330
91
100
AcDbEntity
  8
AM_9
100
AcDbLine
 10
-3.79201903113275
 20
-0.2258378743019629
 30
0.0
 11
-3.782239633670264
 21
-0.2324608261325394
 31
0.0
  0
LWPOLYLINE
  5
CA
330
91
100
AcDbEntity
  8
AM_9
100
AcDbPolyline
 90
        9
 70
     0
 43
0.0
 10
-3.779651844322862
 20
-0.1790373738501779
 10
-3.802321323292706
 20
-0.1670729780242511
 10
-3.832506254127524
 20
-0.1538031670974777
 10
-3.866826947463034
 20
-0.1407130262602577
 10
-3.901381417574638
 20
-0.1293028157827817
 10
-3.932229958310633
 20
-0.1208880884981781
 10
-3.955891057794219
 20
-0.1164278875396128
 10
-3.969737704489043
 20
-0.1164156227038168
 10
-3.972563718851011
 20
-0.1183001248685495
  0
LWPOLYLINE
  5
CB
330
91
100
AcDbEntity
  8
AM_9
100
AcDbPolyline
 90
        4
 70
     0
 43
0.0
 10
-3.779651844322862
 20
-0.1790373738501784
 10
-3.772519366138636
 20
-0.1842628795203941
 10
-3.766338964935152
 20
-0.1936098952159724
 10
-3.766639460652426
 20
-0.1963787400247985
  0
LINE
  5
CC
330
91
100
AcDbEntity
  8
AM_9
100
AcDbLine
 10
-3.676863473266417
 20
0.1999999999999998
 30
0.0
 11
-3.721944133573042
 21
0.1999999999999998
 31
0.0
  0
LINE
  5
CD
330
91
100
AcDbEntity
  8
AM_9
100
AcDbLine
 10
-3.721946964385065
 20
-0.2
 30
0.0
 11
-3.676863473266417
 21
-0.2
 31
0.0
  0
LINE
  5
CE
330
91
100
AcDbEntity
  8
AM_9
100
AcDbLine
 10
-3.511708849171708
 20
0.1999999999999998
 30
0.0
 11
-3.584145087809738
 21
0.1999999999999998
 31
0.0
  0
LINE
  5
CF
330
91
100
AcDbEntity
  8
AM_9
100
AcDbLine
 10
-3.584145087809738
 20
-0.2
 30
0.0
 11
-3.511708849171708
 21
-0.2
 31
0.0
  0
LINE
  5
D0
330
91
100
AcDbEntity
  8
AM_9
100
AcDbLine
 10
-3.6875
 20
-0.2187500000000001
 30
0.0
 11
-3.545241341009295
 21
-0.2187500000000001
 31
0.0
  0
LINE
  5
D1
330
91
100
AcDbEntity
  8
AM_9
100
AcDbLine
 10
-3.66666426564728
 20
-0.0632885979958418
 30
0.0
 11
-3.655111706067966
 21
-0.109375
 31
0.0
  0
LWPOLYLINE
  5
D2
330
91
100
AcDbEntity
  8
AM_9
100
AcDbPolyline
 90
        3
 70
     0
 43
0.0
 10
-3.687174577525751
 20
-0.0000000000000001
 10
-3.669231365164917
 20
-0.0544416102741497
 10
-3.66666426564728
 20
-0.0632885979958418
  0
LINE
  5
D3
330
91
100
AcDbEntity
  8
AM_9
100
AcDbLine
 10
-3.6875
 20
0.2187499999999999
 30
0.0
 11
-3.545241341009295
 21
0.2187499999999999
 31
0.0
  0
LWPOLYLINE
  5
D4
330
91
100
AcDbEntity
  8
AM_9
100
AcDbPolyline
 90
        3
 70
     0
 43
0.0
 10
-3.666737540889164
 20
0.0630308304052357
 10
-3.669158579799385
 20
0.0546874999999999
 10
-3.687174577525751
 20
-0.0000000000000001
  0
LINE
  5
D5
330
91
100
AcDbEntity
  8
AM_9
100
AcDbLine
 10
-3.655111706067966
 20
0.1093749999999999
 30
0.0
 11
-3.666737540889164
 21
0.0630308304052357
 31
0.0
  0
LINE
  5
D6
330
91
100
AcDbEntity
  8
AM_9
100
AcDbLine
 10
-3.330034287986061
 20
0.1854025098511931
 30
0.0
 11
-3.510803010301146
 21
0.191495967186768
 31
0.0
  0
LINE
  5
D7
330
91
100
AcDbEntity
  8
AM_9
100
AcDbLine
 10
-3.510803010301146
 20
-0.1914959671867681
 30
0.0
 11
-3.330034287986061
 21
-0.1854025098511933
 31
0.0
  0
LINE
  5
D8
330
91
100
AcDbEntity
  8
AM_9
100
AcDbLine
 10
-3.284419432498405
 20
0.1478814731883059
 30
0.0
 11
-3.302848231178149
 21
0.1696099849128764
 31
0.0
  0
LINE
  5
D9
330
91
100
AcDbEntity
  8
AM_9
100
AcDbLine
 10
-3.302848231178149
 20
-0.1696099849128767
 30
0.0
 11
-3.284419432498405
 21
-0.147881473188306
 31
0.0
  0
ELLIPSE
  5
DA
330
91
100
AcDbEntity
  8
AM_9
100
AcDbEllipse
 10
-3.676863473266417
 20
0.0
 30
0.0
 11
1.339457436567426E-17
 21
0.2187500000000014
 31
0.0
210
0.0
220
0.0
230
1.0
 40
0.3746065934159085
 41
0.0
 42
6.283185307179586
  0
ELLIPSE
  5
DB
330
91
100
AcDbEntity
  8
AM_9
100
AcDbEllipse
 10
-3.676863473266417
 20
-0.0000000000000004
 30
0.0
 11
1.224646799147351E-17
 21
0.1999999999999997
 31
0.0
210
0.0
220
0.0
230
1.0
 40
0.3746065934159122
 41
0.0
 42
6.283185307179586
  0
ELLIPSE
  5
DC
330
91
100
AcDbEntity
  8
AM_9
100
AcDbEllipse
 10
-3.584145087809738
 20
-0.0000000000000002
 30
0.0
 11
1.339457436567418E-17
 21
0.2187500000000001
 31
0.0
210
0.0
220
0.0
230
1.0
 40
0.3746065934159128
 41
0.0
 42
6.283185307179586
  0
ELLIPSE
  5
DD
330
91
100
AcDbEntity
  8
AM_9
100
AcDbEllipse
 10
-3.584145087809738
 20
-0.0000000000000006
 30
0.0
 11
1.224646799147350E-17
 21
0.1999999999999995
 31
0.0
210
0.0
220
0.0
230
1.0
 40
0.3746065934159124
 41
0.0
 42
6.283185307179586
  0
ELLIPSE
  5
DE
330
91
100
AcDbEntity
  8
AM_9
100
AcDbEllipse
 10
-3.511708849171709
 20
0.0
 30
0.0
 11
1.224646799147352E-17
 21
0.1999999999999999
 31
0.0
210
0.0
220
0.0
230
1.0
 40
0.3746065934159184
 41
0.0
 42
6.283185307179586
  0
ELLIPSE
  5
DF
330
91
100
AcDbEntity
  8
AM_9
100
AcDbEllipse
 10
-3.511708849171707
 20
0.0000000000000011
 30
0.0
 11
1.172668097677212E-17
 21
0.1915112338502283
 31
0.0
210
0.0
220
0.0
230
1.0
 40
0.3746065934159146
 41
0.0
 42
6.283185307179586
  0
ELLIPSE
  5
E0
330
91
100
AcDbEntity
  8
AM_9
100
AcDbEllipse
 10
-3.330911302800474
 20
-0.0000000000000012
 30
0.0
 11
1.135353457964631E-17
 21
0.1854172907249842
 31
0.0
210
0.0
220
0.0
230
1.0
 40
0.3746065934159188
 41
0.0
 42
6.283185307179586
  0
ELLIPSE
  5
E1
330
91
100
AcDbEntity
  8
AM_9
100
AcDbEllipse
 10
-3.308887380985224
 20
-0.0000000000000001
 30
0.0
 11
9.899048221688855E-18
 21
0.1616637258772237
 31
0.0
210
0.0
220
0.0
230
1.0
 40
0.3746065934159159
 41
0.0
 42
6.283185307179586
  0
LINE
  5
E3
330
91
100
AcDbEntity
  8
AM_4
100
AcDbLine
 10
-3.758603998721739
 20
-0.2529328073185283
 30
0.0
 11
-3.764401653369578
 21
-0.2467669665417466
 31
0.0
  0
LINE
  5
E4
330
91
100
AcDbEntity
  8
AM_4
100
AcDbLine
 10
-3.758709388655388
 20
-0.2528207338751512
 30
0.0
 11
-3.744989815750142
 21
-0.2689146070947222
 31
0.0
  0
ELLIPSE
  5
E5
330
91
100
AcDbEntity
  8
AM_4
100
AcDbEllipse
 10
-3.888646627425758
 20
-0.2013892028241814
 30
0.0
 11
-0.1290773838160879
 21
0.05580698533514944
 31
0.0
210
0.0
220
0.0
230
1.0
 40
0.1583155873460358
 41
2.931540131874982
 42
3.738151587585663
  0
LINE
  5
E6
330
91
100
AcDbEntity
  8
AM_4
100
AcDbLine
 10
-3.744989815750142
 20
-0.2689146070947223
 30
0.0
 11
-3.764248590226236
 21
-0.2602304684431306
 31
0.0
  0
LINE
  5
E7
330
91
100
AcDbEntity
  8
AM_4
100
AcDbLine
 10
-3.783840831672789
 20
-0.3055458577949631
 30
0.0
 11
-3.757896831351084
 21
-0.2987675689889718
 31
0.0
  0
LINE
  5
E8
330
91
100
AcDbEntity
  8
AM_4
100
AcDbLine
 10
-3.744989815750142
 20
-0.2689146070947223
 30
0.0
 11
-3.757896831351084
 21
-0.2987675689889718
 31
0.0
  0
LINE
  5
E9
330
91
100
AcDbEntity
  8
AM_4
100
AcDbLine
 10
-3.91000778886755
 20
-0.5108264199512539
 30
0.0
 11
-3.84755923004373
 21
-0.456008633280415
 31
0.0
  0
LINE
  5
EA
330
91
100
AcDbEntity
  8
AM_4
100
AcDbLine
 10
-4.102288615385191
 20
-0.3458756366863984
 30
0.0
 11
-4.099446114420511
 21
-0.4289222044837946
 31
0.0
  0
ELLIPSE
  5
EB
330
91
100
AcDbEntity
  8
AM_4
100
AcDbEllipse
 10
-4.00424085196041
 20
-0.4687500000000001
 30
0.0
 11
-0.09498502069410984
 21
0.04106705218388612
 31
0.0
210
0.0
220
0.0
230
1.0
 40
0.1583155873460221
 41
0.0748365202755918
 42
3.066756133314186
  0
LWPOLYLINE
  5
EC
330
91
100
AcDbEntity
  8
AM_4
100
AcDbPolyline
 90
        6
 70
     0
 43
0.0
 10
-4.081376750291274
 20
-0.3174491035533905
 10
-4.088203658812449
 20
-0.3204511194594151
 10
-4.094635803451516
 20
-0.3255660143345808
 10
-4.099561822595769
 20
-0.3327361610574225
 10
-4.102130409264477
 20
-0.3417298178384097
 10
-4.102244274683192
 20
-0.3467682420353851
  0
LWPOLYLINE
  5
ED
330
91
100
AcDbEntity
  8
AM_4
100
AcDbPolyline
 90
        7
 70
     0
 43
0.0
 10
-3.848023415963767
 20
-0.4564074943466568
 10
-3.844479510001071
 20
-0.4528544545963771
 10
-3.839982140868679
 20
-0.4453438595852451
 10
-3.838002497474889
 20
-0.4364692243649391
 10
-3.838610926720451
 20
-0.4286697013955463
 10
-3.840838751467263
 20
-0.4220114777164015
 10
-3.841533793687216
 20
-0.4205849617207323
  0
ELLIPSE
  5
EE
330
91
100
AcDbEntity
  8
AM_4
100
AcDbEllipse
 10
-3.97427028584736
 20
-0.399430321788976
 30
0.0
 11
-0.1277221801207924
 21
0.05522105904416074
 31
0.0
210
0.0
220
0.0
230
1.0
 40
0.158315587346037
 41
0.0805923508360458
 42
3.062852529727671
  0
LINE
  5
EF
330
91
100
AcDbEntity
  8
AM_4
100
AcDbLine
 10
-3.818725361286707
 20
-0.2987675689889718
 30
0.0
 11
-3.798642587042102
 21
-0.3055458577949631
 31
0.0
  0
LINE
  5
F0
330
91
100
AcDbEntity
  8
AM_4
100
AcDbLine
 10
-4.042598036331342
 20
-0.151074129835757
 30
0.0
 11
-4.054719135615039
 21
-0.1791093260592887
 31
0.0
  0
LWPOLYLINE
  5
F1
330
91
100
AcDbEntity
  8
AM_4
100
AcDbPolyline
 90
        3
 70
     0
 43
0.0
 10
-3.779050345595547
 20
-0.2602304684431209
 10
-3.786169158755285
 20
-0.2616913382589204
 10
-3.805818345685765
 20
-0.2689146070947223
  0
LINE
  5
F2
330
91
100
AcDbEntity
  8
AM_4
100
AcDbLine
 10
-3.973205314501104
 20
-0.1197840799880168
 30
0.0
 11
-3.989613825432992
 21
-0.1577357387398102
 31
0.0
  0
LINE
  5
F3
330
91
100
AcDbEntity
  8
AM_4
100
AcDbLine
 10
-3.787679429418505
 20
-0.245042666908566
 30
0.0
 11
-3.768205100319894
 21
-0.2
 31
0.0
  0
ELLIPSE
  5
F4
330
91
100
AcDbEntity
  8
AM_4
100
AcDbEllipse
 10
-3.888646627425748
 20
-0.2013892028241881
 30
0.0
 11
-0.1009671980072437
 21
0.04365346408437799
 31
0.0
210
0.0
220
0.0
230
1.0
 40
0.1583155873460377
 41
0.0
 42
3.141592653589793
  0
LWPOLYLINE
  5
F5
330
91
100
AcDbEntity
  8
AM_4
100
AcDbPolyline
 90
        3
 70
     0
 43
0.0
 10
-4.054719135615039
 20
-0.1791093260592887
 10
-4.035613245420056
 20
-0.1988355121406939
 10
-4.031478947664111
 20
-0.2025620431642225
  0
LINE
  5
F6
330
91
100
AcDbEntity
  8
AM_4
100
AcDbLine
 10
-4.031535072722456
 20
-0.2025128028333112
 30
0.0
 11
-4.028008979754069
 21
-0.2056064806068165
 31
0.0
  0
LWPOLYLINE
  5
F7
330
91
100
AcDbEntity
  8
AM_4
100
AcDbPolyline
 90
        4
 70
     0
 43
0.0
 10
-4.031478947664111
 20
-0.2025620431642225
 10
-4.014794182633999
 20
-0.2156330920108725
 10
-3.991735776455316
 20
-0.2290462109660021
 10
-3.967135872761786
 20
-0.2389369657326276
  0
LWPOLYLINE
  5
F8
330
91
100
AcDbEntity
  8
AM_4
100
AcDbPolyline
 90
        3
 70
     0
 43
0.0
 10
-4.042598036331342
 20
-0.151074129835757
 10
-4.017035772268131
 20
-0.1427138007556462
 10
-4.00825368389666
 20
-0.1419585110678678
  0
LWPOLYLINE
  5
F9
330
91
100
AcDbEntity
  8
AM_4
100
AcDbPolyline
 90
        4
 70
     0
 43
0.0
 10
-3.954623276766614
 20
-0.2099962668917054
 10
-3.982472407897693
 20
-0.1805491420332304
 10
-4.015825392904473
 20
-0.1598729403210871
 10
-4.042598036331342
 20
-0.151074129835757
  0
LINE
  5
FA
330
91
100
AcDbEntity
  8
AM_4
100
AcDbLine
 10
-4.006815776280074
 20
-0.1419585097669024
 30
0.0
 11
-4.00879427334581
 21
-0.1419585097669024
 31
0.0
  0
ELLIPSE
  5
FB
330
91
100
AcDbEntity
  8
AM_4
100
AcDbEllipse
 10
-3.888646627425754
 20
-0.2013892028241875
 30
0.0
 11
-0.1290773838160711
 21
0.0558069853351419
 31
0.0
210
0.0
220
0.0
230
1.0
 40
0.1583155873460412
 41
5.610613825799319
 42
7.926941792372141
  0
ELLIPSE
  5
FC
330
91
100
AcDbEntity
  8
AM_4
100
AcDbEllipse
 10
-3.908238868872301
 20
-0.2467045921760203
 30
0.0
 11
-0.1290773838160781
 21
0.05580698533514203
 31
0.0
210
0.0
220
0.0
230
1.0
 40
0.1583155873460414
 41
0.4561824373891152
 42
1.643756485192516
  0
LINE
  5
FD
330
91
100
AcDbEntity
  8
AM_4
100
AcDbLine
 10
-3.798642587042102
 20
-0.3055458577949631
 30
0.0
 11
-3.783840831672789
 21
-0.3055458577949631
 31
0.0
  0
ELLIPSE
  5
FE
330
91
100
AcDbEntity
  8
AM_4
100
AcDbEllipse
 10
-3.908238868872301
 20
-0.2467045921760201
 30
0.0
 11
-0.1290773838160781
 21
0.05580698533514265
 31
0.0
210
0.0
220
0.0
230
1.0
 40
0.1583155873460419
 41
1.843016155000213
 42
2.64962761071098
  0
LWPOLYLINE
  5
FF
330
91
100
AcDbEntity
  8
AM_4
100
AcDbPolyline
 90
       14
 70
     0
 43
0.0
 10
-3.841237551354595
 20
-0.4211644436577235
 10
-3.841649239050533
 20
-0.4202737291135716
 10
-3.84547363337052
 20
-0.4099240807150918
 10
-3.848092117137162
 20
-0.397124795886268
 10
-3.848590973224191
 20
-0.3828077293324416
 10
-3.84649348724786
 20
-0.3679726269764476
 10
-3.841694728863406
 20
-0.3534771987902949
 10
-3.833909669011806
 20
-0.3393948707094519
 10
-3.824402491000589
 20
-0.3278528940765351
 10
-3.813966543624598
 20
-0.3188846582057936
 10
-3.803412998442288
 20
-0.3124080274322823
 10
-3.793653017485015
 20
-0.3082208268737975
 10
-3.785525331124461
 20
-0.3059051380917881
 10
-3.784376359882126
 20
-0.3056621475588508
  0
LWPOLYLINE
  5
100
330
91
100
AcDbEntity
  8
AM_4
100
AcDbPolyline
 90
       12
 70
     0
 43
0.0
 10
-4.03245951461919
 20
-0.2033975989795159
 10
-4.02936218805533
 20
-0.2108413140064047
 10
-4.026146021662299
 20
-0.2227732018253561
 10
-4.024738607436032
 20
-0.2366233409348954
 10
-4.025793449220862
 20
-0.2513664430925714
 10
-4.029544538544538
 20
-0.2660875178029669
 10
-4.03651769955952
 20
-0.2810249662305705
 10
-4.045513166422338
 20
-0.2934865391071197
 10
-4.055708336767292
 20
-0.3033600739310137
 10
-4.066319775327385
 20
-0.3107041283239735
 10
-4.076467746014423
 20
-0.3156667652589601
 10
-4.081772005412977
 20
-0.3175741152391893
  0
ELLIPSE
  5
101
330
91
100
AcDbEntity
  8
AM_4
100
AcDbEllipse
 10
-3.9628414404228
 20
-0.3729962569746642
 30
0.0
 11
-0.1222564956648751
 21
0.05285795434479276
 31
0.0
210
0.0
220
0.0
230
1.0
 40
0.1583155873460333
 41
6.102349878911607
 42
9.60238326701296
  0
ELLIPSE
  5
102
330
91
100
AcDbEntity
  8
AM_4
100
AcDbEllipse
 10
-3.888646627425751
 20
-0.201389202824186
 30
0.0
 11
-0.1290773838160884
 21
0.05580698533513105
 31
0.0
210
0.0
220
0.0
230
1.0
 40
0.1583155873460667
 41
1.843016155000205
 42
2.649627610710902
  0
LINE
  5
103
330
91
100
AcDbEntity
  8
AM_4
100
AcDbLine
 10
-3.764248590226236
 20
-0.2602304684431306
 30
0.0
 11
-3.779050345595547
 21
-0.2602304684431209
 31
0.0
  0
LINE
  5
104
330
91
100
AcDbEntity
  8
AM_4
100
AcDbLine
 10
-3.782239633670264
 20
-0.2324608261325394
 30
0.0
 11
-3.776900742910162
 21
-0.2360765106845277
 31
0.0
  0
LWPOLYLINE
  5
105
330
91
100
AcDbEntity
  8
AM_4
100
AcDbPolyline
 90
        3
 70
     0
 43
0.0
 10
-3.805818345685765
 20
-0.2689146070947223
 10
-3.833238612512824
 20
-0.251275593729576
 10
-3.862451342655182
 20
-0.2360765106845275
  0
LINE
  5
106
330
91
100
AcDbEntity
  8
AM_4
100
AcDbLine
 10
-3.862451342655182
 20
-0.2360765106845275
 30
0.0
 11
-3.888049084635721
 21
-0.2258378743019627
 31
0.0
  0
LWPOLYLINE
  5
107
330
91
100
AcDbEntity
  8
AM_4
100
AcDbPolyline
 90
        3
 70
     0
 43
0.0
 10
-3.888049084635721
 20
-0.2258378743019627
 10
-3.910739908729131
 20
-0.2189176876709015
 10
-3.954623276766614
 20
-0.2099962668917054
  0
LINE
  5
108
330
91
100
AcDbEntity
  8
AM_4
100
AcDbLine
 10
-3.954623276766614
 20
-0.2099962668917054
 30
0.0
 11
-3.967135872761784
 21
-0.2389369657326277
 31
0.0
  0
LINE
  5
109
330
91
100
AcDbEntity
  8
AM_4
100
AcDbLine
 10
-3.967135872761784
 20
-0.2389369657326277
 30
0.0
 11
-3.907641326082273
 21
-0.2711532636537957
 31
0.0
  0
LINE
  5
10A
330
91
100
AcDbEntity
  8
AM_4
100
AcDbLine
 10
-3.907641326082273
 20
-0.2711532636537957
 30
0.0
 11
-3.882043584101735
 21
-0.2813919000363599
 31
0.0
  0
LINE
  5
10B
330
91
100
AcDbEntity
  8
AM_4
100
AcDbLine
 10
-3.882043584101735
 20
-0.2813919000363599
 30
0.0
 11
-3.818725361286707
 21
-0.2987675689889718
 31
0.0
  0
LINE
  5
10C
330
91
100
AcDbEntity
  8
AM_4
100
AcDbLine
 10
-3.805818345685765
 20
-0.2689146070947223
 30
0.0
 11
-3.818725361286707
 21
-0.2987675689889718
 31
0.0
  0
ARC
  5
10D
330
91
100
AcDbEntity
  8
AM_4
100
AcDbCircle
 10
-3.813043601905912
 20
-0.0000000000000011
 30
0.0
 40
0.2000000000000009
100
AcDbArc
 50
90.0
 51
217.9078087476806
  0
LWPOLYLINE
  5
10E
330
91
100
AcDbEntity
  8
AM_4
100
AcDbPolyline
 90
        6
 70
     0
 43
0.0
 10
-3.971344562323331
 20
-0.122232265674844
 10
-3.963182739031978
 20
-0.1291842652280563
 10
-3.943500825971585
 20
-0.1405186270901959
 10
-3.915374299406046
 20
-0.1535654953592165
 10
-3.881942084913808
 20
-0.1668493358980661
 10
-3.846435359488949
 20
-0.1790373738502115
  0
ELLIPSE
  5
10F
330
91
100
AcDbEntity
  8
AM_4
100
AcDbEllipse
 10
-3.813043601905914
 20
-0.0000000000000001
 30
0.0
 11
1.224646799147352E-17
 21
0.1999999999999998
 31
0.0
210
0.0
220
0.0
230
1.0
 40
0.3746065934159074
 41
0.0
 42
2.679646633022831
  0
LINE
  5
110
330
91
100
AcDbEntity
  8
AM_4
100
AcDbLine
 10
-3.721944133573042
 20
0.1999999999999998
 30
0.0
 11
-3.813043601905914
 21
0.1999999999999998
 31
0.0
  0
LINE
  5
111
330
91
100
AcDbEntity
  8
AM_4
100
AcDbLine
 10
-3.776701107409608
 20
-0.2
 30
0.0
 11
-3.721946964385065
 21
-0.2
 31
0.0
  0
LWPOLYLINE
  5
112
330
91
100
AcDbEntity
  8
AM_4
100
AcDbPolyline
 90
        5
 70
     0
 43
0.0
 10
-3.775507280050842
 20
-0.1999999995615473
 10
-3.785279394107533
 20
-0.1988321115509053
 10
-3.808502581264968
 20
-0.1920694300574958
 10
-3.838872115941682
 20
-0.181500594761393
 10
-3.846435359488965
 20
-0.1790373738501785
  0
LWPOLYLINE
  5
113
330
91
100
AcDbEntity
  8
AM_4
100
AcDbPolyline
 90
        3
 70
     0
 43
0.0
 10
-3.747830091524645
 20
-0.109375
 10
-3.757438757212635
 20
-0.0546875
 10
-3.763078298905679
 20
-0.0000000000000001
  0
LWPOLYLINE
  5
114
330
91
100
AcDbEntity
  8
AM_4
100
AcDbPolyline
 90
        3
 70
     0
 43
0.0
 10
-3.715767220066859
 20
-0.2187500000000001
 10
-3.733710432427694
 20
-0.1643083897258505
 10
-3.747830091524645
 20
-0.109375
  0
LINE
  5
115
330
91
100
AcDbEntity
  8
AM_4
100
AcDbLine
 10
-3.715767220066859
 20
-0.2187500000000001
 30
0.0
 11
-3.6875
 21
-0.2187500000000001
 31
0.0
  0
LINE
  5
116
330
91
100
AcDbEntity
  8
AM_4
100
AcDbLine
 10
-3.715767220066859
 20
0.2187499999999999
 30
0.0
 11
-3.6875
 21
0.2187499999999999
 31
0.0
  0
LWPOLYLINE
  5
117
330
91
100
AcDbEntity
  8
AM_4
100
AcDbPolyline
 90
        3
 70
     0
 43
0.0
 10
-3.747830091524645
 20
0.1093749999999999
 10
-3.733783217793226
 20
0.1640624999999999
 10
-3.715767220066859
 20
0.2187499999999999
  0
LWPOLYLINE
  5
118
330
91
100
AcDbEntity
  8
AM_4
100
AcDbPolyline
 90
        3
 70
     0
 43
0.0
 10
-3.763078298905679
 20
-0.0000000000000001
 10
-3.757472333522123
 20
0.0544416102741495
 10
-3.747830091524645
 20
0.1093749999999999
  0
LINE
  5
119
330
91
100
AcDbEntity
  8
AM_4
100
AcDbLine
 10
-3.763078298905679
 20
-0.0000000000000001
 30
0.0
 11
-3.6875
 21
-0.0000000000000001
 31
0.0
  0
ENDBLK
  5
94
330
91
100
AcDbEntity
  8
0
100
AcDbBlockEnd
  0
BLOCK
  5
11C
330
11A
100
AcDbEntity
  8
0
100
AcDbBlockBegin
  2
3_ASME_B18_3_1_4_1_0_in_069389_4
 70
     2
 10
0.0
 20
0.0
 30
0.0
  3
3_ASME_B18_3_1_4_1_0_in_069389_4
  1

  0
ATTDEF
  5
11E
330
11A
100
AcDbEntity
  8
AM_6
100
AcDbText
 10
5.125
 20
-2.110333333333333
 30
0.0
 40
0.5
  1
ANSI/ASME B18.3-1998
100
AcDbAttributeDefinition
  3

  2
NN
 70
     8
280
     0
  0
ATTDEF
  5
11F
330
11A
100
AcDbEntity
  8
AM_6
100
AcDbText
 10
5.125
 20
-2.610333333333333
 30
0.0
 40
0.5
  1
Socket Button Head Cap Screws
100
AcDbAttributeDefinition
  3

  2
NT
 70
     8
280
     0
  0
ATTDEF
  5
120
330
11A
100
AcDbEntity
  8
AM_6
100
AcDbText
 10
5.125
 20
-3.110333333333333
 30
0.0
 40
0.5
  1
ASME B18.3-1/4
100
AcDbAttributeDefinition
  3

  2
NB
 70
     8
280
     0
  0
ATTDEF
  5
121
330
11A
100
AcDbEntity
  8
AM_6
100
AcDbText
 10
5.125
 20
-3.610333333333333
 30
0.0
 40
0.5
  1
ASME B18.3-$NS.
100
AcDbAttributeDefinition
  3

  2
NBSYN
 70
     8
280
     0
  0
ATTDEF
  5
122
330
11A
100
AcDbEntity
  8
AM_6
100
AcDbText
 10
5.125
 20
-4.110333333333333
 30
0.0
 40
0.5
  1
ASME B18.3-1/4
100
AcDbAttributeDefinition
  3

  2
LINA
 70
     8
280
     0
  0
ATTDEF
  5
123
330
11A
100
AcDbEntity
  8
AM_6
100
AcDbText
 10
5.125
 20
-4.610333333333333
 30
0.0
 40
0.5
  1
1/4
100
AcDbAttributeDefinition
  3

  2
NS
 70
     8
280
     0
  0
ATTDEF
  5
124
330
11A
100
AcDbEntity
  8
AM_6
100
AcDbText
 10
5.125
 20
-5.110333333333333
 30
0.0
 40
0.5
  1
0.437
100
AcDbAttributeDefinition
  3

  2
A
 70
     8
280
     0
  0
ATTDEF
  5
125
330
11A
100
AcDbEntity
  8
AM_6
100
AcDbText
 10
5.125
 20
-5.610333333333333
 30
0.0
 40
0.5
  1
0.132
100
AcDbAttributeDefinition
  3

  2
H
 70
     8
280
     0
  0
ATTDEF
  5
126
330
11A
100
AcDbEntity
  8
AM_6
100
AcDbText
 10
5.125
 20
-6.110333333333333
 30
0.0
 40
0.5
  1
0.800
100
AcDbAttributeDefinition
  3

  2
L
 70
     8
280
     0
  0
ATTDEF
  5
127
330
11A
100
AcDbEntity
  8
AM_6
100
AcDbText
 10
5.125
 20
-6.610333333333333
 30
0.0
 40
0.5
  1
0.031
100
AcDbAttributeDefinition
  3

  2
S
 70
     8
280
     0
  0
ATTDEF
  5
128
330
11A
100
AcDbEntity
  8
AM_6
100
AcDbText
 10
5.125
 20
-7.110333333333333
 30
0.0
 40
0.5
  1
0.156250
100
AcDbAttributeDefinition
  3

  2
J
 70
     8
280
     0
  0
ATTDEF
  5
129
330
11A
100
AcDbEntity
  8
AM_6
100
AcDbText
 10
5.125
 20
-7.610333333333333
 30
0.0
 40
0.5
  1
baldor
100
AcDbAttributeDefinition
  3

  2
COMPANY
 70
     8
280
     0
  0
LINE
  5
12B
330
11A
100
AcDbEntity
  8
AM_5
100
AcDbLine
 10
0.125
 20
-2.110333333333333
 30
0.0
 11
-0.125
 21
-2.110333333333333
 31
0.0
  0
LINE
  5
12C
330
11A
100
AcDbEntity
  8
AM_5
100
AcDbLine
 10
0.1064
 20
-2.110333333333333
 30
0.0
 11
0.1250000000000001
 21
-2.142549478354114
 31
0.0
  0
ENDBLK
  5
11D
330
11A
100
AcDbEntity
  8
0
100
AcDbBlockEnd
  0
BLOCK
  5
12F
330
12D
100
AcDbEntity
  8
0
100
AcDbBlockBegin
  2
4_ASME_B18_3_1_4_2_0_in_069389_4
 70
     2
 10
0.0
 20
0.0
 30
0.0
  3
4_ASME_B18_3_1_4_2_0_in_069389_4
  1

  0
ATTDEF
  5
131
330
12D
100
AcDbEntity
  8
AM_6
100
AcDbText
 10
5.2185
 20
-1.390333333333333
 30
0.0
 40
0.5
  1
ANSI/ASME B18.3-1998
100
AcDbAttributeDefinition
  3

  2
NN
 70
     8
280
     0
  0
ATTDEF
  5
132
330
12D
100
AcDbEntity
  8
AM_6
100
AcDbText
 10
5.2185
 20
-1.890333333333333
 30
0.0
 40
0.5
  1
Socket Button Head Cap Screws
100
AcDbAttributeDefinition
  3

  2
NT
 70
     8
280
     0
  0
ATTDEF
  5
133
330
12D
100
AcDbEntity
  8
AM_6
100
AcDbText
 10
5.2185
 20
-2.390333333333333
 30
0.0
 40
0.5
  1
ASME B18.3-1/4
100
AcDbAttributeDefinition
  3

  2
NB
 70
     8
280
     0
  0
ATTDEF
  5
134
330
12D
100
AcDbEntity
  8
AM_6
100
AcDbText
 10
5.2185
 20
-2.890333333333333
 30
0.0
 40
0.5
  1
ASME B18.3-$NS.
100
AcDbAttributeDefinition
  3

  2
NBSYN
 70
     8
280
     0
  0
ATTDEF
  5
135
330
12D
100
AcDbEntity
  8
AM_6
100
AcDbText
 10
5.2185
 20
-3.390333333333333
 30
0.0
 40
0.5
  1
ASME B18.3-1/4
100
AcDbAttributeDefinition
  3

  2
LINA
 70
     8
280
     0
  0
ATTDEF
  5
136
330
12D
100
AcDbEntity
  8
AM_6
100
AcDbText
 10
5.2185
 20
-3.890333333333333
 30
0.0
 40
0.5
  1
1/4
100
AcDbAttributeDefinition
  3

  2
NS
 70
     8
280
     0
  0
ATTDEF
  5
137
330
12D
100
AcDbEntity
  8
AM_6
100
AcDbText
 10
5.2185
 20
-4.390333333333333
 30
0.0
 40
0.5
  1
0.437
100
AcDbAttributeDefinition
  3

  2
A
 70
     8
280
     0
  0
ATTDEF
  5
138
330
12D
100
AcDbEntity
  8
AM_6
100
AcDbText
 10
5.2185
 20
-4.890333333333333
 30
0.0
 40
0.5
  1
0.132
100
AcDbAttributeDefinition
  3

  2
H
 70
     8
280
     0
  0
ATTDEF
  5
139
330
12D
100
AcDbEntity
  8
AM_6
100
AcDbText
 10
5.2185
 20
-5.390333333333333
 30
0.0
 40
0.5
  1
0.800
100
AcDbAttributeDefinition
  3

  2
L
 70
     8
280
     0
  0
ATTDEF
  5
13A
330
12D
100
AcDbEntity
  8
AM_6
100
AcDbText
 10
5.2185
 20
-5.890333333333333
 30
0.0
 40
0.5
  1
0.031
100
AcDbAttributeDefinition
  3

  2
S
 70
     8
280
     0
  0
ATTDEF
  5
13B
330
12D
100
AcDbEntity
  8
AM_6
100
AcDbText
 10
5.2185
 20
-6.390333333333333
 30
0.0
 40
0.5
  1
0.156250
100
AcDbAttributeDefinition
  3

  2
J
 70
     8
280
     0
  0
ATTDEF
  5
13C
330
12D
100
AcDbEntity
  8
AM_6
100
AcDbText
 10
5.2185
 20
-6.890333333333333
 30
0.0
 40
0.5
  1
baldor
100
AcDbAttributeDefinition
  3

  2
COMPANY
 70
     8
280
     0
  0
LINE
  5
13D
330
12D
100
AcDbEntity
  8
AM_9
100
AcDbLine
 10
-0.078125
 20
-2.252333333333333
 30
0.0
 11
-0.078125
 21
-2.322333333333333
 31
0.0
  0
LINE
  5
13E
330
12D
100
AcDbEntity
  8
AM_9
100
AcDbLine
 10
0.078125
 20
-2.252333333333333
 30
0.0
 11
0.078125
 21
-2.322333333333333
 31
0.0
  0
LINE
  5
13F
330
12D
100
AcDbEntity
  8
AM_9
100
AcDbLine
 10
0.0
 20
-2.252333333333333
 30
0.0
 11
0.0
 21
-2.322333333333333
 31
0.0
  0
LINE
  5
140
330
12D
100
AcDbEntity
  8
AM_9
100
AcDbLine
 10
-0.078125
 20
-2.252333333333333
 30
0.0
 11
0.078125
 21
-2.252333333333333
 31
0.0
  0
LINE
  5
141
330
12D
100
AcDbEntity
  8
AM_9
100
AcDbLine
 10
-0.1064
 20
-1.390333333333333
 30
0.0
 11
-0.125
 21
-1.408933333333333
 31
0.0
  0
LINE
  5
142
330
12D
100
AcDbEntity
  8
AM_9
100
AcDbLine
 10
0.125
 20
-1.408933333333333
 30
0.0
 11
0.1064
 21
-1.390333333333333
 31
0.0
  0
LINE
  5
143
330
12D
100
AcDbEntity
  8
AM_9
100
AcDbLine
 10
-0.1064
 20
-1.390333333333333
 30
0.0
 11
0.1064
 21
-1.390333333333333
 31
0.0
  0
LINE
  5
144
330
12D
100
AcDbEntity
  8
AM_9
100
AcDbLine
 10
0.125
 20
-2.190333333333333
 30
0.0
 11
0.125
 21
-1.408933333333333
 31
0.0
  0
LINE
  5
145
330
12D
100
AcDbEntity
  8
AM_9
100
AcDbLine
 10
-0.125
 20
-1.408933333333333
 30
0.0
 11
-0.125
 21
-2.190333333333333
 31
0.0
  0
LINE
  5
146
330
12D
100
AcDbEntity
  8
AM_9
100
AcDbLine
 10
-0.125
 20
-1.408933333333333
 30
0.0
 11
0.125
 21
-1.408933333333333
 31
0.0
  0
LINE
  5
147
330
12D
100
AcDbEntity
  8
AM_5
100
AcDbLine
 10
-0.1250000001400762
 20
-2.110333333333333
 30
0.0
 11
0.125000000140076
 21
-2.110333333333333
 31
0.0
  0
LINE
  5
148
330
12D
100
AcDbEntity
  8
AM_5
100
AcDbLine
 10
-0.1064
 20
-2.110333333333333
 30
0.0
 11
-0.1250000114954799
 21
-2.14254949826487
 31
0.0
  0
LINE
  5
149
330
12D
100
AcDbEntity
  8
AM_4
100
AcDbLine
 10
0.2185
 20
-2.221333333333333
 30
0.0
 11
0.2185
 21
-2.190333333333333
 31
0.0
  0
LINE
  5
14A
330
12D
100
AcDbEntity
  8
AM_4
100
AcDbLine
 10
-0.2185
 20
-2.190333333333333
 30
0.0
 11
-0.2185
 21
-2.221333333333333
 31
0.0
  0
LINE
  5
14B
330
12D
100
AcDbEntity
  8
AM_4
100
AcDbLine
 10
-0.1174999940112442
 20
-2.322333333333333
 30
0.0
 11
0.1175
 21
-2.322333333333333
 31
0.0
  0
ARC
  5
14C
330
12D
100
AcDbEntity
  8
AM_4
100
AcDbCircle
 10
0.1174999999999995
 20
-2.221333333333333
 30
0.0
 40
0.1010000000000004
100
AcDbArc
 50
270.0
 51
0.0
  0
ARC
  5
14D
330
12D
100
AcDbEntity
  8
AM_4
100
AcDbCircle
 10
-0.1174999999999995
 20
-2.221333333333333
 30
0.0
 40
0.1010000000000006
100
AcDbArc
 50
180.0
 51
270.0
  0
LINE
  5
14E
330
12D
100
AcDbEntity
  8
AM_4
100
AcDbLine
 10
-0.2185
 20
-2.221333333333333
 30
0.0
 11
0.2185
 21
-2.221333333333333
 31
0.0
  0
ENDBLK
  5
130
330
12D
100
AcDbEntity
  8
0
100
AcDbBlockEnd
  0
BLOCK
  5
151
330
14F
100
AcDbEntity
  8
0
100
AcDbBlockBegin
  2
5_070901LW_0_in_069389_4
 70
     2
 10
0.0
 20
0.0
 30
0.0
  3
5_070901LW_0_in_069389_4
  1

  0
ATTDEF
  5
153
330
14F
100
AcDbEntity
  8
AM_6
100
AcDbText
 10
7.5
 20
-1.750333333333333
 30
0.0
 40
0.5
  1
Imperial Insert Lockwasher -Inch
100
AcDbAttributeDefinition
  3

  2
NN
 70
     8
280
     0
  0
ATTDEF
  5
154
330
14F
100
AcDbEntity
  8
AM_6
100
AcDbText
 10
7.5
 20
-2.250333333333333
 30
0.0
 40
0.5
  1
Imperial Bearings
100
AcDbAttributeDefinition
  3

  2
NT
 70
     8
280
     0
  0
ATTDEF
  5
155
330
14F
100
AcDbEntity
  8
AM_6
100
AcDbText
 10
7.5
 20
-2.750333333333333
 30
0.0
 40
0.5
  1
070901LW
100
AcDbAttributeDefinition
  3

  2
NB
 70
     8
280
     0
  0
ATTDEF
  5
156
330
14F
100
AcDbEntity
  8
AM_6
100
AcDbText
 10
7.5
 20
-3.250333333333333
 30
0.0
 40
0.5
  1
$PN.LW
100
AcDbAttributeDefinition
  3

  2
NBSYN
 70
     8
280
     0
  0
ATTDEF
  5
157
330
14F
100
AcDbEntity
  8
AM_6
100
AcDbText
 10
7.5
 20
-3.750333333333333
 30
0.0
 40
0.5
  1
070901
100
AcDbAttributeDefinition
  3

  2
LINA
 70
     8
280
     0
  0
ATTDEF
  5
158
330
14F
100
AcDbEntity
  8
AM_6
100
AcDbText
 10
7.5
 20
-4.250333333333333
 30
0.0
 40
0.5
  1
3-3/16
100
AcDbAttributeDefinition
  3

  2
SS
 70
     8
280
     0
  0
ATTDEF
  5
159
330
14F
100
AcDbEntity
  8
AM_6
100
AcDbText
 10
7.5
 20
-4.750333333333333
 30
0.0
 40
0.5
  1
3.187500
100
AcDbAttributeDefinition
  3

  2
SS1
 70
     8
280
     0
  0
ATTDEF
  5
15A
330
14F
100
AcDbEntity
  8
AM_6
100
AcDbText
 10
7.5
 20
-5.250333333333333
 30
0.0
 40
0.5
  1
070901
100
AcDbAttributeDefinition
  3

  2
PN
 70
     8
280
     0
  0
ATTDEF
  5
15B
330
14F
100
AcDbEntity
  8
AM_6
100
AcDbText
 10
7.5
 20
-5.750333333333333
 30
0.0
 40
0.5
  1
INS-IP-303R
100
AcDbAttributeDefinition
  3

  2
DESCRIPTION
 70
     8
280
     0
  0
ATTDEF
  5
15C
330
14F
100
AcDbEntity
  8
AM_6
100
AcDbText
 10
7.5
 20
-6.250333333333333
 30
0.0
 40
0.5
  1
6.2992
100
AcDbAttributeDefinition
  3

  2
A
 70
     8
280
     0
  0
ATTDEF
  5
15D
330
14F
100
AcDbEntity
  8
AM_6
100
AcDbText
 10
7.5
 20
-6.750333333333333
 30
0.0
 40
0.5
  1
1-5/8
100
AcDbAttributeDefinition
  3

  2
B
 70
     8
280
     0
  0
ATTDEF
  5
15E
330
14F
100
AcDbEntity
  8
AM_6
100
AcDbText
 10
7.5
 20
-7.250333333333333
 30
0.0
 40
0.5
  1
4-11/64
100
AcDbAttributeDefinition
  3

  2
C
 70
     8
280
     0
  0
ATTDEF
  5
15F
330
14F
100
AcDbEntity
  8
AM_6
100
AcDbText
 10
7.5
 20
-7.750333333333333
 30
0.0
 40
0.5
  1
1.483
100
AcDbAttributeDefinition
  3

  2
D
 70
     8
280
     0
  0
ATTDEF
  5
160
330
14F
100
AcDbEntity
  8
AM_6
100
AcDbText
 10
7.5
 20
-8.250333333333334
 30
0.0
 40
0.5
  1
5
100
AcDbAttributeDefinition
  3

  2
E
 70
     8
280
     0
  0
ATTDEF
  5
161
330
14F
100
AcDbEntity
  8
AM_6
100
AcDbText
 10
7.5
 20
-8.750333333333334
 30
0.0
 40
0.5
  1
0.2500
100
AcDbAttributeDefinition
  3

  2
NDM
 70
     8
280
     0
  0
ATTDEF
  5
162
330
14F
100
AcDbEntity
  8
AM_6
100
AcDbText
 10
7.5
 20
-9.250333333333334
 30
0.0
 40
0.5
  1
0.1960
100
AcDbAttributeDefinition
  3

  2
KDM
 70
     8
280
     0
  0
ATTDEF
  5
163
330
14F
100
AcDbEntity
  8
AM_6
100
AcDbText
 10
7.5
 20
-9.750333333333334
 30
0.0
 40
0.5
  1
4.28
100
AcDbAttributeDefinition
  3

  2
AL
 70
     8
280
     0
  0
ATTDEF
  5
164
330
14F
100
AcDbEntity
  8
AM_6
100
AcDbText
 10
7.5
 20
-10.25033333333333
 30
0.0
 40
0.5
  1
0.50
100
AcDbAttributeDefinition
  3

  2
BL
 70
     8
280
     0
  0
ATTDEF
  5
165
330
14F
100
AcDbEntity
  8
AM_6
100
AcDbText
 10
7.5
 20
-10.75033333333333
 30
0.0
 40
0.5
  1
0.07
100
AcDbAttributeDefinition
  3

  2
CL
 70
     8
280
     0
  0
ATTDEF
  5
166
330
14F
100
AcDbEntity
  8
AM_6
100
AcDbText
 10
7.5
 20
-11.25033333333333
 30
0.0
 40
0.5
  1
0.44
100
AcDbAttributeDefinition
  3

  2
DL
 70
     8
280
     0
  0
ATTDEF
  5
167
330
14F
100
AcDbEntity
  8
AM_6
100
AcDbText
 10
7.5
 20
-11.75033333333333
 30
0.0
 40
0.5
  1
baldor
100
AcDbAttributeDefinition
  3

  2
COMPANY
 70
     8
280
     0
  0
LINE
  5
168
330
14F
100
AcDbEntity
  8
AM_9
100
AcDbLine
 10
-2.135416666666667
 20
-2.120333333333333
 30
0.0
 11
-2.135416666666667
 21
-2.190333333333333
 31
0.0
  0
LINE
  5
169
330
14F
100
AcDbEntity
  8
AM_9
100
AcDbLine
 10
-2.260470286650459
 20
-2.120333333333333
 30
0.0
 11
-2.260470286650459
 21
-2.190333333333333
 31
0.0
  0
LINE
  5
16A
330
14F
100
AcDbEntity
  8
AM_9
100
AcDbLine
 10
2.135416666666667
 20
-2.120333333333333
 30
0.0
 11
2.135416666666667
 21
-2.190333333333333
 31
0.0
  0
LINE
  5
16B
330
14F
100
AcDbEntity
  8
AM_9
100
AcDbLine
 10
2.260470286650459
 20
-2.190333333333333
 30
0.0
 11
2.260470286650459
 21
-2.120333333333333
 31
0.0
  0
LINE
  5
16C
330
14F
100
AcDbEntity
  8
AM_9
100
AcDbLine
 10
-1.718432677062248
 20
-2.120333333333333
 30
0.0
 11
-1.718432677062248
 21
-2.190333333333333
 31
0.0
  0
LINE
  5
16D
330
14F
100
AcDbEntity
  8
AM_9
100
AcDbLine
 10
1.718432677062248
 20
-2.120333333333333
 30
0.0
 11
1.718432677062248
 21
-2.190333333333333
 31
0.0
  0
LINE
  5
16E
330
14F
100
AcDbEntity
  8
AM_9
100
AcDbLine
 10
-1.303503746611587
 20
-2.120333333333333
 30
0.0
 11
-1.303503746611587
 21
-2.190333333333333
 31
0.0
  0
LINE
  5
16F
330
14F
100
AcDbEntity
  8
AM_9
100
AcDbLine
 10
1.303503746611586
 20
-2.120333333333333
 30
0.0
 11
1.303503746611586
 21
-2.190333333333333
 31
0.0
  0
LINE
  5
170
330
14F
100
AcDbEntity
  8
AM_9
100
AcDbLine
 10
-0.7731006567104224
 20
-2.120333333333333
 30
0.0
 11
-0.7731006567104224
 21
-2.190333333333333
 31
0.0
  0
LINE
  5
171
330
14F
100
AcDbEntity
  8
AM_9
100
AcDbLine
 10
-0.7235078689209182
 20
-1.750333333333333
 30
0.0
 11
-0.7235078689209182
 21
-2.190333333333333
 31
0.0
  0
LINE
  5
172
330
14F
100
AcDbEntity
  8
AM_9
100
AcDbLine
 10
1.126727051314949
 20
-2.120333333333333
 30
0.0
 11
1.126727051314947
 21
-2.190333333333333
 31
0.0
  0
LINE
  5
173
330
14F
100
AcDbEntity
  8
AM_9
100
AcDbLine
 10
-1.126727051314949
 20
-2.120333333333333
 30
0.0
 11
-1.126727051314949
 21
-2.190333333333333
 31
0.0
  0
LINE
  5
174
330
14F
100
AcDbEntity
  8
AM_9
100
AcDbLine
 10
-0.5421307735826004
 20
-2.120333333333333
 30
0.0
 11
-0.5421307735826004
 21
-2.190333333333333
 31
0.0
  0
LINE
  5
175
330
14F
100
AcDbEntity
  8
AM_9
100
AcDbLine
 10
-0.4925379857930969
 20
-1.750333333333333
 30
0.0
 11
-0.7557021678985564
 21
-1.750333333333333
 31
0.0
  0
LINE
  5
176
330
14F
100
AcDbEntity
  8
AM_9
100
AcDbLine
 10
-0.4925379857930969
 20
-1.750333333333333
 30
0.0
 11
-0.4925379857930969
 21
-2.190333333333333
 31
0.0
  0
LINE
  5
177
330
14F
100
AcDbEntity
  8
AM_9
100
AcDbLine
 10
-0.5247322847707347
 20
-2.120333333333333
 30
0.0
 11
-0.5247322847707345
 21
-1.750333333333333
 31
0.0
  0
LINE
  5
178
330
14F
100
AcDbEntity
  8
AM_9
100
AcDbLine
 10
-0.7557021678985564
 20
-1.750333333333333
 30
0.0
 11
-0.7557021678985565
 21
-2.120333333333333
 31
0.0
  0
LINE
  5
179
330
14F
100
AcDbEntity
  8
AM_9
100
AcDbLine
 10
-1.598355953307092
 20
-2.120333333333333
 30
0.0
 11
-1.598355953307092
 21
-2.190333333333333
 31
0.0
  0
LINE
  5
17A
330
14F
100
AcDbEntity
  8
AM_9
100
AcDbLine
 10
-1.421579258010486
 20
-2.120333333333333
 30
0.0
 11
-1.421579258010486
 21
-2.190333333333333
 31
0.0
  0
LINE
  5
17B
330
14F
100
AcDbEntity
  8
AM_9
100
AcDbLine
 10
-1.635005524079868
 20
-2.120333333333333
 30
0.0
 11
-1.635005524079868
 21
-2.190333333333333
 31
0.0
  0
LINE
  5
17C
330
14F
100
AcDbEntity
  8
AM_9
100
AcDbLine
 10
1.421579258010454
 20
-2.120333333333333
 30
0.0
 11
1.421579258010454
 21
-2.190333333333333
 31
0.0
  0
LINE
  5
17D
330
14F
100
AcDbEntity
  8
AM_9
100
AcDbLine
 10
1.598355953307092
 20
-2.120333333333333
 30
0.0
 11
1.598355953307092
 21
-2.190333333333333
 31
0.0
  0
LINE
  5
17E
330
14F
100
AcDbEntity
  8
AM_9
100
AcDbLine
 10
1.635005524079868
 20
-2.190333333333333
 30
0.0
 11
1.635005524079868
 21
-2.120333333333333
 31
0.0
  0
LINE
  5
17F
330
14F
100
AcDbEntity
  8
AM_9
100
AcDbLine
 10
-0.1250000000000003
 20
-2.120333333333333
 30
0.0
 11
-0.1250000000000003
 21
-2.190333333333333
 31
0.0
  0
LINE
  5
180
330
14F
100
AcDbEntity
  8
AM_9
100
AcDbLine
 10
0.1249999999999998
 20
-2.120333333333333
 30
0.0
 11
0.1249999999999998
 21
-2.190333333333333
 31
0.0
  0
LINE
  5
181
330
14F
100
AcDbEntity
  8
AM_4
100
AcDbLine
 10
-2.5
 20
-2.120333333333333
 30
0.0
 11
-2.5
 21
-2.190333333333333
 31
0.0
  0
LINE
  5
182
330
14F
100
AcDbEntity
  8
AM_4
100
AcDbLine
 10
2.5
 20
-2.190333333333333
 30
0.0
 11
2.5
 21
-2.120333333333333
 31
0.0
  0
LINE
  5
183
330
14F
100
AcDbEntity
  8
AM_4
100
AcDbLine
 10
-2.5
 20
-2.190333333333333
 30
0.0
 11
2.5
 21
-2.190333333333333
 31
0.0
  0
LINE
  5
184
330
14F
100
AcDbEntity
  8
AM_4
100
AcDbLine
 10
-2.5
 20
-2.120333333333333
 30
0.0
 11
2.5
 21
-2.120333333333333
 31
0.0
  0
ENDBLK
  5
152
330
14F
100
AcDbEntity
  8
0
100
AcDbBlockEnd
  0
BLOCK
  5
187
330
185
100
AcDbEntity
  8
0
100
AcDbBlockBegin
  2
6_070901I_0_in_069389_4
 70
     2
 10
0.0
 20
0.0
 30
0.0
  3
6_070901I_0_in_069389_4
  1

  0
ATTDEF
  5
189
330
185
100
AcDbEntity
  8
AM_6
100
AcDbText
 10
8.1496
 20
1.96921875
 30
0.0
 40
0.5
  1
Imperial Insert -Inch
100
AcDbAttributeDefinition
  3

  2
NN
 70
     8
280
     0
  0
ATTDEF
  5
18A
330
185
100
AcDbEntity
  8
AM_6
100
AcDbText
 10
8.1496
 20
1.46921875
 30
0.0
 40
0.5
  1
Imperial Bearings
100
AcDbAttributeDefinition
  3

  2
NT
 70
     8
280
     0
  0
ATTDEF
  5
18B
330
185
100
AcDbEntity
  8
AM_6
100
AcDbText
 10
8.1496
 20
0.96921875
 30
0.0
 40
0.5
  1
070901I
100
AcDbAttributeDefinition
  3

  2
NB
 70
     8
280
     0
  0
ATTDEF
  5
18C
330
185
100
AcDbEntity
  8
AM_6
100
AcDbText
 10
8.1496
 20
0.46921875
 30
0.0
 40
0.5
  1
$PN.I
100
AcDbAttributeDefinition
  3

  2
NBSYN
 70
     8
280
     0
  0
ATTDEF
  5
18D
330
185
100
AcDbEntity
  8
AM_6
100
AcDbText
 10
8.1496
 20
-0.03078125
 30
0.0
 40
0.5
  1
070901
100
AcDbAttributeDefinition
  3

  2
LINA
 70
     8
280
     0
  0
ATTDEF
  5
18E
330
185
100
AcDbEntity
  8
AM_6
100
AcDbText
 10
8.1496
 20
-0.53078125
 30
0.0
 40
0.5
  1
3-3/16
100
AcDbAttributeDefinition
  3

  2
SS
 70
     8
280
     0
  0
ATTDEF
  5
18F
330
185
100
AcDbEntity
  8
AM_6
100
AcDbText
 10
8.1496
 20
-1.03078125
 30
0.0
 40
0.5
  1
3.187500
100
AcDbAttributeDefinition
  3

  2
SS1
 70
     8
280
     0
  0
ATTDEF
  5
190
330
185
100
AcDbEntity
  8
AM_6
100
AcDbText
 10
8.1496
 20
-1.53078125
 30
0.0
 40
0.5
  1
070901
100
AcDbAttributeDefinition
  3

  2
PN
 70
     8
280
     0
  0
ATTDEF
  5
191
330
185
100
AcDbEntity
  8
AM_6
100
AcDbText
 10
8.1496
 20
-2.03078125
 30
0.0
 40
0.5
  1
INS-IP-303R
100
AcDbAttributeDefinition
  3

  2
DESCRIPTION
 70
     8
280
     0
  0
ATTDEF
  5
192
330
185
100
AcDbEntity
  8
AM_6
100
AcDbText
 10
8.1496
 20
-2.53078125
 30
0.0
 40
0.5
  1
Contact Seal
100
AcDbAttributeDefinition
  3

  2
ST
 70
     8
280
     0
  0
ATTDEF
  5
193
330
185
100
AcDbEntity
  8
AM_6
100
AcDbText
 10
8.1496
 20
-3.03078125
 30
0.0
 40
0.5
  1
6.2992
100
AcDbAttributeDefinition
  3

  2
A
 70
     8
280
     0
  0
ATTDEF
  5
194
330
185
100
AcDbEntity
  8
AM_6
100
AcDbText
 10
8.1496
 20
-3.53078125
 30
0.0
 40
0.5
  1
1-5/8
100
AcDbAttributeDefinition
  3

  2
B
 70
     8
280
     0
  0
ATTDEF
  5
195
330
185
100
AcDbEntity
  8
AM_6
100
AcDbText
 10
8.1496
 20
-4.03078125
 30
0.0
 40
0.5
  1
4-11/64
100
AcDbAttributeDefinition
  3

  2
C
 70
     8
280
     0
  0
ATTDEF
  5
196
330
185
100
AcDbEntity
  8
AM_6
100
AcDbText
 10
8.1496
 20
-4.53078125
 30
0.0
 40
0.5
  1
1.483
100
AcDbAttributeDefinition
  3

  2
D
 70
     8
280
     0
  0
ATTDEF
  5
197
330
185
100
AcDbEntity
  8
AM_6
100
AcDbText
 10
8.1496
 20
-5.03078125
 30
0.0
 40
0.5
  1
5
100
AcDbAttributeDefinition
  3

  2
E
 70
     8
280
     0
  0
ATTDEF
  5
198
330
185
100
AcDbEntity
  8
AM_6
100
AcDbText
 10
8.1496
 20
-5.53078125
 30
0.0
 40
0.5
  1
0.2500
100
AcDbAttributeDefinition
  3

  2
NDM
 70
     8
280
     0
  0
ATTDEF
  5
199
330
185
100
AcDbEntity
  8
AM_6
100
AcDbText
 10
8.1496
 20
-6.03078125
 30
0.0
 40
0.5
  1
0.132
100
AcDbAttributeDefinition
  3

  2
H
 70
     8
280
     0
  0
ATTDEF
  5
19A
330
185
100
AcDbEntity
  8
AM_6
100
AcDbText
 10
8.1496
 20
-6.53078125
 30
0.0
 40
0.5
  1
0.1960
100
AcDbAttributeDefinition
  3

  2
KDM
 70
     8
280
     0
  0
ATTDEF
  5
19B
330
185
100
AcDbEntity
  8
AM_6
100
AcDbText
 10
8.1496
 20
-7.03078125
 30
0.0
 40
0.5
  1
4.28
100
AcDbAttributeDefinition
  3

  2
AL
 70
     8
280
     0
  0
ATTDEF
  5
19C
330
185
100
AcDbEntity
  8
AM_6
100
AcDbText
 10
8.1496
 20
-7.53078125
 30
0.0
 40
0.5
  1
0.50
100
AcDbAttributeDefinition
  3

  2
BL
 70
     8
280
     0
  0
ATTDEF
  5
19D
330
185
100
AcDbEntity
  8
AM_6
100
AcDbText
 10
8.1496
 20
-8.03078125
 30
0.0
 40
0.5
  1
0.07
100
AcDbAttributeDefinition
  3

  2
CL
 70
     8
280
     0
  0
ATTDEF
  5
19E
330
185
100
AcDbEntity
  8
AM_6
100
AcDbText
 10
8.1496
 20
-8.53078125
 30
0.0
 40
0.5
  1
0.44
100
AcDbAttributeDefinition
  3

  2
DL
 70
     8
280
     0
  0
ATTDEF
  5
19F
330
185
100
AcDbEntity
  8
AM_6
100
AcDbText
 10
8.1496
 20
-9.03078125
 30
0.0
 40
0.5
  1
0.8000
100
AcDbAttributeDefinition
  3

  2
LL
 70
     8
280
     0
  0
ATTDEF
  5
1A0
330
185
100
AcDbEntity
  8
AM_6
100
AcDbText
 10
8.1496
 20
-9.53078125
 30
0.0
 40
0.5
  1
0.025
100
AcDbAttributeDefinition
  3

  2
Y
 70
     8
280
     0
  0
ATTDEF
  5
1A1
330
185
100
AcDbEntity
  8
AM_6
100
AcDbText
 10
8.1496
 20
-10.03078125
 30
0.0
 40
0.5
  1
0.025000
100
AcDbAttributeDefinition
  3

  2
Y1
 70
     8
280
     0
  0
ATTDEF
  5
1A2
330
185
100
AcDbEntity
  8
AM_6
100
AcDbText
 10
8.1496
 20
-10.53078125
 30
0.0
 40
0.5
  1
4-3/64
100
AcDbAttributeDefinition
  3

  2
Z
 70
     8
280
     0
  0
ATTDEF
  5
1A3
330
185
100
AcDbEntity
  8
AM_6
100
AcDbText
 10
8.1496
 20
-11.03078125
 30
0.0
 40
0.5
  1
4.046875
100
AcDbAttributeDefinition
  3

  2
Z1
 70
     8
280
     0
  0
ATTDEF
  5
1A4
330
185
100
AcDbEntity
  8
AM_6
100
AcDbText
 10
8.1496
 20
-11.53078125
 30
0.0
 40
0.5
  1
baldor
100
AcDbAttributeDefinition
  3

  2
COMPANY
 70
     8
280
     0
  0
LINE
  5
1A5
330
185
100
AcDbEntity
  8
AM_9
100
AcDbLine
 10
-0.7574008133890099
 20
1.063875
 30
0.0
 11
-0.7574008133890099
 21
-2.120333333333333
 31
0.0
  0
LINE
  5
1A6
330
185
100
AcDbEntity
  8
AM_9
100
AcDbLine
 10
-0.4925379857930963
 20
1.063875
 30
0.0
 11
-0.4925379857930965
 21
-2.4375
 31
0.0
  0
LINE
  5
1A7
330
185
100
AcDbEntity
  8
AM_9
100
AcDbLine
 10
-0.7235078689209178
 20
-2.190333333333333
 30
0.0
 11
-0.7235078689209177
 21
1.063875
 31
0.0
  0
LINE
  5
1A8
330
185
100
AcDbEntity
  8
AM_9
100
AcDbLine
 10
-1.593749999999999
 20
1.063875
 30
0.0
 11
-1.593749999999999
 21
-2.4375
 31
0.0
  0
LINE
  5
1A9
330
185
100
AcDbEntity
  8
AM_9
100
AcDbLine
 10
1.593749999999999
 20
-2.4375
 30
0.0
 11
1.593749999999999
 21
1.063875
 31
0.0
  0
LINE
  5
1AA
330
185
100
AcDbEntity
  8
AM_9
100
AcDbLine
 10
-0.5264309302611883
 20
1.063875
 30
0.0
 11
-0.5264309302611883
 21
-2.120333333333333
 31
0.0
  0
LINE
  5
1AB
330
185
100
AcDbEntity
  8
AM_9
100
AcDbLine
 10
-1.677631578947369
 20
1.734375
 30
0.0
 11
-1.677631578947369
 21
1.063875
 31
0.0
  0
LINE
  5
1AC
330
185
100
AcDbEntity
  8
AM_9
100
AcDbLine
 10
1.677631578947369
 20
1.063875
 30
0.0
 11
1.677631578947369
 21
1.734375
 31
0.0
  0
LINE
  5
1AD
330
185
100
AcDbEntity
  8
AM_9
100
AcDbLine
 10
-0.5247322847707344
 20
-2.190333333333333
 30
0.0
 11
-0.5247322847707344
 21
-2.120333333333333
 31
0.0
  0
LINE
  5
1AE
330
185
100
AcDbEntity
  8
AM_9
100
AcDbLine
 10
-0.7557021678985563
 20
-2.120333333333333
 30
0.0
 11
-0.7557021678985559
 21
-2.190333333333333
 31
0.0
  0
LINE
  5
1AF
330
185
100
AcDbEntity
  8
AM_9
100
AcDbLine
 10
-1.677631578947369
 20
-2.120333333333333
 30
0.0
 11
-1.677631578947369
 21
-2.190333333333333
 31
0.0
  0
LINE
  5
1B0
330
185
100
AcDbEntity
  8
AM_9
100
AcDbLine
 10
1.677631578947369
 20
-2.190333333333333
 30
0.0
 11
1.677631578947369
 21
-2.120333333333333
 31
0.0
  0
LINE
  5
1B1
330
185
100
AcDbEntity
  8
AM_9
100
AcDbLine
 10
1.336431816442575
 20
-1.680333333333333
 30
0.0
 11
1.336431816442575
 21
-2.120333333333333
 31
0.0
  0
LINE
  5
1B2
330
185
100
AcDbEntity
  8
AM_9
100
AcDbLine
 10
-1.336431816442575
 20
-1.680333333333333
 30
0.0
 11
-1.336431816442575
 21
-2.120333333333333
 31
0.0
  0
LINE
  5
1B3
330
185
100
AcDbEntity
  8
AM_9
100
AcDbLine
 10
1.336431816442575
 20
-1.680333333333333
 30
0.0
 11
1.593048406283363
 21
-1.680333333333333
 31
0.0
  0
LINE
  5
1B4
330
185
100
AcDbEntity
  8
AM_9
100
AcDbLine
 10
-1.593048406283363
 20
-1.680333333333333
 30
0.0
 11
-1.336431816442575
 21
-1.680333333333333
 31
0.0
  0
LINE
  5
1B5
330
185
100
AcDbEntity
  8
AM_9
100
AcDbLine
 10
2.0234375
 20
1.734375
 30
0.0
 11
-2.0234375
 21
1.734375
 31
0.0
  0
LINE
  5
1B6
330
185
100
AcDbEntity
  8
AM_9
100
AcDbLine
 10
-2.0234375
 20
1.759374999999999
 30
0.0
 11
-2.0234375
 21
1.734375
 31
0.0
  0
LINE
  5
1B7
330
185
100
AcDbEntity
  8
AM_9
100
AcDbLine
 10
2.0234375
 20
1.734375
 30
0.0
 11
2.0234375
 21
1.759374999999999
 31
0.0
  0
LINE
  5
1B8
330
185
100
AcDbEntity
  8
AM_9
100
AcDbLine
 10
0.0
 20
-1.280333333333333
 30
0.0
 11
-0.09795
 21
-1.326008168449616
 31
0.0
  0
LINE
  5
1B9
330
185
100
AcDbEntity
  8
AM_9
100
AcDbLine
 10
0.09795
 20
-1.326008168449616
 30
0.0
 11
0.0
 21
-1.280333333333333
 31
0.0
  0
LINE
  5
1BA
330
185
100
AcDbEntity
  8
AM_9
100
AcDbLine
 10
0.09795
 20
-1.326008168449616
 30
0.0
 11
-0.09795
 21
-1.326008168449616
 31
0.0
  0
LINE
  5
1BB
330
185
100
AcDbEntity
  8
AM_9
100
AcDbLine
 10
-0.09795
 20
-1.326008168449616
 30
0.0
 11
-0.09795
 21
-2.093283333333333
 31
0.0
  0
LINE
  5
1BC
330
185
100
AcDbEntity
  8
AM_9
100
AcDbLine
 10
0.09795
 20
-2.093283333333333
 30
0.0
 11
0.09795
 21
-1.326008168449616
 31
0.0
  0
LINE
  5
1BD
330
185
100
AcDbEntity
  8
AM_9
100
AcDbLine
 10
-2.248263888888889
 20
1.53125
 30
0.0
 11
-2.248263888888889
 21
1.388874999999999
 31
0.0
  0
LINE
  5
1BE
330
185
100
AcDbEntity
  8
AM_9
100
AcDbLine
 10
2.248263888888889
 20
1.388874999999999
 30
0.0
 11
2.248263888888889
 21
1.53125
 31
0.0
  0
LINE
  5
1BF
330
185
100
AcDbEntity
  8
AM_9
100
AcDbLine
 10
0.09795
 20
-2.093283333333333
 30
0.0
 11
-0.09795
 21
-2.093283333333333
 31
0.0
  0
LINE
  5
1C0
330
185
100
AcDbEntity
  8
AM_9
100
AcDbLine
 10
-0.09795
 20
-2.093283333333333
 30
0.0
 11
-0.1249999999999999
 21
-2.120333333333333
 31
0.0
  0
LINE
  5
1C1
330
185
100
AcDbEntity
  8
AM_9
100
AcDbLine
 10
0.1249999999999999
 20
-2.120333333333333
 30
0.0
 11
0.09795
 21
-2.093283333333333
 31
0.0
  0
LINE
  5
1C2
330
185
100
AcDbEntity
  8
AM_9
100
AcDbLine
 10
2.520571243294764
 20
-1.53125
 30
0.0
 11
2.554448754797947
 21
-0.561125
 31
0.0
  0
LINE
  5
1C3
330
185
100
AcDbEntity
  8
AM_9
100
AcDbLine
 10
-2.554448754797947
 20
-0.561125
 30
0.0
 11
-2.520571243294764
 21
-1.53125
 31
0.0
  0
LINE
  5
1C4
330
185
100
AcDbEntity
  8
AM_9
100
AcDbLine
 10
2.704226135594408
 20
1.388875
 30
0.0
 11
-2.704226135583362
 21
1.388875
 31
0.0
  0
ARC
  5
1C5
330
185
100
AcDbEntity
  8
AM_9
100
AcDbCircle
 10
-2.704226135594408
 20
1.288874999999998
 30
0.0
 40
0.1000000000000019
100
AcDbArc
 50
90.0
 51
149.9999999999995
  0
ARC
  5
1C6
330
185
100
AcDbEntity
  8
AM_9
100
AcDbCircle
 10
2.704226135594408
 20
1.288874999999998
 30
0.0
 40
0.1000000000000015
100
AcDbArc
 50
30.00000000000055
 51
90.0
  0
LINE
  5
1C7
330
185
100
AcDbEntity
  8
AM_9
100
AcDbLine
 10
2.790828675972853
 20
1.338875
 30
0.0
 11
-2.790828675972853
 21
1.338875
 31
0.0
  0
LINE
  5
1C8
330
185
100
AcDbEntity
  8
AM_9
100
AcDbLine
 10
-2.790828675972853
 20
1.338875
 30
0.0
 11
-2.9496
 21
1.063875
 31
0.0
  0
LINE
  5
1C9
330
185
100
AcDbEntity
  8
AM_9
100
AcDbLine
 10
2.9496
 20
1.063875
 30
0.0
 11
2.790828675972853
 21
1.338875
 31
0.0
  0
LINE
  5
1CA
330
185
100
AcDbEntity
  8
AM_9
100
AcDbLine
 10
-3.06835
 20
0.2982847093716569
 30
0.0
 11
-3.06835
 21
0.204465290628343
 31
0.0
  0
LINE
  5
1CB
330
185
100
AcDbEntity
  8
AM_9
100
AcDbLine
 10
3.06835
 20
0.204465290628343
 30
0.0
 11
3.06835
 21
0.2982847093716569
 31
0.0
  0
LINE
  5
1CC
330
185
100
AcDbEntity
  8
AM_9
100
AcDbLine
 10
-3.1496
 20
1.013875
 30
0.0
 11
-3.1496
 21
0.3451944187433143
 31
0.0
  0
LINE
  5
1CD
330
185
100
AcDbEntity
  8
AM_9
100
AcDbLine
 10
3.1496
 20
0.3451944187433143
 30
0.0
 11
3.1496
 21
1.013875
 31
0.0
  0
LINE
  5
1CE
330
185
100
AcDbEntity
  8
AM_9
100
AcDbLine
 10
3.0996
 20
1.063875
 30
0.0
 11
-3.099599999995829
 21
1.063875
 31
0.0
  0
LINE
  5
1CF
330
185
100
AcDbEntity
  8
AM_9
100
AcDbLine
 10
3.1496
 20
1.013875
 30
0.0
 11
-3.1496
 21
1.013875
 31
0.0
  0
ARC
  5
1D0
330
185
100
AcDbEntity
  8
AM_9
100
AcDbCircle
 10
-3.0996
 20
1.013875000000001
 30
0.0
 40
0.0499999999999992
100
AcDbArc
 50
90.0
 51
180.0
  0
ARC
  5
1D1
330
185
100
AcDbEntity
  8
AM_9
100
AcDbCircle
 10
3.099600000000001
 20
1.013875000000001
 30
0.0
 40
0.0499999999999989
100
AcDbArc
 50
0.0
 51
90.0
  0
LINE
  5
1D2
330
185
100
AcDbEntity
  8
AM_9
100
AcDbLine
 10
3.0996
 20
-0.5611250000000003
 30
0.0
 11
-3.099599999995829
 21
-0.5611250000000003
 31
0.0
  0
ARC
  5
1D3
330
185
100
AcDbEntity
  8
AM_9
100
AcDbCircle
 10
-3.0996
 20
-0.5111250000000007
 30
0.0
 40
0.0499999999999998
100
AcDbArc
 50
180.0
 51
270.0
  0
ARC
  5
1D4
330
185
100
AcDbEntity
  8
AM_9
100
AcDbCircle
 10
3.0996
 20
-0.5111250000000007
 30
0.0
 40
0.0499999999999996
100
AcDbArc
 50
270.0
 51
0.0
  0
LINE
  5
1D5
330
185
100
AcDbEntity
  8
AM_9
100
AcDbLine
 10
3.06835
 20
0.204465290628343
 30
0.0
 11
-3.06835
 21
0.204465290628343
 31
0.0
  0
LINE
  5
1D6
330
185
100
AcDbEntity
  8
AM_9
100
AcDbLine
 10
-3.06835
 20
0.204465290628343
 30
0.0
 11
-3.1496
 21
0.157555581256686
 31
0.0
  0
LINE
  5
1D7
330
185
100
AcDbEntity
  8
AM_9
100
AcDbLine
 10
3.1496
 20
0.157555581256686
 30
0.0
 11
3.06835
 21
0.204465290628343
 31
0.0
  0
LINE
  5
1D8
330
185
100
AcDbEntity
  8
AM_9
100
AcDbLine
 10
3.1496
 20
0.3451944187433143
 30
0.0
 11
-3.1496
 21
0.3451944187433143
 31
0.0
  0
LINE
  5
1D9
330
185
100
AcDbEntity
  8
AM_9
100
AcDbLine
 10
3.06835
 20
0.2982847093716569
 30
0.0
 11
-3.06835
 21
0.2982847093716569
 31
0.0
  0
LINE
  5
1DA
330
185
100
AcDbEntity
  8
AM_9
100
AcDbLine
 10
3.06835
 20
0.2982847093716569
 30
0.0
 11
3.1496
 21
0.3451944187433143
 31
0.0
  0
LINE
  5
1DB
330
185
100
AcDbEntity
  8
AM_9
100
AcDbLine
 10
-3.1496
 20
0.3451944187433143
 30
0.0
 11
-3.06835
 21
0.2982847093716569
 31
0.0
  0
LINE
  5
1DC
330
185
100
AcDbEntity
  8
AM_9
100
AcDbLine
 10
3.1496
 20
0.157555581256686
 30
0.0
 11
-3.1496
 21
0.157555581256686
 31
0.0
  0
LINE
  5
1DD
330
185
100
AcDbEntity
  8
AM_9
100
AcDbLine
 10
3.1496
 20
-0.5111250000000005
 30
0.0
 11
-3.1496
 21
-0.5111250000000005
 31
0.0
  0
LINE
  5
1DE
330
185
100
AcDbEntity
  8
AM_9
100
AcDbLine
 10
-3.1496
 20
0.157555581256686
 30
0.0
 11
-3.1496
 21
-0.5111250000000005
 31
0.0
  0
LINE
  5
1DF
330
185
100
AcDbEntity
  8
AM_9
100
AcDbLine
 10
3.1496
 20
-0.5111250000000005
 30
0.0
 11
3.1496
 21
0.157555581256686
 31
0.0
  0
LINE
  5
1E0
330
185
100
AcDbEntity
  8
AM_5
100
AcDbLine
 10
0.1249999999999999
 20
-1.360333333333333
 30
0.0
 11
0.09795
 21
-1.344716008551754
 31
0.0
  0
LINE
  5
1E1
330
185
100
AcDbEntity
  8
AM_5
100
AcDbLine
 10
0.09795
 20
-1.360333333333346
 30
0.0
 11
0.1249999999999999
 21
-1.360333333333346
 31
0.0
  0
LINE
  5
1E2
330
185
100
AcDbEntity
  8
AM_5
100
AcDbLine
 10
-0.09795
 20
-1.360333333333346
 30
0.0
 11
-0.1249999999999999
 21
-1.360333333333346
 31
0.0
  0
LINE
  5
1E3
330
185
100
AcDbEntity
  8
AM_5
100
AcDbLine
 10
-0.1249999999999999
 20
-1.360333333333346
 30
0.0
 11
-0.09795
 21
-1.344716008551766
 31
0.0
  0
LINE
  5
1E6
330
185
100
AcDbEntity
  8
AM_7
100
AcDbLine
 10
0.0
 20
1.96921875
 30
0.0
 11
0.0
 21
-2.64734375
 31
0.0
  0
ARC
  5
1E7
330
185
100
AcDbEntity
  8
AM_4
100
AcDbCircle
 10
2.451715561259644
 20
-2.070333333333332
 30
0.0
 40
0.0500000000000016
100
AcDbArc
 50
270.0
 51
357.9999999999982
  0
ARC
  5
1E8
330
185
100
AcDbEntity
  8
AM_4
100
AcDbCircle
 10
-2.451715561259644
 20
-2.070333333333332
 30
0.0
 40
0.0500000000000017
100
AcDbArc
 50
182.0000000000018
 51
270.0
  0
LWPOLYLINE
  5
1E9
330
185
100
AcDbEntity
  8
AM_4
100
AcDbPolyline
 90
        6
 70
     0
 43
0.0
 10
1.936880151435482
 20
-2.072078308168459
 10
1.934486066876636
 20
-2.088454277847101
 10
1.928394861241001
 20
-2.102794505113438
 10
1.919278208205407
 20
-2.113517061431032
 10
1.908118701042668
 20
-2.119422213756794
 10
1.90136493504007
 20
-2.120333333333333
  0
LWPOLYLINE
  5
1EA
330
185
100
AcDbEntity
  8
AM_4
100
AcDbPolyline
 90
        6
 70
     0
 43
0.0
 10
-1.901364935040069
 20
-2.120333333333333
 10
-1.906574535217859
 20
-2.119793244766159
 10
-1.917978192677443
 20
-2.114533839127761
 10
-1.927485891094621
 20
-2.104235702644239
 10
-1.934003513616657
 20
-2.090111909572901
 10
-1.936880151435481
 20
-2.072078308168459
  0
LINE
  5
1EB
330
185
100
AcDbEntity
  8
AM_4
100
AcDbLine
 10
-0.7235078689209181
 20
-2.4375
 30
0.0
 11
-0.7235078689209178
 21
-2.190333333333333
 31
0.0
  0
LINE
  5
1EC
330
185
100
AcDbEntity
  8
AM_4
100
AcDbLine
 10
-0.5247322847707345
 20
-2.4375
 30
0.0
 11
-0.5247322847707344
 21
-2.190333333333333
 31
0.0
  0
LINE
  5
1ED
330
185
100
AcDbEntity
  8
AM_4
100
AcDbLine
 10
-0.7557021678985559
 20
-2.190333333333333
 30
0.0
 11
-0.7557021678985558
 21
-2.4375
 31
0.0
  0
LINE
  5
1EE
330
185
100
AcDbEntity
  8
AM_4
100
AcDbLine
 10
-1.677631578947369
 20
-2.190333333333333
 30
0.0
 11
-1.677631578947369
 21
-2.4375
 31
0.0
  0
LINE
  5
1EF
330
185
100
AcDbEntity
  8
AM_4
100
AcDbLine
 10
1.677631578947369
 20
-2.4375
 30
0.0
 11
1.677631578947369
 21
-2.190333333333333
 31
0.0
  0
LINE
  5
1F0
330
185
100
AcDbEntity
  8
AM_4
100
AcDbLine
 10
1.677631578947369
 20
-2.4375
 30
0.0
 11
-1.677631578947369
 21
-2.4375
 31
0.0
  0
LINE
  5
1F1
330
185
100
AcDbEntity
  8
AM_4
100
AcDbLine
 10
1.689985207035849
 20
-1.680333333333333
 30
0.0
 11
1.689985207035849
 21
-2.120333333333333
 31
0.0
  0
LINE
  5
1F2
330
185
100
AcDbEntity
  8
AM_4
100
AcDbLine
 10
-1.689985207035848
 20
-1.680333333333333
 30
0.0
 11
-1.689985207035848
 21
-2.120333333333333
 31
0.0
  0
LINE
  5
1F3
330
185
100
AcDbEntity
  8
AM_4
100
AcDbLine
 10
2.196380876068376
 20
1.759375
 30
0.0
 11
-2.196380876054607
 21
1.759375
 31
0.0
  0
ARC
  5
1F4
330
185
100
AcDbEntity
  8
AM_4
100
AcDbCircle
 10
-2.196380876068375
 20
1.707491987179486
 30
0.0
 40
0.0518830128205139
100
AcDbArc
 50
90.0
 51
180.0
  0
ARC
  5
1F5
330
185
100
AcDbEntity
  8
AM_4
100
AcDbCircle
 10
2.196380876068375
 20
1.707491987179486
 30
0.0
 40
0.0518830128205137
100
AcDbArc
 50
0.0
 51
90.0
  0
LINE
  5
1F6
330
185
100
AcDbEntity
  8
AM_4
100
AcDbLine
 10
2.248263888888889
 20
1.707491987179484
 30
0.0
 11
-2.248263888888889
 21
1.707491987179484
 31
0.0
  0
LINE
  5
1F7
330
185
100
AcDbEntity
  8
AM_4
100
AcDbLine
 10
-2.248263888888889
 20
1.707491987179484
 30
0.0
 11
-2.248263888888889
 21
1.53125
 31
0.0
  0
LINE
  5
1F8
330
185
100
AcDbEntity
  8
AM_4
100
AcDbLine
 10
2.248263888888889
 20
1.53125
 30
0.0
 11
2.248263888888889
 21
1.707491987179484
 31
0.0
  0
LWPOLYLINE
  5
1F9
330
185
100
AcDbEntity
  8
AM_4
100
AcDbPolyline
 90
        6
 70
     0
 43
0.0
 10
1.547811544446796
 20
-2.120333333333333
 10
1.553021144624585
 20
-2.119793244766159
 10
1.56442480208417
 20
-2.114533839127761
 10
1.573932500501348
 20
-2.10423570264424
 10
1.580450123023384
 20
-2.090111909572901
 10
1.583326760842208
 20
-2.072078308168459
  0
LWPOLYLINE
  5
1FA
330
185
100
AcDbEntity
  8
AM_4
100
AcDbPolyline
 90
        6
 70
     0
 43
0.0
 10
-1.583326760842207
 20
-2.072078308168459
 10
-1.580932676283362
 20
-2.088454277847101
 10
-1.574841470647727
 20
-2.102794505113438
 10
-1.565724817612132
 20
-2.113517061431032
 10
-1.554565310449393
 20
-2.119422213756794
 10
-1.547811544446795
 20
-2.120333333333333
  0
LINE
  5
1FB
330
185
100
AcDbEntity
  8
AM_4
100
AcDbLine
 10
-1.936880151435481
 20
-2.072078308168459
 30
0.0
 11
-2.501685102610601
 21
-2.072078308168459
 31
0.0
  0
LINE
  5
1FC
330
185
100
AcDbEntity
  8
AM_4
100
AcDbLine
 10
-1.936880151435481
 20
-2.072078308168459
 30
0.0
 11
-1.946601796876636
 21
-1.680333333333333
 31
0.0
  0
LINE
  5
1FD
330
185
100
AcDbEntity
  8
AM_4
100
AcDbLine
 10
-1.946601796876636
 20
-1.680333333333333
 30
0.0
 11
-1.593048406283363
 21
-1.680333333333333
 31
0.0
  0
LINE
  5
1FE
330
185
100
AcDbEntity
  8
AM_4
100
AcDbLine
 10
-1.593048406283363
 20
-1.680333333333333
 30
0.0
 11
-1.583326760842207
 21
-2.072078308168459
 31
0.0
  0
LINE
  5
1FF
330
185
100
AcDbEntity
  8
AM_4
100
AcDbLine
 10
1.583326760842208
 20
-2.072078308168459
 30
0.0
 11
-1.583326760842207
 21
-2.072078308168459
 31
0.0
  0
LINE
  5
200
330
185
100
AcDbEntity
  8
AM_4
100
AcDbLine
 10
1.583326760842208
 20
-2.072078308168459
 30
0.0
 11
1.593048406283363
 21
-1.680333333333333
 31
0.0
  0
LINE
  5
201
330
185
100
AcDbEntity
  8
AM_4
100
AcDbLine
 10
1.593048406283363
 20
-1.680333333333333
 30
0.0
 11
1.946601796876637
 21
-1.680333333333333
 31
0.0
  0
LINE
  5
202
330
185
100
AcDbEntity
  8
AM_4
100
AcDbLine
 10
1.946601796876637
 20
-1.680333333333333
 30
0.0
 11
1.936880151435482
 21
-2.072078308168459
 31
0.0
  0
LINE
  5
203
330
185
100
AcDbEntity
  8
AM_4
100
AcDbLine
 10
2.501685102610601
 20
-2.072078308168459
 30
0.0
 11
2.520571243294764
 21
-1.53125
 31
0.0
  0
LINE
  5
204
330
185
100
AcDbEntity
  8
AM_4
100
AcDbLine
 10
-2.520571243294764
 20
-1.53125
 30
0.0
 11
-2.501685102610601
 21
-2.072078308168459
 31
0.0
  0
LINE
  5
205
330
185
100
AcDbEntity
  8
AM_4
100
AcDbLine
 10
2.501685102610601
 20
-2.072078308168459
 30
0.0
 11
1.936880151435482
 21
-2.072078308168459
 31
0.0
  0
ENDBLK
  5
188
330
185
100
AcDbEntity
  8
0
100
AcDbBlockEnd
  0
BLOCK
  5
208
330
206
100
AcDbEntity
  8
0
100
AcDbBlockBegin
  2
7_069389H_0_in_069389_4
 70
     2
 10
0.0
 20
0.0
 30
0.0
  3
7_069389H_0_in_069389_4
  1

  0
ATTDEF
  5
20A
330
206
100
AcDbEntity
  8
AM_6
100
AcDbText
 10
11.428125
 20
1.825674165130942
 30
0.0
 40
0.5
  1
WSTU-IP -Housing -Inch
100
AcDbAttributeDefinition
  3

  2
NN
 70
     8
280
     0
  0
ATTDEF
  5
20B
330
206
100
AcDbEntity
  8
AM_6
100
AcDbText
 10
11.428125
 20
1.325674165130942
 30
0.0
 40
0.5
  1
Imperial Wide Slot Take-Up Bearings
100
AcDbAttributeDefinition
  3

  2
NT
 70
     8
280
     0
  0
ATTDEF
  5
20C
330
206
100
AcDbEntity
  8
AM_6
100
AcDbText
 10
11.428125
 20
0.825674165130942
 30
0.0
 40
0.5
  1
069389H
100
AcDbAttributeDefinition
  3

  2
NB
 70
     8
280
     0
  0
ATTDEF
  5
20D
330
206
100
AcDbEntity
  8
AM_6
100
AcDbText
 10
11.428125
 20
0.3256741651309421
 30
0.0
 40
0.5
  1
$PN.H
100
AcDbAttributeDefinition
  3

  2
NBSYN
 70
     8
280
     0
  0
ATTDEF
  5
20E
330
206
100
AcDbEntity
  8
AM_6
100
AcDbText
 10
11.428125
 20
-0.1743258348690579
 30
0.0
 40
0.5
  1
069389
100
AcDbAttributeDefinition
  3

  2
LINA
 70
     8
280
     0
  0
ATTDEF
  5
20F
330
206
100
AcDbEntity
  8
AM_6
100
AcDbText
 10
11.428125
 20
-0.674325834869058
 30
0.0
 40
0.5
  1
3-3/16
100
AcDbAttributeDefinition
  3

  2
SS
 70
     8
280
     0
  0
ATTDEF
  5
210
330
206
100
AcDbEntity
  8
AM_6
100
AcDbText
 10
11.428125
 20
-1.174325834869058
 30
0.0
 40
0.5
  1
069389
100
AcDbAttributeDefinition
  3

  2
PN
 70
     8
280
     0
  0
ATTDEF
  5
211
330
206
100
AcDbEntity
  8
AM_6
100
AcDbText
 10
11.428125
 20
-1.674325834869058
 30
0.0
 40
0.5
  1
WSTU-IP-303RE
100
AcDbAttributeDefinition
  3

  2
DESCRIPTION
 70
     8
280
     0
  0
ATTDEF
  5
212
330
206
100
AcDbEntity
  8
AM_6
100
AcDbText
 10
11.428125
 20
-2.174325834869058
 30
0.0
 40
0.5
  1
Expansion
100
AcDbAttributeDefinition
  3

  2
EF
 70
     8
280
     0
  0
ATTDEF
  5
213
330
206
100
AcDbEntity
  8
AM_6
100
AcDbText
 10
11.428125
 20
-2.674325834869058
 30
0.0
 40
0.5
  1
Contact Seal
100
AcDbAttributeDefinition
  3

  2
ST
 70
     8
280
     0
  0
ATTDEF
  5
214
330
206
100
AcDbEntity
  8
AM_6
100
AcDbText
 10
11.428125
 20
-3.174325834869058
 30
0.0
 40
0.5
  1
4-5/32
100
AcDbAttributeDefinition
  3

  2
A
 70
     8
280
     0
  0
ATTDEF
  5
215
330
206
100
AcDbEntity
  8
AM_6
100
AcDbText
 10
11.428125
 20
-3.674325834869058
 30
0.0
 40
0.5
  1
10-1/16
100
AcDbAttributeDefinition
  3

  2
B
 70
     8
280
     0
  0
ATTDEF
  5
216
330
206
100
AcDbEntity
  8
AM_6
100
AcDbText
 10
11.428125
 20
-4.174325834869058
 30
0.0
 40
0.5
  1
1-13/16
100
AcDbAttributeDefinition
  3

  2
C
 70
     8
280
     0
  0
ATTDEF
  5
217
330
206
100
AcDbEntity
  8
AM_6
100
AcDbText
 10
11.428125
 20
-4.674325834869058
 30
0.0
 40
0.5
  1
5-1/2
100
AcDbAttributeDefinition
  3

  2
D
 70
     8
280
     0
  0
ATTDEF
  5
218
330
206
100
AcDbEntity
  8
AM_6
100
AcDbText
 10
11.428125
 20
-5.174325834869058
 30
0.0
 40
0.5
  1
6-3/8
100
AcDbAttributeDefinition
  3

  2
E
 70
     8
280
     0
  0
ATTDEF
  5
219
330
206
100
AcDbEntity
  8
AM_6
100
AcDbText
 10
11.428125
 20
-5.674325834869058
 30
0.0
 40
0.5
  1
1-7/8
100
AcDbAttributeDefinition
  3

  2
F
 70
     8
280
     0
  0
ATTDEF
  5
21A
330
206
100
AcDbEntity
  8
AM_6
100
AcDbText
 10
11.428125
 20
-6.174325834869058
 30
0.0
 40
0.5
  1
1-1/16
100
AcDbAttributeDefinition
  3

  2
G
 70
     8
280
     0
  0
ATTDEF
  5
21B
330
206
100
AcDbEntity
  8
AM_6
100
AcDbText
 10
11.428125
 20
-6.674325834869058
 30
0.0
 40
0.5
  1
1-5/8
100
AcDbAttributeDefinition
  3

  2
H
 70
     8
280
     0
  0
ATTDEF
  5
21C
330
206
100
AcDbEntity
  8
AM_6
100
AcDbText
 10
11.428125
 20
-7.174325834869058
 30
0.0
 40
0.5
  1
5-1/8
100
AcDbAttributeDefinition
  3

  2
J
 70
     8
280
     0
  0
ATTDEF
  5
21D
330
206
100
AcDbEntity
  8
AM_6
100
AcDbText
 10
11.428125
 20
-7.674325834869058
 30
0.0
 40
0.5
  1
2-7/8
100
AcDbAttributeDefinition
  3

  2
K
 70
     8
280
     0
  0
ATTDEF
  5
21E
330
206
100
AcDbEntity
  8
AM_6
100
AcDbText
 10
11.428125
 20
-8.174325834869059
 30
0.0
 40
0.5
  1
5
100
AcDbAttributeDefinition
  3

  2
L
 70
     8
280
     0
  0
ATTDEF
  5
21F
330
206
100
AcDbEntity
  8
AM_6
100
AcDbText
 10
11.428125
 20
-8.674325834869059
 30
0.0
 40
0.5
  1
6-13/16
100
AcDbAttributeDefinition
  3

  2
M
 70
     8
280
     0
  0
ATTDEF
  5
220
330
206
100
AcDbEntity
  8
AM_6
100
AcDbText
 10
11.428125
 20
-9.174325834869059
 30
0.0
 40
0.5
  1
7-13/16
100
AcDbAttributeDefinition
  3

  2
N
 70
     8
280
     0
  0
ATTDEF
  5
221
330
206
100
AcDbEntity
  8
AM_6
100
AcDbText
 10
11.428125
 20
-9.674325834869059
 30
0.0
 40
0.5
  1
4-7/32
100
AcDbAttributeDefinition
  3

  2
R
 70
     8
280
     0
  0
ATTDEF
  5
222
330
206
100
AcDbEntity
  8
AM_6
100
AcDbText
 10
11.428125
 20
-10.17432583486906
 30
0.0
 40
0.5
  1
2-11/16
100
AcDbAttributeDefinition
  3

  2
S
 70
     8
280
     0
  0
ATTDEF
  5
223
330
206
100
AcDbEntity
  8
AM_6
100
AcDbText
 10
11.428125
 20
-10.67432583486906
 30
0.0
 40
0.5
  1
3-1/16
100
AcDbAttributeDefinition
  3

  2
T
 70
     8
280
     0
  0
ATTDEF
  5
224
330
206
100
AcDbEntity
  8
AM_6
100
AcDbText
 10
11.428125
 20
-11.17432583486906
 30
0.0
 40
0.5
  1
1/4
100
AcDbAttributeDefinition
  3

  2
X
 70
     8
280
     0
  0
ATTDEF
  5
225
330
206
100
AcDbEntity
  8
AM_6
100
AcDbText
 10
11.428125
 20
-11.67432583486906
 30
0.0
 40
0.5
  1
0.025
100
AcDbAttributeDefinition
  3

  2
Y
 70
     8
280
     0
  0
ATTDEF
  5
226
330
206
100
AcDbEntity
  8
AM_6
100
AcDbText
 10
11.428125
 20
-12.17432583486906
 30
0.0
 40
0.5
  1
4-3/64
100
AcDbAttributeDefinition
  3

  2
Z
 70
     8
280
     0
  0
ATTDEF
  5
227
330
206
100
AcDbEntity
  8
AM_6
100
AcDbText
 10
11.428125
 20
-12.67432583486906
 30
0.0
 40
0.5
  1
baldor
100
AcDbAttributeDefinition
  3

  2
COMPANY
 70
     8
280
     0
  0
ELLIPSE
  5
228
330
206
100
AcDbEntity
  8
AM_9
100
AcDbEllipse
 10
-3.511708849171708
 20
-0.0000000000000001
 30
0.0
 11
-7.347880794884119E-17
 21
-0.4
 31
0.0
210
0.0
220
0.0
230
1.0
 40
0.3746065934159114
 41
0.0
 42
6.283185307179586
  0
LWPOLYLINE
  5
229
330
206
100
AcDbEntity
  8
AM_9
100
AcDbPolyline
 90
       43
 70
     0
 43
0.0
 10
-3.418997206793669
 20
0.4999999998543891
 10
-3.42799253004618
 20
0.499740335917793
 10
-3.449605618573386
 20
0.4969783068522579
 10
-3.47037861512656
 20
0.491381122301034
 10
-3.49021330345561
 20
0.4831432990306189
 10
-3.509106139650235
 20
0.472380445450499
 10
-3.527127703532765
 20
0.4590922261768455
 10
-3.544392200094215
 20
0.4431366181339385
 10
-3.560999879720498
 20
0.4242467220001295
 10
-3.576949569064394
 20
0.4021453057816424
 10
-3.59205961251744
 20
0.3767857149674502
 10
-3.606011007660782
 20
0.3485439706910589
 10
-3.618503206627286
 20
0.3181549130380382
 10
-3.629470022882697
 20
0.2861596864457703
 10
-3.638977277048827
 20
0.2528277199837971
 10
-3.647100022601588
 20
0.2183332146394245
 10
-3.65389529211222
 20
0.1828229430831314
 10
-3.659400014688761
 20
0.1464460447894899
 10
-3.66363594990758
 20
0.1093635328035605
 10
-3.666615050177055
 20
0.0717493662460212
 10
-3.668343614050622
 20
0.0337883360100187
 10
-3.66882508383542
 20
-0.0043271751487887
 10
-3.668061660999571
 20
-0.0424007981502568
 10
-3.66605561975865
 20
-0.0802255604676954
 10
-3.662809233277088
 20
-0.1176018861137789
 10
-3.658322512185037
 20
-0.154343849376883
 10
-3.652590760015642
 20
-0.1902765051898901
 10
-3.645600502391568
 20
-0.2252398476854648
 10
-3.637323190980014
 20
-0.259092526364264
 10
-3.627705805677373
 20
-0.2917144786878513
 10
-3.61665748206404
 20
-0.3230061557087542
 10
-3.604032686608782
 20
-0.352878303224107
 10
-3.589618176696552
 20
-0.3812178411733491
 10
-3.573153247653791
 20
-0.4078022095338654
 10
-3.556717878315597
 20
-0.429486837142666
 10
-3.539479853995064
 20
-0.4480297342763924
 10
-3.521589072238932
 20
-0.4635171035476372
 10
-3.503047645843421
 20
-0.4761637380241754
 10
-3.483838670809609
 20
-0.486115799770734
 10
-3.463999495475823
 20
-0.4934176321352923
 10
-3.441506257668026
 20
-0.4983706401357856
 10
-3.419154217464452
 20
-0.4999999141262246
 10
-3.417489248322894
 20
-0.4999927827637307
  0
LINE
  5
22A
330
206
100
AcDbEntity
  8
AM_9
100
AcDbLine
 10
6.375
 20
0.9375
 30
0.0
 11
5.3125
 21
0.9375
 31
0.0
  0
LINE
  5
22B
330
206
100
AcDbEntity
  8
AM_9
100
AcDbLine
 10
5.3125
 20
-0.9375
 30
0.0
 11
6.375
 21
-0.9375
 31
0.0
  0
LINE
  5
22C
330
206
100
AcDbEntity
  8
AM_9
100
AcDbLine
 10
3.84375
 20
-1.12546875
 30
0.0
 11
3.84375
 21
1.12546875
 31
0.0
  0
LINE
  5
22D
330
206
100
AcDbEntity
  8
AM_9
100
AcDbLine
 10
3.6875
 20
-1.12546875
 30
0.0
 11
3.6875
 21
1.12546875
 31
0.0
  0
LINE
  5
22E
330
206
100
AcDbEntity
  8
AM_9
100
AcDbLine
 10
5.156250000000001
 20
-1.12546875
 30
0.0
 11
5.156250000000001
 21
1.12546875
 31
0.0
  0
LINE
  5
22F
330
206
100
AcDbEntity
  8
AM_9
100
AcDbLine
 10
5.3125
 20
-1.12546875
 30
0.0
 11
5.3125
 21
1.12546875
 31
0.0
  0
LWPOLYLINE
  5
230
330
206
100
AcDbEntity
  8
AM_9
100
AcDbPolyline
 90
       30
 70
     0
 43
0.0
 10
-3.418990463715029
 20
-0.5000000000000004
 10
-3.439462931878673
 20
-0.4968887731322551
 10
-3.458858809344841
 20
-0.4875849273057195
 10
-3.477100534148588
 20
-0.4722286587596864
 10
-3.493916537401745
 20
-0.4511135982091773
 10
-3.509258508013852
 20
-0.4242737001495004
 10
-3.523068834251135
 20
-0.3920973704783494
 10
-3.535216092282054
 20
-0.3551799504026647
 10
-3.545773086321379
 20
-0.3134487687849006
 10
-3.554691839861701
 20
-0.2676281297067793
 10
-3.561930732499745
 20
-0.218569133331481
 10
-3.567522306366218
 20
-0.166658356946282
 10
-3.571517218053087
 20
-0.1124492836185198
 10
-3.573909929424664
 20
-0.0569730452362484
 10
-3.574712574532787
 20
-0.0012004135389422
 10
-3.573966472576503
 20
0.0547640411075178
 10
-3.571671992283513
 20
0.1098600471325889
 10
-3.567818316132578
 20
0.1633337836569845
 10
-3.562377910906844
 20
0.2149321087662541
 10
-3.555362291329291
 20
0.2637047415295028
 10
-3.54665356781164
 20
0.3094348848693447
 10
-3.536264877555412
 20
0.3514384121221301
 10
-3.524258364579795
 20
0.3889441284801698
 10
-3.510490458351277
 20
0.421744079488685
 10
-3.495064681104775
 20
0.4493258193382558
 10
-3.478157201672047
 20
0.4711633810601427
 10
-3.459860895732517
 20
0.4869173622837175
 10
-3.440258719375738
 20
0.4965918836125934
 10
-3.419680139701474
 20
0.4999966062642485
 10
-3.418990463715028
 20
0.5000000000000002
  0
LWPOLYLINE
  5
231
330
206
100
AcDbEntity
  8
AM_9
100
AcDbPolyline
 90
       29
 70
     0
 43
0.0
 10
-3.418990463715028
 20
0.5000000000000002
 10
-3.397982389868988
 20
0.496923163644043
 10
-3.376426399941229
 20
0.4878078284003486
 10
-3.3547589213302
 20
0.4728267550051833
 10
-3.333008848899061
 20
0.4517952573247598
 10
-3.311702976592138
 20
0.4251235347868134
 10
-3.291338871563525
 20
0.393309227920413
 10
-3.27209121658703
 20
0.3562763608103782
 10
-3.25441562117827
 20
0.3146622886543657
 10
-3.238770320134926
 20
0.2692354647340168
 10
-3.225414725133745
 20
0.2201563928757827
 10
-3.214623735697418
 20
0.1681102523115081
 10
-3.206702783479652
 20
0.1140800862708483
 10
-3.201776281579543
 20
0.0574251702185687
 10
-3.200111398296477
 20
-0.0000000000000001
 10
-3.201698811650013
 20
-0.0557568049126982
 10
-3.20637135476261
 20
-0.1109834655049989
 10
-3.213994482212253
 20
-0.164638778624107
 10
-3.224469265901887
 20
-0.2161756530528632
 10
-3.237553709241674
 20
-0.2651642159582013
 10
-3.252892588544329
 20
-0.310703845753902
 10
-3.270356922372744
 20
-0.3525575109993362
 10
-3.289541857697813
 20
-0.3901197760485587
 10
-3.309962667818938
 20
-0.4226941861558061
 10
-3.331400003880385
 20
-0.4499976939881012
 10
-3.35345699206353
 20
-0.4717026135185123
 10
-3.375622817299733
 20
-0.4873889473216028
 10
-3.397555740296116
 20
-0.4968262846510382
 10
-3.418990463715029
 20
-0.5000000000000004
  0
LINE
  5
232
330
206
100
AcDbEntity
  8
AM_9
100
AcDbLine
 10
3.1496
 20
-1.53125
 30
0.0
 11
3.1496
 21
1.53125
 31
0.0
  0
LINE
  5
233
330
206
100
AcDbEntity
  8
AM_9
100
AcDbLine
 10
-3.1496
 20
1.53125
 30
0.0
 11
-3.1496
 21
-1.53125
 31
0.0
  0
ELLIPSE
  5
234
330
206
100
AcDbEntity
  8
AM_9
100
AcDbEllipse
 10
-3.418990463715028
 20
-0.0000000000000001
 30
0.0
 11
3.061616997868384E-17
 21
0.5000000000000002
 31
0.0
210
0.0
220
0.0
230
1.0
 40
0.3746065934159118
 41
0.0
 42
6.283185307179586
  0
LINE
  5
235
330
206
100
AcDbEntity
  8
AM_7
100
AcDbLine
 10
5.259375
 20
0.0
 30
0.0
 11
6.428125
 21
0.0
 31
0.0
  0
LINE
  5
236
330
206
100
AcDbEntity
  8
AM_4
100
AcDbLine
 10
6.375
 20
1.825674165130942
 30
0.0
 11
5.3125
 21
1.825674165130942
 31
0.0
  0
LINE
  5
237
330
206
100
AcDbEntity
  8
AM_4
100
AcDbLine
 10
5.3125
 20
1.825674165130942
 30
0.0
 11
5.3125
 21
1.12546875
 31
0.0
  0
LINE
  5
238
330
206
100
AcDbEntity
  8
AM_4
100
AcDbLine
 10
6.375
 20
1.825674165130942
 30
0.0
 11
6.375
 21
-1.825674165130942
 31
0.0
  0
LINE
  5
239
330
206
100
AcDbEntity
  8
AM_4
100
AcDbLine
 10
5.3125
 20
-1.12546875
 30
0.0
 11
5.3125
 21
-1.825674165130942
 31
0.0
  0
LINE
  5
23A
330
206
100
AcDbEntity
  8
AM_4
100
AcDbLine
 10
5.3125
 20
-1.825674165130942
 30
0.0
 11
6.375
 21
-1.825674165130942
 31
0.0
  0
LINE
  5
23B
330
206
100
AcDbEntity
  8
AM_4
100
AcDbLine
 10
3.6875
 20
1.12546875
 30
0.0
 11
3.6875
 21
1.34375
 31
0.0
  0
LINE
  5
23C
330
206
100
AcDbEntity
  8
AM_4
100
AcDbLine
 10
-3.6875
 20
1.34375
 30
0.0
 11
-3.6875
 21
-1.343750000000001
 31
0.0
  0
LINE
  5
23D
330
206
100
AcDbEntity
  8
AM_4
100
AcDbLine
 10
3.6875
 20
-1.343750000000001
 30
0.0
 11
3.6875
 21
-1.12546875
 31
0.0
  0
LWPOLYLINE
  5
23E
330
206
100
AcDbEntity
  8
AM_4
100
AcDbPolyline
 90
        4
 70
     0
 43
0.0
 10
2.820821024099189
 20
-1.12546875
 10
2.790402426579652
 20
-1.122045328298334
 10
2.759527879423469
 20
-1.111527432834633
 10
2.75
 20
-1.106754499327863
  0
LINE
  5
23F
330
206
100
AcDbEntity
  8
AM_4
100
AcDbLine
 10
6.375
 20
-1.12546875
 30
0.0
 11
2.820821024099189
 21
-1.12546875
 31
0.0
  0
LINE
  5
240
330
206
100
AcDbEntity
  8
AM_4
100
AcDbLine
 10
6.375
 20
-0.9379687500000001
 30
0.0
 11
2.75
 21
-0.9379687500000001
 31
0.0
  0
LWPOLYLINE
  5
241
330
206
100
AcDbEntity
  8
AM_4
100
AcDbPolyline
 90
        4
 70
     0
 43
0.0
 10
2.75
 20
1.106754499327863
 10
2.779974984858518
 20
1.119304168431033
 10
2.811108985668293
 20
1.125116519599512
 10
2.82082102409919
 20
1.12546875
  0
LINE
  5
242
330
206
100
AcDbEntity
  8
AM_4
100
AcDbLine
 10
6.375
 20
0.9379687500000012
 30
0.0
 11
2.75
 21
0.9379687500000012
 31
0.0
  0
LINE
  5
243
330
206
100
AcDbEntity
  8
AM_4
100
AcDbLine
 10
6.375
 20
1.12546875
 30
0.0
 11
2.82082102409919
 21
1.12546875
 31
0.0
  0
LINE
  5
244
330
206
100
AcDbEntity
  8
AM_4
100
AcDbLine
 10
2.75
 20
1.34375
 30
0.0
 11
3.6875
 21
1.34375
 31
0.0
  0
LINE
  5
245
330
206
100
AcDbEntity
  8
AM_4
100
AcDbLine
 10
-3.500000002793969
 20
1.53125
 30
0.0
 11
3.500000002789487
 21
1.53125
 31
0.0
  0
ARC
  5
246
330
206
100
AcDbEntity
  8
AM_4
100
AcDbCircle
 10
3.500000000000001
 20
1.343750000000001
 30
0.0
 40
0.1874999999999991
100
AcDbArc
 50
0.0
 51
90.0
  0
ARC
  5
247
330
206
100
AcDbEntity
  8
AM_4
100
AcDbCircle
 10
-3.500000000000001
 20
1.34375
 30
0.0
 40
0.1874999999999996
100
AcDbArc
 50
90.0
 51
180.0
  0
LINE
  5
248
330
206
100
AcDbEntity
  8
AM_4
100
AcDbLine
 10
-3.6875
 20
1.34375
 30
0.0
 11
-2.75
 21
1.34375
 31
0.0
  0
LINE
  5
249
330
206
100
AcDbEntity
  8
AM_4
100
AcDbLine
 10
-3.5
 20
-1.53125
 30
0.0
 11
3.499999999995519
 21
-1.53125
 31
0.0
  0
LINE
  5
24A
330
206
100
AcDbEntity
  8
AM_4
100
AcDbLine
 10
2.75
 20
-1.343750000000001
 30
0.0
 11
3.6875
 21
-1.343750000000001
 31
0.0
  0
ARC
  5
24B
330
206
100
AcDbEntity
  8
AM_4
100
AcDbCircle
 10
3.5
 20
-1.34375
 30
0.0
 40
0.1875
100
AcDbArc
 50
270.0
 51
0.0
  0
ARC
  5
24C
330
206
100
AcDbEntity
  8
AM_4
100
AcDbCircle
 10
-3.5
 20
-1.34375
 30
0.0
 40
0.1875
100
AcDbArc
 50
180.0
 51
270.0
  0
LINE
  5
24D
330
206
100
AcDbEntity
  8
AM_4
100
AcDbLine
 10
-3.6875
 20
-1.343750000000001
 30
0.0
 11
-2.75
 21
-1.343750000000001
 31
0.0
  0
LINE
  5
24E
330
206
100
AcDbEntity
  8
AM_4
100
AcDbLine
 10
2.75
 20
-1.378125
 30
0.0
 11
2.75
 21
1.378125
 31
0.0
  0
LINE
  5
24F
330
206
100
AcDbEntity
  8
AM_4
100
AcDbLine
 10
2.562500000000001
 20
0.9062500000000002
 30
0.0
 11
2.562500000000001
 21
1.378125
 31
0.0
  0
LINE
  5
250
330
206
100
AcDbEntity
  8
AM_4
100
AcDbLine
 10
-2.75
 20
-0.9062499999999997
 30
0.0
 11
2.75
 21
-0.9062499999999997
 31
0.0
  0
LINE
  5
251
330
206
100
AcDbEntity
  8
AM_4
100
AcDbLine
 10
2.562500000000001
 20
-1.378125
 30
0.0
 11
2.562500000000001
 21
-0.9062499999999997
 31
0.0
  0
LINE
  5
252
330
206
100
AcDbEntity
  8
AM_4
100
AcDbLine
 10
2.75
 20
0.9062500000000002
 30
0.0
 11
-2.75
 21
0.9062500000000002
 31
0.0
  0
LINE
  5
253
330
206
100
AcDbEntity
  8
AM_4
100
AcDbLine
 10
-2.5625
 20
0.9062500000000002
 30
0.0
 11
-2.5625
 21
1.378125
 31
0.0
  0
LINE
  5
254
330
206
100
AcDbEntity
  8
AM_4
100
AcDbLine
 10
2.75
 20
1.378125
 30
0.0
 11
-2.75
 21
1.378125
 31
0.0
  0
LINE
  5
255
330
206
100
AcDbEntity
  8
AM_4
100
AcDbLine
 10
-2.75
 20
-1.378125
 30
0.0
 11
-2.75
 21
1.378125
 31
0.0
  0
LINE
  5
256
330
206
100
AcDbEntity
  8
AM_4
100
AcDbLine
 10
2.75
 20
-1.378125
 30
0.0
 11
-2.75
 21
-1.378125
 31
0.0
  0
LINE
  5
257
330
206
100
AcDbEntity
  8
AM_4
100
AcDbLine
 10
-2.5625
 20
-1.378125
 30
0.0
 11
-2.5625
 21
-0.9062499999999997
 31
0.0
  0
ENDBLK
  5
209
330
206
100
AcDbEntity
  8
0
100
AcDbBlockEnd
  0
ENDSEC
  0
SECTION
  2
ENTITIES
  0
INSERT
  5
6F
330
1F
100
AcDbEntity
  8
0
100
AcDbBlockReference
  2
1_069389_4
 10
0.0
 20
0.0
 30
0.0
  0
POINT
  5
259
330
1F
100
AcDbEntity
  8
ConnectionPoints
100
AcDbPoint
 10
0.0
 20
-2.190333333333333
 30
-2.135416666666667
  0
POINT
  5
25A
330
1F
100
AcDbEntity
  8
ConnectionPoints
100
AcDbPoint
 10
0.0
 20
-2.190333333333333
 30
2.135416666666667
  0
POINT
  5
25B
330
1F
100
AcDbEntity
  8
ConnectionPoints
100
AcDbPoint
 10
0.0
 20
-2.120333333333333
 30
0.0000000000000001
  0
POINT
  5
25C
330
1F
100
AcDbEntity
  8
ConnectionPoints
100
AcDbPoint
 10
0.0
 20
-2.4375
 30
0.0000000000000001
  0
POINT
  5
25D
330
1F
100
AcDbEntity
  8
ConnectionPoints
100
AcDbPoint
 10
0.0
 20
-2.319333333333333
 30
0.0000000000000001
  0
POINT
  5
25E
330
1F
100
AcDbEntity
  8
ConnectionPoints
100
AcDbPoint
 10
0.0
 20
-2.120333333333333
 30
2.135416666666667
  0
POINT
  5
25F
330
1F
100
AcDbEntity
  8
ConnectionPoints
100
AcDbPoint
 10
0.0
 20
-2.3055
 30
2.135416666666667
  0
POINT
  5
260
330
1F
100
AcDbEntity
  8
ConnectionPoints
100
AcDbPoint
 10
0.0
 20
-2.120333333333333
 30
-2.135416666666667
  0
POINT
  5
261
330
1F
100
AcDbEntity
  8
ConnectionPoints
100
AcDbPoint
 10
0.0
 20
-2.3055
 30
-2.135416666666667
  0
POINT
  5
262
330
1F
100
AcDbEntity
  8
ConnectionPoints
100
AcDbPoint
 10
0.0
 20
-2.120333333333333
 30
0.0000000000000001
  0
POINT
  5
263
330
1F
100
AcDbEntity
  8
ConnectionPoints
100
AcDbPoint
 10
-3.511708849171708
 20
-0.0000000000000001
 30
-1.418822472562767
  0
POINT
  5
264
330
1F
100
AcDbEntity
  8
ConnectionPoints
100
AcDbPoint
 10
0.0
 20
-2.4375
 30
0.0000000000000001
  0
POINT
  5
265
330
1F
100
AcDbEntity
  8
ConnectionPoints
100
AcDbPoint
 10
0.0
 20
-2.6875
 30
0.0000000000000002
  0
ENDSEC
  0
SECTION
  2
OBJECTS
  0
DICTIONARY
  5
C
330
0
100
AcDbDictionary
281
     1
  3
ACAD_DETAILVIEWSTYLE
350
26D
  3
ACAD_GROUP
350
D
  3
ACAD_LAYOUT
350
1A
  3
ACAD_MATERIAL
350
43
  3
ACAD_MLEADERSTYLE
350
6B
  3
ACAD_MLINESTYLE
350
17
  3
ACAD_PLOTSETTINGS
350
19
  3
ACAD_PLOTSTYLENAME
350
E
  3
ACAD_SCALELIST
350
47
  3
ACAD_SECTIONVIEWSTYLE
350
26E
  3
ACAD_TABLESTYLE
350
69
  3
ACAD_VISUALSTYLE
350
2A
  3
ACDB_RECOMPOSE_DATA
350
26A
  3
AcDbVariableDictionary
350
266
  0
SUN
  5
6D
330
29
100
AcDbSun
 90
        1
290
     0
 63
     7
421
 16777215
 40
1.0
291
     1
 91
  2455826
 92
 54000000
292
     0
 70
     2
 71
   256
280
     1
  0
DICTIONARY
  5
26D
102
{ACAD_REACTORS
330
C
102
}
330
C
100
AcDbDictionary
281
     1
  0
DICTIONARY
  5
D
102
{ACAD_REACTORS
330
C
102
}
330
C
100
AcDbDictionary
281
     1
  0
DICTIONARY
  5
1A
102
{ACAD_REACTORS
330
C
102
}
330
C
100
AcDbDictionary
281
     1
  3
Layout1
350
1E
  3
Layout2
350
26
  3
Model
350
22
  0
DICTIONARY
  5
43
102
{ACAD_REACTORS
330
C
102
}
330
C
100
AcDbDictionary
281
     1
  3
ByBlock
350
45
  3
ByLayer
350
44
  3
Global
350
46
  0
DICTIONARY
  5
6B
102
{ACAD_REACTORS
330
C
102
}
330
C
100
AcDbDictionary
281
     1
  3
Standard
350
6C
  0
DICTIONARY
  5
17
102
{ACAD_REACTORS
330
C
102
}
330
C
100
AcDbDictionary
281
     1
  3
Standard
350
18
  0
DICTIONARY
  5
19
102
{ACAD_REACTORS
330
C
102
}
330
C
100
AcDbDictionary
281
     1
  0
ACDBDICTIONARYWDFLT
  5
E
102
{ACAD_REACTORS
330
C
102
}
330
C
100
AcDbDictionary
281
     1
  3
Normal
350
F
100
AcDbDictionaryWithDefault
340
F
  0
DICTIONARY
  5
47
102
{ACAD_REACTORS
330
C
102
}
330
C
100
AcDbDictionary
281
     1
  3
A0
350
48
  3
A1
350
49
  3
A2
350
4A
  3
A3
350
4B
  3
A4
350
4C
  3
A5
350
4D
  3
A6
350
4E
  3
A7
350
4F
  3
A8
350
50
  3
A9
350
51
  3
B0
350
52
  3
B1
350
53
  3
B2
350
54
  3
B3
350
55
  3
B4
350
56
  3
B5
350
57
  3
B6
350
58
  3
B7
350
59
  3
B8
350
5A
  3
B9
350
5B
  3
C0
350
5C
  3
C1
350
5D
  3
C2
350
5E
  3
C3
350
5F
  3
C4
350
60
  3
C5
350
61
  3
C6
350
62
  3
C7
350
63
  3
C8
350
64
  3
C9
350
65
  3
D0
350
66
  3
D1
350
67
  3
D2
350
68
  0
DICTIONARY
  5
26E
102
{ACAD_REACTORS
330
C
102
}
330
C
100
AcDbDictionary
281
     1
  0
DICTIONARY
  5
69
102
{ACAD_REACTORS
330
C
102
}
330
C
100
AcDbDictionary
281
     1
  3
Standard
350
6A
  0
DICTIONARY
  5
2A
102
{ACAD_REACTORS
330
C
102
}
330
C
100
AcDbDictionary
281
     1
  3
2dWireframe
350
2F
  3
Basic
350
32
  3
Brighten
350
36
  3
ColorChange
350
3A
  3
Conceptual
350
34
  3
Dim
350
35
  3
EdgeColorOff
350
3D
  3
Facepattern
350
39
  3
Flat
350
2B
  3
FlatWithEdges
350
2C
  3
Gouraud
350
2D
  3
GouraudWithEdges
350
2E
  3
Hidden
350
31
  3
JitterOff
350
3B
  3
Linepattern
350
38
  3
OverhangOff
350
3C
  3
Realistic
350
33
  3
Shaded
350
42
  3
Shaded with edges
350
41
  3
Shades of Gray
350
3E
  3
Sketchy
350
3F
  3
Thicken
350
37
  3
Wireframe
350
30
  3
X-Ray
350
40
  0
XRECORD
  5
26A
102
{ACAD_REACTORS
330
C
102
}
330
C
100
AcDbXrecord
280
     1
 90
        1
330
6A
  0
DICTIONARY
  5
266
102
{ACAD_REACTORS
330
C
102
}
330
C
100
AcDbDictionary
281
     1
  3
CANNOSCALE
350
267
  3
CMLEADERSTYLE
350
26C
  3
CTABLESTYLE
350
26B
  0
LAYOUT
  5
1E
102
{ACAD_REACTORS
330
1A
102
}
330
1A
100
AcDbPlotSettings
  1

  2
none_device
  4

  6

 40
0.0
 41
0.0
 42
0.0
 43
0.0
 44
0.0
 45
0.0
 46
0.0
 47
0.0
 48
0.0
 49
0.0
140
0.0
141
0.0
142
1.0
143
1.0
 70
   688
 72
     0
 73
     0
 74
     5
  7

 75
    16
 76
     0
 77
     2
 78
   300
147
1.0
148
0.0
149
0.0
100
AcDbLayout
  1
Layout1
 70
     1
 71
     1
 10
0.0
 20
0.0
 11
12.0
 21
9.0
 12
0.0
 22
0.0
 32
0.0
 14
1.000000000000000E+20
 24
1.000000000000000E+20
 34
1.000000000000000E+20
 15
-1.000000000000000E+20
 25
-1.000000000000000E+20
 35
-1.000000000000000E+20
146
0.0
 13
0.0
 23
0.0
 33
0.0
 16
1.0
 26
0.0
 36
0.0
 17
0.0
 27
1.0
 37
0.0
 76
     0
330
1B
  0
LAYOUT
  5
26
102
{ACAD_REACTORS
330
1A
102
}
330
1A
100
AcDbPlotSettings
  1

  2
none_device
  4

  6

 40
0.0
 41
0.0
 42
0.0
 43
0.0
 44
0.0
 45
0.0
 46
0.0
 47
0.0
 48
0.0
 49
0.0
140
0.0
141
0.0
142
1.0
143
1.0
 70
   688
 72
     0
 73
     0
 74
     5
  7

 75
    16
 76
     0
 77
     2
 78
   300
147
1.0
148
0.0
149
0.0
100
AcDbLayout
  1
Layout2
 70
     1
 71
     2
 10
0.0
 20
0.0
 11
0.0
 21
0.0
 12
0.0
 22
0.0
 32
0.0
 14
0.0
 24
0.0
 34
0.0
 15
0.0
 25
0.0
 35
0.0
146
0.0
 13
0.0
 23
0.0
 33
0.0
 16
1.0
 26
0.0
 36
0.0
 17
0.0
 27
1.0
 37
0.0
 76
     0
330
23
  0
LAYOUT
  5
22
102
{ACAD_REACTORS
330
1A
102
}
330
1A
100
AcDbPlotSettings
  1

  2
none_device
  4
Letter_(8.50_x_11.00_Inches)
  6

 40
6.35
 41
6.35
 42
6.35000508
 43
6.35000508
 44
215.9
 45
279.4
 46
0.0
 47
0.0
 48
0.0
 49
0.0
140
0.0
141
0.0
142
1.0
143
1.0
 70
  1712
 72
     0
 73
     0
 74
     0
  7

 75
     0
 76
     0
 77
     2
 78
   300
147
1.0
148
0.0
149
0.0
100
AcDbLayout
  1
Model
 70
     1
 71
     0
 10
0.0
 20
0.0
 11
12.0
 21
9.0
 12
0.0
 22
0.0
 32
0.0
 14
1.000000000000000E+20
 24
1.000000000000000E+20
 34
1.000000000000000E+20
 15
-1.000000000000000E+20
 25
-1.000000000000000E+20
 35
-1.000000000000000E+20
146
0.0
 13
0.0
 23
0.0
 33
0.0
 16
1.0
 26
0.0
 36
0.0
 17
0.0
 27
1.0
 37
0.0
 76
     0
330
1F
331
29
  0
MATERIAL
  5
45
102
{ACAD_REACTORS
330
43
102
}
330
43
100
AcDbMaterial
  1
ByBlock
 72
     1
 94
      127
  0
MATERIAL
  5
44
102
{ACAD_REACTORS
330
43
102
}
330
43
100
AcDbMaterial
  1
ByLayer
 72
     1
 94
      127
  0
MATERIAL
  5
46
102
{ACAD_REACTORS
330
43
102
}
330
43
100
AcDbMaterial
  1
Global
 72
     1
 94
      127
  0
MLEADERSTYLE
  5
6C
102
{ACAD_REACTORS
330
6B
102
}
330
6B
100
AcDbMLeaderStyle
179
     2
170
     2
171
     1
172
     0
 90
        2
 40
0.0
 41
0.0
173
     1
 91
-1056964608
340
14
 92
       -2
290
     1
 42
0.09
291
     1
 43
0.36
  3
Standard
341
0
 44
0.18
300

342
11
174
     1
178
     6
175
     1
176
     0
 93
-1056964608
 45
0.18
292
     0
297
     0
 46
0.18
343
0
 94
-1056964608
 47
1.0
 49
1.0
140
1.0
293
     1
141
0.0
294
     1
177
     0
142
1.0
295
     0
296
     0
143
0.125
271
     0
272
     9
273
     9
298
     0
  0
MLINESTYLE
  5
18
102
{ACAD_REACTORS
330
17
102
}
330
17
100
AcDbMlineStyle
  2
Standard
 70
     0
  3

 62
   256
 51
90.0
 52
90.0
 71
     2
 49
0.5
 62
   256
  6
BYLAYER
 49
-0.5
 62
   256
  6
BYLAYER
  0
ACDBPLACEHOLDER
  5
F
102
{ACAD_REACTORS
330
E
102
}
330
E
  0
SCALE
  5
48
102
{ACAD_REACTORS
330
47
102
}
330
47
100
AcDbScale
 70
     0
300
1:1
140
1.0
141
1.0
290
     1
  0
SCALE
  5
49
102
{ACAD_REACTORS
330
47
102
}
330
47
100
AcDbScale
 70
     0
300
1:2
140
1.0
141
2.0
290
     0
  0
SCALE
  5
4A
102
{ACAD_REACTORS
330
47
102
}
330
47
100
AcDbScale
 70
     0
300
1:4
140
1.0
141
4.0
290
     0
  0
SCALE
  5
4B
102
{ACAD_REACTORS
330
47
102
}
330
47
100
AcDbScale
 70
     0
300
1:5
140
1.0
141
5.0
290
     0
  0
SCALE
  5
4C
102
{ACAD_REACTORS
330
47
102
}
330
47
100
AcDbScale
 70
     0
300
1:8
140
1.0
141
8.0
290
     0
  0
SCALE
  5
4D
102
{ACAD_REACTORS
330
47
102
}
330
47
100
AcDbScale
 70
     0
300
1:10
140
1.0
141
10.0
290
     0
  0
SCALE
  5
4E
102
{ACAD_REACTORS
330
47
102
}
330
47
100
AcDbScale
 70
     0
300
1:16
140
1.0
141
16.0
290
     0
  0
SCALE
  5
4F
102
{ACAD_REACTORS
330
47
102
}
330
47
100
AcDbScale
 70
     0
300
1:20
140
1.0
141
20.0
290
     0
  0
SCALE
  5
50
102
{ACAD_REACTORS
330
47
102
}
330
47
100
AcDbScale
 70
     0
300
1:30
140
1.0
141
30.0
290
     0
  0
SCALE
  5
51
102
{ACAD_REACTORS
330
47
102
}
330
47
100
AcDbScale
 70
     0
300
1:40
140
1.0
141
40.0
290
     0
  0
SCALE
  5
52
102
{ACAD_REACTORS
330
47
102
}
330
47
100
AcDbScale
 70
     0
300
1:50
140
1.0
141
50.0
290
     0
  0
SCALE
  5
53
102
{ACAD_REACTORS
330
47
102
}
330
47
100
AcDbScale
 70
     0
300
1:100
140
1.0
141
100.0
290
     0
  0
SCALE
  5
54
102
{ACAD_REACTORS
330
47
102
}
330
47
100
AcDbScale
 70
     0
300
2:1
140
2.0
141
1.0
290
     0
  0
SCALE
  5
55
102
{ACAD_REACTORS
330
47
102
}
330
47
100
AcDbScale
 70
     0
300
4:1
140
4.0
141
1.0
290
     0
  0
SCALE
  5
56
102
{ACAD_REACTORS
330
47
102
}
330
47
100
AcDbScale
 70
     0
300
8:1
140
8.0
141
1.0
290
     0
  0
SCALE
  5
57
102
{ACAD_REACTORS
330
47
102
}
330
47
100
AcDbScale
 70
     0
300
10:1
140
10.0
141
1.0
290
     0
  0
SCALE
  5
58
102
{ACAD_REACTORS
330
47
102
}
330
47
100
AcDbScale
 70
     0
300
100:1
140
100.0
141
1.0
290
     0
  0
SCALE
  5
59
102
{ACAD_REACTORS
330
47
102
}
330
47
100
AcDbScale
 70
     0
300
1/128" = 1'-0"
140
0.0078125
141
12.0
290
     0
  0
SCALE
  5
5A
102
{ACAD_REACTORS
330
47
102
}
330
47
100
AcDbScale
 70
     0
300
1/64" = 1'-0"
140
0.015625
141
12.0
290
     0
  0
SCALE
  5
5B
102
{ACAD_REACTORS
330
47
102
}
330
47
100
AcDbScale
 70
     0
300
1/32" = 1'-0"
140
0.03125
141
12.0
290
     0
  0
SCALE
  5
5C
102
{ACAD_REACTORS
330
47
102
}
330
47
100
AcDbScale
 70
     0
300
1/16" = 1'-0"
140
0.0625
141
12.0
290
     0
  0
SCALE
  5
5D
102
{ACAD_REACTORS
330
47
102
}
330
47
100
AcDbScale
 70
     0
300
3/32" = 1'-0"
140
0.09375
141
12.0
290
     0
  0
SCALE
  5
5E
102
{ACAD_REACTORS
330
47
102
}
330
47
100
AcDbScale
 70
     0
300
1/8" = 1'-0"
140
0.125
141
12.0
290
     0
  0
SCALE
  5
5F
102
{ACAD_REACTORS
330
47
102
}
330
47
100
AcDbScale
 70
     0
300
3/16" = 1'-0"
140
0.1875
141
12.0
290
     0
  0
SCALE
  5
60
102
{ACAD_REACTORS
330
47
102
}
330
47
100
AcDbScale
 70
     0
300
1/4" = 1'-0"
140
0.25
141
12.0
290
     0
  0
SCALE
  5
61
102
{ACAD_REACTORS
330
47
102
}
330
47
100
AcDbScale
 70
     0
300
3/8" = 1'-0"
140
0.375
141
12.0
290
     0
  0
SCALE
  5
62
102
{ACAD_REACTORS
330
47
102
}
330
47
100
AcDbScale
 70
     0
300
1/2" = 1'-0"
140
0.5
141
12.0
290
     0
  0
SCALE
  5
63
102
{ACAD_REACTORS
330
47
102
}
330
47
100
AcDbScale
 70
     0
300
3/4" = 1'-0"
140
0.75
141
12.0
290
     0
  0
SCALE
  5
64
102
{ACAD_REACTORS
330
47
102
}
330
47
100
AcDbScale
 70
     0
300
1" = 1'-0"
140
1.0
141
12.0
290
     0
  0
SCALE
  5
65
102
{ACAD_REACTORS
330
47
102
}
330
47
100
AcDbScale
 70
     0
300
1-1/2" = 1'-0"
140
1.5
141
12.0
290
     0
  0
SCALE
  5
66
102
{ACAD_REACTORS
330
47
102
}
330
47
100
AcDbScale
 70
     0
300
3" = 1'-0"
140
3.0
141
12.0
290
     0
  0
SCALE
  5
67
102
{ACAD_REACTORS
330
47
102
}
330
47
100
AcDbScale
 70
     0
300
6" = 1'-0"
140
6.0
141
12.0
290
     0
  0
SCALE
  5
68
102
{ACAD_REACTORS
330
47
102
}
330
47
100
AcDbScale
 70
     0
300
1'-0" = 1'-0"
140
12.0
141
12.0
290
     0
  0
TABLESTYLE
  5
6A
102
{ACAD_REACTORS
330
69
102
}
102
{ACAD_XDICTIONARY
360
268
102
}
330
69
100
AcDbTableStyle
  3
Standard
 70
     0
 71
     0
 40
0.06
 41
0.06
280
     0
281
     0
  7
Standard
140
0.18
170
     2
 62
     0
 63
   257
283
     0
 90
        4
 91
        0
  1

274
    -2
284
     1
 64
     0
275
    -2
285
     1
 65
     0
276
    -2
286
     1
 66
     0
277
    -2
287
     1
 67
     0
278
    -2
288
     1
 68
     0
279
    -2
289
     1
 69
     0
  7
Standard
140
0.25
170
     5
 62
     0
 63
   257
283
     0
 90
        4
 91
        0
  1

274
    -2
284
     1
 64
     0
275
    -2
285
     1
 65
     0
276
    -2
286
     1
 66
     0
277
    -2
287
     1
 67
     0
278
    -2
288
     1
 68
     0
279
    -2
289
     1
 69
     0
  7
Standard
140
0.18
170
     5
 62
     0
 63
   257
283
     0
 90
        4
 91
        0
  1

274
    -2
284
     1
 64
     0
275
    -2
285
     1
 65
     0
276
    -2
286
     1
 66
     0
277
    -2
287
     1
 67
     0
278
    -2
288
     1
 68
     0
279
    -2
289
     1
 69
     0
  0
VISUALSTYLE
  5
2F
102
{ACAD_REACTORS
330
2A
102
}
330
2A
100
AcDbVisualStyle
  2
2dWireframe
 70
     4
177
     3
291
     0
 70
    58
 90
        0
176
     1
 90
        2
176
     1
 90
        0
176
     1
 90
        0
176
     1
 40
0.6
176
     1
 40
30.0
176
     1
 62
     7
420
 16777215
176
     1
 90
        1
176
     1
 90
        4
176
     1
 62
     7
176
     1
 62
   257
176
     1
 90
        1
176
     1
 90
        1
176
     1
 40
1.0
176
     1
 90
        0
176
     1
 62
   257
176
     1
 40
1.0
176
     1
 90
        1
176
     1
 90
        6
176
     1
 90
        2
176
     1
 62
     7
176
     1
 90
        5
176
     1
 90
        0
176
     1
 90
        0
176
     1
290
     0
176
     1
 90
        1
176
     1
 40
0.0
176
     1
 90
        0
176
     1
290
     1
176
     1
290
     1
176
     1
290
     0
176
     1
290
     0
176
     1
290
     0
176
     1
290
     0
176
     1
290
     0
176
     1
290
     0
176
     1
290
     0
176
     1
 90
       50
176
     1
 40
0.0
176
     1
 40
1.0
176
     1
 90
        0
176
     1
 62
    18
420
        0
176
     1
 90
       50
176
     1
 90
        3
176
     1
 62
     5
420
      255
176
     1
290
     0
176
     1
 90
       50
176
     1
 90
       50
176
     1
 90
       50
176
     1
290
     0
176
     1
 90
       50
176
     1
 62
   256
176
     0
 40
1.0
176
     0
 90
        2
176
     1
  1
strokes_ogs.tif
176
     1
290
     0
176
     1
 40
1.0
176
     1
 40
1.0
176
     1
  0
VISUALSTYLE
  5
32
102
{ACAD_REACTORS
330
2A
102
}
330
2A
100
AcDbVisualStyle
  2
Basic
 70
     7
177
     3
291
     1
 70
    58
 90
        1
176
     1
 90
        0
176
     1
 90
        1
176
     1
 90
        0
176
     1
 40
0.6
176
     1
 40
30.0
176
     1
 62
     7
420
 16777215
176
     1
 90
        0
176
     1
 90
        4
176
     1
 62
     7
176
     1
 62
   257
176
     1
 90
        1
176
     1
 90
        1
176
     1
 40
1.0
176
     1
 90
        8
176
     1
 62
     7
176
     1
 40
1.0
176
     1
 90
        1
176
     1
 90
        6
176
     1
 90
        2
176
     1
 62
     7
176
     1
 90
        5
176
     1
 90
        0
176
     1
 90
        0
176
     1
290
     0
176
     1
 90
        1
176
     1
 40
0.0
176
     1
 90
        0
176
     1
290
     0
176
     1
290
     1
176
     1
290
     1
176
     1
290
     0
176
     1
290
     0
176
     1
290
     0
176
     1
290
     0
176
     1
290
     0
176
     1
290
     0
176
     1
 90
       50
176
     1
 40
0.0
176
     1
 40
1.0
176
     1
 90
        0
176
     1
 62
    18
420
        0
176
     1
 90
       50
176
     1
 90
        3
176
     1
 62
     5
420
      255
176
     1
290
     0
176
     1
 90
       50
176
     1
 90
       50
176
     1
 90
       50
176
     1
290
     0
176
     1
 90
       50
176
     1
 62
   256
176
     0
 40
1.0
176
     0
 90
        2
176
     1
  1
strokes_ogs.tif
176
     1
290
     0
176
     1
 40
1.0
176
     1
 40
1.0
176
     1
  0
VISUALSTYLE
  5
36
102
{ACAD_REACTORS
330
2A
102
}
330
2A
100
AcDbVisualStyle
  2
Brighten
 70
    12
177
     3
291
     1
 70
    58
 90
        2
176
     1
 90
        2
176
     1
 90
        0
176
     1
 90
        0
176
     1
 40
0.6
176
     1
 40
30.0
176
     1
 62
     7
420
 16777215
176
     1
 90
        1
176
     1
 90
        4
176
     1
 62
     7
176
     1
 62
   257
176
     1
 90
        1
176
     1
 90
        1
176
     1
 40
1.0
176
     1
 90
        8
176
     1
 62
     7
176
     1
 40
1.0
176
     1
 90
        1
176
     1
 90
        6
176
     1
 90
        2
176
     1
 62
     7
176
     1
 90
        5
176
     1
 90
        0
176
     1
 90
        0
176
     1
290
     0
176
     1
 90
        1
176
     1
 40
50.0
176
     1
 90
        0
176
     1
290
     0
176
     1
290
     1
176
     1
290
     1
176
     1
290
     0
176
     1
290
     0
176
     1
290
     0
176
     1
290
     0
176
     1
290
     0
176
     1
290
     0
176
     1
 90
       50
176
     1
 40
0.0
176
     1
 40
1.0
176
     1
 90
        0
176
     1
 62
    18
420
        0
176
     1
 90
       50
176
     1
 90
        3
176
     1
 62
     5
420
      255
176
     1
290
     0
176
     1
 90
       50
176
     1
 90
       50
176
     1
 90
       50
176
     1
290
     0
176
     1
 90
       50
176
     1
 62
   256
176
     0
 40
1.0
176
     0
 90
        2
176
     1
  1
strokes_ogs.tif
176
     1
290
     0
176
     1
 40
1.0
176
     1
 40
1.0
176
     1
  0
VISUALSTYLE
  5
3A
102
{ACAD_REACTORS
330
2A
102
}
330
2A
100
AcDbVisualStyle
  2
ColorChange
 70
    16
177
     3
291
     1
 70
    58
 90
        2
176
     1
 90
        2
176
     1
 90
        3
176
     1
 90
        0
176
     1
 40
0.6
176
     1
 40
30.0
176
     1
 62
     8
420
  8421504
176
     1
 90
        1
176
     1
 90
        4
176
     1
 62
     7
176
     1
 62
   257
176
     1
 90
        1
176
     1
 90
        1
176
     1
 40
1.0
176
     1
 90
        8
176
     1
 62
     8
420
  8421504
176
     1
 40
1.0
176
     1
 90
        1
176
     1
 90
        6
176
     1
 90
        2
176
     1
 62
     7
176
     1
 90
        5
176
     1
 90
        0
176
     1
 90
        0
176
     1
290
     0
176
     1
 90
        1
176
     1
 40
0.0
176
     1
 90
        0
176
     1
290
     0
176
     1
290
     1
176
     1
290
     1
176
     1
290
     0
176
     1
290
     0
176
     1
290
     0
176
     1
290
     0
176
     1
290
     0
176
     1
290
     0
176
     1
 90
       50
176
     1
 40
0.0
176
     1
 40
1.0
176
     1
 90
        0
176
     1
 62
    18
420
        0
176
     1
 90
       50
176
     1
 90
        3
176
     1
 62
     5
420
      255
176
     1
290
     0
176
     1
 90
       50
176
     1
 90
       50
176
     1
 90
       50
176
     1
290
     0
176
     1
 90
       50
176
     1
 62
   256
176
     0
 40
1.0
176
     0
 90
        2
176
     1
  1
strokes_ogs.tif
176
     1
290
     0
176
     1
 40
1.0
176
     1
 40
1.0
176
     1
  0
VISUALSTYLE
  5
34
102
{ACAD_REACTORS
330
2A
102
}
330
2A
100
AcDbVisualStyle
  2
Conceptual
 70
     9
177
     3
291
     0
 70
    58
 90
        3
176
     1
 90
        2
176
     1
 90
        0
176
     1
 90
        0
176
     1
 40
0.6
176
     1
 40
30.0
176
     1
 62
     7
420
 16777215
176
     1
 90
        2
176
     1
 90
        2
176
     1
 62
     7
176
     1
 62
   257
176
     1
 90
        1
176
     1
 90
        1
176
     1
 40
179.0
176
     1
 90
        8
176
     1
 62
     7
176
     1
 40
1.0
176
     1
 90
        1
176
     1
 90
        6
176
     1
 90
        2
176
     1
 62
     7
176
     1
 90
        3
176
     1
 90
        0
176
     1
 90
        0
176
     1
290
     0
176
     1
 90
        1
176
     1
 40
0.0
176
     1
 90
        0
176
     1
290
     0
176
     1
290
     1
176
     1
290
     1
176
     1
290
     0
176
     1
290
     0
176
     1
290
     0
176
     1
290
     0
176
     1
290
     0
176
     1
290
     0
176
     1
 90
       50
176
     1
 40
0.0
176
     1
 40
1.0
176
     1
 90
        0
176
     1
 62
    18
420
        0
176
     1
 90
       50
176
     1
 90
        3
176
     1
 62
     5
420
      255
176
     1
290
     0
176
     1
 90
       50
176
     1
 90
       50
176
     1
 90
       50
176
     1
290
     0
176
     1
 90
       50
176
     1
 62
   256
176
     0
 40
1.0
176
     0
 90
        2
176
     1
  1
strokes_ogs.tif
176
     1
290
     0
176
     1
 40
1.0
176
     1
 40
1.0
176
     1
  0
VISUALSTYLE
  5
35
102
{ACAD_REACTORS
330
2A
102
}
330
2A
100
AcDbVisualStyle
  2
Dim
 70
    11
177
     3
291
     1
 70
    58
 90
        2
176
     1
 90
        2
176
     1
 90
        0
176
     1
 90
        0
176
     1
 40
0.6
176
     1
 40
30.0
176
     1
 62
     7
420
 16777215
176
     1
 90
        1
176
     1
 90
        4
176
     1
 62
     7
176
     1
 62
   257
176
     1
 90
        1
176
     1
 90
        1
176
     1
 40
1.0
176
     1
 90
        8
176
     1
 62
     7
176
     1
 40
1.0
176
     1
 90
        1
176
     1
 90
        6
176
     1
 90
        2
176
     1
 62
     7
176
     1
 90
        5
176
     1
 90
        0
176
     1
 90
        0
176
     1
290
     0
176
     1
 90
        1
176
     1
 40
-50.0
176
     1
 90
        0
176
     1
290
     0
176
     1
290
     1
176
     1
290
     1
176
     1
290
     0
176
     1
290
     0
176
     1
290
     0
176
     1
290
     0
176
     1
290
     0
176
     1
290
     0
176
     1
 90
       50
176
     1
 40
0.0
176
     1
 40
1.0
176
     1
 90
        0
176
     1
 62
    18
420
        0
176
     1
 90
       50
176
     1
 90
        3
176
     1
 62
     5
420
      255
176
     1
290
     0
176
     1
 90
       50
176
     1
 90
       50
176
     1
 90
       50
176
     1
290
     0
176
     1
 90
       50
176
     1
 62
   256
176
     0
 40
1.0
176
     0
 90
        2
176
     1
  1
strokes_ogs.tif
176
     1
290
     0
176
     1
 40
1.0
176
     1
 40
1.0
176
     1
  0
VISUALSTYLE
  5
3D
102
{ACAD_REACTORS
330
2A
102
}
330
2A
100
AcDbVisualStyle
  2
EdgeColorOff
 70
    22
177
     3
291
     1
 70
    58
 90
        2
176
     0
 90
        2
176
     0
 90
        0
176
     0
 90
        0
176
     0
 40
0.6
176
     0
 40
30.0
176
     0
 62
     7
420
 16777215
176
     0
 90
        1
176
     0
 90
        4
176
     0
 62
     7
176
     0
 62
   257
176
     0
 90
        1
176
     0
 90
        1
176
     0
 40
1.0
176
     0
 90
        8
176
     2
 62
     7
176
     0
 40
1.0
176
     0
 90
        1
176
     0
 90
        6
176
     0
 90
        2
176
     0
 62
     7
176
     0
 90
        5
176
     0
 90
        0
176
     0
 90
        0
176
     0
290
     0
176
     0
 90
        1
176
     0
 40
0.0
176
     0
 90
        0
176
     0
290
     0
176
     0
290
     1
176
     0
290
     1
176
     0
290
     0
176
     0
290
     0
176
     0
290
     0
176
     0
290
     0
176
     0
290
     0
176
     0
290
     0
176
     0
 90
       50
176
     0
 40
0.0
176
     0
 40
1.0
176
     0
 90
        0
176
     0
 62
    18
420
        0
176
     0
 90
       50
176
     0
 90
        3
176
     0
 62
     5
420
      255
176
     0
290
     0
176
     0
 90
       50
176
     0
 90
       50
176
     0
 90
       50
176
     0
290
     0
176
     0
 90
       50
176
     0
 62
   256
176
     0
 40
1.0
176
     0
 90
        2
176
     0
  1
strokes_ogs.tif
176
     0
290
     0
176
     0
 40
1.0
176
     0
 40
1.0
176
     0
  0
VISUALSTYLE
  5
39
102
{ACAD_REACTORS
330
2A
102
}
330
2A
100
AcDbVisualStyle
  2
Facepattern
 70
    15
177
     3
291
     1
 70
    58
 90
        2
176
     1
 90
        2
176
     1
 90
        0
176
     1
 90
        0
176
     1
 40
0.6
176
     1
 40
30.0
176
     1
 62
     7
420
 16777215
176
     1
 90
        1
176
     1
 90
        4
176
     1
 62
     7
176
     1
 62
   257
176
     1
 90
        1
176
     1
 90
        1
176
     1
 40
1.0
176
     1
 90
        8
176
     1
 62
     7
176
     1
 40
1.0
176
     1
 90
        1
176
     1
 90
        6
176
     1
 90
        2
176
     1
 62
     7
176
     1
 90
        5
176
     1
 90
        0
176
     1
 90
        0
176
     1
290
     0
176
     1
 90
        1
176
     1
 40
0.0
176
     1
 90
        0
176
     1
290
     0
176
     1
290
     1
176
     1
290
     1
176
     1
290
     0
176
     1
290
     0
176
     1
290
     0
176
     1
290
     0
176
     1
290
     0
176
     1
290
     0
176
     1
 90
       50
176
     1
 40
0.0
176
     1
 40
1.0
176
     1
 90
        0
176
     1
 62
    18
420
        0
176
     1
 90
       50
176
     1
 90
        3
176
     1
 62
     5
420
      255
176
     1
290
     0
176
     1
 90
       50
176
     1
 90
       50
176
     1
 90
       50
176
     1
290
     0
176
     1
 90
       50
176
     1
 62
   256
176
     0
 40
1.0
176
     0
 90
        2
176
     1
  1
strokes_ogs.tif
176
     1
290
     0
176
     1
 40
1.0
176
     1
 40
1.0
176
     1
  0
VISUALSTYLE
  5
2B
102
{ACAD_REACTORS
330
2A
102
}
330
2A
100
AcDbVisualStyle
  2
Flat
 70
     0
177
     3
291
     1
 70
    58
 90
        2
176
     1
 90
        1
176
     1
 90
        1
176
     1
 90
        2
176
     1
 40
0.6
176
     1
 40
30.0
176
     1
 62
     7
420
 16777215
176
     1
 90
        0
176
     1
 90
        0
176
     1
 62
     7
176
     1
 62
   257
176
     1
 90
        1
176
     1
 90
        1
176
     1
 40
1.0
176
     1
 90
        8
176
     1
 62
     7
176
     1
 40
1.0
176
     1
 90
        1
176
     1
 90
        6
176
     1
 90
        2
176
     1
 62
     7
176
     1
 90
        5
176
     1
 90
        0
176
     1
 90
        0
176
     1
290
     0
176
     1
 90
       13
176
     1
 40
0.0
176
     1
 90
        0
176
     1
290
     0
176
     1
290
     1
176
     1
290
     1
176
     1
290
     0
176
     1
290
     0
176
     1
290
     0
176
     1
290
     0
176
     1
290
     0
176
     1
290
     0
176
     1
 90
       50
176
     1
 40
0.0
176
     1
 40
1.0
176
     1
 90
        0
176
     1
 62
    18
420
        0
176
     1
 90
       50
176
     1
 90
        3
176
     1
 62
     5
420
      255
176
     1
290
     0
176
     1
 90
       50
176
     1
 90
       50
176
     1
 90
       50
176
     1
290
     0
176
     1
 90
       50
176
     1
 62
   256
176
     0
 40
1.0
176
     0
 90
        2
176
     1
  1
strokes_ogs.tif
176
     1
290
     0
176
     1
 40
1.0
176
     1
 40
1.0
176
     1
  0
VISUALSTYLE
  5
2C
102
{ACAD_REACTORS
330
2A
102
}
330
2A
100
AcDbVisualStyle
  2
FlatWithEdges
 70
     1
177
     3
291
     1
 70
    58
 90
        2
176
     1
 90
        1
176
     1
 90
        1
176
     1
 90
        2
176
     1
 40
0.6
176
     1
 40
30.0
176
     1
 62
     7
420
 16777215
176
     1
 90
        1
176
     1
 90
        0
176
     1
 62
     7
176
     1
 62
   257
176
     1
 90
        1
176
     1
 90
        1
176
     1
 40
1.0
176
     1
 90
        0
176
     1
 62
   257
176
     1
 40
1.0
176
     1
 90
        1
176
     1
 90
        6
176
     1
 90
        2
176
     1
 62
     7
176
     1
 90
        5
176
     1
 90
        0
176
     1
 90
        0
176
     1
290
     0
176
     1
 90
       13
176
     1
 40
0.0
176
     1
 90
        0
176
     1
290
     0
176
     1
290
     1
176
     1
290
     1
176
     1
290
     0
176
     1
290
     0
176
     1
290
     0
176
     1
290
     0
176
     1
290
     0
176
     1
290
     0
176
     1
 90
       50
176
     1
 40
0.0
176
     1
 40
1.0
176
     1
 90
        0
176
     1
 62
    18
420
        0
176
     1
 90
       50
176
     1
 90
        3
176
     1
 62
     5
420
      255
176
     1
290
     0
176
     1
 90
       50
176
     1
 90
       50
176
     1
 90
       50
176
     1
290
     0
176
     1
 90
       50
176
     1
 62
   256
176
     0
 40
1.0
176
     0
 90
        2
176
     1
  1
strokes_ogs.tif
176
     1
290
     0
176
     1
 40
1.0
176
     1
 40
1.0
176
     1
  0
VISUALSTYLE
  5
2D
102
{ACAD_REACTORS
330
2A
102
}
330
2A
100
AcDbVisualStyle
  2
Gouraud
 70
     2
177
     3
291
     1
 70
    58
 90
        2
176
     1
 90
        2
176
     1
 90
        1
176
     1
 90
        2
176
     1
 40
0.6
176
     1
 40
30.0
176
     1
 62
     7
420
 16777215
176
     1
 90
        0
176
     1
 90
        0
176
     1
 62
     7
176
     1
 62
   257
176
     1
 90
        1
176
     1
 90
        1
176
     1
 40
1.0
176
     1
 90
        0
176
     1
 62
     7
176
     1
 40
1.0
176
     1
 90
        1
176
     1
 90
        6
176
     1
 90
        2
176
     1
 62
     7
176
     1
 90
        5
176
     1
 90
        0
176
     1
 90
        0
176
     1
290
     0
176
     1
 90
       13
176
     1
 40
0.0
176
     1
 90
        0
176
     1
290
     0
176
     1
290
     1
176
     1
290
     1
176
     1
290
     0
176
     1
290
     0
176
     1
290
     0
176
     1
290
     0
176
     1
290
     0
176
     1
290
     0
176
     1
 90
       50
176
     1
 40
0.0
176
     1
 40
1.0
176
     1
 90
        0
176
     1
 62
    18
420
        0
176
     1
 90
       50
176
     1
 90
        3
176
     1
 62
     5
420
      255
176
     1
290
     0
176
     1
 90
       50
176
     1
 90
       50
176
     1
 90
       50
176
     1
290
     0
176
     1
 90
       50
176
     1
 62
   256
176
     0
 40
1.0
176
     0
 90
        2
176
     1
  1
strokes_ogs.tif
176
     1
290
     0
176
     1
 40
1.0
176
     1
 40
1.0
176
     1
  0
VISUALSTYLE
  5
2E
102
{ACAD_REACTORS
330
2A
102
}
330
2A
100
AcDbVisualStyle
  2
GouraudWithEdges
 70
     3
177
     3
291
     1
 70
    58
 90
        2
176
     1
 90
        2
176
     1
 90
        1
176
     1
 90
        2
176
     1
 40
0.6
176
     1
 40
30.0
176
     1
 62
     7
420
 16777215
176
     1
 90
        1
176
     1
 90
        0
176
     1
 62
     7
176
     1
 62
   257
176
     1
 90
        1
176
     1
 90
        1
176
     1
 40
1.0
176
     1
 90
        0
176
     1
 62
   257
176
     1
 40
1.0
176
     1
 90
        1
176
     1
 90
        6
176
     1
 90
        2
176
     1
 62
     7
176
     1
 90
        5
176
     1
 90
        0
176
     1
 90
        0
176
     1
290
     0
176
     1
 90
       13
176
     1
 40
0.0
176
     1
 90
        0
176
     1
290
     0
176
     1
290
     1
176
     1
290
     1
176
     1
290
     0
176
     1
290
     0
176
     1
290
     0
176
     1
290
     0
176
     1
290
     0
176
     1
290
     0
176
     1
 90
       50
176
     1
 40
0.0
176
     1
 40
1.0
176
     1
 90
        0
176
     1
 62
    18
420
        0
176
     1
 90
       50
176
     1
 90
        3
176
     1
 62
     5
420
      255
176
     1
290
     0
176
     1
 90
       50
176
     1
 90
       50
176
     1
 90
       50
176
     1
290
     0
176
     1
 90
       50
176
     1
 62
   256
176
     0
 40
1.0
176
     0
 90
        2
176
     1
  1
strokes_ogs.tif
176
     1
290
     0
176
     1
 40
1.0
176
     1
 40
1.0
176
     1
  0
VISUALSTYLE
  5
31
102
{ACAD_REACTORS
330
2A
102
}
330
2A
100
AcDbVisualStyle
  2
Hidden
 70
     6
177
     3
291
     0
 70
    58
 90
        1
176
     1
 90
        2
176
     1
 90
        2
176
     1
 90
        0
176
     1
 40
0.6
176
     1
 40
30.0
176
     1
 62
     7
420
 16777215
176
     1
 90
        2
176
     1
 90
        2
176
     1
 62
     7
176
     1
 62
   257
176
     1
 90
        2
176
     1
 90
        1
176
     1
 40
40.0
176
     1
 90
        0
176
     1
 62
   257
176
     1
 40
1.0
176
     1
 90
        1
176
     1
 90
        6
176
     1
 90
        2
176
     1
 62
     7
176
     1
 90
        3
176
     1
 90
        0
176
     1
 90
        0
176
     1
290
     0
176
     1
 90
        1
176
     1
 40
0.0
176
     1
 90
        0
176
     1
290
     0
176
     1
290
     1
176
     1
290
     1
176
     1
290
     0
176
     1
290
     0
176
     1
290
     0
176
     1
290
     0
176
     1
290
     0
176
     1
290
     0
176
     1
 90
       50
176
     1
 40
0.0
176
     1
 40
1.0
176
     1
 90
        0
176
     1
 62
    18
420
        0
176
     1
 90
       50
176
     1
 90
        3
176
     1
 62
     5
420
      255
176
     1
290
     0
176
     1
 90
       50
176
     1
 90
       50
176
     1
 90
       50
176
     1
290
     0
176
     1
 90
       50
176
     1
 62
   256
176
     0
 40
1.0
176
     0
 90
        2
176
     1
  1
strokes_ogs.tif
176
     1
290
     0
176
     1
 40
1.0
176
     1
 40
1.0
176
     1
  0
VISUALSTYLE
  5
3B
102
{ACAD_REACTORS
330
2A
102
}
330
2A
100
AcDbVisualStyle
  2
JitterOff
 70
    20
177
     3
291
     1
 70
    58
 90
        2
176
     0
 90
        2
176
     0
 90
        0
176
     0
 90
        0
176
     0
 40
0.6
176
     0
 40
30.0
176
     0
 62
     7
420
 16777215
176
     0
 90
        1
176
     0
 90
        4
176
     0
 62
     7
176
     0
 62
   257
176
     0
 90
        1
176
     0
 90
        1
176
     0
 40
1.0
176
     0
 90
       10
176
     2
 62
     7
176
     0
 40
1.0
176
     0
 90
        1
176
     0
 90
        6
176
     0
 90
        2
176
     0
 62
     7
176
     0
 90
        5
176
     0
 90
        0
176
     0
 90
        0
176
     0
290
     0
176
     0
 90
        1
176
     0
 40
0.0
176
     0
 90
        0
176
     0
290
     0
176
     0
290
     1
176
     0
290
     1
176
     0
290
     0
176
     0
290
     0
176
     0
290
     0
176
     0
290
     0
176
     0
290
     0
176
     0
290
     0
176
     0
 90
       50
176
     0
 40
0.0
176
     0
 40
1.0
176
     0
 90
        0
176
     0
 62
    18
420
        0
176
     0
 90
       50
176
     0
 90
        3
176
     0
 62
     5
420
      255
176
     0
290
     0
176
     0
 90
       50
176
     0
 90
       50
176
     0
 90
       50
176
     0
290
     0
176
     0
 90
       50
176
     0
 62
   256
176
     0
 40
1.0
176
     0
 90
        2
176
     0
  1
strokes_ogs.tif
176
     0
290
     0
176
     0
 40
1.0
176
     0
 40
1.0
176
     0
  0
VISUALSTYLE
  5
38
102
{ACAD_REACTORS
330
2A
102
}
330
2A
100
AcDbVisualStyle
  2
Linepattern
 70
    14
177
     3
291
     1
 70
    58
 90
        2
176
     1
 90
        2
176
     1
 90
        0
176
     1
 90
        0
176
     1
 40
0.6
176
     1
 40
30.0
176
     1
 62
     7
420
 16777215
176
     1
 90
        1
176
     1
 90
        4
176
     1
 62
     7
176
     1
 62
   257
176
     1
 90
        7
176
     1
 90
        7
176
     1
 40
1.0
176
     1
 90
        8
176
     1
 62
     7
176
     1
 40
1.0
176
     1
 90
        1
176
     1
 90
        6
176
     1
 90
        2
176
     1
 62
     7
176
     1
 90
        5
176
     1
 90
        0
176
     1
 90
        0
176
     1
290
     0
176
     1
 90
        1
176
     1
 40
0.0
176
     1
 90
        0
176
     1
290
     0
176
     1
290
     1
176
     1
290
     1
176
     1
290
     0
176
     1
290
     0
176
     1
290
     0
176
     1
290
     0
176
     1
290
     0
176
     1
290
     0
176
     1
 90
       50
176
     1
 40
0.0
176
     1
 40
1.0
176
     1
 90
        0
176
     1
 62
    18
420
        0
176
     1
 90
       50
176
     1
 90
        3
176
     1
 62
     5
420
      255
176
     1
290
     0
176
     1
 90
       50
176
     1
 90
       50
176
     1
 90
       50
176
     1
290
     0
176
     1
 90
       50
176
     1
 62
   256
176
     0
 40
1.0
176
     0
 90
        2
176
     1
  1
strokes_ogs.tif
176
     1
290
     0
176
     1
 40
1.0
176
     1
 40
1.0
176
     1
  0
VISUALSTYLE
  5
3C
102
{ACAD_REACTORS
330
2A
102
}
330
2A
100
AcDbVisualStyle
  2
OverhangOff
 70
    21
177
     3
291
     1
 70
    58
 90
        2
176
     0
 90
        2
176
     0
 90
        0
176
     0
 90
        0
176
     0
 40
0.6
176
     0
 40
30.0
176
     0
 62
     7
420
 16777215
176
     0
 90
        1
176
     0
 90
        4
176
     0
 62
     7
176
     0
 62
   257
176
     0
 90
        1
176
     0
 90
        1
176
     0
 40
1.0
176
     0
 90
        9
176
     2
 62
     7
176
     0
 40
1.0
176
     0
 90
        1
176
     0
 90
        6
176
     0
 90
        2
176
     0
 62
     7
176
     0
 90
        5
176
     0
 90
        0
176
     0
 90
        0
176
     0
290
     0
176
     0
 90
        1
176
     0
 40
0.0
176
     0
 90
        0
176
     0
290
     0
176
     0
290
     1
176
     0
290
     1
176
     0
290
     0
176
     0
290
     0
176
     0
290
     0
176
     0
290
     0
176
     0
290
     0
176
     0
290
     0
176
     0
 90
       50
176
     0
 40
0.0
176
     0
 40
1.0
176
     0
 90
        0
176
     0
 62
    18
420
        0
176
     0
 90
       50
176
     0
 90
        3
176
     0
 62
     5
420
      255
176
     0
290
     0
176
     0
 90
       50
176
     0
 90
       50
176
     0
 90
       50
176
     0
290
     0
176
     0
 90
       50
176
     0
 62
   256
176
     0
 40
1.0
176
     0
 90
        2
176
     0
  1
strokes_ogs.tif
176
     0
290
     0
176
     0
 40
1.0
176
     0
 40
1.0
176
     0
  0
VISUALSTYLE
  5
33
102
{ACAD_REACTORS
330
2A
102
}
330
2A
100
AcDbVisualStyle
  2
Realistic
 70
     8
177
     3
291
     0
 70
    58
 90
        2
176
     1
 90
        3
176
     1
 90
        0
176
     1
 90
        2
176
     1
 40
0.6
176
     1
 40
30.0
176
     1
 62
     7
420
 16777215
176
     1
 90
        0
176
     1
 90
        0
176
     1
 62
     7
176
     1
 62
   257
176
     1
 90
        1
176
     1
 90
        1
176
     1
 40
1.0
176
     1
 90
        8
176
     1
 62
   257
176
     1
 40
1.0
176
     1
 90
        1
176
     1
 90
        6
176
     1
 90
        2
176
     1
 62
     7
176
     1
 90
        3
176
     1
 90
        0
176
     1
 90
        0
176
     1
290
     0
176
     1
 90
       13
176
     1
 40
0.0
176
     1
 90
        0
176
     1
290
     0
176
     1
290
     1
176
     1
290
     1
176
     1
290
     0
176
     1
290
     0
176
     1
290
     0
176
     1
290
     0
176
     1
290
     0
176
     1
290
     0
176
     1
 90
       50
176
     1
 40
0.0
176
     1
 40
1.0
176
     1
 90
        0
176
     1
 62
    18
420
        0
176
     1
 90
       50
176
     1
 90
        3
176
     1
 62
     5
420
      255
176
     1
290
     0
176
     1
 90
       50
176
     1
 90
       50
176
     1
 90
       50
176
     1
290
     0
176
     1
 90
       50
176
     1
 62
   256
176
     0
 40
1.0
176
     0
 90
        2
176
     1
  1
strokes_ogs.tif
176
     1
290
     0
176
     1
 40
1.0
176
     1
 40
1.0
176
     1
  0
VISUALSTYLE
  5
42
102
{ACAD_REACTORS
330
2A
102
}
330
2A
100
AcDbVisualStyle
  2
Shaded
 70
    27
177
     3
291
     0
 70
    58
 90
        2
176
     1
 90
        2
176
     1
 90
        1
176
     1
 90
        2
176
     1
 40
0.6
176
     1
 40
30.0
176
     1
 62
     7
420
 16777215
176
     1
 90
        0
176
     1
 90
        4
176
     1
 62
     7
176
     1
 62
   257
176
     1
 90
        1
176
     1
 90
        1
176
     1
 40
1.0
176
     1
 90
        8
176
     1
 62
   257
176
     1
 40
1.0
176
     1
 90
        1
176
     1
 90
        6
176
     1
 90
        2
176
     1
 62
     8
420
  7895160
176
     1
 90
        3
176
     1
 90
        0
176
     1
 90
        0
176
     1
290
     0
176
     1
 90
        5
176
     1
 40
0.0
176
     1
 90
        0
176
     1
290
     0
176
     1
290
     1
176
     1
290
     1
176
     1
290
     0
176
     1
290
     0
176
     1
290
     0
176
     1
290
     0
176
     1
290
     0
176
     1
290
     0
176
     1
 90
       50
176
     1
 40
0.0
176
     1
 40
1.0
176
     1
 90
        0
176
     1
 62
    18
420
        0
176
     1
 90
       50
176
     1
 90
        3
176
     1
 62
     5
420
      255
176
     1
290
     0
176
     1
 90
       50
176
     1
 90
       50
176
     1
 90
       50
176
     1
290
     0
176
     1
 90
       50
176
     1
 62
   256
176
     0
 40
1.0
176
     0
 90
        2
176
     1
  1
strokes_ogs.tif
176
     1
290
     0
176
     1
 40
1.0
176
     1
 40
1.0
176
     1
  0
VISUALSTYLE
  5
41
102
{ACAD_REACTORS
330
2A
102
}
330
2A
100
AcDbVisualStyle
  2
Shaded with edges
 70
    26
177
     3
291
     0
 70
    58
 90
        2
176
     1
 90
        2
176
     1
 90
        1
176
     1
 90
        2
176
     1
 40
0.6
176
     1
 40
30.0
176
     1
 62
     7
420
 16777215
176
     1
 90
        1
176
     1
 90
       10
176
     1
 62
     7
176
     1
 62
   257
176
     1
 90
        2
176
     1
 90
        1
176
     1
 40
1.0
176
     1
 90
        8
176
     1
 62
   257
176
     1
 40
1.0
176
     1
 90
        1
176
     1
 90
        6
176
     1
 90
        2
176
     1
 62
     7
176
     1
 90
        3
176
     1
 90
        0
176
     1
 90
        0
176
     1
290
     0
176
     1
 90
        5
176
     1
 40
0.0
176
     1
 90
        0
176
     1
290
     0
176
     1
290
     1
176
     1
290
     1
176
     1
290
     0
176
     1
290
     0
176
     1
290
     0
176
     1
290
     0
176
     1
290
     0
176
     1
290
     0
176
     1
 90
       50
176
     1
 40
0.0
176
     1
 40
1.0
176
     1
 90
        0
176
     1
 62
    18
420
        0
176
     1
 90
       50
176
     1
 90
        3
176
     1
 62
     5
420
      255
176
     1
290
     0
176
     1
 90
       50
176
     1
 90
       50
176
     1
 90
       50
176
     1
290
     0
176
     1
 90
       50
176
     1
 62
   256
176
     0
 40
1.0
176
     0
 90
        2
176
     1
  1
strokes_ogs.tif
176
     1
290
     0
176
     1
 40
1.0
176
     1
 40
1.0
176
     1
  0
VISUALSTYLE
  5
3E
102
{ACAD_REACTORS
330
2A
102
}
330
2A
100
AcDbVisualStyle
  2
Shades of Gray
 70
    23
177
     3
291
     0
 70
    58
 90
        2
176
     1
 90
        2
176
     1
 90
        3
176
     1
 90
        0
176
     1
 40
0.6
176
     1
 40
30.0
176
     1
 62
     7
420
 16777215
176
     1
 90
        2
176
     1
 90
        2
176
     1
 62
     7
176
     1
 62
     7
176
     1
 90
        1
176
     1
 90
        1
176
     1
 40
40.0
176
     1
 90
        8
176
     1
 62
     7
176
     1
 40
1.0
176
     1
 90
        1
176
     1
 90
        6
176
     1
 90
        2
176
     1
 62
     7
176
     1
 90
        3
176
     1
 90
        0
176
     1
 90
        0
176
     1
290
     0
176
     1
 90
        1
176
     1
 40
0.0
176
     1
 90
        0
176
     1
290
     0
176
     1
290
     1
176
     1
290
     1
176
     1
290
     0
176
     1
290
     0
176
     1
290
     0
176
     1
290
     0
176
     1
290
     0
176
     1
290
     0
176
     1
 90
       50
176
     1
 40
0.0
176
     1
 40
1.0
176
     1
 90
        0
176
     1
 62
    18
420
        0
176
     1
 90
       50
176
     1
 90
        3
176
     1
 62
     5
420
      255
176
     1
290
     0
176
     1
 90
       50
176
     1
 90
       50
176
     1
 90
       50
176
     1
290
     0
176
     1
 90
       50
176
     1
 62
   256
176
     0
 40
1.0
176
     0
 90
        2
176
     1
  1
strokes_ogs.tif
176
     1
290
     0
176
     1
 40
1.0
176
     1
 40
1.0
176
     1
  0
VISUALSTYLE
  5
3F
102
{ACAD_REACTORS
330
2A
102
}
330
2A
100
AcDbVisualStyle
  2
Sketchy
 70
    24
177
     3
291
     0
 70
    58
 90
        1
176
     1
 90
        2
176
     1
 90
        2
176
     1
 90
        0
176
     1
 40
0.6
176
     1
 40
30.0
176
     1
 62
     7
420
 16777215
176
     1
 90
        2
176
     1
 90
        2
176
     1
 62
     7
176
     1
 62
     7
176
     1
 90
        1
176
     1
 90
        1
176
     1
 40
40.0
176
     1
 90
       11
176
     1
 62
     7
176
     1
 40
1.0
176
     1
 90
        1
176
     1
 90
        6
176
     1
 90
        2
176
     1
 62
     7
176
     1
 90
        6
176
     1
 90
        0
176
     1
 90
        0
176
     1
290
     0
176
     1
 90
        1
176
     1
 40
0.0
176
     1
 90
        0
176
     1
290
     0
176
     1
290
     1
176
     1
290
     1
176
     1
290
     0
176
     1
290
     0
176
     1
290
     0
176
     1
290
     0
176
     1
290
     0
176
     1
290
     0
176
     1
 90
       50
176
     1
 40
0.0
176
     1
 40
1.0
176
     1
 90
        0
176
     1
 62
    18
420
        0
176
     1
 90
       50
176
     1
 90
        3
176
     1
 62
     5
420
      255
176
     1
290
     0
176
     1
 90
       50
176
     1
 90
       50
176
     1
 90
       50
176
     1
290
     0
176
     1
 90
       50
176
     1
 62
   256
176
     0
 40
1.0
176
     0
 90
        2
176
     1
  1
strokes_ogs.tif
176
     1
290
     0
176
     1
 40
1.0
176
     1
 40
1.0
176
     1
  0
VISUALSTYLE
  5
37
102
{ACAD_REACTORS
330
2A
102
}
330
2A
100
AcDbVisualStyle
  2
Thicken
 70
    13
177
     3
291
     1
 70
    58
 90
        2
176
     1
 90
        2
176
     1
 90
        0
176
     1
 90
        0
176
     1
 40
0.6
176
     1
 40
30.0
176
     1
 62
     7
420
 16777215
176
     1
 90
        1
176
     1
 90
        4
176
     1
 62
     7
176
     1
 62
   257
176
     1
 90
        1
176
     1
 90
        1
176
     1
 40
1.0
176
     1
 90
       12
176
     1
 62
     7
176
     1
 40
1.0
176
     1
 90
        1
176
     1
 90
        6
176
     1
 90
        2
176
     1
 62
     7
176
     1
 90
        5
176
     1
 90
        0
176
     1
 90
        0
176
     1
290
     0
176
     1
 90
        1
176
     1
 40
0.0
176
     1
 90
        0
176
     1
290
     0
176
     1
290
     1
176
     1
290
     1
176
     1
290
     0
176
     1
290
     0
176
     1
290
     0
176
     1
290
     0
176
     1
290
     0
176
     1
290
     0
176
     1
 90
       50
176
     1
 40
0.0
176
     1
 40
1.0
176
     1
 90
        0
176
     1
 62
    18
420
        0
176
     1
 90
       50
176
     1
 90
        3
176
     1
 62
     5
420
      255
176
     1
290
     0
176
     1
 90
       50
176
     1
 90
       50
176
     1
 90
       50
176
     1
290
     0
176
     1
 90
       50
176
     1
 62
   256
176
     0
 40
1.0
176
     0
 90
        2
176
     1
  1
strokes_ogs.tif
176
     1
290
     0
176
     1
 40
1.0
176
     1
 40
1.0
176
     1
  0
VISUALSTYLE
  5
30
102
{ACAD_REACTORS
330
2A
102
}
330
2A
100
AcDbVisualStyle
  2
Wireframe
 70
     5
177
     3
291
     0
 70
    58
 90
        0
176
     1
 90
        2
176
     1
 90
        0
176
     1
 90
        0
176
     1
 40
0.6
176
     1
 40
30.0
176
     1
 62
     7
420
 16777215
176
     1
 90
        1
176
     1
 90
        4
176
     1
 62
     7
176
     1
 62
   257
176
     1
 90
        1
176
     1
 90
        1
176
     1
 40
1.0
176
     1
 90
        0
176
     1
 62
   257
176
     1
 40
1.0
176
     1
 90
        1
176
     1
 90
        6
176
     1
 90
        2
176
     1
 62
     7
176
     1
 90
        3
176
     1
 90
        0
176
     1
 90
        0
176
     1
290
     0
176
     1
 90
        1
176
     1
 40
0.0
176
     1
 90
        0
176
     1
290
     0
176
     1
290
     1
176
     1
290
     1
176
     1
290
     0
176
     1
290
     0
176
     1
290
     0
176
     1
290
     0
176
     1
290
     0
176
     1
290
     0
176
     1
 90
       50
176
     1
 40
0.0
176
     1
 40
1.0
176
     1
 90
        0
176
     1
 62
    18
420
        0
176
     1
 90
       50
176
     1
 90
        3
176
     1
 62
     5
420
      255
176
     1
290
     0
176
     1
 90
       50
176
     1
 90
       50
176
     1
 90
       50
176
     1
290
     0
176
     1
 90
       50
176
     1
 62
   256
176
     0
 40
1.0
176
     0
 90
        2
176
     1
  1
strokes_ogs.tif
176
     1
290
     0
176
     1
 40
1.0
176
     1
 40
1.0
176
     1
  0
VISUALSTYLE
  5
40
102
{ACAD_REACTORS
330
2A
102
}
330
2A
100
AcDbVisualStyle
  2
X-Ray
 70
    25
177
     3
291
     0
 70
    58
 90
        2
176
     1
 90
        2
176
     1
 90
        1
176
     1
 90
        1
176
     1
 40
0.5
176
     1
 40
30.0
176
     1
 62
     7
420
 16777215
176
     1
 90
        1
176
     1
 90
        0
176
     1
 62
     7
176
     1
 62
   257
176
     1
 90
        1
176
     1
 90
        1
176
     1
 40
1.0
176
     1
 90
        8
176
     1
 62
     7
176
     1
 40
1.0
176
     1
 90
        1
176
     1
 90
        6
176
     1
 90
        2
176
     1
 62
     7
176
     1
 90
        3
176
     1
 90
        0
176
     1
 90
        0
176
     1
290
     0
176
     1
 90
       13
176
     1
 40
0.0
176
     1
 90
        0
176
     1
290
     0
176
     1
290
     1
176
     1
290
     1
176
     1
290
     0
176
     1
290
     0
176
     1
290
     0
176
     1
290
     0
176
     1
290
     0
176
     1
290
     0
176
     1
 90
       50
176
     1
 40
0.0
176
     1
 40
1.0
176
     1
 90
        0
176
     1
 62
    18
420
        0
176
     1
 90
       50
176
     1
 90
        3
176
     1
 62
     5
420
      255
176
     1
290
     0
176
     1
 90
       50
176
     1
 90
       50
176
     1
 90
       50
176
     1
290
     0
176
     1
 90
       50
176
     1
 62
   256
176
     0
 40
1.0
176
     0
 90
        2
176
     1
  1
strokes_ogs.tif
176
     1
290
     0
176
     1
 40
1.0
176
     1
 40
1.0
176
     1
  0
DICTIONARYVAR
  5
267
102
{ACAD_REACTORS
330
266
102
}
330
266
100
DictionaryVariables
280
     0
  1
1:1
  0
DICTIONARYVAR
  5
26C
102
{ACAD_REACTORS
330
266
102
}
330
266
100
DictionaryVariables
280
     0
  1
Standard
  0
DICTIONARYVAR
  5
26B
102
{ACAD_REACTORS
330
266
102
}
330
266
100
DictionaryVariables
280
     0
  1
Standard
  0
DICTIONARY
  5
268
330
6A
100
AcDbDictionary
280
     1
281
     1
  3
ACAD_ROUNDTRIP_2008_TABLESTYLE_CELLSTYLEMAP
360
269
  0
CELLSTYLEMAP
  5
269
102
{ACAD_REACTORS
330
268
102
}
330
268
100
AcDbCellStyleMap
 90
        3
300
CELLSTYLE
  1
TABLEFORMAT_BEGIN
 90
        5
170
     1
 91
        0
 92
    32768
 62
   257
 93
        1
300
CONTENTFORMAT
  1
CONTENTFORMAT_BEGIN
 90
        0
 91
        0
 92
        4
 93
        0
300

 40
0.0
140
1.0
 94
        5
 62
     0
340
11
144
0.25
309
CONTENTFORMAT_END
171
     1
301
MARGIN
  1
CELLMARGIN_BEGIN
 40
0.06
 40
0.06
 40
0.06
 40
0.06
 40
0.06
 40
0.06
309
CELLMARGIN_END
 94
        6
 95
        1
302
GRIDFORMAT
  1
GRIDFORMAT_BEGIN
 90
        0
 91
        1
 62
     0
 92
       -2
340
14
 93
        0
 40
0.045
309
GRIDFORMAT_END
 95
        2
302
GRIDFORMAT
  1
GRIDFORMAT_BEGIN
 90
        0
 91
        1
 62
     0
 92
       -2
340
14
 93
        0
 40
0.045
309
GRIDFORMAT_END
 95
        4
302
GRIDFORMAT
  1
GRIDFORMAT_BEGIN
 90
        0
 91
        1
 62
     0
 92
       -2
340
14
 93
        0
 40
0.045
309
GRIDFORMAT_END
 95
        8
302
GRIDFORMAT
  1
GRIDFORMAT_BEGIN
 90
        0
 91
        1
 62
     0
 92
       -2
340
14
 93
        0
 40
0.045
309
GRIDFORMAT_END
 95
       16
302
GRIDFORMAT
  1
GRIDFORMAT_BEGIN
 90
        0
 91
        1
 62
     0
 92
       -2
340
14
 93
        0
 40
0.045
309
GRIDFORMAT_END
 95
       32
302
GRIDFORMAT
  1
GRIDFORMAT_BEGIN
 90
        0
 91
        1
 62
     0
 92
       -2
340
14
 93
        0
 40
0.045
309
GRIDFORMAT_END
309
TABLEFORMAT_END
  1
CELLSTYLE_BEGIN
 90
        1
 91
        1
300
_TITLE
309
CELLSTYLE_END
300
CELLSTYLE
  1
TABLEFORMAT_BEGIN
 90
        5
170
     1
 91
        0
 92
        0
 62
   257
 93
        1
300
CONTENTFORMAT
  1
CONTENTFORMAT_BEGIN
 90
        0
 91
        0
 92
        4
 93
        0
300

 40
0.0
140
1.0
 94
        5
 62
     0
340
11
144
0.18
309
CONTENTFORMAT_END
171
     1
301
MARGIN
  1
CELLMARGIN_BEGIN
 40
0.06
 40
0.06
 40
0.06
 40
0.06
 40
0.06
 40
0.06
309
CELLMARGIN_END
 94
        6
 95
        1
302
GRIDFORMAT
  1
GRIDFORMAT_BEGIN
 90
        0
 91
        1
 62
     0
 92
       -2
340
14
 93
        0
 40
0.045
309
GRIDFORMAT_END
 95
        2
302
GRIDFORMAT
  1
GRIDFORMAT_BEGIN
 90
        0
 91
        1
 62
     0
 92
       -2
340
14
 93
        0
 40
0.045
309
GRIDFORMAT_END
 95
        4
302
GRIDFORMAT
  1
GRIDFORMAT_BEGIN
 90
        0
 91
        1
 62
     0
 92
       -2
340
14
 93
        0
 40
0.045
309
GRIDFORMAT_END
 95
        8
302
GRIDFORMAT
  1
GRIDFORMAT_BEGIN
 90
        0
 91
        1
 62
     0
 92
       -2
340
14
 93
        0
 40
0.045
309
GRIDFORMAT_END
 95
       16
302
GRIDFORMAT
  1
GRIDFORMAT_BEGIN
 90
        0
 91
        1
 62
     0
 92
       -2
340
14
 93
        0
 40
0.045
309
GRIDFORMAT_END
 95
       32
302
GRIDFORMAT
  1
GRIDFORMAT_BEGIN
 90
        0
 91
        1
 62
     0
 92
       -2
340
14
 93
        0
 40
0.045
309
GRIDFORMAT_END
309
TABLEFORMAT_END
  1
CELLSTYLE_BEGIN
 90
        2
 91
        1
300
_HEADER
309
CELLSTYLE_END
300
CELLSTYLE
  1
TABLEFORMAT_BEGIN
 90
        5
170
     1
 91
        0
 92
        0
 62
   257
 93
        1
300
CONTENTFORMAT
  1
CONTENTFORMAT_BEGIN
 90
        0
 91
        0
 92
        4
 93
        0
300

 40
0.0
140
1.0
 94
        2
 62
     0
340
11
144
0.18
309
CONTENTFORMAT_END
171
     1
301
MARGIN
  1
CELLMARGIN_BEGIN
 40
0.06
 40
0.06
 40
0.06
 40
0.06
 40
0.06
 40
0.06
309
CELLMARGIN_END
 94
        6
 95
        1
302
GRIDFORMAT
  1
GRIDFORMAT_BEGIN
 90
        0
 91
        1
 62
     0
 92
       -2
340
14
 93
        0
 40
0.045
309
GRIDFORMAT_END
 95
        2
302
GRIDFORMAT
  1
GRIDFORMAT_BEGIN
 90
        0
 91
        1
 62
     0
 92
       -2
340
14
 93
        0
 40
0.045
309
GRIDFORMAT_END
 95
        4
302
GRIDFORMAT
  1
GRIDFORMAT_BEGIN
 90
        0
 91
        1
 62
     0
 92
       -2
340
14
 93
        0
 40
0.045
309
GRIDFORMAT_END
 95
        8
302
GRIDFORMAT
  1
GRIDFORMAT_BEGIN
 90
        0
 91
        1
 62
     0
 92
       -2
340
14
 93
        0
 40
0.045
309
GRIDFORMAT_END
 95
       16
302
GRIDFORMAT
  1
GRIDFORMAT_BEGIN
 90
        0
 91
        1
 62
     0
 92
       -2
340
14
 93
        0
 40
0.045
309
GRIDFORMAT_END
 95
       32
302
GRIDFORMAT
  1
GRIDFORMAT_BEGIN
 90
        0
 91
        1
 62
     0
 92
       -2
340
14
 93
        0
 40
0.045
309
GRIDFORMAT_END
309
TABLEFORMAT_END
  1
CELLSTYLE_BEGIN
 90
        3
 91
        2
300
_DATA
309
CELLSTYLE_END
  0
ENDSEC
  0
EOF