0
SECTION
  2
HEADER
  9
$ACADVER
  1
AC1027
  9
$ACADMAINTVER
 70
     8
  9
$DWGCODEPAGE
  3
ANSI_1252
  9
$REQUIREDVERSIONS
160
                 0
  9
$COMMENTS
  1
File was created by Cadenas
  9
$CUSTOMPROPERTYTAG
  1
NN
  9
$CUSTOMPROPERTY
  1
Imperial - IP Wide Slot Take-Up
  9
$CUSTOMPROPERTYTAG
  1
NT
  9
$CUSTOMPROPERTY
  1
Imperial Wide Slot Take-Up Bearings
  9
$CUSTOMPROPERTYTAG
  1
NB
  9
$CUSTOMPROPERTY
  1
069384
  9
$CUSTOMPROPERTYTAG
  1
NBSYN
  9
$CUSTOMPROPERTY
  1
$PN.
  9
$CUSTOMPROPERTYTAG
  1
LINA
  9
$CUSTOMPROPERTY
  1
069384
  9
$CUSTOMPROPERTYTAG
  1
SS
  9
$CUSTOMPROPERTY
  1
2-1/2
  9
$CUSTOMPROPERTYTAG
  1
PN
  9
$CUSTOMPROPERTY
  1
069384
  9
$CUSTOMPROPERTYTAG
  1
DESCRIPTION
  9
$CUSTOMPROPERTY
  1
WSTU-IP-208RE
  9
$CUSTOMPROPERTYTAG
  1
EF
  9
$CUSTOMPROPERTY
  1
Expansion
  9
$CUSTOMPROPERTYTAG
  1
ST
  9
$CUSTOMPROPERTY
  1
Contact Seal
  9
$CUSTOMPROPERTYTAG
  1
A
  9
$CUSTOMPROPERTY
  1
3-27/64
  9
$CUSTOMPROPERTYTAG
  1
B
  9
$CUSTOMPROPERTY
  1
7-11/16
  9
$CUSTOMPROPERTYTAG
  1
C
  9
$CUSTOMPROPERTY
  1
1-1/16
  9
$CUSTOMPROPERTYTAG
  1
D
  9
$CUSTOMPROPERTY
  1
4-3/8
  9
$CUSTOMPROPERTYTAG
  1
E
  9
$CUSTOMPROPERTY
  1
5
  9
$CUSTOMPROPERTYTAG
  1
F
  9
$CUSTOMPROPERTY
  1
1-3/8
  9
$CUSTOMPROPERTYTAG
  1
G
  9
$CUSTOMPROPERTY
  1
1-1/16
  9
$CUSTOMPROPERTYTAG
  1
H
  9
$CUSTOMPROPERTY
  1
1-1/4
  9
$CUSTOMPROPERTYTAG
  1
J
  9
$CUSTOMPROPERTY
  1
4-1/4
  9
$CUSTOMPROPERTYTAG
  1
K
  9
$CUSTOMPROPERTY
  1
2-1/2
  9
$CUSTOMPROPERTYTAG
  1
L
  9
$CUSTOMPROPERTY
  1
3-7/8
  9
$CUSTOMPROPERTYTAG
  1
M
  9
$CUSTOMPROPERTY
  1
5-1/8
  9
$CUSTOMPROPERTYTAG
  1
N
  9
$CUSTOMPROPERTY
  1
5-7/8
  9
$CUSTOMPROPERTYTAG
  1
R
  9
$CUSTOMPROPERTY
  1
3-7/16
  9
$CUSTOMPROPERTYTAG
  1
S
  9
$CUSTOMPROPERTY
  1
2-7/32
  9
$CUSTOMPROPERTYTAG
  1
T
  9
$CUSTOMPROPERTY
  1
2-7/16
  9
$CUSTOMPROPERTYTAG
  1
X
  9
$CUSTOMPROPERTY
  1
1/4
  9
$CUSTOMPROPERTYTAG
  1
Y
  9
$CUSTOMPROPERTY
  1
0.025
  9
$CUSTOMPROPERTYTAG
  1
Z
  9
$CUSTOMPROPERTY
  1
2-15/16
  9
$CUSTOMPROPERTYTAG
  1
COMPANY
  9
$CUSTOMPROPERTY
  1
baldor
  9
$INSBASE
 10
0.0
 20
0.0
 30
0.0
  9
$EXTMIN
 10
1.000000000000000E+20
 20
1.000000000000000E+20
 30
1.000000000000000E+20
  9
$EXTMAX
 10
-1.000000000000000E+20
 20
-1.000000000000000E+20
 30
-1.000000000000000E+20
  9
$LIMMIN
 10
0.0
 20
0.0
  9
$LIMMAX
 10
12.0
 20
9.0
  9
$ORTHOMODE
 70
     0
  9
$REGENMODE
 70
     1
  9
$FILLMODE
 70
     1
  9
$QTEXTMODE
 70
     0
  9
$MIRRTEXT
 70
     1
  9
$LTSCALE
 40
1.0
  9
$ATTMODE
 70
     1
  9
$TEXTSIZE
 40
0.2
  9
$TRACEWID
 40
0.05
  9
$TEXTSTYLE
  7
Standard
  9
$CLAYER
  8
0
  9
$CELTYPE
  6
ByLayer
  9
$CECOLOR
 62
   256
  9
$CELTSCALE
 40
1.0
  9
$DISPSILH
 70
     0
  9
$DIMSCALE
 40
1.0
  9
$DIMASZ
 40
0.18
  9
$DIMEXO
 40
0.0625
  9
$DIMDLI
 40
0.38
  9
$DIMRND
 40
0.0
  9
$DIMDLE
 40
0.0
  9
$DIMEXE
 40
0.18
  9
$DIMTP
 40
0.0
  9
$DIMTM
 40
0.0
  9
$DIMTXT
 40
0.18
  9
$DIMCEN
 40
0.09
  9
$DIMTSZ
 40
0.0
  9
$DIMTOL
 70
     0
  9
$DIMLIM
 70
     0
  9
$DIMTIH
 70
     1
  9
$DIMTOH
 70
     1
  9
$DIMSE1
 70
     0
  9
$DIMSE2
 70
     0
  9
$DIMTAD
 70
     0
  9
$DIMZIN
 70
     0
  9
$DIMBLK
  1

  9
$DIMASO
 70
     1
  9
$DIMSHO
 70
     1
  9
$DIMPOST
  1

  9
$DIMAPOST
  1

  9
$DIMALT
 70
     0
  9
$DIMALTD
 70
     2
  9
$DIMALTF
 40
25.4
  9
$DIMLFAC
 40
1.0
  9
$DIMTOFL
 70
     0
  9
$DIMTVP
 40
0.0
  9
$DIMTIX
 70
     0
  9
$DIMSOXD
 70
     0
  9
$DIMSAH
 70
     0
  9
$DIMBLK1
  1

  9
$DIMBLK2
  1

  9
$DIMSTYLE
  2
Standard
  9
$DIMCLRD
 70
     0
  9
$DIMCLRE
 70
     0
  9
$DIMCLRT
 70
     0
  9
$DIMTFAC
 40
1.0
  9
$DIMGAP
 40
0.09
  9
$DIMJUST
 70
     0
  9
$DIMSD1
 70
     0
  9
$DIMSD2
 70
     0
  9
$DIMTOLJ
 70
     1
  9
$DIMTZIN
 70
     0
  9
$DIMALTZ
 70
     0
  9
$DIMALTTZ
 70
     0
  9
$DIMUPT
 70
     0
  9
$DIMDEC
 70
     4
  9
$DIMTDEC
 70
     4
  9
$DIMALTU
 70
     2
  9
$DIMALTTD
 70
     2
  9
$DIMTXSTY
  7
Standard
  9
$DIMAUNIT
 70
     0
  9
$DIMADEC
 70
     0
  9
$DIMALTRND
 40
0.0
  9
$DIMAZIN
 70
     0
  9
$DIMDSEP
 70
    46
  9
$DIMATFIT
 70
     3
  9
$DIMFRAC
 70
     0
  9
$DIMLDRBLK
  1

  9
$DIMLUNIT
 70
     2
  9
$DIMLWD
 70
    -2
  9
$DIMLWE
 70
    -2
  9
$DIMTMOVE
 70
     0
  9
$DIMFXL
 40
1.0
  9
$DIMFXLON
 70
     0
  9
$DIMJOGANG
 40
0.7853981633974483
  9
$DIMTFILL
 70
     0
  9
$DIMTFILLCLR
 70
     0
  9
$DIMARCSYM
 70
     0
  9
$DIMLTYPE
  6

  9
$DIMLTEX1
  6

  9
$DIMLTEX2
  6

  9
$DIMTXTDIRECTION
 70
     0
  9
$LUNITS
 70
     2
  9
$LUPREC
 70
     4
  9
$SKETCHINC
 40
0.1
  9
$FILLETRAD
 40
0.5
  9
$AUNITS
 70
     0
  9
$AUPREC
 70
     0
  9
$MENU
  1
.
  9
$ELEVATION
 40
0.0
  9
$PELEVATION
 40
0.0
  9
$THICKNESS
 40
0.0
  9
$LIMCHECK
 70
     0
  9
$CHAMFERA
 40
0.0
  9
$CHAMFERB
 40
0.0
  9
$CHAMFERC
 40
0.0
  9
$CHAMFERD
 40
0.0
  9
$SKPOLY
 70
     0
  9
$TDCREATE
 40
2458168.989727431
  9
$TDUCREATE
 40
2458168.948060764
  9
$TDUPDATE
 40
2458168.989727616
  9
$TDUUPDATE
 40
2458168.948060949
  9
$TDINDWG
 40
0.0000000116
  9
$TDUSRTIMER
 40
0.0000000116
  9
$USRTIMER
 70
     1
  9
$ANGBASE
 50
0.0
  9
$ANGDIR
 70
     0
  9
$PDMODE
 70
     0
  9
$PDSIZE
 40
0.0
  9
$PLINEWID
 40
0.0
  9
$SPLFRAME
 70
     0
  9
$SPLINETYPE
 70
     6
  9
$SPLINESEGS
 70
     8
  9
$HANDSEED
  5
276
  9
$SURFTAB1
 70
     6
  9
$SURFTAB2
 70
     6
  9
$SURFTYPE
 70
     6
  9
$SURFU
 70
     6
  9
$SURFV
 70
     6
  9
$UCSBASE
  2

  9
$UCSNAME
  2

  9
$UCSORG
 10
0.0
 20
0.0
 30
0.0
  9
$UCSXDIR
 10
1.0
 20
0.0
 30
0.0
  9
$UCSYDIR
 10
0.0
 20
1.0
 30
0.0
  9
$UCSORTHOREF
  2

  9
$UCSORTHOVIEW
 70
     0
  9
$UCSORGTOP
 10
0.0
 20
0.0
 30
0.0
  9
$UCSORGBOTTOM
 10
0.0
 20
0.0
 30
0.0
  9
$UCSORGLEFT
 10
0.0
 20
0.0
 30
0.0
  9
$UCSORGRIGHT
 10
0.0
 20
0.0
 30
0.0
  9
$UCSORGFRONT
 10
0.0
 20
0.0
 30
0.0
  9
$UCSORGBACK
 10
0.0
 20
0.0
 30
0.0
  9
$PUCSBASE
  2

  9
$PUCSNAME
  2

  9
$PUCSORG
 10
0.0
 20
0.0
 30
0.0
  9
$PUCSXDIR
 10
1.0
 20
0.0
 30
0.0
  9
$PUCSYDIR
 10
0.0
 20
1.0
 30
0.0
  9
$PUCSORTHOREF
  2

  9
$PUCSORTHOVIEW
 70
     0
  9
$PUCSORGTOP
 10
0.0
 20
0.0
 30
0.0
  9
$PUCSORGBOTTOM
 10
0.0
 20
0.0
 30
0.0
  9
$PUCSORGLEFT
 10
0.0
 20
0.0
 30
0.0
  9
$PUCSORGRIGHT
 10
0.0
 20
0.0
 30
0.0
  9
$PUCSORGFRONT
 10
0.0
 20
0.0
 30
0.0
  9
$PUCSORGBACK
 10
0.0
 20
0.0
 30
0.0
  9
$USERI1
 70
     0
  9
$USERI2
 70
     0
  9
$USERI3
 70
     0
  9
$USERI4
 70
     0
  9
$USERI5
 70
     0
  9
$USERR1
 40
0.0
  9
$USERR2
 40
0.0
  9
$USERR3
 40
0.0
  9
$USERR4
 40
0.0
  9
$USERR5
 40
0.0
  9
$WORLDVIEW
 70
     1
  9
$SHADEDGE
 70
     3
  9
$SHADEDIF
 70
    70
  9
$TILEMODE
 70
     1
  9
$MAXACTVP
 70
    64
  9
$PINSBASE
 10
0.0
 20
0.0
 30
0.0
  9
$PLIMCHECK
 70
     0
  9
$PEXTMIN
 10
1.000000000000000E+20
 20
1.000000000000000E+20
 30
1.000000000000000E+20
  9
$PEXTMAX
 10
-1.000000000000000E+20
 20
-1.000000000000000E+20
 30
-1.000000000000000E+20
  9
$PLIMMIN
 10
0.0
 20
0.0
  9
$PLIMMAX
 10
12.0
 20
9.0
  9
$UNITMODE
 70
     0
  9
$VISRETAIN
 70
     1
  9
$PLINEGEN
 70
     0
  9
$PSLTSCALE
 70
     1
  9
$TREEDEPTH
 70
  3020
  9
$CMLSTYLE
  2
Standard
  9
$CMLJUST
 70
     0
  9
$CMLSCALE
 40
1.0
  9
$PROXYGRAPHICS
 70
     1
  9
$MEASUREMENT
 70
     0
  9
$CELWEIGHT
370
    -1
  9
$ENDCAPS
280
     0
  9
$JOINSTYLE
280
     0
  9
$LWDISPLAY
290
     0
  9
$INSUNITS
 70
     1
  9
$HYPERLINKBASE
  1

  9
$STYLESHEET
  1

  9
$XEDIT
290
     1
  9
$CEPSNTYPE
380
     0
  9
$PSTYLEMODE
290
     1
  9
$FINGERPRINTGUID
  2
{A25228DA-44FD-4BDF-AB7D-678496F62A8E}
  9
$VERSIONGUID
  2
{FAEB1C32-E019-11D5-929B-00C0DF256EC4}
  9
$EXTNAMES
290
     1
  9
$PSVPSCALE
 40
0.0
  9
$OLESTARTUP
290
     0
  9
$SORTENTS
280
   127
  9
$INDEXCTL
280
     0
  9
$HIDETEXT
280
     1
  9
$XCLIPFRAME
280
     2
  9
$HALOGAP
280
     0
  9
$OBSCOLOR
 70
   257
  9
$OBSLTYPE
280
     0
  9
$INTERSECTIONDISPLAY
280
     0
  9
$INTERSECTIONCOLOR
 70
   257
  9
$DIMASSOC
280
     2
  9
$PROJECTNAME
  1

  9
$CAMERADISPLAY
290
     0
  9
$LENSLENGTH
 40
50.0
  9
$CAMERAHEIGHT
 40
0.0
  9
$STEPSPERSEC
 40
2.0
  9
$STEPSIZE
 40
6.0
  9
$3DDWFPREC
 40
2.0
  9
$PSOLWIDTH
 40
0.25
  9
$PSOLHEIGHT
 40
4.0
  9
$LOFTANG1
 40
1.570796326794897
  9
$LOFTANG2
 40
1.570796326794897
  9
$LOFTMAG1
 40
0.0
  9
$LOFTMAG2
 40
0.0
  9
$LOFTPARAM
 70
     7
  9
$LOFTNORMALS
280
     1
  9
$LATITUDE
 40
37.795
  9
$LONGITUDE
 40
-122.394
  9
$NORTHDIRECTION
 40
0.0
  9
$TIMEZONE
 70
 -8000
  9
$LIGHTGLYPHDISPLAY
280
     1
  9
$TILEMODELIGHTSYNCH
280
     1
  9
$CMATERIAL
347
44
  9
$SOLIDHIST
280
     0
  9
$SHOWHIST
280
     1
  9
$DWFFRAME
280
     2
  9
$DGNFRAME
280
     2
  9
$REALWORLDSCALE
290
     1
  9
$INTERFERECOLOR
 62
   256
  9
$CSHADOW
280
     0
  9
$SHADOWPLANELOCATION
 40
0.0
  0
ENDSEC
  0
SECTION
  2
CLASSES
  0
CLASS
  1
ACDBDICTIONARYWDFLT
  2
AcDbDictionaryWithDefault
  3
ObjectDBX Classes
 90
        0
 91
        4
280
     0
281
     0
  0
CLASS
  1
VISUALSTYLE
  2
AcDbVisualStyle
  3
ObjectDBX Classes
 90
     4095
 91
        4
280
     0
281
     0
  0
CLASS
  1
MATERIAL
  2
AcDbMaterial
  3
ObjectDBX Classes
 90
     1153
 91
        4
280
     0
281
     0
  0
CLASS
  1
SCALE
  2
AcDbScale
  3
ObjectDBX Classes
 90
     1153
 91
        4
280
     0
281
     0
  0
CLASS
  1
TABLESTYLE
  2
AcDbTableStyle
  3
ObjectDBX Classes
 90
     4095
 91
        4
280
     0
281
     0
  0
CLASS
  1
MLEADERSTYLE
  2
AcDbMLeaderStyle
  3
ACDB_MLEADERSTYLE_CLASS
 90
     4095
 91
        4
280
     0
281
     0
  0
CLASS
  1
SUN
  2
AcDbSun
  3
SCENEOE
 90
     1153
 91
        4
280
     0
281
     0
  0
CLASS
  1
DICTIONARYVAR
  2
AcDbDictionaryVar
  3
ObjectDBX Classes
 90
        0
 91
        4
280
     0
281
     0
  0
CLASS
  1
CELLSTYLEMAP
  2
AcDbCellStyleMap
  3
ObjectDBX Classes
 90
     1152
 91
        4
280
     0
281
     0
  0
ENDSEC
  0
SECTION
  2
TABLES
  0
TABLE
  2
VPORT
  5
8
330
0
100
AcDbSymbolTable
 70
     1
  0
VPORT
  5
29
330
8
100
AcDbSymbolTableRecord
100
AcDbViewportTableRecord
  2
*Active
 70
     0
 10
0.0
 20
0.0
 11
1.0
 21
1.0
 12
0.9390019545373711
 22
-0.284140625
 13
0.0
 23
0.0
 14
0.5
 24
0.5
 15
0.5
 25
0.5
 16
0.0
 26
0.0
 36
1.0
 17
0.0
 27
0.0
 37
0.0
 40
3.946603125
 41
2.126591082741253
 42
50.0
 43
0.0
 44
0.0
 50
0.0
 51
0.0
 71
     0
 72
   100
 73
     1
 74
     3
 75
     0
 76
     0
 77
     0
 78
     0
281
     0
 65
     1
110
0.0
120
0.0
130
0.0
111
1.0
121
0.0
131
0.0
112
0.0
122
1.0
132
0.0
 79
     0
146
0.0
348
2F
 60
     3
 61
     5
292
     1
282
     1
141
0.0
142
0.0
 63
   250
361
6D
  0
ENDTAB
  0
TABLE
  2
LTYPE
  5
5
330
0
100
AcDbSymbolTable
 70
     3
  0
LTYPE
  5
14
330
5
100
AcDbSymbolTableRecord
100
AcDbLinetypeTableRecord
  2
ByBlock
 70
     0
  3

 72
    65
 73
     0
 40
0.0
  0
LTYPE
  5
15
330
5
100
AcDbSymbolTableRecord
100
AcDbLinetypeTableRecord
  2
ByLayer
 70
     0
  3

 72
    65
 73
     0
 40
0.0
  0
LTYPE
  5
16
330
5
100
AcDbSymbolTableRecord
100
AcDbLinetypeTableRecord
  2
Continuous
 70
     0
  3
Solid line
 72
    65
 73
     0
 40
0.0
  0
LTYPE
  5
A2
330
5
100
AcDbSymbolTableRecord
100
AcDbLinetypeTableRecord
  2
Dashed
 70
     0
  3

 72
    65
 73
     2
 40
2.0
 49
1.0
 74
     0
 49
-1.0
 74
     0
  0
LTYPE
  5
1EB
330
5
100
AcDbSymbolTableRecord
100
AcDbLinetypeTableRecord
  2
Center
 70
     0
  3

 72
    65
 73
     4
 40
1.5
 49
0.45
 74
     0
 49
-0.5
 74
     0
 49
0.05
 74
     0
 49
-0.5
 74
     0
  0
ENDTAB
  0
TABLE
  2
LAYER
  5
2
330
0
100
AcDbSymbolTable
 70
     7
  0
LAYER
  5
10
330
2
100
AcDbSymbolTableRecord
100
AcDbLayerTableRecord
  2
0
 70
     0
 62
     7
  6
Continuous
370
    -3
390
F
347
46
348
0
  0
LAYER
  5
72
330
2
100
AcDbSymbolTableRecord
100
AcDbLayerTableRecord
  2
AM_6
 70
     0
 62
    -2
  6
Continuous
370
    35
390
F
347
46
348
0
  0
LAYER
  5
A3
330
2
100
AcDbSymbolTableRecord
100
AcDbLayerTableRecord
  2
AM_9
 70
     0
 62
     6
  6
Dashed
370
    25
390
F
347
46
348
0
  0
LAYER
  5
E7
330
2
100
AcDbSymbolTableRecord
100
AcDbLayerTableRecord
  2
AM_4
 70
     0
 62
     7
  6
Continuous
370
    50
390
F
347
46
348
0
  0
LAYER
  5
131
330
2
100
AcDbSymbolTableRecord
100
AcDbLayerTableRecord
  2
AM_5
 70
     0
 62
     3
  6
Continuous
370
    25
390
F
347
46
348
0
  0
LAYER
  5
1EC
330
2
100
AcDbSymbolTableRecord
100
AcDbLayerTableRecord
  2
AM_7
 70
     0
 62
     7
  6
Center
370
    25
390
F
347
46
348
0
  0
LAYER
  5
25F
330
2
100
AcDbSymbolTableRecord
100
AcDbLayerTableRecord
  2
ConnectionPoints
 70
     0
 62
     7
  6
Continuous
370
    50
390
F
347
46
348
0
  0
ENDTAB
  0
TABLE
  2
STYLE
  5
3
330
0
100
AcDbSymbolTable
 70
     1
  0
STYLE
  5
11
330
3
100
AcDbSymbolTableRecord
100
AcDbTextStyleTableRecord
  2
Standard
 70
     0
 40
0.0
 41
1.0
 50
0.0
 71
     0
 42
0.2
  3
txt
  4

  0
ENDTAB
  0
TABLE
  2
VIEW
  5
6
330
0
100
AcDbSymbolTable
 70
     0
  0
ENDTAB
  0
TABLE
  2
UCS
  5
7
330
0
100
AcDbSymbolTable
 70
     0
  0
ENDTAB
  0
TABLE
  2
APPID
  5
9
330
0
100
AcDbSymbolTable
 70
     1
  0
APPID
  5
12
330
9
100
AcDbSymbolTableRecord
100
AcDbRegAppTableRecord
  2
ACAD
 70
     0
  0
ENDTAB
  0
TABLE
  2
DIMSTYLE
  5
A
330
0
100
AcDbSymbolTable
 70
     1
100
AcDbDimStyleTable
  0
DIMSTYLE
105
27
330
A
100
AcDbSymbolTableRecord
100
AcDbDimStyleTableRecord
  2
Standard
 70
     0
178
     0
340
11
  0
ENDTAB
  0
TABLE
  2
BLOCK_RECORD
  5
1
330
0
100
AcDbSymbolTable
 70
     8
  0
BLOCK_RECORD
  5
1F
330
1
100
AcDbSymbolTableRecord
100
AcDbBlockTableRecord
  2
*Model_Space
340
22
 70
     0
280
     1
281
     0
  0
BLOCK_RECORD
  5
1B
330
1
100
AcDbSymbolTableRecord
100
AcDbBlockTableRecord
  2
*Paper_Space
340
1E
 70
     0
280
     1
281
     0
  0
BLOCK_RECORD
  5
23
330
1
100
AcDbSymbolTableRecord
100
AcDbBlockTableRecord
  2
*Paper_Space0
340
26
 70
     0
280
     1
281
     0
  0
BLOCK_RECORD
  5
6E
330
1
100
AcDbSymbolTableRecord
100
AcDbBlockTableRecord
  2
1_069384_4
340
0
102
{BLKREFS
331
6F
102
}
 70
     0
280
     1
281
     0
  0
BLOCK_RECORD
  5
91
330
1
100
AcDbSymbolTableRecord
100
AcDbBlockTableRecord
  2
2_405016_Inch_0_in_069384_4
340
0
102
{BLKREFS
331
92
102
}
 70
     0
280
     1
281
     0
  0
BLOCK_RECORD
  5
121
330
1
100
AcDbSymbolTableRecord
100
AcDbBlockTableRecord
  2
3_ASME_B18_3_10_1_0_in_069384_4
340
0
102
{BLKREFS
331
122
102
}
 70
     0
280
     1
281
     0
  0
BLOCK_RECORD
  5
134
330
1
100
AcDbSymbolTableRecord
100
AcDbBlockTableRecord
  2
4_ASME_B18_3_10_2_0_in_069384_4
340
0
102
{BLKREFS
331
135
102
}
 70
     0
280
     1
281
     0
  0
BLOCK_RECORD
  5
156
330
1
100
AcDbSymbolTableRecord
100
AcDbBlockTableRecord
  2
5_070896LW_0_in_069384_4
340
0
102
{BLKREFS
331
157
102
}
 70
     0
280
     1
281
     0
  0
BLOCK_RECORD
  5
18C
330
1
100
AcDbSymbolTableRecord
100
AcDbBlockTableRecord
  2
6_070896I_0_in_069384_4
340
0
102
{BLKREFS
331
18D
102
}
 70
     0
280
     1
281
     0
  0
BLOCK_RECORD
  5
20D
330
1
100
AcDbSymbolTableRecord
100
AcDbBlockTableRecord
  2
7_069384H_0_in_069384_4
340
0
102
{BLKREFS
331
20E
102
}
 70
     0
280
     1
281
     0
  0
ENDTAB
  0
ENDSEC
  0
SECTION
  2
BLOCKS
  0
BLOCK
  5
20
330
1F
100
AcDbEntity
  8
0
100
AcDbBlockBegin
  2
*Model_Space
 70
     0
 10
0.0
 20
0.0
 30
0.0
  3
*Model_Space
  1

  0
ENDBLK
  5
21
330
1F
100
AcDbEntity
  8
0
100
AcDbBlockEnd
  0
BLOCK
  5
1C
330
1B
100
AcDbEntity
 67
     1
  8
0
100
AcDbBlockBegin
  2
*Paper_Space
 70
     0
 10
0.0
 20
0.0
 30
0.0
  3
*Paper_Space
  1

  0
ENDBLK
  5
1D
330
1B
100
AcDbEntity
 67
     1
  8
0
100
AcDbBlockEnd
  0
BLOCK
  5
24
330
23
100
AcDbEntity
  8
0
100
AcDbBlockBegin
  2
*Paper_Space0
 70
     0
 10
0.0
 20
0.0
 30
0.0
  3
*Paper_Space0
  1

  0
ENDBLK
  5
25
330
23
100
AcDbEntity
  8
0
100
AcDbBlockEnd
  0
BLOCK
  5
70
330
6E
100
AcDbEntity
  8
0
100
AcDbBlockBegin
  2
1_069384_4
 70
     2
 10
0.0
 20
0.0
 30
0.0
  3
1_069384_4
  1

  0
ATTDEF
  5
73
330
6E
100
AcDbEntity
  8
AM_6
100
AcDbText
 10
10.053125
 20
1.65046875
 30
0.0
 40
0.5
  1
Imperial - IP Wide Slot Take-Up
100
AcDbAttributeDefinition
  3

  2
NN
 70
     8
280
     0
  0
ATTDEF
  5
74
330
6E
100
AcDbEntity
  8
AM_6
100
AcDbText
 10
10.053125
 20
1.15046875
 30
0.0
 40
0.5
  1
Imperial Wide Slot Take-Up Bearings
100
AcDbAttributeDefinition
  3

  2
NT
 70
     8
280
     0
  0
ATTDEF
  5
75
330
6E
100
AcDbEntity
  8
AM_6
100
AcDbText
 10
10.053125
 20
0.6504687500000002
 30
0.0
 40
0.5
  1
069384
100
AcDbAttributeDefinition
  3

  2
NB
 70
     8
280
     0
  0
ATTDEF
  5
76
330
6E
100
AcDbEntity
  8
AM_6
100
AcDbText
 10
10.053125
 20
0.1504687500000002
 30
0.0
 40
0.5
  1
$PN.
100
AcDbAttributeDefinition
  3

  2
NBSYN
 70
     8
280
     0
  0
ATTDEF
  5
77
330
6E
100
AcDbEntity
  8
AM_6
100
AcDbText
 10
10.053125
 20
-0.3495312499999998
 30
0.0
 40
0.5
  1
069384
100
AcDbAttributeDefinition
  3

  2
LINA
 70
     8
280
     0
  0
ATTDEF
  5
78
330
6E
100
AcDbEntity
  8
AM_6
100
AcDbText
 10
10.053125
 20
-0.8495312499999998
 30
0.0
 40
0.5
  1
2-1/2
100
AcDbAttributeDefinition
  3

  2
SS
 70
     8
280
     0
  0
ATTDEF
  5
79
330
6E
100
AcDbEntity
  8
AM_6
100
AcDbText
 10
10.053125
 20
-1.34953125
 30
0.0
 40
0.5
  1
069384
100
AcDbAttributeDefinition
  3

  2
PN
 70
     8
280
     0
  0
ATTDEF
  5
7A
330
6E
100
AcDbEntity
  8
AM_6
100
AcDbText
 10
10.053125
 20
-1.84953125
 30
0.0
 40
0.5
  1
WSTU-IP-208RE
100
AcDbAttributeDefinition
  3

  2
DESCRIPTION
 70
     8
280
     0
  0
ATTDEF
  5
7B
330
6E
100
AcDbEntity
  8
AM_6
100
AcDbText
 10
10.053125
 20
-2.34953125
 30
0.0
 40
0.5
  1
Expansion
100
AcDbAttributeDefinition
  3

  2
EF
 70
     8
280
     0
  0
ATTDEF
  5
7C
330
6E
100
AcDbEntity
  8
AM_6
100
AcDbText
 10
10.053125
 20
-2.84953125
 30
0.0
 40
0.5
  1
Contact Seal
100
AcDbAttributeDefinition
  3

  2
ST
 70
     8
280
     0
  0
ATTDEF
  5
7D
330
6E
100
AcDbEntity
  8
AM_6
100
AcDbText
 10
10.053125
 20
-3.34953125
 30
0.0
 40
0.5
  1
3-27/64
100
AcDbAttributeDefinition
  3

  2
A
 70
     8
280
     0
  0
ATTDEF
  5
7E
330
6E
100
AcDbEntity
  8
AM_6
100
AcDbText
 10
10.053125
 20
-3.84953125
 30
0.0
 40
0.5
  1
7-11/16
100
AcDbAttributeDefinition
  3

  2
B
 70
     8
280
     0
  0
ATTDEF
  5
7F
330
6E
100
AcDbEntity
  8
AM_6
100
AcDbText
 10
10.053125
 20
-4.34953125
 30
0.0
 40
0.5
  1
1-1/16
100
AcDbAttributeDefinition
  3

  2
C
 70
     8
280
     0
  0
ATTDEF
  5
80
330
6E
100
AcDbEntity
  8
AM_6
100
AcDbText
 10
10.053125
 20
-4.84953125
 30
0.0
 40
0.5
  1
4-3/8
100
AcDbAttributeDefinition
  3

  2
D
 70
     8
280
     0
  0
ATTDEF
  5
81
330
6E
100
AcDbEntity
  8
AM_6
100
AcDbText
 10
10.053125
 20
-5.34953125
 30
0.0
 40
0.5
  1
5
100
AcDbAttributeDefinition
  3

  2
E
 70
     8
280
     0
  0
ATTDEF
  5
82
330
6E
100
AcDbEntity
  8
AM_6
100
AcDbText
 10
10.053125
 20
-5.84953125
 30
0.0
 40
0.5
  1
1-3/8
100
AcDbAttributeDefinition
  3

  2
F
 70
     8
280
     0
  0
ATTDEF
  5
83
330
6E
100
AcDbEntity
  8
AM_6
100
AcDbText
 10
10.053125
 20
-6.34953125
 30
0.0
 40
0.5
  1
1-1/16
100
AcDbAttributeDefinition
  3

  2
G
 70
     8
280
     0
  0
ATTDEF
  5
84
330
6E
100
AcDbEntity
  8
AM_6
100
AcDbText
 10
10.053125
 20
-6.84953125
 30
0.0
 40
0.5
  1
1-1/4
100
AcDbAttributeDefinition
  3

  2
H
 70
     8
280
     0
  0
ATTDEF
  5
85
330
6E
100
AcDbEntity
  8
AM_6
100
AcDbText
 10
10.053125
 20
-7.34953125
 30
0.0
 40
0.5
  1
4-1/4
100
AcDbAttributeDefinition
  3

  2
J
 70
     8
280
     0
  0
ATTDEF
  5
86
330
6E
100
AcDbEntity
  8
AM_6
100
AcDbText
 10
10.053125
 20
-7.84953125
 30
0.0
 40
0.5
  1
2-1/2
100
AcDbAttributeDefinition
  3

  2
K
 70
     8
280
     0
  0
ATTDEF
  5
87
330
6E
100
AcDbEntity
  8
AM_6
100
AcDbText
 10
10.053125
 20
-8.34953125
 30
0.0
 40
0.5
  1
3-7/8
100
AcDbAttributeDefinition
  3

  2
L
 70
     8
280
     0
  0
ATTDEF
  5
88
330
6E
100
AcDbEntity
  8
AM_6
100
AcDbText
 10
10.053125
 20
-8.84953125
 30
0.0
 40
0.5
  1
5-1/8
100
AcDbAttributeDefinition
  3

  2
M
 70
     8
280
     0
  0
ATTDEF
  5
89
330
6E
100
AcDbEntity
  8
AM_6
100
AcDbText
 10
10.053125
 20
-9.34953125
 30
0.0
 40
0.5
  1
5-7/8
100
AcDbAttributeDefinition
  3

  2
N
 70
     8
280
     0
  0
ATTDEF
  5
8A
330
6E
100
AcDbEntity
  8
AM_6
100
AcDbText
 10
10.053125
 20
-9.84953125
 30
0.0
 40
0.5
  1
3-7/16
100
AcDbAttributeDefinition
  3

  2
R
 70
     8
280
     0
  0
ATTDEF
  5
8B
330
6E
100
AcDbEntity
  8
AM_6
100
AcDbText
 10
10.053125
 20
-10.34953125
 30
0.0
 40
0.5
  1
2-7/32
100
AcDbAttributeDefinition
  3

  2
S
 70
     8
280
     0
  0
ATTDEF
  5
8C
330
6E
100
AcDbEntity
  8
AM_6
100
AcDbText
 10
10.053125
 20
-10.84953125
 30
0.0
 40
0.5
  1
2-7/16
100
AcDbAttributeDefinition
  3

  2
T
 70
     8
280
     0
  0
ATTDEF
  5
8D
330
6E
100
AcDbEntity
  8
AM_6
100
AcDbText
 10
10.053125
 20
-11.34953125
 30
0.0
 40
0.5
  1
1/4
100
AcDbAttributeDefinition
  3

  2
X
 70
     8
280
     0
  0
ATTDEF
  5
8E
330
6E
100
AcDbEntity
  8
AM_6
100
AcDbText
 10
10.053125
 20
-11.84953125
 30
0.0
 40
0.5
  1
0.025
100
AcDbAttributeDefinition
  3

  2
Y
 70
     8
280
     0
  0
ATTDEF
  5
8F
330
6E
100
AcDbEntity
  8
AM_6
100
AcDbText
 10
10.053125
 20
-12.34953125
 30
0.0
 40
0.5
  1
2-15/16
100
AcDbAttributeDefinition
  3

  2
Z
 70
     8
280
     0
  0
ATTDEF
  5
90
330
6E
100
AcDbEntity
  8
AM_6
100
AcDbText
 10
10.053125
 20
-12.84953125
 30
0.0
 40
0.5
  1
baldor
100
AcDbAttributeDefinition
  3

  2
COMPANY
 70
     8
280
     0
  0
INSERT
  5
92
330
6E
100
AcDbEntity
  8
0
100
AcDbBlockReference
  2
2_405016_Inch_0_in_069384_4
 10
0.0
 20
0.0
 30
0.0
  0
INSERT
  5
122
330
6E
100
AcDbEntity
  8
0
100
AcDbBlockReference
  2
3_ASME_B18_3_10_1_0_in_069384_4
 10
0.0
 20
0.0
 30
0.0
  0
INSERT
  5
135
330
6E
100
AcDbEntity
  8
0
100
AcDbBlockReference
  2
4_ASME_B18_3_10_2_0_in_069384_4
 10
0.0
 20
0.0
 30
0.0
  0
INSERT
  5
157
330
6E
100
AcDbEntity
  8
0
100
AcDbBlockReference
  2
5_070896LW_0_in_069384_4
 10
0.0
 20
0.0
 30
0.0
  0
INSERT
  5
18D
330
6E
100
AcDbEntity
  8
0
100
AcDbBlockReference
  2
6_070896I_0_in_069384_4
 10
0.0
 20
0.0
 30
0.0
  0
INSERT
  5
20E
330
6E
100
AcDbEntity
  8
0
100
AcDbBlockReference
  2
7_069384H_0_in_069384_4
 10
0.0
 20
0.0
 30
0.0
  0
ENDBLK
  5
71
330
6E
100
AcDbEntity
  8
0
100
AcDbBlockEnd
  0
BLOCK
  5
93
330
91
100
AcDbEntity
  8
0
100
AcDbBlockBegin
  2
2_405016_Inch_0_in_069384_4
 70
     2
 10
0.0
 20
0.0
 30
0.0
  3
2_405016_Inch_0_in_069384_4
  1

  0
ATTDEF
  5
95
330
91
100
AcDbEntity
  8
AM_6
100
AcDbText
 10
2.678856771211444
 20
0.2187500000000024
 30
0.0
 40
0.5
  1
405016 -Inch
100
AcDbAttributeDefinition
  3

  2
NN
 70
     8
280
     0
  0
ATTDEF
  5
96
330
91
100
AcDbEntity
  8
AM_6
100
AcDbText
 10
2.678856771211444
 20
-0.2812499999999976
 30
0.0
 40
0.5
  1
Grease Fitting
100
AcDbAttributeDefinition
  3

  2
NT
 70
     8
280
     0
  0
ATTDEF
  5
97
330
91
100
AcDbEntity
  8
AM_6
100
AcDbText
 10
2.678856771211444
 20
-0.7812499999999976
 30
0.0
 40
0.5
  1
405016-Inch
100
AcDbAttributeDefinition
  3

  2
NB
 70
     8
280
     0
  0
ATTDEF
  5
98
330
91
100
AcDbEntity
  8
AM_6
100
AcDbText
 10
2.678856771211444
 20
-1.281249999999998
 30
0.0
 40
0.5
  1
$MN.-Inch
100
AcDbAttributeDefinition
  3

  2
NBSYN
 70
     8
280
     0
  0
ATTDEF
  5
99
330
91
100
AcDbEntity
  8
AM_6
100
AcDbText
 10
2.678856771211444
 20
-1.781249999999998
 30
0.0
 40
0.5
  1
405016
100
AcDbAttributeDefinition
  3

  2
LINA
 70
     8
280
     0
  0
ATTDEF
  5
9A
330
91
100
AcDbEntity
  8
AM_6
100
AcDbText
 10
2.678856771211444
 20
-2.281249999999997
 30
0.0
 40
0.5
  1
405016
100
AcDbAttributeDefinition
  3

  2
MN
 70
     8
280
     0
  0
ATTDEF
  5
9B
330
91
100
AcDbEntity
  8
AM_6
100
AcDbText
 10
2.678856771211444
 20
-2.781249999999997
 30
0.0
 40
0.5
  1
7/16 HEX
100
AcDbAttributeDefinition
  3

  2
H
 70
     8
280
     0
  0
ATTDEF
  5
9C
330
91
100
AcDbEntity
  8
AM_6
100
AcDbText
 10
2.678856771211444
 20
-3.281249999999997
 30
0.0
 40
0.5
  1
0.383
100
AcDbAttributeDefinition
  3

  2
NDR
 70
     8
280
     0
  0
ATTDEF
  5
9D
330
91
100
AcDbEntity
  8
AM_6
100
AcDbText
 10
2.678856771211444
 20
-3.781249999999997
 30
0.0
 40
0.5
  1
0.337
100
AcDbAttributeDefinition
  3

  2
KDR
 70
     8
280
     0
  0
ATTDEF
  5
9E
330
91
100
AcDbEntity
  8
AM_6
100
AcDbText
 10
2.678856771211444
 20
-4.281249999999997
 30
0.0
 40
0.5
  1
0.1575
100
AcDbAttributeDefinition
  3

  2
BZE
 70
     8
280
     0
  0
ATTDEF
  5
9F
330
91
100
AcDbEntity
  8
AM_6
100
AcDbText
 10
2.678856771211444
 20
-4.781249999999997
 30
0.0
 40
0.5
  1
0.4375
100
AcDbAttributeDefinition
  3

  2
HEX
 70
     8
280
     0
  0
ATTDEF
  5
A0
330
91
100
AcDbEntity
  8
AM_6
100
AcDbText
 10
2.678856771211444
 20
-5.281249999999997
 30
0.0
 40
0.5
  1
0.281250
100
AcDbAttributeDefinition
  3

  2
HEX2
 70
     8
280
     0
  0
ATTDEF
  5
A1
330
91
100
AcDbEntity
  8
AM_6
100
AcDbText
 10
2.678856771211444
 20
-5.781249999999997
 30
0.0
 40
0.5
  1
baldor
100
AcDbAttributeDefinition
  3

  2
COMPANY
 70
     8
280
     0
  0
LWPOLYLINE
  5
A4
330
91
100
AcDbEntity
  8
AM_9
100
AcDbPolyline
 90
        3
 70
     0
 43
0.0
 10
-2.678713000441401
 20
0.1093749999999999
 10
-2.664666126709982
 20
0.0546874999999999
 10
-2.646650128983616
 20
-0.0000000000000001
  0
LWPOLYLINE
  5
A5
330
91
100
AcDbEntity
  8
AM_9
100
AcDbPolyline
 90
        3
 70
     0
 43
0.0
 10
-2.646650128983616
 20
-0.0000000000000001
 10
-2.66459334134445
 20
-0.0544416102741496
 10
-2.678713000441401
 20
-0.109375
  0
LINE
  5
A6
330
91
100
AcDbEntity
  8
AM_9
100
AcDbLine
 10
-3.054585651828931
 20
-0.151074129835757
 30
0.0
 11
-3.066706751112627
 21
-0.1791093260592887
 31
0.0
  0
LINE
  5
A7
330
91
100
AcDbEntity
  8
AM_9
100
AcDbLine
 10
-2.905782362328579
 20
-0.2099962668917053
 30
0.0
 11
-2.918294958323749
 21
-0.2389369657326276
 31
0.0
  0
LWPOLYLINE
  5
A8
330
91
100
AcDbEntity
  8
AM_9
100
AcDbPolyline
 90
        3
 70
     0
 43
0.0
 10
-2.570746407603689
 20
-0.0000000000000001
 10
-2.576352372987244
 20
0.0544416102741495
 10
-2.585994614984723
 20
0.1093749999999999
  0
LWPOLYLINE
  5
A9
330
91
100
AcDbEntity
  8
AM_9
100
AcDbPolyline
 90
        3
 70
     0
 43
0.0
 10
-2.585994614984723
 20
-0.1093750000000001
 10
-2.576385949296732
 20
-0.0546875000000001
 10
-2.570746407603689
 20
-0.0000000000000001
  0
LWPOLYLINE
  5
AA
330
91
100
AcDbEntity
  8
AM_9
100
AcDbPolyline
 90
        3
 70
     0
 43
0.0
 10
-2.830712976784296
 20
-0.2987675689889718
 10
-2.850356566947425
 20
-0.2912216284034024
 10
-2.869309129789928
 20
-0.2813919000363599
  0
LWPOLYLINE
  5
AB
330
91
100
AcDbEntity
  8
AM_9
100
AcDbPolyline
 90
        3
 70
     0
 43
0.0
 10
-2.687669061512993
 20
-0.1593966609164476
 10
-2.688321666129391
 20
-0.1640625
 10
-2.693961207822435
 20
-0.2187500000000001
  0
LINE
  5
AC
330
91
100
AcDbEntity
  8
AM_9
100
AcDbLine
 10
-2.678713000441401
 20
-0.109375
 30
0.0
 11
-2.687669061512993
 21
-0.1593966609164476
 31
0.0
  0
LINE
  5
AD
330
91
100
AcDbEntity
  8
AM_9
100
AcDbLine
 10
-2.646650128983616
 20
-0.0000000000000001
 30
0.0
 11
-2.570746407603689
 21
-0.0000000000000001
 31
0.0
  0
LINE
  5
AE
330
91
100
AcDbEntity
  8
AM_9
100
AcDbLine
 10
-2.687676268466864
 20
0.159447056556263
 30
0.0
 11
-2.678713000441401
 21
0.1093749999999999
 31
0.0
  0
LWPOLYLINE
  5
AF
330
91
100
AcDbEntity
  8
AM_9
100
AcDbPolyline
 90
        3
 70
     0
 43
0.0
 10
-2.693961207822435
 20
0.2187499999999999
 10
-2.68835524243888
 20
0.1643083897258503
 10
-2.687676268466864
 20
0.159447056556263
  0
LWPOLYLINE
  5
B0
330
91
100
AcDbEntity
  8
AM_9
100
AcDbPolyline
 90
        3
 70
     0
 43
0.0
 10
-2.849716888343374
 20
-0.2360765106845277
 10
-2.838060252896205
 20
-0.2462091938631851
 10
-2.831547860358909
 20
-0.252796981496867
  0
LWPOLYLINE
  5
B1
330
91
100
AcDbEntity
  8
AM_9
100
AcDbPolyline
 90
        3
 70
     0
 43
0.0
 10
-2.61150713504868
 20
-0.2000409996967265
 10
-2.600114274081674
 20
-0.1643083897258505
 10
-2.585994614984723
 20
-0.1093750000000001
  0
LINE
  5
B2
330
91
100
AcDbEntity
  8
AM_9
100
AcDbLine
 10
-2.618057486442507
 20
-0.2187500000000001
 30
0.0
 11
-2.61150713504868
 21
-0.2000409996967265
 31
0.0
  0
LINE
  5
B3
330
91
100
AcDbEntity
  8
AM_9
100
AcDbLine
 10
-2.61150723773904
 20
0.2000413016192556
 30
0.0
 11
-2.618057486442507
 21
0.2187499999999999
 31
0.0
  0
LWPOLYLINE
  5
B4
330
91
100
AcDbEntity
  8
AM_9
100
AcDbPolyline
 90
        3
 70
     0
 43
0.0
 10
-2.585994614984723
 20
0.1093749999999999
 10
-2.600041488716142
 20
0.1640624999999999
 10
-2.61150723773904
 20
0.2000413016192556
  0
ELLIPSE
  5
B5
330
91
100
AcDbEntity
  8
AM_9
100
AcDbEllipse
 10
-3.077056997393623
 20
-0.4687500000000002
 30
0.0
 11
-0.09498502069411069
 21
0.04106705218388618
 31
0.0
210
0.0
220
0.0
230
1.0
 40
0.1583155873460454
 41
3.066756133314199
 42
6.358021827455167
  0
ELLIPSE
  5
B6
330
91
100
AcDbEntity
  8
AM_9
100
AcDbEllipse
 10
-3.047086431280572
 20
-0.399430321788976
 30
0.0
 11
-0.1277221801207929
 21
0.05522105904416089
 31
0.0
210
0.0
220
0.0
230
1.0
 40
0.1583155873460375
 41
3.065909339828136
 42
5.932176524882754
  0
LINE
  5
B7
330
91
100
AcDbEntity
  8
AM_9
100
AcDbLine
 10
-3.045375026755595
 20
-0.1182889283861136
 30
0.0
 11
-3.046021459934316
 21
-0.1197840799880168
 31
0.0
  0
LINE
  5
B8
330
91
100
AcDbEntity
  8
AM_9
100
AcDbLine
 10
-2.841021245753106
 20
-0.2
 30
0.0
 11
-2.83945650492876
 21
-0.1963808714851038
 31
0.0
  0
ELLIPSE
  5
B9
330
91
100
AcDbEntity
  8
AM_9
100
AcDbEllipse
 10
-2.961462772858957
 20
-0.2013892028241924
 30
0.0
 11
-0.1009671980072478
 21
0.04365346408438208
 31
0.0
210
0.0
220
0.0
230
1.0
 40
0.1583155873460397
 41
3.141592653589793
 42
6.283185307179586
  0
LWPOLYLINE
  5
BA
330
91
100
AcDbEntity
  8
AM_9
100
AcDbPolyline
 90
        3
 70
     0
 43
0.0
 10
-3.0453779375241
 20
-0.1182956618802583
 10
-3.04507417149541
 20
-0.1208367673933812
 10
-3.044189882236034
 20
-0.1221947586981927
  0
LWPOLYLINE
  5
BB
330
91
100
AcDbEntity
  8
AM_9
100
AcDbPolyline
 90
        4
 70
     0
 43
0.0
 10
-2.839461738112686
 20
-0.1963929740740921
 10
-2.839911059391208
 20
-0.1971856748420371
 10
-2.843439195489311
 20
-0.1994144431868155
 10
-2.848329684569187
 20
-0.1999999999699529
  0
LWPOLYLINE
  5
BC
330
91
100
AcDbEntity
  8
AM_9
100
AcDbPolyline
 90
        5
 70
     0
 43
0.0
 10
-3.066706751112627
 20
-0.1791093260592887
 10
-3.083754104343527
 20
-0.1842540823997054
 10
-3.09966516283966
 20
-0.1862220679364951
 10
-3.114352832823107
 20
-0.1844124966919381
 10
-3.127535281048251
 20
-0.1791093260592887
  0
LWPOLYLINE
  5
BD
330
91
100
AcDbEntity
  8
AM_9
100
AcDbPolyline
 90
        3
 70
     0
 43
0.0
 10
-2.995473472959799
 20
-0.2162150840763211
 10
-3.031254027915042
 20
-0.1996402057054678
 10
-3.066706751112627
 20
-0.1791093260592887
  0
LWPOLYLINE
  5
BE
330
91
100
AcDbEntity
  8
AM_9
100
AcDbPolyline
 90
        4
 70
     0
 43
0.0
 10
-2.943711761050944
 20
-0.2330731529818577
 10
-2.956699650171271
 20
-0.2295338871417796
 10
-2.994297186883988
 20
-0.216687117104632
 10
-2.995473472959799
 20
-0.2162150840763211
  0
LINE
  5
BF
330
91
100
AcDbEntity
  8
AM_9
100
AcDbLine
 10
-2.918294958323749
 20
-0.2389369657326276
 30
0.0
 11
-2.943711761050944
 21
-0.2330731529818577
 31
0.0
  0
LWPOLYLINE
  5
C0
330
91
100
AcDbEntity
  8
AM_9
100
AcDbPolyline
 90
        3
 70
     0
 43
0.0
 10
-2.884427418012515
 20
-0.2711532636537956
 10
-2.901884717094148
 20
-0.2561815527589921
 10
-2.918294958323749
 20
-0.2389369657326276
  0
LINE
  5
C1
330
91
100
AcDbEntity
  8
AM_9
100
AcDbLine
 10
-2.91587049766434
 20
-0.2031720314831236
 30
0.0
 11
-2.905782362328579
 21
-0.2099962668917053
 31
0.0
  0
LWPOLYLINE
  5
C2
330
91
100
AcDbEntity
  8
AM_9
100
AcDbPolyline
 90
        6
 70
     0
 43
0.0
 10
-3.054585651828931
 20
-0.151074129835757
 10
-3.025657462731075
 20
-0.1564222384464442
 10
-2.997125769490433
 20
-0.1639940363880805
 10
-2.968863921585677
 20
-0.1744063212866122
 10
-2.941584812446751
 20
-0.1876759562813858
 10
-2.91587049766434
 20
-0.2031720314831236
  0
LWPOLYLINE
  5
C3
330
91
100
AcDbEntity
  8
AM_9
100
AcDbPolyline
 90
        3
 70
     0
 43
0.0
 10
-2.905782362328579
 20
-0.2099962668917053
 10
-2.884891604053417
 20
-0.2163479371246913
 10
-2.864835176565962
 20
-0.2258378743019629
  0
LWPOLYLINE
  5
C4
330
91
100
AcDbEntity
  8
AM_9
100
AcDbPolyline
 90
        4
 70
     0
 43
0.0
 10
-3.081056608533899
 20
-0.141958509815605
 10
-3.078165147644304
 20
-0.1420496512545706
 10
-3.067578949071508
 20
-0.1441228263802214
 10
-3.054585651828931
 20
-0.151074129835757
  0
ELLIPSE
  5
C5
330
91
100
AcDbEntity
  8
AM_9
100
AcDbEllipse
 10
-2.961462772858961
 20
-0.201389202824188
 30
0.0
 11
-0.1290773838160791
 21
0.05580698533514237
 31
0.0
210
0.0
220
0.0
230
1.0
 40
0.1583155873460362
 41
3.937411257393405
 42
5.610613825799304
  0
ELLIPSE
  5
C6
330
91
100
AcDbEntity
  8
AM_9
100
AcDbEllipse
 10
-3.035657585856012
 20
-0.3729962569746642
 30
0.0
 11
-0.122256495664875
 21
0.05285795434479292
 31
0.0
210
0.0
220
0.0
230
1.0
 40
0.158315587346036
 41
3.32266183882626
 42
5.932176524882762
  0
LINE
  5
C7
330
91
100
AcDbEntity
  8
AM_9
100
AcDbLine
 10
-2.869309129789928
 20
-0.2813919000363599
 30
0.0
 11
-2.884427418012515
 21
-0.2711532636537956
 31
0.0
  0
ELLIPSE
  5
C8
330
91
100
AcDbEntity
  8
AM_9
100
AcDbEllipse
 10
-2.981055014305511
 20
-0.2467045921760218
 30
0.0
 11
-0.1290773838160759
 21
0.05580698533514154
 31
0.0
210
0.0
220
0.0
230
1.0
 40
0.1583155873460348
 41
2.931540131874954
 42
3.738151587585731
  0
LINE
  5
C9
330
91
100
AcDbEntity
  8
AM_9
100
AcDbLine
 10
-3.107055593166014
 20
-0.1999372777696577
 30
0.0
 11
-3.105451977341667
 21
-0.2030334371864241
 31
0.0
  0
LWPOLYLINE
  5
CA
330
91
100
AcDbEntity
  8
AM_9
100
AcDbPolyline
 90
        3
 70
     0
 43
0.0
 10
-3.108977150971448
 20
-0.196659362898516
 10
-3.10707381376814
 20
-0.199904140586713
 10
-3.107055593166014
 20
-0.1999372777696577
  0
ELLIPSE
  5
CB
330
91
100
AcDbEntity
  8
AM_9
100
AcDbEllipse
 10
-2.981055014305513
 20
-0.2467045921760198
 30
0.0
 11
-0.1290773838160764
 21
0.05580698533514203
 31
0.0
210
0.0
220
0.0
230
1.0
 40
0.1583155873460322
 41
3.937411257393398
 42
6.739367744568771
  0
LINE
  5
CC
330
91
100
AcDbEntity
  8
AM_9
100
AcDbLine
 10
-2.864835176565962
 20
-0.2258378743019629
 30
0.0
 11
-2.855055779103476
 21
-0.2324608261325394
 31
0.0
  0
LWPOLYLINE
  5
CD
330
91
100
AcDbEntity
  8
AM_9
100
AcDbPolyline
 90
       17
 70
     0
 43
0.0
 10
-2.852467989756075
 20
-0.1790373738501779
 10
-2.862517051678905
 20
-0.1733931390117467
 10
-2.875137468725919
 20
-0.1670729780242511
 10
-2.889271604081539
 20
-0.1606047421316795
 10
-2.905322399560736
 20
-0.1538031670974777
 10
-2.921957056406137
 20
-0.1472336073736393
 10
-2.939643092896246
 20
-0.1407130262602576
 10
-2.956888474818065
 20
-0.1347930597680667
 10
-2.97419756300785
 20
-0.1293028157827817
 10
-2.990087819413968
 20
-0.1247141396218192
 10
-3.005046103743845
 20
-0.1208880884981781
 10
-3.017785776003193
 20
-0.1181545989145989
 10
-3.028707203227431
 20
-0.1164278875396128
 10
-3.036877687836091
 20
-0.1158549073091554
 10
-3.042553849922256
 20
-0.1164156227038168
 10
-3.045258001682436
 20
-0.1180609686233502
 10
-3.0453779375241
 20
-0.1182956618802583
  0
LWPOLYLINE
  5
CE
330
91
100
AcDbEntity
  8
AM_9
100
AcDbPolyline
 90
        5
 70
     0
 43
0.0
 10
-2.852467989756075
 20
-0.1790373738501784
 10
-2.845335511571848
 20
-0.1842628795203941
 10
-2.841013472084156
 20
-0.1891729979031393
 10
-2.839155110368364
 20
-0.1936098952159724
 10
-2.839461738112686
 20
-0.1963929740740921
  0
LINE
  5
CF
330
91
100
AcDbEntity
  8
AM_9
100
AcDbLine
 10
-2.749679618699629
 20
0.1999999999999999
 30
0.0
 11
-2.794760279006254
 21
0.1999999999999999
 31
0.0
  0
LINE
  5
D0
330
91
100
AcDbEntity
  8
AM_9
100
AcDbLine
 10
-2.794763109818277
 20
-0.2
 30
0.0
 11
-2.749679618699629
 21
-0.2
 31
0.0
  0
LINE
  5
D1
330
91
100
AcDbEntity
  8
AM_9
100
AcDbLine
 10
-2.58452499460492
 20
0.1999999999999998
 30
0.0
 11
-2.65696123324295
 21
0.1999999999999998
 31
0.0
  0
LINE
  5
D2
330
91
100
AcDbEntity
  8
AM_9
100
AcDbLine
 10
-2.65696123324295
 20
-0.2
 30
0.0
 11
-2.58452499460492
 21
-0.2
 31
0.0
  0
LINE
  5
D3
330
91
100
AcDbEntity
  8
AM_9
100
AcDbLine
 10
-2.719673413377509
 20
-0.2187500000000001
 30
0.0
 11
-2.618057486442507
 21
-0.2187500000000001
 31
0.0
  0
LINE
  5
D4
330
91
100
AcDbEntity
  8
AM_9
100
AcDbLine
 10
-2.714919907161738
 20
-0.1928101964803935
 30
0.0
 11
-2.712679644120144
 21
-0.2187500000000001
 31
0.0
  0
LWPOLYLINE
  5
D5
330
91
100
AcDbEntity
  8
AM_9
100
AcDbPolyline
 90
        3
 70
     0
 43
0.0
 10
-2.727927851501178
 20
-0.109375
 10
-2.718319185813188
 20
-0.1640625
 10
-2.714919907161738
 20
-0.1928101964803935
  0
LINE
  5
D6
330
91
100
AcDbEntity
  8
AM_9
100
AcDbLine
 10
-2.739559208610552
 20
-0.063011417243336
 30
0.0
 11
-2.727927851501178
 21
-0.109375
 31
0.0
  0
LINE
  5
D7
330
91
100
AcDbEntity
  8
AM_9
100
AcDbLine
 10
-2.719675219430973
 20
0.2187499999999999
 30
0.0
 11
-2.618057486442507
 21
0.2187499999999999
 31
0.0
  0
LINE
  5
D8
330
91
100
AcDbEntity
  8
AM_9
100
AcDbLine
 10
-2.727927851501178
 20
0.1093749999999999
 30
0.0
 11
-2.739648354693912
 21
0.0626982852377272
 31
0.0
  0
LWPOLYLINE
  5
D9
330
91
100
AcDbEntity
  8
AM_9
100
AcDbPolyline
 90
        3
 70
     0
 43
0.0
 10
-2.714886017111076
 20
0.1931475583255213
 10
-2.7182856095037
 20
0.1643083897258503
 10
-2.727927851501178
 20
0.1093749999999999
  0
LINE
  5
DA
330
91
100
AcDbEntity
  8
AM_9
100
AcDbLine
 10
-2.712679644120144
 20
0.2187499999999999
 30
0.0
 11
-2.714886017111076
 21
0.1931475583255213
 31
0.0
  0
LINE
  5
DB
330
91
100
AcDbEntity
  8
AM_9
100
AcDbLine
 10
-2.402850433419273
 20
0.1854025098511931
 30
0.0
 11
-2.583619155734358
 21
0.191495967186768
 31
0.0
  0
LINE
  5
DC
330
91
100
AcDbEntity
  8
AM_9
100
AcDbLine
 10
-2.583619155734358
 20
-0.1914959671867681
 30
0.0
 11
-2.402850433419273
 21
-0.1854025098511932
 31
0.0
  0
LINE
  5
DD
330
91
100
AcDbEntity
  8
AM_9
100
AcDbLine
 10
-2.357235577931617
 20
0.1478814731883059
 30
0.0
 11
-2.375664376611361
 21
0.1696099849128765
 31
0.0
  0
LINE
  5
DE
330
91
100
AcDbEntity
  8
AM_9
100
AcDbLine
 10
-2.375664376611361
 20
-0.1696099849128766
 30
0.0
 11
-2.357235577931617
 21
-0.147881473188306
 31
0.0
  0
ELLIPSE
  5
DF
330
91
100
AcDbEntity
  8
AM_9
100
AcDbEllipse
 10
-2.74967961869963
 20
0.0
 30
0.0
 11
1.339457436567419E-17
 21
0.2187500000000003
 31
0.0
210
0.0
220
0.0
230
1.0
 40
0.3746065934159044
 41
0.0
 42
6.283185307179586
  0
ELLIPSE
  5
E0
330
91
100
AcDbEntity
  8
AM_9
100
AcDbEllipse
 10
-2.74967961869963
 20
-0.0000000000000002
 30
0.0
 11
1.224646799147352E-17
 21
0.1999999999999997
 31
0.0
210
0.0
220
0.0
230
1.0
 40
0.3746065934159142
 41
0.0
 42
6.283185307179586
  0
ELLIPSE
  5
E1
330
91
100
AcDbEntity
  8
AM_9
100
AcDbEllipse
 10
-2.656961233242959
 20
0.000000000000001
 30
0.0
 11
1.339457436567426E-17
 21
0.2187500000000014
 31
0.0
210
0.0
220
0.0
230
1.0
 40
0.3746065934158842
 41
0.0
 42
6.283185307179586
  0
ELLIPSE
  5
E2
330
91
100
AcDbEntity
  8
AM_9
100
AcDbEllipse
 10
-2.656961233242947
 20
0.0000000000000013
 30
0.0
 11
1.224646799147344E-17
 21
0.1999999999999985
 31
0.0
210
0.0
220
0.0
230
1.0
 40
0.3746065934159188
 41
0.0
 42
6.283185307179586
  0
ELLIPSE
  5
E3
330
91
100
AcDbEntity
  8
AM_9
100
AcDbEllipse
 10
-2.58452499460492
 20
0.0000000000000004
 30
0.0
 11
1.224646799147349E-17
 21
0.1999999999999993
 31
0.0
210
0.0
220
0.0
230
1.0
 40
0.3746065934159127
 41
0.0
 42
6.283185307179586
  0
ELLIPSE
  5
E4
330
91
100
AcDbEntity
  8
AM_9
100
AcDbEllipse
 10
-2.584524994604919
 20
0.0000000000000001
 30
0.0
 11
1.172668097677219E-17
 21
0.1915112338502295
 31
0.0
210
0.0
220
0.0
230
1.0
 40
0.3746065934159053
 41
0.0
 42
6.283185307179586
  0
ELLIPSE
  5
E5
330
91
100
AcDbEntity
  8
AM_9
100
AcDbEllipse
 10
-2.403727448233685
 20
-0.0000000000000004
 30
0.0
 11
1.135353457964638E-17
 21
0.1854172907249854
 31
0.0
210
0.0
220
0.0
230
1.0
 40
0.3746065934159091
 41
0.0
 42
6.283185307179586
  0
ELLIPSE
  5
E6
330
91
100
AcDbEntity
  8
AM_9
100
AcDbEllipse
 10
-2.381703526418283
 20
0.0000000000000259
 30
0.0
 11
9.899048221687145E-18
 21
0.1616637258771957
 31
0.0
210
0.0
220
0.0
230
1.0
 40
0.3746065934155822
 41
0.0
 42
6.283185307179586
  0
LINE
  5
E8
330
91
100
AcDbEntity
  8
AM_4
100
AcDbLine
 10
-2.831518087041096
 20
-0.2528286444668461
 30
0.0
 11
-2.83721779880279
 21
-0.2467669665417465
 31
0.0
  0
LWPOLYLINE
  5
E9
330
91
100
AcDbEntity
  8
AM_4
100
AcDbPolyline
 90
        3
 70
     0
 43
0.0
 10
-2.831547860358909
 20
-0.252796981496867
 10
-2.827662727421604
 20
-0.2570505402207574
 10
-2.817805961183354
 20
-0.2689146070947222
  0
ELLIPSE
  5
EA
330
91
100
AcDbEntity
  8
AM_4
100
AcDbEllipse
 10
-2.961462772858964
 20
-0.2013892028241903
 30
0.0
 11
-0.1290773838160808
 21
0.05580698533513973
 31
0.0
210
0.0
220
0.0
230
1.0
 40
0.1583155873460391
 41
2.931540131874954
 42
3.738151587585705
  0
LWPOLYLINE
  5
EB
330
91
100
AcDbEntity
  8
AM_4
100
AcDbPolyline
 90
        3
 70
     0
 43
0.0
 10
-2.817805961183354
 20
-0.2689146070947222
 10
-2.826830887463842
 20
-0.2634308483997528
 10
-2.837064735659448
 20
-0.2602304684431305
  0
LWPOLYLINE
  5
EC
330
91
100
AcDbEntity
  8
AM_4
100
AcDbPolyline
 90
        3
 70
     0
 43
0.0
 10
-2.856656977106001
 20
-0.3055458577949631
 10
-2.844062743418162
 20
-0.3030753670497808
 10
-2.830712976784296
 20
-0.2987675689889718
  0
LINE
  5
ED
330
91
100
AcDbEntity
  8
AM_4
100
AcDbLine
 10
-2.817805961183354
 20
-0.2689146070947222
 30
0.0
 11
-2.830712976784296
 21
-0.2987675689889718
 31
0.0
  0
LINE
  5
EE
330
91
100
AcDbEntity
  8
AM_4
100
AcDbLine
 10
-2.982823934300762
 20
-0.5108264199512539
 30
0.0
 11
-2.920375375476942
 21
-0.456008633280415
 31
0.0
  0
LINE
  5
EF
330
91
100
AcDbEntity
  8
AM_4
100
AcDbLine
 10
-3.175104760818403
 20
-0.3458756366863984
 30
0.0
 11
-3.172262259853723
 21
-0.4289222044837946
 31
0.0
  0
ELLIPSE
  5
F0
330
91
100
AcDbEntity
  8
AM_4
100
AcDbEllipse
 10
-3.077056997393623
 20
-0.4687500000000002
 30
0.0
 11
-0.09498502069411031
 21
0.04106705218388621
 31
0.0
210
0.0
220
0.0
230
1.0
 40
0.1583155873460213
 41
0.0748365202756025
 42
3.066756133314194
  0
LWPOLYLINE
  5
F1
330
91
100
AcDbEntity
  8
AM_4
100
AcDbPolyline
 90
        7
 70
     0
 43
0.0
 10
-3.154143732986983
 20
-0.3174338605524528
 10
-3.15946250852057
 20
-0.3195931411365843
 10
-3.165532247734791
 20
-0.3237138994049405
 10
-3.170617922862354
 20
-0.329594323966886
 10
-3.173958942866705
 20
-0.3368456471042623
 10
-3.175121090925259
 20
-0.3447095989807212
 10
-3.17505753728849
 20
-0.3468120058552155
  0
LWPOLYLINE
  5
F2
330
91
100
AcDbEntity
  8
AM_4
100
AcDbPolyline
 90
        7
 70
     0
 43
0.0
 10
-2.920480562655861
 20
-0.4561005187292243
 10
-2.915581795293653
 20
-0.4505786401651579
 10
-2.912099091274409
 20
-0.4434009346989538
 10
-2.910779080149108
 20
-0.4354941305118276
 10
-2.911475423443374
 20
-0.4284476452400177
 10
-2.913518058847805
 20
-0.4223132257498435
 10
-2.913980769986972
 20
-0.4213221744225096
  0
ELLIPSE
  5
F3
330
91
100
AcDbEntity
  8
AM_4
100
AcDbEllipse
 10
-3.047086431280572
 20
-0.3994303217889761
 30
0.0
 11
-0.1277221801207924
 21
0.05522105904416073
 31
0.0
210
0.0
220
0.0
230
1.0
 40
0.1583155873460346
 41
0.0809457219793517
 42
3.065909339828136
  0
LWPOLYLINE
  5
F4
330
91
100
AcDbEntity
  8
AM_4
100
AcDbPolyline
 90
        3
 70
     0
 43
0.0
 10
-2.891541506719919
 20
-0.2987675689889718
 10
-2.881959420361343
 20
-0.3030606061861223
 10
-2.871458732475315
 20
-0.3055458577949631
  0
LINE
  5
F5
330
91
100
AcDbEntity
  8
AM_4
100
AcDbLine
 10
-3.115414181764554
 20
-0.151074129835757
 30
0.0
 11
-3.127535281048251
 21
-0.1791093260592887
 31
0.0
  0
LWPOLYLINE
  5
F6
330
91
100
AcDbEntity
  8
AM_4
100
AcDbPolyline
 90
        4
 70
     0
 43
0.0
 10
-2.851866491028759
 20
-0.2602304684431209
 10
-2.858985304188498
 20
-0.2616913382589203
 10
-2.868594494296647
 20
-0.2647402074337707
 10
-2.878634491118977
 20
-0.2689146070947222
  0
LINE
  5
F7
330
91
100
AcDbEntity
  8
AM_4
100
AcDbLine
 10
-3.046021459934316
 20
-0.1197840799880168
 30
0.0
 11
-3.062429970866205
 21
-0.1577357387398101
 31
0.0
  0
LINE
  5
F8
330
91
100
AcDbEntity
  8
AM_4
100
AcDbLine
 10
-2.860495574851717
 20
-0.245042666908566
 30
0.0
 11
-2.841021245753106
 21
-0.2
 31
0.0
  0
ELLIPSE
  5
F9
330
91
100
AcDbEntity
  8
AM_4
100
AcDbEllipse
 10
-2.961462772858961
 20
-0.201389202824188
 30
0.0
 11
-0.1009671980072437
 21
0.04365346408437789
 31
0.0
210
0.0
220
0.0
230
1.0
 40
0.1583155873460368
 41
0.0
 42
3.141592653589793
  0
LWPOLYLINE
  5
FA
330
91
100
AcDbEntity
  8
AM_4
100
AcDbPolyline
 90
        3
 70
     0
 43
0.0
 10
-3.127535281048251
 20
-0.1791093260592887
 10
-3.108429390853269
 20
-0.1988355121406939
 10
-3.104295093097323
 20
-0.2025620431642225
  0
LINE
  5
FB
330
91
100
AcDbEntity
  8
AM_4
100
AcDbLine
 10
-3.104351218155669
 20
-0.2025128028333112
 30
0.0
 11
-3.100825125187281
 21
-0.2056064806068164
 31
0.0
  0
LWPOLYLINE
  5
FC
330
91
100
AcDbEntity
  8
AM_4
100
AcDbPolyline
 90
        4
 70
     0
 43
0.0
 10
-3.104295093097323
 20
-0.2025620431642225
 10
-3.08761032806721
 20
-0.2156330920108724
 10
-3.064551921888528
 20
-0.2290462109660021
 10
-3.039952018194998
 20
-0.2389369657326275
  0
LWPOLYLINE
  5
FD
330
91
100
AcDbEntity
  8
AM_4
100
AcDbPolyline
 90
        4
 70
     0
 43
0.0
 10
-3.115414181764554
 20
-0.151074129835757
 10
-3.10229091932828
 20
-0.145877822676052
 10
-3.089851917701344
 20
-0.1427138007556462
 10
-3.081056608533899
 20
-0.141958509815605
  0
LWPOLYLINE
  5
FE
330
91
100
AcDbEntity
  8
AM_4
100
AcDbPolyline
 90
        7
 70
     0
 43
0.0
 10
-3.027439422199826
 20
-0.2099962668917053
 10
-3.040789562013053
 20
-0.1943573015029059
 10
-3.055288553330905
 20
-0.1805491420332303
 10
-3.07132378760235
 20
-0.1688997677199809
 10
-3.088641538337685
 20
-0.1598729403210871
 10
-3.101832815762599
 20
-0.1549033058439656
 10
-3.115414181764554
 20
-0.151074129835757
  0
LINE
  5
FF
330
91
100
AcDbEntity
  8
AM_4
100
AcDbLine
 10
-3.079631921713286
 20
-0.1419585097669023
 30
0.0
 11
-3.0811719831451
 21
-0.1419585097669023
 31
0.0
  0
ELLIPSE
  5
100
330
91
100
AcDbEntity
  8
AM_4
100
AcDbEllipse
 10
-2.96146277285898
 20
-0.2013892028241598
 30
0.0
 11
-0.1290773838160532
 21
0.05580698533511636
 31
0.0
210
0.0
220
0.0
230
1.0
 40
0.1583155873459793
 41
5.610613825799257
 42
7.926941792372199
  0
ELLIPSE
  5
101
330
91
100
AcDbEntity
  8
AM_4
100
AcDbEllipse
 10
-2.981055014305513
 20
-0.2467045921760205
 30
0.0
 11
-0.129077383816079
 21
0.05580698533514228
 31
0.0
210
0.0
220
0.0
230
1.0
 40
0.1583155873460406
 41
0.4561824373891099
 42
1.643756485192512
  0
LWPOLYLINE
  5
102
330
91
100
AcDbEntity
  8
AM_4
100
AcDbPolyline
 90
        3
 70
     0
 43
0.0
 10
-2.871458732475315
 20
-0.3055458577949631
 10
-2.86449934556479
 20
-0.3064767622622302
 10
-2.856656977106001
 20
-0.3055458577949631
  0
ELLIPSE
  5
103
330
91
100
AcDbEntity
  8
AM_4
100
AcDbEllipse
 10
-2.981055014305514
 20
-0.2467045921760187
 30
0.0
 11
-0.1290773838160781
 21
0.05580698533514387
 31
0.0
210
0.0
220
0.0
230
1.0
 40
0.15831558734605
 41
1.843016155000221
 42
2.649627610710993
  0
LWPOLYLINE
  5
104
330
91
100
AcDbEntity
  8
AM_4
100
AcDbPolyline
 90
       14
 70
     0
 43
0.0
 10
-2.913778354318866
 20
-0.4217433639175399
 10
-2.916071373695902
 20
-0.4164626778707749
 10
-2.91928019046043
 20
-0.4061832076305468
 10
-2.92122228293496
 20
-0.3940830053975595
 10
-2.921289600250616
 20
-0.3809289841977431
 10
-2.919188379417716
 20
-0.3674605618913874
 10
-2.914258337749851
 20
-0.3529018676985402
 10
-2.90721494845062
 20
-0.3401174963550705
 10
-2.898691856687976
 20
-0.3293861095016143
 10
-2.889264336231479
 20
-0.3207537135854953
 10
-2.879545021318743
 20
-0.3142067111230925
 10
-2.870233129339627
 20
-0.3096482714427579
 10
-2.862043548033454
 20
-0.3068309055274547
 10
-2.85718500229326
 20
-0.3056606307793254
  0
LWPOLYLINE
  5
105
330
91
100
AcDbEntity
  8
AM_4
100
AcDbPolyline
 90
       13
 70
     0
 43
0.0
 10
-3.105451977341667
 20
-0.2030334371864241
 10
-3.103389645092925
 20
-0.2076577976527358
 10
-3.10008871094063
 20
-0.2176966404249179
 10
-3.097969379119428
 20
-0.2296297579506225
 10
-3.097673034514845
 20
-0.2427049036706313
 10
-3.099526090140188
 20
-0.256171315683963
 10
-3.103604117528815
 20
-0.2693892307517594
 10
-3.110252676773502
 20
-0.28254174085503
 10
-3.118518305085735
 20
-0.2937027903418223
 10
-3.127807206506997
 20
-0.3027684907992345
 10
-3.13752060702698
 20
-0.3097409438748364
 10
-3.146977153916555
 20
-0.3146949523686427
 10
-3.15449421042717
 20
-0.3175442276768557
  0
ELLIPSE
  5
106
330
91
100
AcDbEntity
  8
AM_4
100
AcDbEllipse
 10
-3.035657585856012
 20
-0.3729962569746643
 30
0.0
 11
-0.1222564956648751
 21
0.05285795434479294
 31
0.0
210
0.0
220
0.0
230
1.0
 40
0.1583155873460352
 41
6.10322964478812
 42
9.60584714600585
  0
ELLIPSE
  5
107
330
91
100
AcDbEntity
  8
AM_4
100
AcDbEllipse
 10
-2.961462772858964
 20
-0.201389202824187
 30
0.0
 11
-0.1290773838160897
 21
0.05580698533513052
 31
0.0
210
0.0
220
0.0
230
1.0
 40
0.158315587346062
 41
1.843016155000207
 42
2.649627610710908
  0
LINE
  5
108
330
91
100
AcDbEntity
  8
AM_4
100
AcDbLine
 10
-2.837064735659448
 20
-0.2602304684431305
 30
0.0
 11
-2.851866491028759
 21
-0.2602304684431209
 31
0.0
  0
LINE
  5
109
330
91
100
AcDbEntity
  8
AM_4
100
AcDbLine
 10
-2.855055779103476
 20
-0.2324608261325394
 30
0.0
 11
-2.849716888343374
 21
-0.2360765106845277
 31
0.0
  0
LWPOLYLINE
  5
10A
330
91
100
AcDbEntity
  8
AM_4
100
AcDbPolyline
 90
        3
 70
     0
 43
0.0
 10
-2.878634491118977
 20
-0.2689146070947222
 10
-2.906054757946036
 20
-0.251275593729576
 10
-2.935267488088394
 20
-0.2360765106845275
  0
LINE
  5
10B
330
91
100
AcDbEntity
  8
AM_4
100
AcDbLine
 10
-2.935267488088394
 20
-0.2360765106845275
 30
0.0
 11
-2.960865230068933
 21
-0.2258378743019627
 31
0.0
  0
LWPOLYLINE
  5
10C
330
91
100
AcDbEntity
  8
AM_4
100
AcDbPolyline
 90
        4
 70
     0
 43
0.0
 10
-2.960865230068933
 20
-0.2258378743019627
 10
-2.983556054162344
 20
-0.2189176876709014
 10
-3.005322788685945
 20
-0.2138633349839127
 10
-3.027439422199826
 20
-0.2099962668917053
  0
LINE
  5
10D
330
91
100
AcDbEntity
  8
AM_4
100
AcDbLine
 10
-3.027439422199826
 20
-0.2099962668917053
 30
0.0
 11
-3.039952018194997
 21
-0.2389369657326276
 31
0.0
  0
LWPOLYLINE
  5
10E
330
91
100
AcDbEntity
  8
AM_4
100
AcDbPolyline
 90
        3
 70
     0
 43
0.0
 10
-3.039952018194997
 20
-0.2389369657326276
 10
-3.010906104604481
 20
-0.2560939713202353
 10
-2.980457471515485
 20
-0.2711532636537956
  0
LINE
  5
10F
330
91
100
AcDbEntity
  8
AM_4
100
AcDbLine
 10
-2.980457471515485
 20
-0.2711532636537956
 30
0.0
 11
-2.954859729534947
 21
-0.2813919000363599
 31
0.0
  0
LWPOLYLINE
  5
110
330
91
100
AcDbEntity
  8
AM_4
100
AcDbPolyline
 90
        3
 70
     0
 43
0.0
 10
-2.954859729534947
 20
-0.2813919000363599
 10
-2.923628892278065
 20
-0.2911775952746243
 10
-2.891541506719919
 20
-0.2987675689889718
  0
LINE
  5
111
330
91
100
AcDbEntity
  8
AM_4
100
AcDbLine
 10
-2.878634491118977
 20
-0.2689146070947222
 30
0.0
 11
-2.891541506719919
 21
-0.2987675689889718
 31
0.0
  0
ARC
  5
112
330
91
100
AcDbEntity
  8
AM_4
100
AcDbCircle
 10
-2.885859747339127
 20
0.0000000000000003
 30
0.0
 40
0.1999999999999997
100
AcDbArc
 50
90.0
 51
217.7466520480076
  0
LWPOLYLINE
  5
113
330
91
100
AcDbEntity
  8
AM_4
100
AcDbPolyline
 90
       11
 70
     0
 43
0.0
 10
-3.044189882236034
 20
-0.1221947586981927
 10
-3.042016585536756
 20
-0.1245107513506023
 10
-3.035998884465191
 20
-0.1291842652280562
 10
-3.027510230638546
 20
-0.1344729790611519
 10
-3.016316971404797
 20
-0.1405186270901959
 10
-3.003327256064417
 20
-0.1468270783017121
 10
-2.988190444839258
 20
-0.1535654953592165
 10
-2.972146500559051
 20
-0.1601799433259583
 10
-2.95475823034702
 20
-0.1668493358980661
 10
-2.937202622622631
 20
-0.1731116383367606
 10
-2.919251504922161
 20
-0.1790373738502115
  0
ELLIPSE
  5
114
330
91
100
AcDbEntity
  8
AM_4
100
AcDbEllipse
 10
-2.885859747339126
 20
0.0
 30
0.0
 11
1.224646799147353E-17
 21
0.2
 31
0.0
210
0.0
220
0.0
230
1.0
 40
0.3746065934159094
 41
0.0
 42
2.679646633022827
  0
LINE
  5
115
330
91
100
AcDbEntity
  8
AM_4
100
AcDbLine
 10
-2.794760279006254
 20
0.1999999999999999
 30
0.0
 11
-2.885859747339126
 21
0.1999999999999999
 31
0.0
  0
LINE
  5
116
330
91
100
AcDbEntity
  8
AM_4
100
AcDbLine
 10
-2.848488462403381
 20
-0.2
 30
0.0
 11
-2.794763109818277
 21
-0.2
 31
0.0
  0
LWPOLYLINE
  5
117
330
91
100
AcDbEntity
  8
AM_4
100
AcDbPolyline
 90
        8
 70
     0
 43
0.0
 10
-2.848329684569187
 20
-0.1999999999699529
 10
-2.849452995588185
 20
-0.1999786710855128
 10
-2.858095539540745
 20
-0.1988321115509053
 10
-2.868573802317601
 20
-0.1961649429984259
 10
-2.88131872669818
 20
-0.1920694300574958
 10
-2.895529906560348
 20
-0.1870948030566195
 10
-2.911688261374894
 20
-0.181500594761393
 10
-2.919251504922177
 20
-0.1790373738501784
  0
LWPOLYLINE
  5
118
330
91
100
AcDbEntity
  8
AM_4
100
AcDbPolyline
 90
        3
 70
     0
 43
0.0
 10
-2.820646236957857
 20
-0.109375
 10
-2.830254902645847
 20
-0.0546875
 10
-2.835894444338891
 20
-0.0000000000000001
  0
LWPOLYLINE
  5
119
330
91
100
AcDbEntity
  8
AM_4
100
AcDbPolyline
 90
        3
 70
     0
 43
0.0
 10
-2.788583365500072
 20
-0.2187500000000001
 10
-2.806526577860906
 20
-0.1643083897258504
 10
-2.820646236957857
 20
-0.109375
  0
LINE
  5
11A
330
91
100
AcDbEntity
  8
AM_4
100
AcDbLine
 10
-2.788583365500072
 20
-0.2187500000000001
 30
0.0
 11
-2.719673413377509
 21
-0.2187500000000001
 31
0.0
  0
LWPOLYLINE
  5
11B
330
91
100
AcDbEntity
  8
AM_4
100
AcDbPolyline
 90
        3
 70
     0
 43
0.0
 10
-2.759990722958963
 20
-0.0000000000000001
 10
-2.742047510598129
 20
-0.0544416102741496
 10
-2.739559208610552
 20
-0.063011417243336
  0
LINE
  5
11C
330
91
100
AcDbEntity
  8
AM_4
100
AcDbLine
 10
-2.788583365500072
 20
0.2187499999999999
 30
0.0
 11
-2.719675219430973
 21
0.2187499999999999
 31
0.0
  0
LWPOLYLINE
  5
11D
330
91
100
AcDbEntity
  8
AM_4
100
AcDbPolyline
 90
        3
 70
     0
 43
0.0
 10
-2.820646236957857
 20
0.1093749999999999
 10
-2.806599363226438
 20
0.1640624999999999
 10
-2.788583365500072
 20
0.2187499999999999
  0
LWPOLYLINE
  5
11E
330
91
100
AcDbEntity
  8
AM_4
100
AcDbPolyline
 90
        3
 70
     0
 43
0.0
 10
-2.835894444338891
 20
-0.0000000000000001
 10
-2.830288478955336
 20
0.0544416102741495
 10
-2.820646236957857
 20
0.1093749999999999
  0
LINE
  5
11F
330
91
100
AcDbEntity
  8
AM_4
100
AcDbLine
 10
-2.835894444338891
 20
-0.0000000000000001
 30
0.0
 11
-2.759990722958963
 21
-0.0000000000000001
 31
0.0
  0
LWPOLYLINE
  5
120
330
91
100
AcDbEntity
  8
AM_4
100
AcDbPolyline
 90
        3
 70
     0
 43
0.0
 10
-2.739648354693912
 20
0.0626982852377272
 10
-2.741974725232597
 20
0.0546875
 10
-2.759990722958963
 20
-0.0000000000000001
  0
ENDBLK
  5
94
330
91
100
AcDbEntity
  8
0
100
AcDbBlockEnd
  0
BLOCK
  5
123
330
121
100
AcDbEntity
  8
0
100
AcDbBlockBegin
  2
3_ASME_B18_3_10_1_0_in_069384_4
 70
     2
 10
0.0
 20
0.0
 30
0.0
  3
3_ASME_B18_3_10_1_0_in_069384_4
  1

  0
ATTDEF
  5
125
330
121
100
AcDbEntity
  8
AM_6
100
AcDbText
 10
5.095
 20
-1.687416666666667
 30
0.0
 40
0.5
  1
ANSI/ASME B18.3-1998
100
AcDbAttributeDefinition
  3

  2
NN
 70
     8
280
     0
  0
ATTDEF
  5
126
330
121
100
AcDbEntity
  8
AM_6
100
AcDbText
 10
5.095
 20
-2.187416666666667
 30
0.0
 40
0.5
  1
Socket Button Head Cap Screws
100
AcDbAttributeDefinition
  3

  2
NT
 70
     8
280
     0
  0
ATTDEF
  5
127
330
121
100
AcDbEntity
  8
AM_6
100
AcDbText
 10
5.095
 20
-2.687416666666667
 30
0.0
 40
0.5
  1
ASME B18.3-10
100
AcDbAttributeDefinition
  3

  2
NB
 70
     8
280
     0
  0
ATTDEF
  5
128
330
121
100
AcDbEntity
  8
AM_6
100
AcDbText
 10
5.095
 20
-3.187416666666667
 30
0.0
 40
0.5
  1
ASME B18.3-$NS.
100
AcDbAttributeDefinition
  3

  2
NBSYN
 70
     8
280
     0
  0
ATTDEF
  5
129
330
121
100
AcDbEntity
  8
AM_6
100
AcDbText
 10
5.095
 20
-3.687416666666667
 30
0.0
 40
0.5
  1
ASME B18.3-10
100
AcDbAttributeDefinition
  3

  2
LINA
 70
     8
280
     0
  0
ATTDEF
  5
12A
330
121
100
AcDbEntity
  8
AM_6
100
AcDbText
 10
5.095
 20
-4.187416666666667
 30
0.0
 40
0.5
  1
10
100
AcDbAttributeDefinition
  3

  2
NS
 70
     8
280
     0
  0
ATTDEF
  5
12B
330
121
100
AcDbEntity
  8
AM_6
100
AcDbText
 10
5.095
 20
-4.687416666666667
 30
0.0
 40
0.5
  1
0.361
100
AcDbAttributeDefinition
  3

  2
A
 70
     8
280
     0
  0
ATTDEF
  5
12C
330
121
100
AcDbEntity
  8
AM_6
100
AcDbText
 10
5.095
 20
-5.187416666666667
 30
0.0
 40
0.5
  1
0.101
100
AcDbAttributeDefinition
  3

  2
H
 70
     8
280
     0
  0
ATTDEF
  5
12D
330
121
100
AcDbEntity
  8
AM_6
100
AcDbText
 10
5.095
 20
-5.687416666666667
 30
0.0
 40
0.5
  1
0.800
100
AcDbAttributeDefinition
  3

  2
L
 70
     8
280
     0
  0
ATTDEF
  5
12E
330
121
100
AcDbEntity
  8
AM_6
100
AcDbText
 10
5.095
 20
-6.187416666666667
 30
0.0
 40
0.5
  1
0.020
100
AcDbAttributeDefinition
  3

  2
S
 70
     8
280
     0
  0
ATTDEF
  5
12F
330
121
100
AcDbEntity
  8
AM_6
100
AcDbText
 10
5.095
 20
-6.687416666666667
 30
0.0
 40
0.5
  1
0.125000
100
AcDbAttributeDefinition
  3

  2
J
 70
     8
280
     0
  0
ATTDEF
  5
130
330
121
100
AcDbEntity
  8
AM_6
100
AcDbText
 10
5.095
 20
-7.187416666666667
 30
0.0
 40
0.5
  1
baldor
100
AcDbAttributeDefinition
  3

  2
COMPANY
 70
     8
280
     0
  0
LINE
  5
132
330
121
100
AcDbEntity
  8
AM_5
100
AcDbLine
 10
0.095
 20
-1.687416666666667
 30
0.0
 11
-0.095
 21
-1.687416666666667
 31
0.0
  0
LINE
  5
133
330
121
100
AcDbEntity
  8
AM_5
100
AcDbLine
 10
0.0764
 20
-1.687416666666667
 30
0.0
 11
0.095
 21
-1.719632811687448
 31
0.0
  0
ENDBLK
  5
124
330
121
100
AcDbEntity
  8
0
100
AcDbBlockEnd
  0
BLOCK
  5
136
330
134
100
AcDbEntity
  8
0
100
AcDbBlockBegin
  2
4_ASME_B18_3_10_2_0_in_069384_4
 70
     2
 10
0.0
 20
0.0
 30
0.0
  3
4_ASME_B18_3_10_2_0_in_069384_4
  1

  0
ATTDEF
  5
138
330
134
100
AcDbEntity
  8
AM_6
100
AcDbText
 10
5.1805
 20
-0.9674166666666667
 30
0.0
 40
0.5
  1
ANSI/ASME B18.3-1998
100
AcDbAttributeDefinition
  3

  2
NN
 70
     8
280
     0
  0
ATTDEF
  5
139
330
134
100
AcDbEntity
  8
AM_6
100
AcDbText
 10
5.1805
 20
-1.467416666666667
 30
0.0
 40
0.5
  1
Socket Button Head Cap Screws
100
AcDbAttributeDefinition
  3

  2
NT
 70
     8
280
     0
  0
ATTDEF
  5
13A
330
134
100
AcDbEntity
  8
AM_6
100
AcDbText
 10
5.1805
 20
-1.967416666666667
 30
0.0
 40
0.5
  1
ASME B18.3-10
100
AcDbAttributeDefinition
  3

  2
NB
 70
     8
280
     0
  0
ATTDEF
  5
13B
330
134
100
AcDbEntity
  8
AM_6
100
AcDbText
 10
5.1805
 20
-2.467416666666667
 30
0.0
 40
0.5
  1
ASME B18.3-$NS.
100
AcDbAttributeDefinition
  3

  2
NBSYN
 70
     8
280
     0
  0
ATTDEF
  5
13C
330
134
100
AcDbEntity
  8
AM_6
100
AcDbText
 10
5.1805
 20
-2.967416666666667
 30
0.0
 40
0.5
  1
ASME B18.3-10
100
AcDbAttributeDefinition
  3

  2
LINA
 70
     8
280
     0
  0
ATTDEF
  5
13D
330
134
100
AcDbEntity
  8
AM_6
100
AcDbText
 10
5.1805
 20
-3.467416666666667
 30
0.0
 40
0.5
  1
10
100
AcDbAttributeDefinition
  3

  2
NS
 70
     8
280
     0
  0
ATTDEF
  5
13E
330
134
100
AcDbEntity
  8
AM_6
100
AcDbText
 10
5.1805
 20
-3.967416666666667
 30
0.0
 40
0.5
  1
0.361
100
AcDbAttributeDefinition
  3

  2
A
 70
     8
280
     0
  0
ATTDEF
  5
13F
330
134
100
AcDbEntity
  8
AM_6
100
AcDbText
 10
5.1805
 20
-4.467416666666667
 30
0.0
 40
0.5
  1
0.101
100
AcDbAttributeDefinition
  3

  2
H
 70
     8
280
     0
  0
ATTDEF
  5
140
330
134
100
AcDbEntity
  8
AM_6
100
AcDbText
 10
5.1805
 20
-4.967416666666667
 30
0.0
 40
0.5
  1
0.800
100
AcDbAttributeDefinition
  3

  2
L
 70
     8
280
     0
  0
ATTDEF
  5
141
330
134
100
AcDbEntity
  8
AM_6
100
AcDbText
 10
5.1805
 20
-5.467416666666667
 30
0.0
 40
0.5
  1
0.020
100
AcDbAttributeDefinition
  3

  2
S
 70
     8
280
     0
  0
ATTDEF
  5
142
330
134
100
AcDbEntity
  8
AM_6
100
AcDbText
 10
5.1805
 20
-5.967416666666667
 30
0.0
 40
0.5
  1
0.125000
100
AcDbAttributeDefinition
  3

  2
J
 70
     8
280
     0
  0
ATTDEF
  5
143
330
134
100
AcDbEntity
  8
AM_6
100
AcDbText
 10
5.1805
 20
-6.467416666666667
 30
0.0
 40
0.5
  1
baldor
100
AcDbAttributeDefinition
  3

  2
COMPANY
 70
     8
280
     0
  0
LINE
  5
144
330
134
100
AcDbEntity
  8
AM_9
100
AcDbLine
 10
-0.0625
 20
-1.807416666666667
 30
0.0
 11
-0.0625
 21
-1.868416666666667
 31
0.0
  0
LINE
  5
145
330
134
100
AcDbEntity
  8
AM_9
100
AcDbLine
 10
0.0625
 20
-1.807416666666667
 30
0.0
 11
0.0625
 21
-1.868416666666667
 31
0.0
  0
LINE
  5
146
330
134
100
AcDbEntity
  8
AM_9
100
AcDbLine
 10
0.0
 20
-1.807416666666667
 30
0.0
 11
0.0
 21
-1.868416666666667
 31
0.0
  0
LINE
  5
147
330
134
100
AcDbEntity
  8
AM_9
100
AcDbLine
 10
-0.0625
 20
-1.807416666666667
 30
0.0
 11
0.0625
 21
-1.807416666666667
 31
0.0
  0
LINE
  5
148
330
134
100
AcDbEntity
  8
AM_9
100
AcDbLine
 10
-0.0764
 20
-0.9674166666666667
 30
0.0
 11
-0.095
 21
-0.9860166666666668
 31
0.0
  0
LINE
  5
149
330
134
100
AcDbEntity
  8
AM_9
100
AcDbLine
 10
0.095
 20
-0.9860166666666668
 30
0.0
 11
0.0764
 21
-0.9674166666666667
 31
0.0
  0
LINE
  5
14A
330
134
100
AcDbEntity
  8
AM_9
100
AcDbLine
 10
-0.0764
 20
-0.9674166666666667
 30
0.0
 11
0.0764
 21
-0.9674166666666667
 31
0.0
  0
LINE
  5
14B
330
134
100
AcDbEntity
  8
AM_9
100
AcDbLine
 10
0.095
 20
-1.767416666666667
 30
0.0
 11
0.095
 21
-0.9860166666666668
 31
0.0
  0
LINE
  5
14C
330
134
100
AcDbEntity
  8
AM_9
100
AcDbLine
 10
-0.095
 20
-0.9860166666666668
 30
0.0
 11
-0.095
 21
-1.767416666666667
 31
0.0
  0
LINE
  5
14D
330
134
100
AcDbEntity
  8
AM_9
100
AcDbLine
 10
-0.095
 20
-0.9860166666666668
 30
0.0
 11
0.095
 21
-0.9860166666666668
 31
0.0
  0
LINE
  5
14E
330
134
100
AcDbEntity
  8
AM_5
100
AcDbLine
 10
-0.0950000002299982
 20
-1.687416666666667
 30
0.0
 11
0.095000000229998
 21
-1.687416666666667
 31
0.0
  0
LINE
  5
14F
330
134
100
AcDbEntity
  8
AM_5
100
AcDbLine
 10
-0.0764
 20
-1.687416666666667
 30
0.0
 11
-0.0950000079195397
 21
-1.719632825404493
 31
0.0
  0
LINE
  5
150
330
134
100
AcDbEntity
  8
AM_4
100
AcDbLine
 10
0.1805
 20
-1.787416666666667
 30
0.0
 11
0.1805
 21
-1.767416666666667
 31
0.0
  0
LINE
  5
151
330
134
100
AcDbEntity
  8
AM_4
100
AcDbLine
 10
-0.1805
 20
-1.767416666666667
 30
0.0
 11
-0.1805
 21
-1.787416666666667
 31
0.0
  0
LINE
  5
152
330
134
100
AcDbEntity
  8
AM_4
100
AcDbLine
 10
-0.0994999975105467
 20
-1.868416666666667
 30
0.0
 11
0.0995
 21
-1.868416666666667
 31
0.0
  0
ARC
  5
153
330
134
100
AcDbEntity
  8
AM_4
100
AcDbCircle
 10
0.0994999999999999
 20
-1.787416666666667
 30
0.0
 40
0.0810000000000002
100
AcDbArc
 50
270.0
 51
0.0
  0
ARC
  5
154
330
134
100
AcDbEntity
  8
AM_4
100
AcDbCircle
 10
-0.0994999999999998
 20
-1.787416666666667
 30
0.0
 40
0.0810000000000002
100
AcDbArc
 50
180.0
 51
270.0
  0
LINE
  5
155
330
134
100
AcDbEntity
  8
AM_4
100
AcDbLine
 10
-0.1805
 20
-1.787416666666667
 30
0.0
 11
0.1805
 21
-1.787416666666667
 31
0.0
  0
ENDBLK
  5
137
330
134
100
AcDbEntity
  8
0
100
AcDbBlockEnd
  0
BLOCK
  5
158
330
156
100
AcDbEntity
  8
0
100
AcDbBlockBegin
  2
5_070896LW_0_in_069384_4
 70
     2
 10
0.0
 20
0.0
 30
0.0
  3
5_070896LW_0_in_069384_4
  1

  0
ATTDEF
  5
15A
330
156
100
AcDbEntity
  8
AM_6
100
AcDbText
 10
6.9375
 20
-1.327416666666667
 30
0.0
 40
0.5
  1
Imperial Insert Lockwasher -Inch
100
AcDbAttributeDefinition
  3

  2
NN
 70
     8
280
     0
  0
ATTDEF
  5
15B
330
156
100
AcDbEntity
  8
AM_6
100
AcDbText
 10
6.9375
 20
-1.827416666666667
 30
0.0
 40
0.5
  1
Imperial Bearings
100
AcDbAttributeDefinition
  3

  2
NT
 70
     8
280
     0
  0
ATTDEF
  5
15C
330
156
100
AcDbEntity
  8
AM_6
100
AcDbText
 10
6.9375
 20
-2.327416666666667
 30
0.0
 40
0.5
  1
070896LW
100
AcDbAttributeDefinition
  3

  2
NB
 70
     8
280
     0
  0
ATTDEF
  5
15D
330
156
100
AcDbEntity
  8
AM_6
100
AcDbText
 10
6.9375
 20
-2.827416666666667
 30
0.0
 40
0.5
  1
$PN.LW
100
AcDbAttributeDefinition
  3

  2
NBSYN
 70
     8
280
     0
  0
ATTDEF
  5
15E
330
156
100
AcDbEntity
  8
AM_6
100
AcDbText
 10
6.9375
 20
-3.327416666666667
 30
0.0
 40
0.5
  1
070896
100
AcDbAttributeDefinition
  3

  2
LINA
 70
     8
280
     0
  0
ATTDEF
  5
15F
330
156
100
AcDbEntity
  8
AM_6
100
AcDbText
 10
6.9375
 20
-3.827416666666667
 30
0.0
 40
0.5
  1
2-1/2
100
AcDbAttributeDefinition
  3

  2
SS
 70
     8
280
     0
  0
ATTDEF
  5
160
330
156
100
AcDbEntity
  8
AM_6
100
AcDbText
 10
6.9375
 20
-4.327416666666666
 30
0.0
 40
0.5
  1
2.500000
100
AcDbAttributeDefinition
  3

  2
SS1
 70
     8
280
     0
  0
ATTDEF
  5
161
330
156
100
AcDbEntity
  8
AM_6
100
AcDbText
 10
6.9375
 20
-4.827416666666666
 30
0.0
 40
0.5
  1
070896
100
AcDbAttributeDefinition
  3

  2
PN
 70
     8
280
     0
  0
ATTDEF
  5
162
330
156
100
AcDbEntity
  8
AM_6
100
AcDbText
 10
6.9375
 20
-5.327416666666666
 30
0.0
 40
0.5
  1
INS-IP-208R
100
AcDbAttributeDefinition
  3

  2
DESCRIPTION
 70
     8
280
     0
  0
ATTDEF
  5
163
330
156
100
AcDbEntity
  8
AM_6
100
AcDbText
 10
6.9375
 20
-5.827416666666666
 30
0.0
 40
0.5
  1
4.7241
100
AcDbAttributeDefinition
  3

  2
A
 70
     8
280
     0
  0
ATTDEF
  5
164
330
156
100
AcDbEntity
  8
AM_6
100
AcDbText
 10
6.9375
 20
-6.327416666666666
 30
0.0
 40
0.5
  1
1-9/32
100
AcDbAttributeDefinition
  3

  2
B
 70
     8
280
     0
  0
ATTDEF
  5
165
330
156
100
AcDbEntity
  8
AM_6
100
AcDbText
 10
6.9375
 20
-6.827416666666666
 30
0.0
 40
0.5
  1
3-27/64
100
AcDbAttributeDefinition
  3

  2
C
 70
     8
280
     0
  0
ATTDEF
  5
166
330
156
100
AcDbEntity
  8
AM_6
100
AcDbText
 10
6.9375
 20
-7.327416666666666
 30
0.0
 40
0.5
  1
1.208
100
AcDbAttributeDefinition
  3

  2
D
 70
     8
280
     0
  0
ATTDEF
  5
167
330
156
100
AcDbEntity
  8
AM_6
100
AcDbText
 10
6.9375
 20
-7.827416666666666
 30
0.0
 40
0.5
  1
3-7/8
100
AcDbAttributeDefinition
  3

  2
E
 70
     8
280
     0
  0
ATTDEF
  5
168
330
156
100
AcDbEntity
  8
AM_6
100
AcDbText
 10
6.9375
 20
-8.327416666666666
 30
0.0
 40
0.5
  1
0.1900
100
AcDbAttributeDefinition
  3

  2
NDM
 70
     8
280
     0
  0
ATTDEF
  5
169
330
156
100
AcDbEntity
  8
AM_6
100
AcDbText
 10
6.9375
 20
-8.827416666666666
 30
0.0
 40
0.5
  1
0.1450
100
AcDbAttributeDefinition
  3

  2
KDM
 70
     8
280
     0
  0
ATTDEF
  5
16A
330
156
100
AcDbEntity
  8
AM_6
100
AcDbText
 10
6.9375
 20
-9.327416666666666
 30
0.0
 40
0.5
  1
3.35
100
AcDbAttributeDefinition
  3

  2
AL
 70
     8
280
     0
  0
ATTDEF
  5
16B
330
156
100
AcDbEntity
  8
AM_6
100
AcDbText
 10
6.9375
 20
-9.827416666666666
 30
0.0
 40
0.5
  1
0.50
100
AcDbAttributeDefinition
  3

  2
BL
 70
     8
280
     0
  0
ATTDEF
  5
16C
330
156
100
AcDbEntity
  8
AM_6
100
AcDbText
 10
6.9375
 20
-10.32741666666667
 30
0.0
 40
0.5
  1
0.07
100
AcDbAttributeDefinition
  3

  2
CL
 70
     8
280
     0
  0
ATTDEF
  5
16D
330
156
100
AcDbEntity
  8
AM_6
100
AcDbText
 10
6.9375
 20
-10.82741666666667
 30
0.0
 40
0.5
  1
0.44
100
AcDbAttributeDefinition
  3

  2
DL
 70
     8
280
     0
  0
ATTDEF
  5
16E
330
156
100
AcDbEntity
  8
AM_6
100
AcDbText
 10
6.9375
 20
-11.32741666666667
 30
0.0
 40
0.5
  1
baldor
100
AcDbAttributeDefinition
  3

  2
COMPANY
 70
     8
280
     0
  0
LINE
  5
16F
330
156
100
AcDbEntity
  8
AM_9
100
AcDbLine
 10
-1.663194444444445
 20
-1.697416666666667
 30
0.0
 11
-1.663194444444445
 21
-1.767416666666667
 31
0.0
  0
LINE
  5
170
330
156
100
AcDbEntity
  8
AM_9
100
AcDbLine
 10
-1.755517874001363
 20
-1.697416666666667
 30
0.0
 11
-1.755517874001363
 21
-1.767416666666667
 31
0.0
  0
LINE
  5
171
330
156
100
AcDbEntity
  8
AM_9
100
AcDbLine
 10
1.663194444444444
 20
-1.697416666666667
 30
0.0
 11
1.663194444444444
 21
-1.767416666666667
 31
0.0
  0
LINE
  5
172
330
156
100
AcDbEntity
  8
AM_9
100
AcDbLine
 10
1.758233242988709
 20
-1.767416666666667
 30
0.0
 11
1.758233242988709
 21
-1.697416666666667
 31
0.0
  0
LINE
  5
173
330
156
100
AcDbEntity
  8
AM_9
100
AcDbLine
 10
-1.348007965406408
 20
-1.697416666666667
 30
0.0
 11
-1.348007965406408
 21
-1.767416666666667
 31
0.0
  0
LINE
  5
174
330
156
100
AcDbEntity
  8
AM_9
100
AcDbLine
 10
1.348007965406408
 20
-1.697416666666667
 30
0.0
 11
1.348007965406408
 21
-1.767416666666667
 31
0.0
  0
LINE
  5
175
330
156
100
AcDbEntity
  8
AM_9
100
AcDbLine
 10
-1.020360717645074
 20
-1.697416666666667
 30
0.0
 11
-1.020360717645074
 21
-1.767416666666667
 31
0.0
  0
LINE
  5
176
330
156
100
AcDbEntity
  8
AM_9
100
AcDbLine
 10
1.020360717645074
 20
-1.697416666666667
 30
0.0
 11
1.020360717645074
 21
-1.767416666666667
 31
0.0
  0
LINE
  5
177
330
156
100
AcDbEntity
  8
AM_9
100
AcDbLine
 10
-0.5914414510540423
 20
-1.327416666666667
 30
0.0
 11
-0.5914414510540423
 21
-1.767416666666667
 31
0.0
  0
LINE
  5
178
330
156
100
AcDbEntity
  8
AM_9
100
AcDbLine
 10
-0.6304075736445329
 20
-1.697416666666667
 30
0.0
 11
-0.6304075736445327
 21
-1.767416666666667
 31
0.0
  0
LINE
  5
179
330
156
100
AcDbEntity
  8
AM_9
100
AcDbLine
 10
-0.8860104292196299
 20
-1.697416666666667
 30
0.0
 11
-0.8860104292196299
 21
-1.767416666666667
 31
0.0
  0
LINE
  5
17A
330
156
100
AcDbEntity
  8
AM_9
100
AcDbLine
 10
0.8860104292196298
 20
-1.697416666666667
 30
0.0
 11
0.8860104292196306
 21
-1.767416666666667
 31
0.0
  0
LINE
  5
17B
330
156
100
AcDbEntity
  8
AM_9
100
AcDbLine
 10
-0.3994376905167104
 20
-1.697416666666667
 30
0.0
 11
-0.3994376905167104
 21
-1.767416666666667
 31
0.0
  0
LINE
  5
17C
330
156
100
AcDbEntity
  8
AM_9
100
AcDbLine
 10
-0.3604715679262201
 20
-1.327416666666667
 30
0.0
 11
-0.616738440865791
 21
-1.327416666666667
 31
0.0
  0
LINE
  5
17D
330
156
100
AcDbEntity
  8
AM_9
100
AcDbLine
 10
-0.3604715679262201
 20
-1.327416666666667
 30
0.0
 11
-0.3604715679262201
 21
-1.767416666666667
 31
0.0
  0
LINE
  5
17E
330
156
100
AcDbEntity
  8
AM_9
100
AcDbLine
 10
-1.243231214311181
 20
-1.697416666666667
 30
0.0
 11
-1.243231214311181
 21
-1.767416666666667
 31
0.0
  0
LINE
  5
17F
330
156
100
AcDbEntity
  8
AM_9
100
AcDbLine
 10
-1.108880925885748
 20
-1.697416666666667
 30
0.0
 11
-1.108880925885748
 21
-1.767416666666667
 31
0.0
  0
LINE
  5
180
330
156
100
AcDbEntity
  8
AM_9
100
AcDbLine
 10
-1.271083507131789
 20
-1.697416666666667
 30
0.0
 11
-1.271083507131789
 21
-1.767416666666667
 31
0.0
  0
LINE
  5
181
330
156
100
AcDbEntity
  8
AM_9
100
AcDbLine
 10
1.108880925885737
 20
-1.697416666666667
 30
0.0
 11
1.108880925885737
 21
-1.767416666666667
 31
0.0
  0
LINE
  5
182
330
156
100
AcDbEntity
  8
AM_9
100
AcDbLine
 10
1.243231214311181
 20
-1.697416666666667
 30
0.0
 11
1.243231214311181
 21
-1.767416666666667
 31
0.0
  0
LINE
  5
183
330
156
100
AcDbEntity
  8
AM_9
100
AcDbLine
 10
1.271083507131788
 20
-1.767416666666667
 30
0.0
 11
1.271083507131788
 21
-1.697416666666667
 31
0.0
  0
LINE
  5
184
330
156
100
AcDbEntity
  8
AM_9
100
AcDbLine
 10
-0.3857685577379693
 20
-1.697416666666667
 30
0.0
 11
-0.3857685577379693
 21
-1.327416666666667
 31
0.0
  0
LINE
  5
185
330
156
100
AcDbEntity
  8
AM_9
100
AcDbLine
 10
-0.616738440865791
 20
-1.327416666666667
 30
0.0
 11
-0.616738440865791
 21
-1.697416666666667
 31
0.0
  0
LINE
  5
186
330
156
100
AcDbEntity
  8
AM_9
100
AcDbLine
 10
-0.0950000000000002
 20
-1.697416666666667
 30
0.0
 11
-0.0950000000000002
 21
-1.767416666666667
 31
0.0
  0
LINE
  5
187
330
156
100
AcDbEntity
  8
AM_9
100
AcDbLine
 10
0.0949999999999997
 20
-1.697416666666667
 30
0.0
 11
0.0949999999999998
 21
-1.767416666666667
 31
0.0
  0
LINE
  5
188
330
156
100
AcDbEntity
  8
AM_4
100
AcDbLine
 10
-1.9375
 20
-1.697416666666667
 30
0.0
 11
-1.9375
 21
-1.767416666666667
 31
0.0
  0
LINE
  5
189
330
156
100
AcDbEntity
  8
AM_4
100
AcDbLine
 10
1.9375
 20
-1.767416666666667
 30
0.0
 11
1.9375
 21
-1.697416666666667
 31
0.0
  0
LINE
  5
18A
330
156
100
AcDbEntity
  8
AM_4
100
AcDbLine
 10
-1.9375
 20
-1.767416666666667
 30
0.0
 11
1.9375
 21
-1.767416666666667
 31
0.0
  0
LINE
  5
18B
330
156
100
AcDbEntity
  8
AM_4
100
AcDbLine
 10
-1.9375
 20
-1.697416666666667
 30
0.0
 11
1.9375
 21
-1.697416666666667
 31
0.0
  0
ENDBLK
  5
159
330
156
100
AcDbEntity
  8
0
100
AcDbBlockEnd
  0
BLOCK
  5
18E
330
18C
100
AcDbEntity
  8
0
100
AcDbBlockBegin
  2
6_070896I_0_in_069384_4
 70
     2
 10
0.0
 20
0.0
 30
0.0
  3
6_070896I_0_in_069384_4
  1

  0
ATTDEF
  5
190
330
18C
100
AcDbEntity
  8
AM_6
100
AcDbText
 10
7.36205
 20
1.65046875
 30
0.0
 40
0.5
  1
Imperial Insert -Inch
100
AcDbAttributeDefinition
  3

  2
NN
 70
     8
280
     0
  0
ATTDEF
  5
191
330
18C
100
AcDbEntity
  8
AM_6
100
AcDbText
 10
7.36205
 20
1.15046875
 30
0.0
 40
0.5
  1
Imperial Bearings
100
AcDbAttributeDefinition
  3

  2
NT
 70
     8
280
     0
  0
ATTDEF
  5
192
330
18C
100
AcDbEntity
  8
AM_6
100
AcDbText
 10
7.36205
 20
0.6504687500000002
 30
0.0
 40
0.5
  1
070896I
100
AcDbAttributeDefinition
  3

  2
NB
 70
     8
280
     0
  0
ATTDEF
  5
193
330
18C
100
AcDbEntity
  8
AM_6
100
AcDbText
 10
7.36205
 20
0.1504687500000002
 30
0.0
 40
0.5
  1
$PN.I
100
AcDbAttributeDefinition
  3

  2
NBSYN
 70
     8
280
     0
  0
ATTDEF
  5
194
330
18C
100
AcDbEntity
  8
AM_6
100
AcDbText
 10
7.36205
 20
-0.3495312499999998
 30
0.0
 40
0.5
  1
070896
100
AcDbAttributeDefinition
  3

  2
LINA
 70
     8
280
     0
  0
ATTDEF
  5
195
330
18C
100
AcDbEntity
  8
AM_6
100
AcDbText
 10
7.36205
 20
-0.8495312499999998
 30
0.0
 40
0.5
  1
2-1/2
100
AcDbAttributeDefinition
  3

  2
SS
 70
     8
280
     0
  0
ATTDEF
  5
196
330
18C
100
AcDbEntity
  8
AM_6
100
AcDbText
 10
7.36205
 20
-1.34953125
 30
0.0
 40
0.5
  1
2.500000
100
AcDbAttributeDefinition
  3

  2
SS1
 70
     8
280
     0
  0
ATTDEF
  5
197
330
18C
100
AcDbEntity
  8
AM_6
100
AcDbText
 10
7.36205
 20
-1.84953125
 30
0.0
 40
0.5
  1
070896
100
AcDbAttributeDefinition
  3

  2
PN
 70
     8
280
     0
  0
ATTDEF
  5
198
330
18C
100
AcDbEntity
  8
AM_6
100
AcDbText
 10
7.36205
 20
-2.34953125
 30
0.0
 40
0.5
  1
INS-IP-208R
100
AcDbAttributeDefinition
  3

  2
DESCRIPTION
 70
     8
280
     0
  0
ATTDEF
  5
199
330
18C
100
AcDbEntity
  8
AM_6
100
AcDbText
 10
7.36205
 20
-2.84953125
 30
0.0
 40
0.5
  1
Contact Seal
100
AcDbAttributeDefinition
  3

  2
ST
 70
     8
280
     0
  0
ATTDEF
  5
19A
330
18C
100
AcDbEntity
  8
AM_6
100
AcDbText
 10
7.36205
 20
-3.34953125
 30
0.0
 40
0.5
  1
4.7241
100
AcDbAttributeDefinition
  3

  2
A
 70
     8
280
     0
  0
ATTDEF
  5
19B
330
18C
100
AcDbEntity
  8
AM_6
100
AcDbText
 10
7.36205
 20
-3.84953125
 30
0.0
 40
0.5
  1
1-9/32
100
AcDbAttributeDefinition
  3

  2
B
 70
     8
280
     0
  0
ATTDEF
  5
19C
330
18C
100
AcDbEntity
  8
AM_6
100
AcDbText
 10
7.36205
 20
-4.34953125
 30
0.0
 40
0.5
  1
3-27/64
100
AcDbAttributeDefinition
  3

  2
C
 70
     8
280
     0
  0
ATTDEF
  5
19D
330
18C
100
AcDbEntity
  8
AM_6
100
AcDbText
 10
7.36205
 20
-4.84953125
 30
0.0
 40
0.5
  1
1.208
100
AcDbAttributeDefinition
  3

  2
D
 70
     8
280
     0
  0
ATTDEF
  5
19E
330
18C
100
AcDbEntity
  8
AM_6
100
AcDbText
 10
7.36205
 20
-5.34953125
 30
0.0
 40
0.5
  1
3-7/8
100
AcDbAttributeDefinition
  3

  2
E
 70
     8
280
     0
  0
ATTDEF
  5
19F
330
18C
100
AcDbEntity
  8
AM_6
100
AcDbText
 10
7.36205
 20
-5.84953125
 30
0.0
 40
0.5
  1
0.1900
100
AcDbAttributeDefinition
  3

  2
NDM
 70
     8
280
     0
  0
ATTDEF
  5
1A0
330
18C
100
AcDbEntity
  8
AM_6
100
AcDbText
 10
7.36205
 20
-6.34953125
 30
0.0
 40
0.5
  1
0.101
100
AcDbAttributeDefinition
  3

  2
H
 70
     8
280
     0
  0
ATTDEF
  5
1A1
330
18C
100
AcDbEntity
  8
AM_6
100
AcDbText
 10
7.36205
 20
-6.84953125
 30
0.0
 40
0.5
  1
0.1450
100
AcDbAttributeDefinition
  3

  2
KDM
 70
     8
280
     0
  0
ATTDEF
  5
1A2
330
18C
100
AcDbEntity
  8
AM_6
100
AcDbText
 10
7.36205
 20
-7.34953125
 30
0.0
 40
0.5
  1
3.35
100
AcDbAttributeDefinition
  3

  2
AL
 70
     8
280
     0
  0
ATTDEF
  5
1A3
330
18C
100
AcDbEntity
  8
AM_6
100
AcDbText
 10
7.36205
 20
-7.84953125
 30
0.0
 40
0.5
  1
0.50
100
AcDbAttributeDefinition
  3

  2
BL
 70
     8
280
     0
  0
ATTDEF
  5
1A4
330
18C
100
AcDbEntity
  8
AM_6
100
AcDbText
 10
7.36205
 20
-8.34953125
 30
0.0
 40
0.5
  1
0.07
100
AcDbAttributeDefinition
  3

  2
CL
 70
     8
280
     0
  0
ATTDEF
  5
1A5
330
18C
100
AcDbEntity
  8
AM_6
100
AcDbText
 10
7.36205
 20
-8.84953125
 30
0.0
 40
0.5
  1
0.44
100
AcDbAttributeDefinition
  3

  2
DL
 70
     8
280
     0
  0
ATTDEF
  5
1A6
330
18C
100
AcDbEntity
  8
AM_6
100
AcDbText
 10
7.36205
 20
-9.34953125
 30
0.0
 40
0.5
  1
0.8000
100
AcDbAttributeDefinition
  3

  2
LL
 70
     8
280
     0
  0
ATTDEF
  5
1A7
330
18C
100
AcDbEntity
  8
AM_6
100
AcDbText
 10
7.36205
 20
-9.84953125
 30
0.0
 40
0.5
  1
0.025
100
AcDbAttributeDefinition
  3

  2
Y
 70
     8
280
     0
  0
ATTDEF
  5
1A8
330
18C
100
AcDbEntity
  8
AM_6
100
AcDbText
 10
7.36205
 20
-10.34953125
 30
0.0
 40
0.5
  1
0.025000
100
AcDbAttributeDefinition
  3

  2
Y1
 70
     8
280
     0
  0
ATTDEF
  5
1A9
330
18C
100
AcDbEntity
  8
AM_6
100
AcDbText
 10
7.36205
 20
-10.84953125
 30
0.0
 40
0.5
  1
2-15/16
100
AcDbAttributeDefinition
  3

  2
Z
 70
     8
280
     0
  0
ATTDEF
  5
1AA
330
18C
100
AcDbEntity
  8
AM_6
100
AcDbText
 10
7.36205
 20
-11.34953125
 30
0.0
 40
0.5
  1
2.937500
100
AcDbAttributeDefinition
  3

  2
Z1
 70
     8
280
     0
  0
ATTDEF
  5
1AB
330
18C
100
AcDbEntity
  8
AM_6
100
AcDbText
 10
7.36205
 20
-11.84953125
 30
0.0
 40
0.5
  1
baldor
100
AcDbAttributeDefinition
  3

  2
COMPANY
 70
     8
280
     0
  0
LINE
  5
1AC
330
18C
100
AcDbEntity
  8
AM_9
100
AcDbLine
 10
-0.6180730383597594
 20
0.8857499999999999
 30
0.0
 11
-0.6180730383597594
 21
-1.697416666666667
 31
0.0
  0
LINE
  5
1AD
330
18C
100
AcDbEntity
  8
AM_9
100
AcDbLine
 10
-0.3604715679262205
 20
0.8857499999999999
 30
0.0
 11
-0.3604715679262205
 21
-1.96875
 31
0.0
  0
LINE
  5
1AE
330
18C
100
AcDbEntity
  8
AM_9
100
AcDbLine
 10
-0.5914414510540424
 20
-1.767416666666667
 30
0.0
 11
-0.5914414510540424
 21
0.8857499999999997
 31
0.0
  0
LINE
  5
1AF
330
18C
100
AcDbEntity
  8
AM_9
100
AcDbLine
 10
-1.25
 20
0.8857499999999997
 30
0.0
 11
-1.25
 21
-1.96875
 31
0.0
  0
LINE
  5
1B0
330
18C
100
AcDbEntity
  8
AM_9
100
AcDbLine
 10
1.25
 20
-1.96875
 30
0.0
 11
1.25
 21
0.8857499999999997
 31
0.0
  0
LINE
  5
1B1
330
18C
100
AcDbEntity
  8
AM_9
100
AcDbLine
 10
-0.3871031552319376
 20
0.8857499999999999
 30
0.0
 11
-0.3871031552319376
 21
-1.697416666666667
 31
0.0
  0
LINE
  5
1B2
330
18C
100
AcDbEntity
  8
AM_9
100
AcDbLine
 10
-1.315789473684211
 20
1.453125
 30
0.0
 11
-1.315789473684211
 21
0.8857499999999997
 31
0.0
  0
LINE
  5
1B3
330
18C
100
AcDbEntity
  8
AM_9
100
AcDbLine
 10
1.315789473684211
 20
0.8857499999999997
 30
0.0
 11
1.315789473684211
 21
1.453125
 31
0.0
  0
LINE
  5
1B4
330
18C
100
AcDbEntity
  8
AM_9
100
AcDbLine
 10
-0.385768557737969
 20
-1.767416666666667
 30
0.0
 11
-0.385768557737969
 21
-1.697416666666667
 31
0.0
  0
LINE
  5
1B5
330
18C
100
AcDbEntity
  8
AM_9
100
AcDbLine
 10
-0.6167384408657908
 20
-1.697416666666667
 30
0.0
 11
-0.6167384408657909
 21
-1.767416666666667
 31
0.0
  0
LINE
  5
1B6
330
18C
100
AcDbEntity
  8
AM_9
100
AcDbLine
 10
-1.315789473684211
 20
-1.697416666666667
 30
0.0
 11
-1.315789473684211
 21
-1.767416666666667
 31
0.0
  0
LINE
  5
1B7
330
18C
100
AcDbEntity
  8
AM_9
100
AcDbLine
 10
1.315789473684211
 20
-1.767416666666667
 30
0.0
 11
1.315789473684211
 21
-1.697416666666667
 31
0.0
  0
LINE
  5
1B8
330
18C
100
AcDbEntity
  8
AM_9
100
AcDbLine
 10
-1.00762716319083
 20
-1.257416666666667
 30
0.0
 11
-1.00762716319083
 21
-1.697416666666667
 31
0.0
  0
LINE
  5
1B9
330
18C
100
AcDbEntity
  8
AM_9
100
AcDbLine
 10
1.00762716319083
 20
-1.257416666666667
 30
0.0
 11
1.00762716319083
 21
-1.697416666666667
 31
0.0
  0
LINE
  5
1BA
330
18C
100
AcDbEntity
  8
AM_9
100
AcDbLine
 10
1.46875
 20
1.453125
 30
0.0
 11
-1.46875
 21
1.453125
 31
0.0
  0
LINE
  5
1BB
330
18C
100
AcDbEntity
  8
AM_9
100
AcDbLine
 10
-1.46875
 20
1.478125
 30
0.0
 11
-1.46875
 21
1.453125
 31
0.0
  0
LINE
  5
1BC
330
18C
100
AcDbEntity
  8
AM_9
100
AcDbLine
 10
1.46875
 20
1.453125
 30
0.0
 11
1.46875
 21
1.478125
 31
0.0
  0
LINE
  5
1BD
330
18C
100
AcDbEntity
  8
AM_9
100
AcDbLine
 10
-1.192745529690402
 20
-1.257416666666667
 30
0.0
 11
-1.00762716319083
 21
-1.257416666666667
 31
0.0
  0
LINE
  5
1BE
330
18C
100
AcDbEntity
  8
AM_9
100
AcDbLine
 10
1.00762716319083
 20
-1.257416666666667
 30
0.0
 11
1.192745529690401
 21
-1.257416666666667
 31
0.0
  0
LINE
  5
1BF
330
18C
100
AcDbEntity
  8
AM_9
100
AcDbLine
 10
-1.631944444444444
 20
1.21875
 30
0.0
 11
-1.631944444444444
 21
1.142
 31
0.0
  0
LINE
  5
1C0
330
18C
100
AcDbEntity
  8
AM_9
100
AcDbLine
 10
1.631944444444444
 20
1.142
 30
0.0
 11
1.631944444444444
 21
1.21875
 31
0.0
  0
LINE
  5
1C1
330
18C
100
AcDbEntity
  8
AM_9
100
AcDbLine
 10
0.0
 20
-0.8574166666666664
 30
0.0
 11
-0.0724499999999999
 21
-0.8912006564999958
 31
0.0
  0
LINE
  5
1C2
330
18C
100
AcDbEntity
  8
AM_9
100
AcDbLine
 10
0.0724499999999999
 20
-0.8912006564999958
 30
0.0
 11
0.0
 21
-0.8574166666666664
 31
0.0
  0
LINE
  5
1C3
330
18C
100
AcDbEntity
  8
AM_9
100
AcDbLine
 10
0.0724499999999999
 20
-0.8912006564999958
 30
0.0
 11
-0.0724499999999999
 21
-0.8912006564999958
 31
0.0
  0
LINE
  5
1C4
330
18C
100
AcDbEntity
  8
AM_9
100
AcDbLine
 10
-0.0724499999999999
 20
-0.8912006564999958
 30
0.0
 11
-0.0724499999999999
 21
-1.674866666666667
 31
0.0
  0
LINE
  5
1C5
330
18C
100
AcDbEntity
  8
AM_9
100
AcDbLine
 10
0.0724499999999999
 20
-1.674866666666667
 30
0.0
 11
0.0724499999999999
 21
-0.8912006564999958
 31
0.0
  0
LINE
  5
1C6
330
18C
100
AcDbEntity
  8
AM_9
100
AcDbLine
 10
0.0724499999999999
 20
-1.674866666666667
 30
0.0
 11
-0.0724499999999999
 21
-1.674866666666667
 31
0.0
  0
LINE
  5
1C7
330
18C
100
AcDbEntity
  8
AM_9
100
AcDbLine
 10
-0.0724499999999999
 20
-1.674866666666667
 30
0.0
 11
-0.0949999999999999
 21
-1.697416666666667
 31
0.0
  0
LINE
  5
1C8
330
18C
100
AcDbEntity
  8
AM_9
100
AcDbLine
 10
0.0949999999999999
 20
-1.697416666666667
 30
0.0
 11
0.0724499999999999
 21
-1.674866666666667
 31
0.0
  0
LINE
  5
1C9
330
18C
100
AcDbEntity
  8
AM_9
100
AcDbLine
 10
1.954215408330049
 20
-1.21875
 30
0.0
 11
1.982963931814131
 21
-0.3955000000000001
 31
0.0
  0
LINE
  5
1CA
330
18C
100
AcDbEntity
  8
AM_9
100
AcDbLine
 10
-1.982963931814131
 20
-0.3955000000000001
 30
0.0
 11
-1.954215408330049
 21
-1.21875
 31
0.0
  0
LINE
  5
1CB
330
18C
100
AcDbEntity
  8
AM_9
100
AcDbLine
 10
1.956368966601195
 20
1.141999999999999
 30
0.0
 11
-1.956368966601059
 21
1.141999999999999
 31
0.0
  0
ARC
  5
1CC
330
18C
100
AcDbEntity
  8
AM_9
100
AcDbCircle
 10
-1.956368966600927
 20
1.041999999999534
 30
0.0
 40
0.1000000000004657
100
AcDbArc
 50
90.0
 51
149.9999999998458
  0
ARC
  5
1CD
330
18C
100
AcDbEntity
  8
AM_9
100
AcDbCircle
 10
1.956368966601195
 20
1.041999999999999
 30
0.0
 40
0.1000000000000001
100
AcDbArc
 50
30.00000000000016
 51
90.0
  0
LINE
  5
1CE
330
18C
100
AcDbEntity
  8
AM_9
100
AcDbLine
 10
2.042971506979639
 20
1.092
 30
0.0
 11
-2.042971506979639
 21
1.092
 31
0.0
  0
LINE
  5
1CF
330
18C
100
AcDbEntity
  8
AM_9
100
AcDbLine
 10
-2.042971506979639
 20
1.092
 30
0.0
 11
-2.16205
 21
0.8857499999999997
 31
0.0
  0
LINE
  5
1D0
330
18C
100
AcDbEntity
  8
AM_9
100
AcDbLine
 10
2.16205
 20
0.8857499999999997
 30
0.0
 11
2.042971506979639
 21
1.092
 31
0.0
  0
LINE
  5
1D1
330
18C
100
AcDbEntity
  8
AM_9
100
AcDbLine
 10
-2.2979875
 20
0.2821115016199602
 30
0.0
 11
-2.2979875
 21
0.2081384983800394
 31
0.0
  0
LINE
  5
1D2
330
18C
100
AcDbEntity
  8
AM_9
100
AcDbLine
 10
2.2979875
 20
0.2081384983800394
 30
0.0
 11
2.2979875
 21
0.2821115016199602
 31
0.0
  0
LINE
  5
1D3
330
18C
100
AcDbEntity
  8
AM_9
100
AcDbLine
 10
2.31205
 20
0.8857499999999997
 30
0.0
 11
-2.312049999995669
 21
0.8857499999999997
 31
0.0
  0
ARC
  5
1D4
330
18C
100
AcDbEntity
  8
AM_9
100
AcDbCircle
 10
-2.312050000000001
 20
0.8357500000000002
 30
0.0
 40
0.0499999999999995
100
AcDbArc
 50
90.0
 51
180.0
  0
ARC
  5
1D5
330
18C
100
AcDbEntity
  8
AM_9
100
AcDbCircle
 10
2.312050000000001
 20
0.8357500000000002
 30
0.0
 40
0.0499999999999994
100
AcDbArc
 50
0.0
 51
90.0
  0
LINE
  5
1D6
330
18C
100
AcDbEntity
  8
AM_9
100
AcDbLine
 10
2.36205
 20
0.83575
 30
0.0
 11
-2.36205
 21
0.83575
 31
0.0
  0
LINE
  5
1D7
330
18C
100
AcDbEntity
  8
AM_9
100
AcDbLine
 10
-2.36205
 20
0.83575
 30
0.0
 11
-2.36205
 21
0.3190980032399207
 31
0.0
  0
LINE
  5
1D8
330
18C
100
AcDbEntity
  8
AM_9
100
AcDbLine
 10
2.36205
 20
0.3190980032399207
 30
0.0
 11
2.36205
 21
0.83575
 31
0.0
  0
LINE
  5
1D9
330
18C
100
AcDbEntity
  8
AM_9
100
AcDbLine
 10
2.36205
 20
0.3190980032399207
 30
0.0
 11
-2.36205
 21
0.3190980032399207
 31
0.0
  0
LINE
  5
1DA
330
18C
100
AcDbEntity
  8
AM_9
100
AcDbLine
 10
2.2979875
 20
0.2821115016199602
 30
0.0
 11
-2.2979875
 21
0.2821115016199602
 31
0.0
  0
LINE
  5
1DB
330
18C
100
AcDbEntity
  8
AM_9
100
AcDbLine
 10
2.2979875
 20
0.2821115016199602
 30
0.0
 11
2.36205
 21
0.3190980032399207
 31
0.0
  0
LINE
  5
1DC
330
18C
100
AcDbEntity
  8
AM_9
100
AcDbLine
 10
-2.36205
 20
0.3190980032399207
 30
0.0
 11
-2.2979875
 21
0.2821115016199602
 31
0.0
  0
LINE
  5
1DD
330
18C
100
AcDbEntity
  8
AM_9
100
AcDbLine
 10
2.2979875
 20
0.2081384983800394
 30
0.0
 11
-2.2979875
 21
0.2081384983800394
 31
0.0
  0
LINE
  5
1DE
330
18C
100
AcDbEntity
  8
AM_9
100
AcDbLine
 10
-2.2979875
 20
0.2081384983800394
 30
0.0
 11
-2.36205
 21
0.1711519967600787
 31
0.0
  0
LINE
  5
1DF
330
18C
100
AcDbEntity
  8
AM_9
100
AcDbLine
 10
2.36205
 20
0.1711519967600787
 30
0.0
 11
2.2979875
 21
0.2081384983800394
 31
0.0
  0
LINE
  5
1E0
330
18C
100
AcDbEntity
  8
AM_9
100
AcDbLine
 10
2.31205
 20
-0.3955000000000001
 30
0.0
 11
-2.312049999995669
 21
-0.3955000000000001
 31
0.0
  0
ARC
  5
1E1
330
18C
100
AcDbEntity
  8
AM_9
100
AcDbCircle
 10
-2.312050000000001
 20
-0.3455000000000011
 30
0.0
 40
0.0499999999999989
100
AcDbArc
 50
180.0
 51
270.0
  0
ARC
  5
1E2
330
18C
100
AcDbEntity
  8
AM_9
100
AcDbCircle
 10
2.312050000000001
 20
-0.3455000000000011
 30
0.0
 40
0.049999999999999
100
AcDbArc
 50
270.0
 51
0.0
  0
LINE
  5
1E3
330
18C
100
AcDbEntity
  8
AM_9
100
AcDbLine
 10
2.36205
 20
0.1711519967600787
 30
0.0
 11
-2.36205
 21
0.1711519967600787
 31
0.0
  0
LINE
  5
1E4
330
18C
100
AcDbEntity
  8
AM_9
100
AcDbLine
 10
2.36205
 20
-0.3455000000000006
 30
0.0
 11
-2.36205
 21
-0.3455000000000006
 31
0.0
  0
LINE
  5
1E5
330
18C
100
AcDbEntity
  8
AM_9
100
AcDbLine
 10
-2.36205
 20
0.1711519967600787
 30
0.0
 11
-2.36205
 21
-0.3455000000000006
 31
0.0
  0
LINE
  5
1E6
330
18C
100
AcDbEntity
  8
AM_9
100
AcDbLine
 10
2.36205
 20
-0.3455000000000006
 30
0.0
 11
2.36205
 21
0.1711519967600787
 31
0.0
  0
LINE
  5
1E7
330
18C
100
AcDbEntity
  8
AM_5
100
AcDbLine
 10
0.0949999999999999
 20
-0.9374166666666665
 30
0.0
 11
0.0724499999999999
 21
-0.9243974180964403
 31
0.0
  0
LINE
  5
1E8
330
18C
100
AcDbEntity
  8
AM_5
100
AcDbLine
 10
0.0724499999999999
 20
-0.9374166666666648
 30
0.0
 11
0.0949999999999999
 21
-0.9374166666666648
 31
0.0
  0
LINE
  5
1E9
330
18C
100
AcDbEntity
  8
AM_5
100
AcDbLine
 10
-0.0724499999999999
 20
-0.9374166666666648
 30
0.0
 11
-0.0949999999999999
 21
-0.9374166666666648
 31
0.0
  0
LINE
  5
1EA
330
18C
100
AcDbEntity
  8
AM_5
100
AcDbLine
 10
-0.0949999999999999
 20
-0.9374166666666648
 30
0.0
 11
-0.0724499999999999
 21
-0.9243974180964433
 31
0.0
  0
LINE
  5
1ED
330
18C
100
AcDbEntity
  8
AM_7
100
AcDbLine
 10
0.0
 20
1.65046875
 30
0.0
 11
0.0
 21
-2.14109375
 31
0.0
  0
ARC
  5
1EE
330
18C
100
AcDbEntity
  8
AM_4
100
AcDbCircle
 10
1.889215561259645
 20
-1.647416666666667
 30
0.0
 40
0.05
100
AcDbArc
 50
270.0
 51
357.9999999999999
  0
ARC
  5
1EF
330
18C
100
AcDbEntity
  8
AM_4
100
AcDbCircle
 10
-1.889215561259645
 20
-1.647416666666667
 30
0.0
 40
0.0499999999999999
100
AcDbArc
 50
182.0000000000001
 51
270.0
  0
LWPOLYLINE
  5
1F0
330
18C
100
AcDbEntity
  8
AM_4
100
AcDbPolyline
 90
        6
 70
     0
 43
0.0
 10
-1.500905736762308
 20
-1.697416666666667
 10
-1.506043662286855
 20
-1.69689519195521
 10
-1.517539989191865
 20
-1.691645342911153
 10
-1.52712121451395
 20
-1.681315153523579
 10
-1.533669989616411
 20
-1.667157780662395
 10
-1.536544848730685
 20
-1.649161641501792
  0
LWPOLYLINE
  5
1F1
330
18C
100
AcDbEntity
  8
AM_4
100
AcDbPolyline
 90
        6
 70
     0
 43
0.0
 10
1.536544848730685
 20
-1.649161641501792
 10
1.534153533934659
 20
-1.665498431399271
 10
1.528075939344718
 20
-1.679803446599464
 10
1.518972330603804
 20
-1.690526718338507
 10
1.507793588446506
 20
-1.696475489563238
 10
1.500905736762308
 20
-1.697416666666667
  0
LINE
  5
1F2
330
18C
100
AcDbEntity
  8
AM_4
100
AcDbLine
 10
-0.5914414510540424
 20
-1.96875
 30
0.0
 11
-0.5914414510540424
 21
-1.767416666666667
 31
0.0
  0
LINE
  5
1F3
330
18C
100
AcDbEntity
  8
AM_4
100
AcDbLine
 10
-0.3857685577379689
 20
-1.96875
 30
0.0
 11
-0.385768557737969
 21
-1.767416666666667
 31
0.0
  0
LINE
  5
1F4
330
18C
100
AcDbEntity
  8
AM_4
100
AcDbLine
 10
-0.6167384408657909
 20
-1.767416666666667
 30
0.0
 11
-0.6167384408657909
 21
-1.96875
 31
0.0
  0
LINE
  5
1F5
330
18C
100
AcDbEntity
  8
AM_4
100
AcDbLine
 10
-1.315789473684211
 20
-1.767416666666667
 30
0.0
 11
-1.315789473684211
 21
-1.96875
 31
0.0
  0
LINE
  5
1F6
330
18C
100
AcDbEntity
  8
AM_4
100
AcDbLine
 10
1.315789473684211
 20
-1.96875
 30
0.0
 11
1.315789473684211
 21
-1.767416666666667
 31
0.0
  0
LINE
  5
1F7
330
18C
100
AcDbEntity
  8
AM_4
100
AcDbLine
 10
1.315789473684211
 20
-1.96875
 30
0.0
 11
-1.315789473684211
 21
-1.96875
 31
0.0
  0
LINE
  5
1F8
330
18C
100
AcDbEntity
  8
AM_4
100
AcDbLine
 10
-1.361180553784104
 20
-1.257416666666667
 30
0.0
 11
-1.361180553784104
 21
-1.697416666666667
 31
0.0
  0
LINE
  5
1F9
330
18C
100
AcDbEntity
  8
AM_4
100
AcDbLine
 10
1.361180553784104
 20
-1.257416666666667
 30
0.0
 11
1.361180553784104
 21
-1.697416666666667
 31
0.0
  0
LINE
  5
1FA
330
18C
100
AcDbEntity
  8
AM_4
100
AcDbLine
 10
-1.631944444444444
 20
1.440464743589743
 30
0.0
 11
-1.631944444444444
 21
1.21875
 31
0.0
  0
LINE
  5
1FB
330
18C
100
AcDbEntity
  8
AM_4
100
AcDbLine
 10
1.631944444444444
 20
1.21875
 30
0.0
 11
1.631944444444444
 21
1.440464743589743
 31
0.0
  0
LINE
  5
1FC
330
18C
100
AcDbEntity
  8
AM_4
100
AcDbLine
 10
1.594284188595369
 20
1.478125
 30
0.0
 11
-1.5942841885939
 21
1.478125
 31
0.0
  0
LINE
  5
1FD
330
18C
100
AcDbEntity
  8
AM_4
100
AcDbLine
 10
1.631944444444444
 20
1.440464743589743
 30
0.0
 11
-1.631944444444444
 21
1.440464743589743
 31
0.0
  0
ARC
  5
1FE
330
18C
100
AcDbEntity
  8
AM_4
100
AcDbCircle
 10
-1.594284188034188
 20
1.440464743589743
 30
0.0
 40
0.0376602564102562
100
AcDbArc
 50
90.0
 51
180.0
  0
ARC
  5
1FF
330
18C
100
AcDbEntity
  8
AM_4
100
AcDbCircle
 10
1.594284188034188
 20
1.440464743589743
 30
0.0
 40
0.0376602564102562
100
AcDbArc
 50
0.0
 51
90.0
  0
LWPOLYLINE
  5
200
330
18C
100
AcDbEntity
  8
AM_4
100
AcDbPolyline
 90
        6
 70
     0
 43
0.0
 10
1.147352346169034
 20
-1.697416666666667
 10
1.152490271693581
 20
-1.69689519195521
 10
1.163986598598591
 20
-1.691645342911153
 10
1.173567823920677
 20
-1.681315153523579
 10
1.180116599023137
 20
-1.667157780662395
 10
1.182991458137411
 20
-1.649161641501792
  0
LWPOLYLINE
  5
201
330
18C
100
AcDbEntity
  8
AM_4
100
AcDbPolyline
 90
        6
 70
     0
 43
0.0
 10
-1.182991458137411
 20
-1.649161641501792
 10
-1.180600143341385
 20
-1.665498431399271
 10
-1.174522548751443
 20
-1.679803446599464
 10
-1.16541894001053
 20
-1.690526718338508
 10
-1.154240197853232
 20
-1.696475489563238
 10
-1.147352346169034
 20
-1.697416666666667
  0
LINE
  5
202
330
18C
100
AcDbEntity
  8
AM_4
100
AcDbLine
 10
-1.536544848730685
 20
-1.649161641501792
 30
0.0
 11
-1.9391851026106
 21
-1.649161641501792
 31
0.0
  0
LINE
  5
203
330
18C
100
AcDbEntity
  8
AM_4
100
AcDbLine
 10
-1.536544848730685
 20
-1.649161641501792
 30
0.0
 11
-1.546298920283675
 21
-1.257416666666667
 31
0.0
  0
LINE
  5
204
330
18C
100
AcDbEntity
  8
AM_4
100
AcDbLine
 10
-1.546298920283675
 20
-1.257416666666667
 30
0.0
 11
-1.192745529690402
 21
-1.257416666666667
 31
0.0
  0
LINE
  5
205
330
18C
100
AcDbEntity
  8
AM_4
100
AcDbLine
 10
-1.192745529690402
 20
-1.257416666666667
 30
0.0
 11
-1.182991458137411
 21
-1.649161641501792
 31
0.0
  0
LINE
  5
206
330
18C
100
AcDbEntity
  8
AM_4
100
AcDbLine
 10
1.182991458137411
 20
-1.649161641501792
 30
0.0
 11
-1.182991458137411
 21
-1.649161641501792
 31
0.0
  0
LINE
  5
207
330
18C
100
AcDbEntity
  8
AM_4
100
AcDbLine
 10
1.182991458137411
 20
-1.649161641501792
 30
0.0
 11
1.192745529690401
 21
-1.257416666666667
 31
0.0
  0
LINE
  5
208
330
18C
100
AcDbEntity
  8
AM_4
100
AcDbLine
 10
1.192745529690401
 20
-1.257416666666667
 30
0.0
 11
1.546298920283676
 21
-1.257416666666667
 31
0.0
  0
LINE
  5
209
330
18C
100
AcDbEntity
  8
AM_4
100
AcDbLine
 10
1.546298920283676
 20
-1.257416666666667
 30
0.0
 11
1.536544848730685
 21
-1.649161641501792
 31
0.0
  0
LINE
  5
20A
330
18C
100
AcDbEntity
  8
AM_4
100
AcDbLine
 10
1.9391851026106
 20
-1.649161641501792
 30
0.0
 11
1.954215408330049
 21
-1.21875
 31
0.0
  0
LINE
  5
20B
330
18C
100
AcDbEntity
  8
AM_4
100
AcDbLine
 10
-1.954215408330049
 20
-1.21875
 30
0.0
 11
-1.9391851026106
 21
-1.649161641501792
 31
0.0
  0
LINE
  5
20C
330
18C
100
AcDbEntity
  8
AM_4
100
AcDbLine
 10
1.9391851026106
 20
-1.649161641501792
 30
0.0
 11
1.536544848730685
 21
-1.649161641501792
 31
0.0
  0
ENDBLK
  5
18F
330
18C
100
AcDbEntity
  8
0
100
AcDbBlockEnd
  0
BLOCK
  5
20F
330
20D
100
AcDbEntity
  8
0
100
AcDbBlockBegin
  2
7_069384H_0_in_069384_4
 70
     2
 10
0.0
 20
0.0
 30
0.0
  3
7_069384H_0_in_069384_4
  1

  0
ATTDEF
  5
211
330
20D
100
AcDbEntity
  8
AM_6
100
AcDbText
 10
10.053125
 20
1.537830955551215
 30
0.0
 40
0.5
  1
WSTU-IP -Housing -Inch
100
AcDbAttributeDefinition
  3

  2
NN
 70
     8
280
     0
  0
ATTDEF
  5
212
330
20D
100
AcDbEntity
  8
AM_6
100
AcDbText
 10
10.053125
 20
1.037830955551215
 30
0.0
 40
0.5
  1
Imperial Wide Slot Take-Up Bearings
100
AcDbAttributeDefinition
  3

  2
NT
 70
     8
280
     0
  0
ATTDEF
  5
213
330
20D
100
AcDbEntity
  8
AM_6
100
AcDbText
 10
10.053125
 20
0.5378309555512146
 30
0.0
 40
0.5
  1
069384H
100
AcDbAttributeDefinition
  3

  2
NB
 70
     8
280
     0
  0
ATTDEF
  5
214
330
20D
100
AcDbEntity
  8
AM_6
100
AcDbText
 10
10.053125
 20
0.0378309555512146
 30
0.0
 40
0.5
  1
$PN.H
100
AcDbAttributeDefinition
  3

  2
NBSYN
 70
     8
280
     0
  0
ATTDEF
  5
215
330
20D
100
AcDbEntity
  8
AM_6
100
AcDbText
 10
10.053125
 20
-0.4621690444487854
 30
0.0
 40
0.5
  1
069384
100
AcDbAttributeDefinition
  3

  2
LINA
 70
     8
280
     0
  0
ATTDEF
  5
216
330
20D
100
AcDbEntity
  8
AM_6
100
AcDbText
 10
10.053125
 20
-0.9621690444487854
 30
0.0
 40
0.5
  1
2-1/2
100
AcDbAttributeDefinition
  3

  2
SS
 70
     8
280
     0
  0
ATTDEF
  5
217
330
20D
100
AcDbEntity
  8
AM_6
100
AcDbText
 10
10.053125
 20
-1.462169044448785
 30
0.0
 40
0.5
  1
069384
100
AcDbAttributeDefinition
  3

  2
PN
 70
     8
280
     0
  0
ATTDEF
  5
218
330
20D
100
AcDbEntity
  8
AM_6
100
AcDbText
 10
10.053125
 20
-1.962169044448785
 30
0.0
 40
0.5
  1
WSTU-IP-208RE
100
AcDbAttributeDefinition
  3

  2
DESCRIPTION
 70
     8
280
     0
  0
ATTDEF
  5
219
330
20D
100
AcDbEntity
  8
AM_6
100
AcDbText
 10
10.053125
 20
-2.462169044448785
 30
0.0
 40
0.5
  1
Expansion
100
AcDbAttributeDefinition
  3

  2
EF
 70
     8
280
     0
  0
ATTDEF
  5
21A
330
20D
100
AcDbEntity
  8
AM_6
100
AcDbText
 10
10.053125
 20
-2.962169044448785
 30
0.0
 40
0.5
  1
Contact Seal
100
AcDbAttributeDefinition
  3

  2
ST
 70
     8
280
     0
  0
ATTDEF
  5
21B
330
20D
100
AcDbEntity
  8
AM_6
100
AcDbText
 10
10.053125
 20
-3.462169044448785
 30
0.0
 40
0.5
  1
3-27/64
100
AcDbAttributeDefinition
  3

  2
A
 70
     8
280
     0
  0
ATTDEF
  5
21C
330
20D
100
AcDbEntity
  8
AM_6
100
AcDbText
 10
10.053125
 20
-3.962169044448785
 30
0.0
 40
0.5
  1
7-11/16
100
AcDbAttributeDefinition
  3

  2
B
 70
     8
280
     0
  0
ATTDEF
  5
21D
330
20D
100
AcDbEntity
  8
AM_6
100
AcDbText
 10
10.053125
 20
-4.462169044448785
 30
0.0
 40
0.5
  1
1-1/16
100
AcDbAttributeDefinition
  3

  2
C
 70
     8
280
     0
  0
ATTDEF
  5
21E
330
20D
100
AcDbEntity
  8
AM_6
100
AcDbText
 10
10.053125
 20
-4.962169044448785
 30
0.0
 40
0.5
  1
4-3/8
100
AcDbAttributeDefinition
  3

  2
D
 70
     8
280
     0
  0
ATTDEF
  5
21F
330
20D
100
AcDbEntity
  8
AM_6
100
AcDbText
 10
10.053125
 20
-5.462169044448785
 30
0.0
 40
0.5
  1
5
100
AcDbAttributeDefinition
  3

  2
E
 70
     8
280
     0
  0
ATTDEF
  5
220
330
20D
100
AcDbEntity
  8
AM_6
100
AcDbText
 10
10.053125
 20
-5.962169044448785
 30
0.0
 40
0.5
  1
1-3/8
100
AcDbAttributeDefinition
  3

  2
F
 70
     8
280
     0
  0
ATTDEF
  5
221
330
20D
100
AcDbEntity
  8
AM_6
100
AcDbText
 10
10.053125
 20
-6.462169044448785
 30
0.0
 40
0.5
  1
1-1/16
100
AcDbAttributeDefinition
  3

  2
G
 70
     8
280
     0
  0
ATTDEF
  5
222
330
20D
100
AcDbEntity
  8
AM_6
100
AcDbText
 10
10.053125
 20
-6.962169044448785
 30
0.0
 40
0.5
  1
1-1/4
100
AcDbAttributeDefinition
  3

  2
H
 70
     8
280
     0
  0
ATTDEF
  5
223
330
20D
100
AcDbEntity
  8
AM_6
100
AcDbText
 10
10.053125
 20
-7.462169044448785
 30
0.0
 40
0.5
  1
4-1/4
100
AcDbAttributeDefinition
  3

  2
J
 70
     8
280
     0
  0
ATTDEF
  5
224
330
20D
100
AcDbEntity
  8
AM_6
100
AcDbText
 10
10.053125
 20
-7.962169044448785
 30
0.0
 40
0.5
  1
2-1/2
100
AcDbAttributeDefinition
  3

  2
K
 70
     8
280
     0
  0
ATTDEF
  5
225
330
20D
100
AcDbEntity
  8
AM_6
100
AcDbText
 10
10.053125
 20
-8.462169044448785
 30
0.0
 40
0.5
  1
3-7/8
100
AcDbAttributeDefinition
  3

  2
L
 70
     8
280
     0
  0
ATTDEF
  5
226
330
20D
100
AcDbEntity
  8
AM_6
100
AcDbText
 10
10.053125
 20
-8.962169044448785
 30
0.0
 40
0.5
  1
5-1/8
100
AcDbAttributeDefinition
  3

  2
M
 70
     8
280
     0
  0
ATTDEF
  5
227
330
20D
100
AcDbEntity
  8
AM_6
100
AcDbText
 10
10.053125
 20
-9.462169044448785
 30
0.0
 40
0.5
  1
5-7/8
100
AcDbAttributeDefinition
  3

  2
N
 70
     8
280
     0
  0
ATTDEF
  5
228
330
20D
100
AcDbEntity
  8
AM_6
100
AcDbText
 10
10.053125
 20
-9.962169044448785
 30
0.0
 40
0.5
  1
3-7/16
100
AcDbAttributeDefinition
  3

  2
R
 70
     8
280
     0
  0
ATTDEF
  5
229
330
20D
100
AcDbEntity
  8
AM_6
100
AcDbText
 10
10.053125
 20
-10.46216904444879
 30
0.0
 40
0.5
  1
2-7/32
100
AcDbAttributeDefinition
  3

  2
S
 70
     8
280
     0
  0
ATTDEF
  5
22A
330
20D
100
AcDbEntity
  8
AM_6
100
AcDbText
 10
10.053125
 20
-10.96216904444879
 30
0.0
 40
0.5
  1
2-7/16
100
AcDbAttributeDefinition
  3

  2
T
 70
     8
280
     0
  0
ATTDEF
  5
22B
330
20D
100
AcDbEntity
  8
AM_6
100
AcDbText
 10
10.053125
 20
-11.46216904444879
 30
0.0
 40
0.5
  1
1/4
100
AcDbAttributeDefinition
  3

  2
X
 70
     8
280
     0
  0
ATTDEF
  5
22C
330
20D
100
AcDbEntity
  8
AM_6
100
AcDbText
 10
10.053125
 20
-11.96216904444879
 30
0.0
 40
0.5
  1
0.025
100
AcDbAttributeDefinition
  3

  2
Y
 70
     8
280
     0
  0
ATTDEF
  5
22D
330
20D
100
AcDbEntity
  8
AM_6
100
AcDbText
 10
10.053125
 20
-12.46216904444879
 30
0.0
 40
0.5
  1
2-15/16
100
AcDbAttributeDefinition
  3

  2
Z
 70
     8
280
     0
  0
ATTDEF
  5
22E
330
20D
100
AcDbEntity
  8
AM_6
100
AcDbText
 10
10.053125
 20
-12.96216904444879
 30
0.0
 40
0.5
  1
baldor
100
AcDbAttributeDefinition
  3

  2
COMPANY
 70
     8
280
     0
  0
ELLIPSE
  5
22F
330
20D
100
AcDbEntity
  8
AM_9
100
AcDbEllipse
 10
-2.58452499460492
 20
-0.0000000000000001
 30
0.0
 11
-7.347880794884119E-17
 21
-0.4
 31
0.0
210
0.0
220
0.0
230
1.0
 40
0.3746065934159126
 41
0.0
 42
6.283185307179586
  0
LWPOLYLINE
  5
230
330
20D
100
AcDbEntity
  8
AM_9
100
AcDbPolyline
 90
       14
 70
     0
 43
0.0
 10
-2.68757301969254
 20
-0.3278615097540043
 10
-2.677559294032819
 20
-0.3513353287411084
 10
-2.664650196958446
 20
-0.3772010414045726
 10
-2.650096507360686
 20
-0.4016397739671675
 10
-2.633812509128068
 20
-0.4242511371518696
 10
-2.61834259958023
 20
-0.4419643074079029
 10
-2.602303368315882
 20
-0.4571096444147296
 10
-2.585736713590907
 20
-0.4698286770809478
 10
-2.568631215432886
 20
-0.4802646321267567
 10
-2.550988761802257
 20
-0.4884959734426669
 10
-2.532855943115071
 20
-0.4945383411388619
 10
-2.512549436983644
 20
-0.4986178946369769
 10
-2.49234534389587
 20
-0.4999990705439917
 10
-2.491800411782083
 20
-0.4999999998770037
  0
LWPOLYLINE
  5
231
330
20D
100
AcDbEntity
  8
AM_9
100
AcDbPolyline
 90
       14
 70
     0
 43
0.0
 10
-2.49188503507599
 20
0.4999999803031253
 10
-2.500055593548141
 20
0.4997819839759923
 10
-2.519703680648774
 20
0.4974938875719901
 10
-2.538713759431341
 20
0.492841689470218
 10
-2.556992983481854
 20
0.4859660363614022
 10
-2.574514080581475
 20
0.4769627480480779
 10
-2.591305395027813
 20
0.4658579938049622
 10
-2.607436449070693
 20
0.4525869507106253
 10
-2.622988543322062
 20
0.4369895579931968
 10
-2.638006453523432
 20
0.4188487382306137
 10
-2.652437066483562
 20
0.3980032478264428
 10
-2.666096908727954
 20
0.3745161037332017
 10
-2.678737160183603
 20
0.3487437215335907
 10
-2.687614706019551
 20
0.3277564949800393
  0
LINE
  5
232
330
20D
100
AcDbEntity
  8
AM_9
100
AcDbLine
 10
5.0
 20
0.6875
 30
0.0
 11
3.9375
 21
0.6875
 31
0.0
  0
LINE
  5
233
330
20D
100
AcDbEntity
  8
AM_9
100
AcDbLine
 10
3.9375
 20
-0.6875
 30
0.0
 11
5.0
 21
-0.6875
 31
0.0
  0
LINE
  5
234
330
20D
100
AcDbEntity
  8
AM_9
100
AcDbLine
 10
3.9375
 20
-0.8957812499999998
 30
0.0
 11
3.9375
 21
0.8957812500000001
 31
0.0
  0
LINE
  5
235
330
20D
100
AcDbEntity
  8
AM_9
100
AcDbLine
 10
3.822916666666667
 20
-0.8957812499999998
 30
0.0
 11
3.822916666666667
 21
0.8957812500000001
 31
0.0
  0
LINE
  5
236
330
20D
100
AcDbEntity
  8
AM_9
100
AcDbLine
 10
2.6875
 20
-0.8957812499999998
 30
0.0
 11
2.6875
 21
0.8957812500000001
 31
0.0
  0
LINE
  5
237
330
20D
100
AcDbEntity
  8
AM_9
100
AcDbLine
 10
2.802083333333334
 20
-0.8957812499999998
 30
0.0
 11
2.802083333333334
 21
0.8957812500000001
 31
0.0
  0
LWPOLYLINE
  5
238
330
20D
100
AcDbEntity
  8
AM_9
100
AcDbPolyline
 90
       30
 70
     0
 43
0.0
 10
-2.491806609148242
 20
-0.5
 10
-2.51144865310968
 20
-0.4971009171083709
 10
-2.530324699767043
 20
-0.4881015465158167
 10
-2.547807866828872
 20
-0.4731407771334523
 10
-2.563665017157021
 20
-0.4525090634755926
 10
-2.577912531319951
 20
-0.4261732914547591
 10
-2.590509907298373
 20
-0.3945579988940566
 10
-2.601394567497179
 20
-0.3582405512849515
 10
-2.610748272775488
 20
-0.3168375118392088
 10
-2.618513144459953
 20
-0.2712961781485629
 10
-2.624719197615605
 20
-0.2224519926256205
 10
-2.629463807397979
 20
-0.1706218666776483
 10
-2.632832801663687
 20
-0.1164082348474668
 10
-2.634862991894425
 20
-0.0608520574527128
 10
-2.635598345905176
 20
-0.0053247225617915
 10
-2.635094824497169
 20
0.0504480567850521
 10
-2.633345985620712
 20
0.1054013772430531
 10
-2.630342853897806
 20
0.1585650733627811
 10
-2.626016821811714
 20
0.2099220744745229
 10
-2.620328685093702
 20
0.2585430186615607
 10
-2.613085085525214
 20
0.3044568497520307
 10
-2.604254753999065
 20
0.3467297599682298
 10
-2.593822074833282
 20
0.3846030700273338
 10
-2.581504689051015
 20
0.4180772818338308
 10
-2.567393392306592
 20
0.4463725160144795
 10
-2.551592950739869
 20
0.468944161627047
 10
-2.534174148843276
 20
0.4854074859923604
 10
-2.515161426254778
 20
0.4958079936828574
 10
-2.49485644460993
 20
0.4999332108698053
 10
-2.491806609148242
 20
0.4999999999999998
  0
LWPOLYLINE
  5
239
330
20D
100
AcDbEntity
  8
AM_9
100
AcDbPolyline
 90
       29
 70
     0
 43
0.0
 10
-2.491806609148242
 20
0.4999999999999998
 10
-2.471603076570295
 20
0.4971897032227863
 10
-2.450639505078159
 20
0.4888588659572652
 10
-2.429318707221254
 20
0.4751575678026166
 10
-2.406818984252642
 20
0.4550646462956114
 10
-2.38452424102463
 20
0.4293935141936674
 10
-2.36297459386397
 20
0.3986213833736694
 10
-2.342244220992168
 20
0.3624252211265697
 10
-2.322997574119962
 20
0.3216008434175559
 10
-2.3057645994885
 20
0.2768892213523759
 10
-2.290798464460734
 20
0.228204303956323
 10
-2.278529562264485
 20
0.1764153659046733
 10
-2.269340514638129
 20
0.1225016753827604
 10
-2.263112095547151
 20
0.0617363378218284
 10
-2.260998707202617
 20
-0.0000000000000001
 10
-2.262725450053098
 20
-0.0555011265364422
 10
-2.267797869360586
 20
-0.1104714938282963
 10
-2.276054251259147
 20
-0.1638722985218415
 10
-2.287362850733512
 20
-0.2151492517932599
 10
-2.301433112968224
 20
-0.2638993436163249
 10
-2.31785268178633
 20
-0.3092443668240306
 10
-2.336548380448265
 20
-0.3511681673038802
 10
-2.356973215241829
 20
-0.3888316038387068
 10
-2.378577307887726
 20
-0.421545403357453
 10
-2.401171226030827
 20
-0.4491180395543773
 10
-2.42422975884746
 20
-0.4710861751279331
 10
-2.447184516410649
 20
-0.4870142867904448
 10
-2.469894622424119
 20
-0.4967304139125214
 10
-2.491806609148242
 20
-0.5
  0
LINE
  5
23A
330
20D
100
AcDbEntity
  8
AM_9
100
AcDbLine
 10
2.36205
 20
-1.21875
 30
0.0
 11
2.36205
 21
1.21875
 31
0.0
  0
LINE
  5
23B
330
20D
100
AcDbEntity
  8
AM_9
100
AcDbLine
 10
-2.36205
 20
1.21875
 30
0.0
 11
-2.36205
 21
-1.21875
 31
0.0
  0
ELLIPSE
  5
23C
330
20D
100
AcDbEntity
  8
AM_9
100
AcDbEllipse
 10
-2.491806609148242
 20
-0.0000000000000001
 30
0.0
 11
3.061616997868383E-17
 21
0.5
 31
0.0
210
0.0
220
0.0
230
1.0
 40
0.374606593415912
 41
0.0
 42
6.283185307179586
  0
LINE
  5
23D
330
20D
100
AcDbEntity
  8
AM_7
100
AcDbLine
 10
3.884374999999999
 20
0.0
 30
0.0
 11
5.053125
 21
0.0
 31
0.0
  0
LWPOLYLINE
  5
23E
330
20D
100
AcDbEntity
  8
AM_4
100
AcDbPolyline
 90
       23
 70
     0
 43
0.0
 10
-2.687614706019551
 20
0.3277564949800393
 10
-2.690144700093147
 20
0.321258184704711
 10
-2.700286615713136
 20
0.2924425095383967
 10
-2.70921454422555
 20
0.2625013998074986
 10
-2.716988460745518
 20
0.2315688467055295
 10
-2.723656576733206
 20
0.1997544686135918
 10
-2.729252276510939
 20
0.1671661857184253
 10
-2.733796758539336
 20
0.1339188765401731
 10
-2.737302632665756
 20
0.1001365344622444
 10
-2.73977700961606
 20
0.0659516794331985
 10
-2.741223793808362
 20
0.0315036732207293
 10
-2.741645228493697
 20
-0.0030633768141497
 10
-2.741042799347532
 20
-0.037602855726658
 10
-2.739418038047958
 20
-0.0719605173119922
 10
-2.736772572703058
 20
-0.1059864760618764
 10
-2.733106755660168
 20
-0.1395403330460879
 10
-2.728418363934555
 20
-0.1724883297988243
 10
-2.722700477305211
 20
-0.2047057658340184
 10
-2.71593828251783
 20
-0.2360793507130217
 10
-2.708104424690405
 20
-0.2665092144974557
 10
-2.699152453435213
 20
-0.2959098600418693
 10
-2.689008098353727
 20
-0.3242083051483592
 10
-2.68757301969254
 20
-0.3278615097540043
  0
LINE
  5
23F
330
20D
100
AcDbEntity
  8
AM_4
100
AcDbLine
 10
5.0
 20
1.537830955551215
 30
0.0
 11
3.9375
 21
1.537830955551215
 31
0.0
  0
LINE
  5
240
330
20D
100
AcDbEntity
  8
AM_4
100
AcDbLine
 10
3.9375
 20
1.537830955551215
 30
0.0
 11
3.9375
 21
0.8957812500000001
 31
0.0
  0
LINE
  5
241
330
20D
100
AcDbEntity
  8
AM_4
100
AcDbLine
 10
5.0
 20
1.537830955551215
 30
0.0
 11
5.0
 21
-1.537830955551215
 31
0.0
  0
LINE
  5
242
330
20D
100
AcDbEntity
  8
AM_4
100
AcDbLine
 10
3.9375
 20
-0.8957812499999998
 30
0.0
 11
3.9375
 21
-1.537830955551215
 31
0.0
  0
LINE
  5
243
330
20D
100
AcDbEntity
  8
AM_4
100
AcDbLine
 10
3.9375
 20
-1.537830955551215
 30
0.0
 11
5.0
 21
-1.537830955551215
 31
0.0
  0
LINE
  5
244
330
20D
100
AcDbEntity
  8
AM_4
100
AcDbLine
 10
-2.6875
 20
1.08125
 30
0.0
 11
-2.6875
 21
-1.081249999999998
 31
0.0
  0
LINE
  5
245
330
20D
100
AcDbEntity
  8
AM_4
100
AcDbLine
 10
2.6875
 20
0.89578125
 30
0.0
 11
2.6875
 21
1.08125
 31
0.0
  0
LINE
  5
246
330
20D
100
AcDbEntity
  8
AM_4
100
AcDbLine
 10
2.6875
 20
-1.081249999999998
 30
0.0
 11
2.6875
 21
-0.8957812499999998
 31
0.0
  0
LINE
  5
247
330
20D
100
AcDbEntity
  8
AM_4
100
AcDbLine
 10
5.0
 20
-0.8957812499999998
 30
0.0
 11
2.1875
 21
-0.8957812499999998
 31
0.0
  0
LINE
  5
248
330
20D
100
AcDbEntity
  8
AM_4
100
AcDbLine
 10
5.0
 20
0.8957812500000001
 30
0.0
 11
2.1875
 21
0.8957812500000001
 31
0.0
  0
LINE
  5
249
330
20D
100
AcDbEntity
  8
AM_4
100
AcDbLine
 10
5.0
 20
-0.7582812499999998
 30
0.0
 11
2.1875
 21
-0.7582812499999998
 31
0.0
  0
LINE
  5
24A
330
20D
100
AcDbEntity
  8
AM_4
100
AcDbLine
 10
5.0
 20
0.75828125
 30
0.0
 11
2.1875
 21
0.75828125
 31
0.0
  0
LINE
  5
24B
330
20D
100
AcDbEntity
  8
AM_4
100
AcDbLine
 10
2.1875
 20
1.08125
 30
0.0
 11
2.6875
 21
1.08125
 31
0.0
  0
LINE
  5
24C
330
20D
100
AcDbEntity
  8
AM_4
100
AcDbLine
 10
-2.55
 20
1.21875
 30
0.0
 11
2.549999999996742
 21
1.21875
 31
0.0
  0
ARC
  5
24D
330
20D
100
AcDbEntity
  8
AM_4
100
AcDbCircle
 10
2.549999999999999
 20
1.081249999999999
 30
0.0
 40
0.1375000000000011
100
AcDbArc
 50
0.0
 51
90.0
  0
ARC
  5
24E
330
20D
100
AcDbEntity
  8
AM_4
100
AcDbCircle
 10
-2.549999999999999
 20
1.081249999999999
 30
0.0
 40
0.1375000000000008
100
AcDbArc
 50
90.0
 51
180.0
  0
LINE
  5
24F
330
20D
100
AcDbEntity
  8
AM_4
100
AcDbLine
 10
-2.6875
 20
1.08125
 30
0.0
 11
-2.1875
 21
1.08125
 31
0.0
  0
LINE
  5
250
330
20D
100
AcDbEntity
  8
AM_4
100
AcDbLine
 10
-2.55
 20
-1.21875
 30
0.0
 11
2.549999999996742
 21
-1.21875
 31
0.0
  0
LINE
  5
251
330
20D
100
AcDbEntity
  8
AM_4
100
AcDbLine
 10
2.1875
 20
-1.081249999999998
 30
0.0
 11
2.6875
 21
-1.081249999999998
 31
0.0
  0
ARC
  5
252
330
20D
100
AcDbEntity
  8
AM_4
100
AcDbCircle
 10
2.549999999999998
 20
-1.081249999999997
 30
0.0
 40
0.1375000000000033
100
AcDbArc
 50
270.0
 51
0.0
  0
ARC
  5
253
330
20D
100
AcDbEntity
  8
AM_4
100
AcDbCircle
 10
-2.549999999999998
 20
-1.081249999999997
 30
0.0
 40
0.1375000000000028
100
AcDbArc
 50
180.0
 51
270.0
  0
LINE
  5
254
330
20D
100
AcDbEntity
  8
AM_4
100
AcDbLine
 10
-2.6875
 20
-1.081249999999998
 30
0.0
 11
-2.1875
 21
-1.081249999999998
 31
0.0
  0
LINE
  5
255
330
20D
100
AcDbEntity
  8
AM_4
100
AcDbLine
 10
2.049999999999999
 20
-1.096875
 30
0.0
 11
2.049999999999999
 21
-0.5312499999999998
 31
0.0
  0
LINE
  5
256
330
20D
100
AcDbEntity
  8
AM_4
100
AcDbLine
 10
2.1875
 20
-1.096875
 30
0.0
 11
2.1875
 21
1.096875
 31
0.0
  0
LINE
  5
257
330
20D
100
AcDbEntity
  8
AM_4
100
AcDbLine
 10
2.049999999999999
 20
0.5312500000000002
 30
0.0
 11
2.049999999999999
 21
1.096875
 31
0.0
  0
LINE
  5
258
330
20D
100
AcDbEntity
  8
AM_4
100
AcDbLine
 10
2.1875
 20
0.5312500000000002
 30
0.0
 11
-2.1875
 21
0.5312500000000002
 31
0.0
  0
LINE
  5
259
330
20D
100
AcDbEntity
  8
AM_4
100
AcDbLine
 10
-2.05
 20
0.5312500000000002
 30
0.0
 11
-2.05
 21
1.096875
 31
0.0
  0
LINE
  5
25A
330
20D
100
AcDbEntity
  8
AM_4
100
AcDbLine
 10
2.1875
 20
1.096875
 30
0.0
 11
-2.1875
 21
1.096875
 31
0.0
  0
LINE
  5
25B
330
20D
100
AcDbEntity
  8
AM_4
100
AcDbLine
 10
-2.1875
 20
-1.096875
 30
0.0
 11
-2.1875
 21
1.096875
 31
0.0
  0
LINE
  5
25C
330
20D
100
AcDbEntity
  8
AM_4
100
AcDbLine
 10
-2.1875
 20
-0.5312499999999998
 30
0.0
 11
2.1875
 21
-0.5312499999999998
 31
0.0
  0
LINE
  5
25D
330
20D
100
AcDbEntity
  8
AM_4
100
AcDbLine
 10
2.1875
 20
-1.096875
 30
0.0
 11
-2.1875
 21
-1.096875
 31
0.0
  0
LINE
  5
25E
330
20D
100
AcDbEntity
  8
AM_4
100
AcDbLine
 10
-2.05
 20
-1.096875
 30
0.0
 11
-2.05
 21
-0.5312499999999998
 31
0.0
  0
ENDBLK
  5
210
330
20D
100
AcDbEntity
  8
0
100
AcDbBlockEnd
  0
ENDSEC
  0
SECTION
  2
ENTITIES
  0
INSERT
  5
6F
330
1F
100
AcDbEntity
  8
0
100
AcDbBlockReference
  2
1_069384_4
 10
0.0
 20
0.0
 30
0.0
  0
POINT
  5
260
330
1F
100
AcDbEntity
  8
ConnectionPoints
100
AcDbPoint
 10
0.0
 20
-1.767416666666667
 30
-1.663194444444444
  0
POINT
  5
261
330
1F
100
AcDbEntity
  8
ConnectionPoints
100
AcDbPoint
 10
0.0
 20
-1.767416666666667
 30
1.663194444444444
  0
POINT
  5
262
330
1F
100
AcDbEntity
  8
ConnectionPoints
100
AcDbPoint
 10
0.0
 20
-1.697416666666667
 30
0.0000000000000001
  0
POINT
  5
263
330
1F
100
AcDbEntity
  8
ConnectionPoints
100
AcDbPoint
 10
0.0
 20
-1.96875
 30
0.0000000000000001
  0
POINT
  5
264
330
1F
100
AcDbEntity
  8
ConnectionPoints
100
AcDbPoint
 10
0.0
 20
-1.896416666666667
 30
0.0000000000000001
  0
POINT
  5
265
330
1F
100
AcDbEntity
  8
ConnectionPoints
100
AcDbPoint
 10
0.0
 20
-1.697416666666667
 30
1.663194444444445
  0
POINT
  5
266
330
1F
100
AcDbEntity
  8
ConnectionPoints
100
AcDbPoint
 10
0.0
 20
-1.86775
 30
1.663194444444445
  0
POINT
  5
267
330
1F
100
AcDbEntity
  8
ConnectionPoints
100
AcDbPoint
 10
0.0
 20
-1.697416666666667
 30
-1.663194444444444
  0
POINT
  5
268
330
1F
100
AcDbEntity
  8
ConnectionPoints
100
AcDbPoint
 10
0.0
 20
-1.86775
 30
-1.663194444444444
  0
POINT
  5
269
330
1F
100
AcDbEntity
  8
ConnectionPoints
100
AcDbPoint
 10
0.0
 20
-1.697416666666667
 30
0.0000000000000001
  0
POINT
  5
26A
330
1F
100
AcDbEntity
  8
ConnectionPoints
100
AcDbPoint
 10
-2.58452499460492
 20
-0.0000000000000001
 30
-1.044215879146855
  0
POINT
  5
26B
330
1F
100
AcDbEntity
  8
ConnectionPoints
100
AcDbPoint
 10
0.0
 20
-1.96875
 30
0.0000000000000001
  0
POINT
  5
26C
330
1F
100
AcDbEntity
  8
ConnectionPoints
100
AcDbPoint
 10
0.0
 20
-2.21875
 30
0.0000000000000001
  0
ENDSEC
  0
SECTION
  2
OBJECTS
  0
DICTIONARY
  5
C
330
0
100
AcDbDictionary
281
     1
  3
ACAD_DETAILVIEWSTYLE
350
274
  3
ACAD_GROUP
350
D
  3
ACAD_LAYOUT
350
1A
  3
ACAD_MATERIAL
350
43
  3
ACAD_MLEADERSTYLE
350
6B
  3
ACAD_MLINESTYLE
350
17
  3
ACAD_PLOTSETTINGS
350
19
  3
ACAD_PLOTSTYLENAME
350
E
  3
ACAD_SCALELIST
350
47
  3
ACAD_SECTIONVIEWSTYLE
350
275
  3
ACAD_TABLESTYLE
350
69
  3
ACAD_VISUALSTYLE
350
2A
  3
ACDB_RECOMPOSE_DATA
350
271
  3
AcDbVariableDictionary
350
26D
  0
SUN
  5
6D
330
29
100
AcDbSun
 90
        1
290
     0
 63
     7
421
 16777215
 40
1.0
291
     1
 91
  2455826
 92
 54000000
292
     0
 70
     2
 71
   256
280
     1
  0
DICTIONARY
  5
274
102
{ACAD_REACTORS
330
C
102
}
330
C
100
AcDbDictionary
281
     1
  0
DICTIONARY
  5
D
102
{ACAD_REACTORS
330
C
102
}
330
C
100
AcDbDictionary
281
     1
  0
DICTIONARY
  5
1A
102
{ACAD_REACTORS
330
C
102
}
330
C
100
AcDbDictionary
281
     1
  3
Layout1
350
1E
  3
Layout2
350
26
  3
Model
350
22
  0
DICTIONARY
  5
43
102
{ACAD_REACTORS
330
C
102
}
330
C
100
AcDbDictionary
281
     1
  3
ByBlock
350
45
  3
ByLayer
350
44
  3
Global
350
46
  0
DICTIONARY
  5
6B
102
{ACAD_REACTORS
330
C
102
}
330
C
100
AcDbDictionary
281
     1
  3
Standard
350
6C
  0
DICTIONARY
  5
17
102
{ACAD_REACTORS
330
C
102
}
330
C
100
AcDbDictionary
281
     1
  3
Standard
350
18
  0
DICTIONARY
  5
19
102
{ACAD_REACTORS
330
C
102
}
330
C
100
AcDbDictionary
281
     1
  0
ACDBDICTIONARYWDFLT
  5
E
102
{ACAD_REACTORS
330
C
102
}
330
C
100
AcDbDictionary
281
     1
  3
Normal
350
F
100
AcDbDictionaryWithDefault
340
F
  0
DICTIONARY
  5
47
102
{ACAD_REACTORS
330
C
102
}
330
C
100
AcDbDictionary
281
     1
  3
A0
350
48
  3
A1
350
49
  3
A2
350
4A
  3
A3
350
4B
  3
A4
350
4C
  3
A5
350
4D
  3
A6
350
4E
  3
A7
350
4F
  3
A8
350
50
  3
A9
350
51
  3
B0
350
52
  3
B1
350
53
  3
B2
350
54
  3
B3
350
55
  3
B4
350
56
  3
B5
350
57
  3
B6
350
58
  3
B7
350
59
  3
B8
350
5A
  3
B9
350
5B
  3
C0
350
5C
  3
C1
350
5D
  3
C2
350
5E
  3
C3
350
5F
  3
C4
350
60
  3
C5
350
61
  3
C6
350
62
  3
C7
350
63
  3
C8
350
64
  3
C9
350
65
  3
D0
350
66
  3
D1
350
67
  3
D2
350
68
  0
DICTIONARY
  5
275
102
{ACAD_REACTORS
330
C
102
}
330
C
100
AcDbDictionary
281
     1
  0
DICTIONARY
  5
69
102
{ACAD_REACTORS
330
C
102
}
330
C
100
AcDbDictionary
281
     1
  3
Standard
350
6A
  0
DICTIONARY
  5
2A
102
{ACAD_REACTORS
330
C
102
}
330
C
100
AcDbDictionary
281
     1
  3
2dWireframe
350
2F
  3
Basic
350
32
  3
Brighten
350
36
  3
ColorChange
350
3A
  3
Conceptual
350
34
  3
Dim
350
35
  3
EdgeColorOff
350
3D
  3
Facepattern
350
39
  3
Flat
350
2B
  3
FlatWithEdges
350
2C
  3
Gouraud
350
2D
  3
GouraudWithEdges
350
2E
  3
Hidden
350
31
  3
JitterOff
350
3B
  3
Linepattern
350
38
  3
OverhangOff
350
3C
  3
Realistic
350
33
  3
Shaded
350
42
  3
Shaded with edges
350
41
  3
Shades of Gray
350
3E
  3
Sketchy
350
3F
  3
Thicken
350
37
  3
Wireframe
350
30
  3
X-Ray
350
40
  0
XRECORD
  5
271
102
{ACAD_REACTORS
330
C
102
}
330
C
100
AcDbXrecord
280
     1
 90
        1
330
6A
  0
DICTIONARY
  5
26D
102
{ACAD_REACTORS
330
C
102
}
330
C
100
AcDbDictionary
281
     1
  3
CANNOSCALE
350
26E
  3
CMLEADERSTYLE
350
273
  3
CTABLESTYLE
350
272
  0
LAYOUT
  5
1E
102
{ACAD_REACTORS
330
1A
102
}
330
1A
100
AcDbPlotSettings
  1

  2
none_device
  4

  6

 40
0.0
 41
0.0
 42
0.0
 43
0.0
 44
0.0
 45
0.0
 46
0.0
 47
0.0
 48
0.0
 49
0.0
140
0.0
141
0.0
142
1.0
143
1.0
 70
   688
 72
     0
 73
     0
 74
     5
  7

 75
    16
 76
     0
 77
     2
 78
   300
147
1.0
148
0.0
149
0.0
100
AcDbLayout
  1
Layout1
 70
     1
 71
     1
 10
0.0
 20
0.0
 11
12.0
 21
9.0
 12
0.0
 22
0.0
 32
0.0
 14
1.000000000000000E+20
 24
1.000000000000000E+20
 34
1.000000000000000E+20
 15
-1.000000000000000E+20
 25
-1.000000000000000E+20
 35
-1.000000000000000E+20
146
0.0
 13
0.0
 23
0.0
 33
0.0
 16
1.0
 26
0.0
 36
0.0
 17
0.0
 27
1.0
 37
0.0
 76
     0
330
1B
  0
LAYOUT
  5
26
102
{ACAD_REACTORS
330
1A
102
}
330
1A
100
AcDbPlotSettings
  1

  2
none_device
  4

  6

 40
0.0
 41
0.0
 42
0.0
 43
0.0
 44
0.0
 45
0.0
 46
0.0
 47
0.0
 48
0.0
 49
0.0
140
0.0
141
0.0
142
1.0
143
1.0
 70
   688
 72
     0
 73
     0
 74
     5
  7

 75
    16
 76
     0
 77
     2
 78
   300
147
1.0
148
0.0
149
0.0
100
AcDbLayout
  1
Layout2
 70
     1
 71
     2
 10
0.0
 20
0.0
 11
0.0
 21
0.0
 12
0.0
 22
0.0
 32
0.0
 14
0.0
 24
0.0
 34
0.0
 15
0.0
 25
0.0
 35
0.0
146
0.0
 13
0.0
 23
0.0
 33
0.0
 16
1.0
 26
0.0
 36
0.0
 17
0.0
 27
1.0
 37
0.0
 76
     0
330
23
  0
LAYOUT
  5
22
102
{ACAD_REACTORS
330
1A
102
}
330
1A
100
AcDbPlotSettings
  1

  2
none_device
  4
Letter_(8.50_x_11.00_Inches)
  6

 40
6.35
 41
6.35
 42
6.35000508
 43
6.35000508
 44
215.9
 45
279.4
 46
0.0
 47
0.0
 48
0.0
 49
0.0
140
0.0
141
0.0
142
1.0
143
1.0
 70
  1712
 72
     0
 73
     0
 74
     0
  7

 75
     0
 76
     0
 77
     2
 78
   300
147
1.0
148
0.0
149
0.0
100
AcDbLayout
  1
Model
 70
     1
 71
     0
 10
0.0
 20
0.0
 11
12.0
 21
9.0
 12
0.0
 22
0.0
 32
0.0
 14
1.000000000000000E+20
 24
1.000000000000000E+20
 34
1.000000000000000E+20
 15
-1.000000000000000E+20
 25
-1.000000000000000E+20
 35
-1.000000000000000E+20
146
0.0
 13
0.0
 23
0.0
 33
0.0
 16
1.0
 26
0.0
 36
0.0
 17
0.0
 27
1.0
 37
0.0
 76
     0
330
1F
331
29
  0
MATERIAL
  5
45
102
{ACAD_REACTORS
330
43
102
}
330
43
100
AcDbMaterial
  1
ByBlock
 72
     1
 94
      127
  0
MATERIAL
  5
44
102
{ACAD_REACTORS
330
43
102
}
330
43
100
AcDbMaterial
  1
ByLayer
 72
     1
 94
      127
  0
MATERIAL
  5
46
102
{ACAD_REACTORS
330
43
102
}
330
43
100
AcDbMaterial
  1
Global
 72
     1
 94
      127
  0
MLEADERSTYLE
  5
6C
102
{ACAD_REACTORS
330
6B
102
}
330
6B
100
AcDbMLeaderStyle
179
     2
170
     2
171
     1
172
     0
 90
        2
 40
0.0
 41
0.0
173
     1
 91
-1056964608
340
14
 92
       -2
290
     1
 42
0.09
291
     1
 43
0.36
  3
Standard
341
0
 44
0.18
300

342
11
174
     1
178
     6
175
     1
176
     0
 93
-1056964608
 45
0.18
292
     0
297
     0
 46
0.18
343
0
 94
-1056964608
 47
1.0
 49
1.0
140
1.0
293
     1
141
0.0
294
     1
177
     0
142
1.0
295
     0
296
     0
143
0.125
271
     0
272
     9
273
     9
298
     0
  0
MLINESTYLE
  5
18
102
{ACAD_REACTORS
330
17
102
}
330
17
100
AcDbMlineStyle
  2
Standard
 70
     0
  3

 62
   256
 51
90.0
 52
90.0
 71
     2
 49
0.5
 62
   256
  6
BYLAYER
 49
-0.5
 62
   256
  6
BYLAYER
  0
ACDBPLACEHOLDER
  5
F
102
{ACAD_REACTORS
330
E
102
}
330
E
  0
SCALE
  5
48
102
{ACAD_REACTORS
330
47
102
}
330
47
100
AcDbScale
 70
     0
300
1:1
140
1.0
141
1.0
290
     1
  0
SCALE
  5
49
102
{ACAD_REACTORS
330
47
102
}
330
47
100
AcDbScale
 70
     0
300
1:2
140
1.0
141
2.0
290
     0
  0
SCALE
  5
4A
102
{ACAD_REACTORS
330
47
102
}
330
47
100
AcDbScale
 70
     0
300
1:4
140
1.0
141
4.0
290
     0
  0
SCALE
  5
4B
102
{ACAD_REACTORS
330
47
102
}
330
47
100
AcDbScale
 70
     0
300
1:5
140
1.0
141
5.0
290
     0
  0
SCALE
  5
4C
102
{ACAD_REACTORS
330
47
102
}
330
47
100
AcDbScale
 70
     0
300
1:8
140
1.0
141
8.0
290
     0
  0
SCALE
  5
4D
102
{ACAD_REACTORS
330
47
102
}
330
47
100
AcDbScale
 70
     0
300
1:10
140
1.0
141
10.0
290
     0
  0
SCALE
  5
4E
102
{ACAD_REACTORS
330
47
102
}
330
47
100
AcDbScale
 70
     0
300
1:16
140
1.0
141
16.0
290
     0
  0
SCALE
  5
4F
102
{ACAD_REACTORS
330
47
102
}
330
47
100
AcDbScale
 70
     0
300
1:20
140
1.0
141
20.0
290
     0
  0
SCALE
  5
50
102
{ACAD_REACTORS
330
47
102
}
330
47
100
AcDbScale
 70
     0
300
1:30
140
1.0
141
30.0
290
     0
  0
SCALE
  5
51
102
{ACAD_REACTORS
330
47
102
}
330
47
100
AcDbScale
 70
     0
300
1:40
140
1.0
141
40.0
290
     0
  0
SCALE
  5
52
102
{ACAD_REACTORS
330
47
102
}
330
47
100
AcDbScale
 70
     0
300
1:50
140
1.0
141
50.0
290
     0
  0
SCALE
  5
53
102
{ACAD_REACTORS
330
47
102
}
330
47
100
AcDbScale
 70
     0
300
1:100
140
1.0
141
100.0
290
     0
  0
SCALE
  5
54
102
{ACAD_REACTORS
330
47
102
}
330
47
100
AcDbScale
 70
     0
300
2:1
140
2.0
141
1.0
290
     0
  0
SCALE
  5
55
102
{ACAD_REACTORS
330
47
102
}
330
47
100
AcDbScale
 70
     0
300
4:1
140
4.0
141
1.0
290
     0
  0
SCALE
  5
56
102
{ACAD_REACTORS
330
47
102
}
330
47
100
AcDbScale
 70
     0
300
8:1
140
8.0
141
1.0
290
     0
  0
SCALE
  5
57
102
{ACAD_REACTORS
330
47
102
}
330
47
100
AcDbScale
 70
     0
300
10:1
140
10.0
141
1.0
290
     0
  0
SCALE
  5
58
102
{ACAD_REACTORS
330
47
102
}
330
47
100
AcDbScale
 70
     0
300
100:1
140
100.0
141
1.0
290
     0
  0
SCALE
  5
59
102
{ACAD_REACTORS
330
47
102
}
330
47
100
AcDbScale
 70
     0
300
1/128" = 1'-0"
140
0.0078125
141
12.0
290
     0
  0
SCALE
  5
5A
102
{ACAD_REACTORS
330
47
102
}
330
47
100
AcDbScale
 70
     0
300
1/64" = 1'-0"
140
0.015625
141
12.0
290
     0
  0
SCALE
  5
5B
102
{ACAD_REACTORS
330
47
102
}
330
47
100
AcDbScale
 70
     0
300
1/32" = 1'-0"
140
0.03125
141
12.0
290
     0
  0
SCALE
  5
5C
102
{ACAD_REACTORS
330
47
102
}
330
47
100
AcDbScale
 70
     0
300
1/16" = 1'-0"
140
0.0625
141
12.0
290
     0
  0
SCALE
  5
5D
102
{ACAD_REACTORS
330
47
102
}
330
47
100
AcDbScale
 70
     0
300
3/32" = 1'-0"
140
0.09375
141
12.0
290
     0
  0
SCALE
  5
5E
102
{ACAD_REACTORS
330
47
102
}
330
47
100
AcDbScale
 70
     0
300
1/8" = 1'-0"
140
0.125
141
12.0
290
     0
  0
SCALE
  5
5F
102
{ACAD_REACTORS
330
47
102
}
330
47
100
AcDbScale
 70
     0
300
3/16" = 1'-0"
140
0.1875
141
12.0
290
     0
  0
SCALE
  5
60
102
{ACAD_REACTORS
330
47
102
}
330
47
100
AcDbScale
 70
     0
300
1/4" = 1'-0"
140
0.25
141
12.0
290
     0
  0
SCALE
  5
61
102
{ACAD_REACTORS
330
47
102
}
330
47
100
AcDbScale
 70
     0
300
3/8" = 1'-0"
140
0.375
141
12.0
290
     0
  0
SCALE
  5
62
102
{ACAD_REACTORS
330
47
102
}
330
47
100
AcDbScale
 70
     0
300
1/2" = 1'-0"
140
0.5
141
12.0
290
     0
  0
SCALE
  5
63
102
{ACAD_REACTORS
330
47
102
}
330
47
100
AcDbScale
 70
     0
300
3/4" = 1'-0"
140
0.75
141
12.0
290
     0
  0
SCALE
  5
64
102
{ACAD_REACTORS
330
47
102
}
330
47
100
AcDbScale
 70
     0
300
1" = 1'-0"
140
1.0
141
12.0
290
     0
  0
SCALE
  5
65
102
{ACAD_REACTORS
330
47
102
}
330
47
100
AcDbScale
 70
     0
300
1-1/2" = 1'-0"
140
1.5
141
12.0
290
     0
  0
SCALE
  5
66
102
{ACAD_REACTORS
330
47
102
}
330
47
100
AcDbScale
 70
     0
300
3" = 1'-0"
140
3.0
141
12.0
290
     0
  0
SCALE
  5
67
102
{ACAD_REACTORS
330
47
102
}
330
47
100
AcDbScale
 70
     0
300
6" = 1'-0"
140
6.0
141
12.0
290
     0
  0
SCALE
  5
68
102
{ACAD_REACTORS
330
47
102
}
330
47
100
AcDbScale
 70
     0
300
1'-0" = 1'-0"
140
12.0
141
12.0
290
     0
  0
TABLESTYLE
  5
6A
102
{ACAD_REACTORS
330
69
102
}
102
{ACAD_XDICTIONARY
360
26F
102
}
330
69
100
AcDbTableStyle
  3
Standard
 70
     0
 71
     0
 40
0.06
 41
0.06
280
     0
281
     0
  7
Standard
140
0.18
170
     2
 62
     0
 63
   257
283
     0
 90
        4
 91
        0
  1

274
    -2
284
     1
 64
     0
275
    -2
285
     1
 65
     0
276
    -2
286
     1
 66
     0
277
    -2
287
     1
 67
     0
278
    -2
288
     1
 68
     0
279
    -2
289
     1
 69
     0
  7
Standard
140
0.25
170
     5
 62
     0
 63
   257
283
     0
 90
        4
 91
        0
  1

274
    -2
284
     1
 64
     0
275
    -2
285
     1
 65
     0
276
    -2
286
     1
 66
     0
277
    -2
287
     1
 67
     0
278
    -2
288
     1
 68
     0
279
    -2
289
     1
 69
     0
  7
Standard
140
0.18
170
     5
 62
     0
 63
   257
283
     0
 90
        4
 91
        0
  1

274
    -2
284
     1
 64
     0
275
    -2
285
     1
 65
     0
276
    -2
286
     1
 66
     0
277
    -2
287
     1
 67
     0
278
    -2
288
     1
 68
     0
279
    -2
289
     1
 69
     0
  0
VISUALSTYLE
  5
2F
102
{ACAD_REACTORS
330
2A
102
}
330
2A
100
AcDbVisualStyle
  2
2dWireframe
 70
     4
177
     3
291
     0
 70
    58
 90
        0
176
     1
 90
        2
176
     1
 90
        0
176
     1
 90
        0
176
     1
 40
0.6
176
     1
 40
30.0
176
     1
 62
     7
420
 16777215
176
     1
 90
        1
176
     1
 90
        4
176
     1
 62
     7
176
     1
 62
   257
176
     1
 90
        1
176
     1
 90
        1
176
     1
 40
1.0
176
     1
 90
        0
176
     1
 62
   257
176
     1
 40
1.0
176
     1
 90
        1
176
     1
 90
        6
176
     1
 90
        2
176
     1
 62
     7
176
     1
 90
        5
176
     1
 90
        0
176
     1
 90
        0
176
     1
290
     0
176
     1
 90
        1
176
     1
 40
0.0
176
     1
 90
        0
176
     1
290
     1
176
     1
290
     1
176
     1
290
     0
176
     1
290
     0
176
     1
290
     0
176
     1
290
     0
176
     1
290
     0
176
     1
290
     0
176
     1
290
     0
176
     1
 90
       50
176
     1
 40
0.0
176
     1
 40
1.0
176
     1
 90
        0
176
     1
 62
    18
420
        0
176
     1
 90
       50
176
     1
 90
        3
176
     1
 62
     5
420
      255
176
     1
290
     0
176
     1
 90
       50
176
     1
 90
       50
176
     1
 90
       50
176
     1
290
     0
176
     1
 90
       50
176
     1
 62
   256
176
     0
 40
1.0
176
     0
 90
        2
176
     1
  1
strokes_ogs.tif
176
     1
290
     0
176
     1
 40
1.0
176
     1
 40
1.0
176
     1
  0
VISUALSTYLE
  5
32
102
{ACAD_REACTORS
330
2A
102
}
330
2A
100
AcDbVisualStyle
  2
Basic
 70
     7
177
     3
291
     1
 70
    58
 90
        1
176
     1
 90
        0
176
     1
 90
        1
176
     1
 90
        0
176
     1
 40
0.6
176
     1
 40
30.0
176
     1
 62
     7
420
 16777215
176
     1
 90
        0
176
     1
 90
        4
176
     1
 62
     7
176
     1
 62
   257
176
     1
 90
        1
176
     1
 90
        1
176
     1
 40
1.0
176
     1
 90
        8
176
     1
 62
     7
176
     1
 40
1.0
176
     1
 90
        1
176
     1
 90
        6
176
     1
 90
        2
176
     1
 62
     7
176
     1
 90
        5
176
     1
 90
        0
176
     1
 90
        0
176
     1
290
     0
176
     1
 90
        1
176
     1
 40
0.0
176
     1
 90
        0
176
     1
290
     0
176
     1
290
     1
176
     1
290
     1
176
     1
290
     0
176
     1
290
     0
176
     1
290
     0
176
     1
290
     0
176
     1
290
     0
176
     1
290
     0
176
     1
 90
       50
176
     1
 40
0.0
176
     1
 40
1.0
176
     1
 90
        0
176
     1
 62
    18
420
        0
176
     1
 90
       50
176
     1
 90
        3
176
     1
 62
     5
420
      255
176
     1
290
     0
176
     1
 90
       50
176
     1
 90
       50
176
     1
 90
       50
176
     1
290
     0
176
     1
 90
       50
176
     1
 62
   256
176
     0
 40
1.0
176
     0
 90
        2
176
     1
  1
strokes_ogs.tif
176
     1
290
     0
176
     1
 40
1.0
176
     1
 40
1.0
176
     1
  0
VISUALSTYLE
  5
36
102
{ACAD_REACTORS
330
2A
102
}
330
2A
100
AcDbVisualStyle
  2
Brighten
 70
    12
177
     3
291
     1
 70
    58
 90
        2
176
     1
 90
        2
176
     1
 90
        0
176
     1
 90
        0
176
     1
 40
0.6
176
     1
 40
30.0
176
     1
 62
     7
420
 16777215
176
     1
 90
        1
176
     1
 90
        4
176
     1
 62
     7
176
     1
 62
   257
176
     1
 90
        1
176
     1
 90
        1
176
     1
 40
1.0
176
     1
 90
        8
176
     1
 62
     7
176
     1
 40
1.0
176
     1
 90
        1
176
     1
 90
        6
176
     1
 90
        2
176
     1
 62
     7
176
     1
 90
        5
176
     1
 90
        0
176
     1
 90
        0
176
     1
290
     0
176
     1
 90
        1
176
     1
 40
50.0
176
     1
 90
        0
176
     1
290
     0
176
     1
290
     1
176
     1
290
     1
176
     1
290
     0
176
     1
290
     0
176
     1
290
     0
176
     1
290
     0
176
     1
290
     0
176
     1
290
     0
176
     1
 90
       50
176
     1
 40
0.0
176
     1
 40
1.0
176
     1
 90
        0
176
     1
 62
    18
420
        0
176
     1
 90
       50
176
     1
 90
        3
176
     1
 62
     5
420
      255
176
     1
290
     0
176
     1
 90
       50
176
     1
 90
       50
176
     1
 90
       50
176
     1
290
     0
176
     1
 90
       50
176
     1
 62
   256
176
     0
 40
1.0
176
     0
 90
        2
176
     1
  1
strokes_ogs.tif
176
     1
290
     0
176
     1
 40
1.0
176
     1
 40
1.0
176
     1
  0
VISUALSTYLE
  5
3A
102
{ACAD_REACTORS
330
2A
102
}
330
2A
100
AcDbVisualStyle
  2
ColorChange
 70
    16
177
     3
291
     1
 70
    58
 90
        2
176
     1
 90
        2
176
     1
 90
        3
176
     1
 90
        0
176
     1
 40
0.6
176
     1
 40
30.0
176
     1
 62
     8
420
  8421504
176
     1
 90
        1
176
     1
 90
        4
176
     1
 62
     7
176
     1
 62
   257
176
     1
 90
        1
176
     1
 90
        1
176
     1
 40
1.0
176
     1
 90
        8
176
     1
 62
     8
420
  8421504
176
     1
 40
1.0
176
     1
 90
        1
176
     1
 90
        6
176
     1
 90
        2
176
     1
 62
     7
176
     1
 90
        5
176
     1
 90
        0
176
     1
 90
        0
176
     1
290
     0
176
     1
 90
        1
176
     1
 40
0.0
176
     1
 90
        0
176
     1
290
     0
176
     1
290
     1
176
     1
290
     1
176
     1
290
     0
176
     1
290
     0
176
     1
290
     0
176
     1
290
     0
176
     1
290
     0
176
     1
290
     0
176
     1
 90
       50
176
     1
 40
0.0
176
     1
 40
1.0
176
     1
 90
        0
176
     1
 62
    18
420
        0
176
     1
 90
       50
176
     1
 90
        3
176
     1
 62
     5
420
      255
176
     1
290
     0
176
     1
 90
       50
176
     1
 90
       50
176
     1
 90
       50
176
     1
290
     0
176
     1
 90
       50
176
     1
 62
   256
176
     0
 40
1.0
176
     0
 90
        2
176
     1
  1
strokes_ogs.tif
176
     1
290
     0
176
     1
 40
1.0
176
     1
 40
1.0
176
     1
  0
VISUALSTYLE
  5
34
102
{ACAD_REACTORS
330
2A
102
}
330
2A
100
AcDbVisualStyle
  2
Conceptual
 70
     9
177
     3
291
     0
 70
    58
 90
        3
176
     1
 90
        2
176
     1
 90
        0
176
     1
 90
        0
176
     1
 40
0.6
176
     1
 40
30.0
176
     1
 62
     7
420
 16777215
176
     1
 90
        2
176
     1
 90
        2
176
     1
 62
     7
176
     1
 62
   257
176
     1
 90
        1
176
     1
 90
        1
176
     1
 40
179.0
176
     1
 90
        8
176
     1
 62
     7
176
     1
 40
1.0
176
     1
 90
        1
176
     1
 90
        6
176
     1
 90
        2
176
     1
 62
     7
176
     1
 90
        3
176
     1
 90
        0
176
     1
 90
        0
176
     1
290
     0
176
     1
 90
        1
176
     1
 40
0.0
176
     1
 90
        0
176
     1
290
     0
176
     1
290
     1
176
     1
290
     1
176
     1
290
     0
176
     1
290
     0
176
     1
290
     0
176
     1
290
     0
176
     1
290
     0
176
     1
290
     0
176
     1
 90
       50
176
     1
 40
0.0
176
     1
 40
1.0
176
     1
 90
        0
176
     1
 62
    18
420
        0
176
     1
 90
       50
176
     1
 90
        3
176
     1
 62
     5
420
      255
176
     1
290
     0
176
     1
 90
       50
176
     1
 90
       50
176
     1
 90
       50
176
     1
290
     0
176
     1
 90
       50
176
     1
 62
   256
176
     0
 40
1.0
176
     0
 90
        2
176
     1
  1
strokes_ogs.tif
176
     1
290
     0
176
     1
 40
1.0
176
     1
 40
1.0
176
     1
  0
VISUALSTYLE
  5
35
102
{ACAD_REACTORS
330
2A
102
}
330
2A
100
AcDbVisualStyle
  2
Dim
 70
    11
177
     3
291
     1
 70
    58
 90
        2
176
     1
 90
        2
176
     1
 90
        0
176
     1
 90
        0
176
     1
 40
0.6
176
     1
 40
30.0
176
     1
 62
     7
420
 16777215
176
     1
 90
        1
176
     1
 90
        4
176
     1
 62
     7
176
     1
 62
   257
176
     1
 90
        1
176
     1
 90
        1
176
     1
 40
1.0
176
     1
 90
        8
176
     1
 62
     7
176
     1
 40
1.0
176
     1
 90
        1
176
     1
 90
        6
176
     1
 90
        2
176
     1
 62
     7
176
     1
 90
        5
176
     1
 90
        0
176
     1
 90
        0
176
     1
290
     0
176
     1
 90
        1
176
     1
 40
-50.0
176
     1
 90
        0
176
     1
290
     0
176
     1
290
     1
176
     1
290
     1
176
     1
290
     0
176
     1
290
     0
176
     1
290
     0
176
     1
290
     0
176
     1
290
     0
176
     1
290
     0
176
     1
 90
       50
176
     1
 40
0.0
176
     1
 40
1.0
176
     1
 90
        0
176
     1
 62
    18
420
        0
176
     1
 90
       50
176
     1
 90
        3
176
     1
 62
     5
420
      255
176
     1
290
     0
176
     1
 90
       50
176
     1
 90
       50
176
     1
 90
       50
176
     1
290
     0
176
     1
 90
       50
176
     1
 62
   256
176
     0
 40
1.0
176
     0
 90
        2
176
     1
  1
strokes_ogs.tif
176
     1
290
     0
176
     1
 40
1.0
176
     1
 40
1.0
176
     1
  0
VISUALSTYLE
  5
3D
102
{ACAD_REACTORS
330
2A
102
}
330
2A
100
AcDbVisualStyle
  2
EdgeColorOff
 70
    22
177
     3
291
     1
 70
    58
 90
        2
176
     0
 90
        2
176
     0
 90
        0
176
     0
 90
        0
176
     0
 40
0.6
176
     0
 40
30.0
176
     0
 62
     7
420
 16777215
176
     0
 90
        1
176
     0
 90
        4
176
     0
 62
     7
176
     0
 62
   257
176
     0
 90
        1
176
     0
 90
        1
176
     0
 40
1.0
176
     0
 90
        8
176
     2
 62
     7
176
     0
 40
1.0
176
     0
 90
        1
176
     0
 90
        6
176
     0
 90
        2
176
     0
 62
     7
176
     0
 90
        5
176
     0
 90
        0
176
     0
 90
        0
176
     0
290
     0
176
     0
 90
        1
176
     0
 40
0.0
176
     0
 90
        0
176
     0
290
     0
176
     0
290
     1
176
     0
290
     1
176
     0
290
     0
176
     0
290
     0
176
     0
290
     0
176
     0
290
     0
176
     0
290
     0
176
     0
290
     0
176
     0
 90
       50
176
     0
 40
0.0
176
     0
 40
1.0
176
     0
 90
        0
176
     0
 62
    18
420
        0
176
     0
 90
       50
176
     0
 90
        3
176
     0
 62
     5
420
      255
176
     0
290
     0
176
     0
 90
       50
176
     0
 90
       50
176
     0
 90
       50
176
     0
290
     0
176
     0
 90
       50
176
     0
 62
   256
176
     0
 40
1.0
176
     0
 90
        2
176
     0
  1
strokes_ogs.tif
176
     0
290
     0
176
     0
 40
1.0
176
     0
 40
1.0
176
     0
  0
VISUALSTYLE
  5
39
102
{ACAD_REACTORS
330
2A
102
}
330
2A
100
AcDbVisualStyle
  2
Facepattern
 70
    15
177
     3
291
     1
 70
    58
 90
        2
176
     1
 90
        2
176
     1
 90
        0
176
     1
 90
        0
176
     1
 40
0.6
176
     1
 40
30.0
176
     1
 62
     7
420
 16777215
176
     1
 90
        1
176
     1
 90
        4
176
     1
 62
     7
176
     1
 62
   257
176
     1
 90
        1
176
     1
 90
        1
176
     1
 40
1.0
176
     1
 90
        8
176
     1
 62
     7
176
     1
 40
1.0
176
     1
 90
        1
176
     1
 90
        6
176
     1
 90
        2
176
     1
 62
     7
176
     1
 90
        5
176
     1
 90
        0
176
     1
 90
        0
176
     1
290
     0
176
     1
 90
        1
176
     1
 40
0.0
176
     1
 90
        0
176
     1
290
     0
176
     1
290
     1
176
     1
290
     1
176
     1
290
     0
176
     1
290
     0
176
     1
290
     0
176
     1
290
     0
176
     1
290
     0
176
     1
290
     0
176
     1
 90
       50
176
     1
 40
0.0
176
     1
 40
1.0
176
     1
 90
        0
176
     1
 62
    18
420
        0
176
     1
 90
       50
176
     1
 90
        3
176
     1
 62
     5
420
      255
176
     1
290
     0
176
     1
 90
       50
176
     1
 90
       50
176
     1
 90
       50
176
     1
290
     0
176
     1
 90
       50
176
     1
 62
   256
176
     0
 40
1.0
176
     0
 90
        2
176
     1
  1
strokes_ogs.tif
176
     1
290
     0
176
     1
 40
1.0
176
     1
 40
1.0
176
     1
  0
VISUALSTYLE
  5
2B
102
{ACAD_REACTORS
330
2A
102
}
330
2A
100
AcDbVisualStyle
  2
Flat
 70
     0
177
     3
291
     1
 70
    58
 90
        2
176
     1
 90
        1
176
     1
 90
        1
176
     1
 90
        2
176
     1
 40
0.6
176
     1
 40
30.0
176
     1
 62
     7
420
 16777215
176
     1
 90
        0
176
     1
 90
        0
176
     1
 62
     7
176
     1
 62
   257
176
     1
 90
        1
176
     1
 90
        1
176
     1
 40
1.0
176
     1
 90
        8
176
     1
 62
     7
176
     1
 40
1.0
176
     1
 90
        1
176
     1
 90
        6
176
     1
 90
        2
176
     1
 62
     7
176
     1
 90
        5
176
     1
 90
        0
176
     1
 90
        0
176
     1
290
     0
176
     1
 90
       13
176
     1
 40
0.0
176
     1
 90
        0
176
     1
290
     0
176
     1
290
     1
176
     1
290
     1
176
     1
290
     0
176
     1
290
     0
176
     1
290
     0
176
     1
290
     0
176
     1
290
     0
176
     1
290
     0
176
     1
 90
       50
176
     1
 40
0.0
176
     1
 40
1.0
176
     1
 90
        0
176
     1
 62
    18
420
        0
176
     1
 90
       50
176
     1
 90
        3
176
     1
 62
     5
420
      255
176
     1
290
     0
176
     1
 90
       50
176
     1
 90
       50
176
     1
 90
       50
176
     1
290
     0
176
     1
 90
       50
176
     1
 62
   256
176
     0
 40
1.0
176
     0
 90
        2
176
     1
  1
strokes_ogs.tif
176
     1
290
     0
176
     1
 40
1.0
176
     1
 40
1.0
176
     1
  0
VISUALSTYLE
  5
2C
102
{ACAD_REACTORS
330
2A
102
}
330
2A
100
AcDbVisualStyle
  2
FlatWithEdges
 70
     1
177
     3
291
     1
 70
    58
 90
        2
176
     1
 90
        1
176
     1
 90
        1
176
     1
 90
        2
176
     1
 40
0.6
176
     1
 40
30.0
176
     1
 62
     7
420
 16777215
176
     1
 90
        1
176
     1
 90
        0
176
     1
 62
     7
176
     1
 62
   257
176
     1
 90
        1
176
     1
 90
        1
176
     1
 40
1.0
176
     1
 90
        0
176
     1
 62
   257
176
     1
 40
1.0
176
     1
 90
        1
176
     1
 90
        6
176
     1
 90
        2
176
     1
 62
     7
176
     1
 90
        5
176
     1
 90
        0
176
     1
 90
        0
176
     1
290
     0
176
     1
 90
       13
176
     1
 40
0.0
176
     1
 90
        0
176
     1
290
     0
176
     1
290
     1
176
     1
290
     1
176
     1
290
     0
176
     1
290
     0
176
     1
290
     0
176
     1
290
     0
176
     1
290
     0
176
     1
290
     0
176
     1
 90
       50
176
     1
 40
0.0
176
     1
 40
1.0
176
     1
 90
        0
176
     1
 62
    18
420
        0
176
     1
 90
       50
176
     1
 90
        3
176
     1
 62
     5
420
      255
176
     1
290
     0
176
     1
 90
       50
176
     1
 90
       50
176
     1
 90
       50
176
     1
290
     0
176
     1
 90
       50
176
     1
 62
   256
176
     0
 40
1.0
176
     0
 90
        2
176
     1
  1
strokes_ogs.tif
176
     1
290
     0
176
     1
 40
1.0
176
     1
 40
1.0
176
     1
  0
VISUALSTYLE
  5
2D
102
{ACAD_REACTORS
330
2A
102
}
330
2A
100
AcDbVisualStyle
  2
Gouraud
 70
     2
177
     3
291
     1
 70
    58
 90
        2
176
     1
 90
        2
176
     1
 90
        1
176
     1
 90
        2
176
     1
 40
0.6
176
     1
 40
30.0
176
     1
 62
     7
420
 16777215
176
     1
 90
        0
176
     1
 90
        0
176
     1
 62
     7
176
     1
 62
   257
176
     1
 90
        1
176
     1
 90
        1
176
     1
 40
1.0
176
     1
 90
        0
176
     1
 62
     7
176
     1
 40
1.0
176
     1
 90
        1
176
     1
 90
        6
176
     1
 90
        2
176
     1
 62
     7
176
     1
 90
        5
176
     1
 90
        0
176
     1
 90
        0
176
     1
290
     0
176
     1
 90
       13
176
     1
 40
0.0
176
     1
 90
        0
176
     1
290
     0
176
     1
290
     1
176
     1
290
     1
176
     1
290
     0
176
     1
290
     0
176
     1
290
     0
176
     1
290
     0
176
     1
290
     0
176
     1
290
     0
176
     1
 90
       50
176
     1
 40
0.0
176
     1
 40
1.0
176
     1
 90
        0
176
     1
 62
    18
420
        0
176
     1
 90
       50
176
     1
 90
        3
176
     1
 62
     5
420
      255
176
     1
290
     0
176
     1
 90
       50
176
     1
 90
       50
176
     1
 90
       50
176
     1
290
     0
176
     1
 90
       50
176
     1
 62
   256
176
     0
 40
1.0
176
     0
 90
        2
176
     1
  1
strokes_ogs.tif
176
     1
290
     0
176
     1
 40
1.0
176
     1
 40
1.0
176
     1
  0
VISUALSTYLE
  5
2E
102
{ACAD_REACTORS
330
2A
102
}
330
2A
100
AcDbVisualStyle
  2
GouraudWithEdges
 70
     3
177
     3
291
     1
 70
    58
 90
        2
176
     1
 90
        2
176
     1
 90
        1
176
     1
 90
        2
176
     1
 40
0.6
176
     1
 40
30.0
176
     1
 62
     7
420
 16777215
176
     1
 90
        1
176
     1
 90
        0
176
     1
 62
     7
176
     1
 62
   257
176
     1
 90
        1
176
     1
 90
        1
176
     1
 40
1.0
176
     1
 90
        0
176
     1
 62
   257
176
     1
 40
1.0
176
     1
 90
        1
176
     1
 90
        6
176
     1
 90
        2
176
     1
 62
     7
176
     1
 90
        5
176
     1
 90
        0
176
     1
 90
        0
176
     1
290
     0
176
     1
 90
       13
176
     1
 40
0.0
176
     1
 90
        0
176
     1
290
     0
176
     1
290
     1
176
     1
290
     1
176
     1
290
     0
176
     1
290
     0
176
     1
290
     0
176
     1
290
     0
176
     1
290
     0
176
     1
290
     0
176
     1
 90
       50
176
     1
 40
0.0
176
     1
 40
1.0
176
     1
 90
        0
176
     1
 62
    18
420
        0
176
     1
 90
       50
176
     1
 90
        3
176
     1
 62
     5
420
      255
176
     1
290
     0
176
     1
 90
       50
176
     1
 90
       50
176
     1
 90
       50
176
     1
290
     0
176
     1
 90
       50
176
     1
 62
   256
176
     0
 40
1.0
176
     0
 90
        2
176
     1
  1
strokes_ogs.tif
176
     1
290
     0
176
     1
 40
1.0
176
     1
 40
1.0
176
     1
  0
VISUALSTYLE
  5
31
102
{ACAD_REACTORS
330
2A
102
}
330
2A
100
AcDbVisualStyle
  2
Hidden
 70
     6
177
     3
291
     0
 70
    58
 90
        1
176
     1
 90
        2
176
     1
 90
        2
176
     1
 90
        0
176
     1
 40
0.6
176
     1
 40
30.0
176
     1
 62
     7
420
 16777215
176
     1
 90
        2
176
     1
 90
        2
176
     1
 62
     7
176
     1
 62
   257
176
     1
 90
        2
176
     1
 90
        1
176
     1
 40
40.0
176
     1
 90
        0
176
     1
 62
   257
176
     1
 40
1.0
176
     1
 90
        1
176
     1
 90
        6
176
     1
 90
        2
176
     1
 62
     7
176
     1
 90
        3
176
     1
 90
        0
176
     1
 90
        0
176
     1
290
     0
176
     1
 90
        1
176
     1
 40
0.0
176
     1
 90
        0
176
     1
290
     0
176
     1
290
     1
176
     1
290
     1
176
     1
290
     0
176
     1
290
     0
176
     1
290
     0
176
     1
290
     0
176
     1
290
     0
176
     1
290
     0
176
     1
 90
       50
176
     1
 40
0.0
176
     1
 40
1.0
176
     1
 90
        0
176
     1
 62
    18
420
        0
176
     1
 90
       50
176
     1
 90
        3
176
     1
 62
     5
420
      255
176
     1
290
     0
176
     1
 90
       50
176
     1
 90
       50
176
     1
 90
       50
176
     1
290
     0
176
     1
 90
       50
176
     1
 62
   256
176
     0
 40
1.0
176
     0
 90
        2
176
     1
  1
strokes_ogs.tif
176
     1
290
     0
176
     1
 40
1.0
176
     1
 40
1.0
176
     1
  0
VISUALSTYLE
  5
3B
102
{ACAD_REACTORS
330
2A
102
}
330
2A
100
AcDbVisualStyle
  2
JitterOff
 70
    20
177
     3
291
     1
 70
    58
 90
        2
176
     0
 90
        2
176
     0
 90
        0
176
     0
 90
        0
176
     0
 40
0.6
176
     0
 40
30.0
176
     0
 62
     7
420
 16777215
176
     0
 90
        1
176
     0
 90
        4
176
     0
 62
     7
176
     0
 62
   257
176
     0
 90
        1
176
     0
 90
        1
176
     0
 40
1.0
176
     0
 90
       10
176
     2
 62
     7
176
     0
 40
1.0
176
     0
 90
        1
176
     0
 90
        6
176
     0
 90
        2
176
     0
 62
     7
176
     0
 90
        5
176
     0
 90
        0
176
     0
 90
        0
176
     0
290
     0
176
     0
 90
        1
176
     0
 40
0.0
176
     0
 90
        0
176
     0
290
     0
176
     0
290
     1
176
     0
290
     1
176
     0
290
     0
176
     0
290
     0
176
     0
290
     0
176
     0
290
     0
176
     0
290
     0
176
     0
290
     0
176
     0
 90
       50
176
     0
 40
0.0
176
     0
 40
1.0
176
     0
 90
        0
176
     0
 62
    18
420
        0
176
     0
 90
       50
176
     0
 90
        3
176
     0
 62
     5
420
      255
176
     0
290
     0
176
     0
 90
       50
176
     0
 90
       50
176
     0
 90
       50
176
     0
290
     0
176
     0
 90
       50
176
     0
 62
   256
176
     0
 40
1.0
176
     0
 90
        2
176
     0
  1
strokes_ogs.tif
176
     0
290
     0
176
     0
 40
1.0
176
     0
 40
1.0
176
     0
  0
VISUALSTYLE
  5
38
102
{ACAD_REACTORS
330
2A
102
}
330
2A
100
AcDbVisualStyle
  2
Linepattern
 70
    14
177
     3
291
     1
 70
    58
 90
        2
176
     1
 90
        2
176
     1
 90
        0
176
     1
 90
        0
176
     1
 40
0.6
176
     1
 40
30.0
176
     1
 62
     7
420
 16777215
176
     1
 90
        1
176
     1
 90
        4
176
     1
 62
     7
176
     1
 62
   257
176
     1
 90
        7
176
     1
 90
        7
176
     1
 40
1.0
176
     1
 90
        8
176
     1
 62
     7
176
     1
 40
1.0
176
     1
 90
        1
176
     1
 90
        6
176
     1
 90
        2
176
     1
 62
     7
176
     1
 90
        5
176
     1
 90
        0
176
     1
 90
        0
176
     1
290
     0
176
     1
 90
        1
176
     1
 40
0.0
176
     1
 90
        0
176
     1
290
     0
176
     1
290
     1
176
     1
290
     1
176
     1
290
     0
176
     1
290
     0
176
     1
290
     0
176
     1
290
     0
176
     1
290
     0
176
     1
290
     0
176
     1
 90
       50
176
     1
 40
0.0
176
     1
 40
1.0
176
     1
 90
        0
176
     1
 62
    18
420
        0
176
     1
 90
       50
176
     1
 90
        3
176
     1
 62
     5
420
      255
176
     1
290
     0
176
     1
 90
       50
176
     1
 90
       50
176
     1
 90
       50
176
     1
290
     0
176
     1
 90
       50
176
     1
 62
   256
176
     0
 40
1.0
176
     0
 90
        2
176
     1
  1
strokes_ogs.tif
176
     1
290
     0
176
     1
 40
1.0
176
     1
 40
1.0
176
     1
  0
VISUALSTYLE
  5
3C
102
{ACAD_REACTORS
330
2A
102
}
330
2A
100
AcDbVisualStyle
  2
OverhangOff
 70
    21
177
     3
291
     1
 70
    58
 90
        2
176
     0
 90
        2
176
     0
 90
        0
176
     0
 90
        0
176
     0
 40
0.6
176
     0
 40
30.0
176
     0
 62
     7
420
 16777215
176
     0
 90
        1
176
     0
 90
        4
176
     0
 62
     7
176
     0
 62
   257
176
     0
 90
        1
176
     0
 90
        1
176
     0
 40
1.0
176
     0
 90
        9
176
     2
 62
     7
176
     0
 40
1.0
176
     0
 90
        1
176
     0
 90
        6
176
     0
 90
        2
176
     0
 62
     7
176
     0
 90
        5
176
     0
 90
        0
176
     0
 90
        0
176
     0
290
     0
176
     0
 90
        1
176
     0
 40
0.0
176
     0
 90
        0
176
     0
290
     0
176
     0
290
     1
176
     0
290
     1
176
     0
290
     0
176
     0
290
     0
176
     0
290
     0
176
     0
290
     0
176
     0
290
     0
176
     0
290
     0
176
     0
 90
       50
176
     0
 40
0.0
176
     0
 40
1.0
176
     0
 90
        0
176
     0
 62
    18
420
        0
176
     0
 90
       50
176
     0
 90
        3
176
     0
 62
     5
420
      255
176
     0
290
     0
176
     0
 90
       50
176
     0
 90
       50
176
     0
 90
       50
176
     0
290
     0
176
     0
 90
       50
176
     0
 62
   256
176
     0
 40
1.0
176
     0
 90
        2
176
     0
  1
strokes_ogs.tif
176
     0
290
     0
176
     0
 40
1.0
176
     0
 40
1.0
176
     0
  0
VISUALSTYLE
  5
33
102
{ACAD_REACTORS
330
2A
102
}
330
2A
100
AcDbVisualStyle
  2
Realistic
 70
     8
177
     3
291
     0
 70
    58
 90
        2
176
     1
 90
        3
176
     1
 90
        0
176
     1
 90
        2
176
     1
 40
0.6
176
     1
 40
30.0
176
     1
 62
     7
420
 16777215
176
     1
 90
        0
176
     1
 90
        0
176
     1
 62
     7
176
     1
 62
   257
176
     1
 90
        1
176
     1
 90
        1
176
     1
 40
1.0
176
     1
 90
        8
176
     1
 62
   257
176
     1
 40
1.0
176
     1
 90
        1
176
     1
 90
        6
176
     1
 90
        2
176
     1
 62
     7
176
     1
 90
        3
176
     1
 90
        0
176
     1
 90
        0
176
     1
290
     0
176
     1
 90
       13
176
     1
 40
0.0
176
     1
 90
        0
176
     1
290
     0
176
     1
290
     1
176
     1
290
     1
176
     1
290
     0
176
     1
290
     0
176
     1
290
     0
176
     1
290
     0
176
     1
290
     0
176
     1
290
     0
176
     1
 90
       50
176
     1
 40
0.0
176
     1
 40
1.0
176
     1
 90
        0
176
     1
 62
    18
420
        0
176
     1
 90
       50
176
     1
 90
        3
176
     1
 62
     5
420
      255
176
     1
290
     0
176
     1
 90
       50
176
     1
 90
       50
176
     1
 90
       50
176
     1
290
     0
176
     1
 90
       50
176
     1
 62
   256
176
     0
 40
1.0
176
     0
 90
        2
176
     1
  1
strokes_ogs.tif
176
     1
290
     0
176
     1
 40
1.0
176
     1
 40
1.0
176
     1
  0
VISUALSTYLE
  5
42
102
{ACAD_REACTORS
330
2A
102
}
330
2A
100
AcDbVisualStyle
  2
Shaded
 70
    27
177
     3
291
     0
 70
    58
 90
        2
176
     1
 90
        2
176
     1
 90
        1
176
     1
 90
        2
176
     1
 40
0.6
176
     1
 40
30.0
176
     1
 62
     7
420
 16777215
176
     1
 90
        0
176
     1
 90
        4
176
     1
 62
     7
176
     1
 62
   257
176
     1
 90
        1
176
     1
 90
        1
176
     1
 40
1.0
176
     1
 90
        8
176
     1
 62
   257
176
     1
 40
1.0
176
     1
 90
        1
176
     1
 90
        6
176
     1
 90
        2
176
     1
 62
     8
420
  7895160
176
     1
 90
        3
176
     1
 90
        0
176
     1
 90
        0
176
     1
290
     0
176
     1
 90
        5
176
     1
 40
0.0
176
     1
 90
        0
176
     1
290
     0
176
     1
290
     1
176
     1
290
     1
176
     1
290
     0
176
     1
290
     0
176
     1
290
     0
176
     1
290
     0
176
     1
290
     0
176
     1
290
     0
176
     1
 90
       50
176
     1
 40
0.0
176
     1
 40
1.0
176
     1
 90
        0
176
     1
 62
    18
420
        0
176
     1
 90
       50
176
     1
 90
        3
176
     1
 62
     5
420
      255
176
     1
290
     0
176
     1
 90
       50
176
     1
 90
       50
176
     1
 90
       50
176
     1
290
     0
176
     1
 90
       50
176
     1
 62
   256
176
     0
 40
1.0
176
     0
 90
        2
176
     1
  1
strokes_ogs.tif
176
     1
290
     0
176
     1
 40
1.0
176
     1
 40
1.0
176
     1
  0
VISUALSTYLE
  5
41
102
{ACAD_REACTORS
330
2A
102
}
330
2A
100
AcDbVisualStyle
  2
Shaded with edges
 70
    26
177
     3
291
     0
 70
    58
 90
        2
176
     1
 90
        2
176
     1
 90
        1
176
     1
 90
        2
176
     1
 40
0.6
176
     1
 40
30.0
176
     1
 62
     7
420
 16777215
176
     1
 90
        1
176
     1
 90
       10
176
     1
 62
     7
176
     1
 62
   257
176
     1
 90
        2
176
     1
 90
        1
176
     1
 40
1.0
176
     1
 90
        8
176
     1
 62
   257
176
     1
 40
1.0
176
     1
 90
        1
176
     1
 90
        6
176
     1
 90
        2
176
     1
 62
     7
176
     1
 90
        3
176
     1
 90
        0
176
     1
 90
        0
176
     1
290
     0
176
     1
 90
        5
176
     1
 40
0.0
176
     1
 90
        0
176
     1
290
     0
176
     1
290
     1
176
     1
290
     1
176
     1
290
     0
176
     1
290
     0
176
     1
290
     0
176
     1
290
     0
176
     1
290
     0
176
     1
290
     0
176
     1
 90
       50
176
     1
 40
0.0
176
     1
 40
1.0
176
     1
 90
        0
176
     1
 62
    18
420
        0
176
     1
 90
       50
176
     1
 90
        3
176
     1
 62
     5
420
      255
176
     1
290
     0
176
     1
 90
       50
176
     1
 90
       50
176
     1
 90
       50
176
     1
290
     0
176
     1
 90
       50
176
     1
 62
   256
176
     0
 40
1.0
176
     0
 90
        2
176
     1
  1
strokes_ogs.tif
176
     1
290
     0
176
     1
 40
1.0
176
     1
 40
1.0
176
     1
  0
VISUALSTYLE
  5
3E
102
{ACAD_REACTORS
330
2A
102
}
330
2A
100
AcDbVisualStyle
  2
Shades of Gray
 70
    23
177
     3
291
     0
 70
    58
 90
        2
176
     1
 90
        2
176
     1
 90
        3
176
     1
 90
        0
176
     1
 40
0.6
176
     1
 40
30.0
176
     1
 62
     7
420
 16777215
176
     1
 90
        2
176
     1
 90
        2
176
     1
 62
     7
176
     1
 62
     7
176
     1
 90
        1
176
     1
 90
        1
176
     1
 40
40.0
176
     1
 90
        8
176
     1
 62
     7
176
     1
 40
1.0
176
     1
 90
        1
176
     1
 90
        6
176
     1
 90
        2
176
     1
 62
     7
176
     1
 90
        3
176
     1
 90
        0
176
     1
 90
        0
176
     1
290
     0
176
     1
 90
        1
176
     1
 40
0.0
176
     1
 90
        0
176
     1
290
     0
176
     1
290
     1
176
     1
290
     1
176
     1
290
     0
176
     1
290
     0
176
     1
290
     0
176
     1
290
     0
176
     1
290
     0
176
     1
290
     0
176
     1
 90
       50
176
     1
 40
0.0
176
     1
 40
1.0
176
     1
 90
        0
176
     1
 62
    18
420
        0
176
     1
 90
       50
176
     1
 90
        3
176
     1
 62
     5
420
      255
176
     1
290
     0
176
     1
 90
       50
176
     1
 90
       50
176
     1
 90
       50
176
     1
290
     0
176
     1
 90
       50
176
     1
 62
   256
176
     0
 40
1.0
176
     0
 90
        2
176
     1
  1
strokes_ogs.tif
176
     1
290
     0
176
     1
 40
1.0
176
     1
 40
1.0
176
     1
  0
VISUALSTYLE
  5
3F
102
{ACAD_REACTORS
330
2A
102
}
330
2A
100
AcDbVisualStyle
  2
Sketchy
 70
    24
177
     3
291
     0
 70
    58
 90
        1
176
     1
 90
        2
176
     1
 90
        2
176
     1
 90
        0
176
     1
 40
0.6
176
     1
 40
30.0
176
     1
 62
     7
420
 16777215
176
     1
 90
        2
176
     1
 90
        2
176
     1
 62
     7
176
     1
 62
     7
176
     1
 90
        1
176
     1
 90
        1
176
     1
 40
40.0
176
     1
 90
       11
176
     1
 62
     7
176
     1
 40
1.0
176
     1
 90
        1
176
     1
 90
        6
176
     1
 90
        2
176
     1
 62
     7
176
     1
 90
        6
176
     1
 90
        0
176
     1
 90
        0
176
     1
290
     0
176
     1
 90
        1
176
     1
 40
0.0
176
     1
 90
        0
176
     1
290
     0
176
     1
290
     1
176
     1
290
     1
176
     1
290
     0
176
     1
290
     0
176
     1
290
     0
176
     1
290
     0
176
     1
290
     0
176
     1
290
     0
176
     1
 90
       50
176
     1
 40
0.0
176
     1
 40
1.0
176
     1
 90
        0
176
     1
 62
    18
420
        0
176
     1
 90
       50
176
     1
 90
        3
176
     1
 62
     5
420
      255
176
     1
290
     0
176
     1
 90
       50
176
     1
 90
       50
176
     1
 90
       50
176
     1
290
     0
176
     1
 90
       50
176
     1
 62
   256
176
     0
 40
1.0
176
     0
 90
        2
176
     1
  1
strokes_ogs.tif
176
     1
290
     0
176
     1
 40
1.0
176
     1
 40
1.0
176
     1
  0
VISUALSTYLE
  5
37
102
{ACAD_REACTORS
330
2A
102
}
330
2A
100
AcDbVisualStyle
  2
Thicken
 70
    13
177
     3
291
     1
 70
    58
 90
        2
176
     1
 90
        2
176
     1
 90
        0
176
     1
 90
        0
176
     1
 40
0.6
176
     1
 40
30.0
176
     1
 62
     7
420
 16777215
176
     1
 90
        1
176
     1
 90
        4
176
     1
 62
     7
176
     1
 62
   257
176
     1
 90
        1
176
     1
 90
        1
176
     1
 40
1.0
176
     1
 90
       12
176
     1
 62
     7
176
     1
 40
1.0
176
     1
 90
        1
176
     1
 90
        6
176
     1
 90
        2
176
     1
 62
     7
176
     1
 90
        5
176
     1
 90
        0
176
     1
 90
        0
176
     1
290
     0
176
     1
 90
        1
176
     1
 40
0.0
176
     1
 90
        0
176
     1
290
     0
176
     1
290
     1
176
     1
290
     1
176
     1
290
     0
176
     1
290
     0
176
     1
290
     0
176
     1
290
     0
176
     1
290
     0
176
     1
290
     0
176
     1
 90
       50
176
     1
 40
0.0
176
     1
 40
1.0
176
     1
 90
        0
176
     1
 62
    18
420
        0
176
     1
 90
       50
176
     1
 90
        3
176
     1
 62
     5
420
      255
176
     1
290
     0
176
     1
 90
       50
176
     1
 90
       50
176
     1
 90
       50
176
     1
290
     0
176
     1
 90
       50
176
     1
 62
   256
176
     0
 40
1.0
176
     0
 90
        2
176
     1
  1
strokes_ogs.tif
176
     1
290
     0
176
     1
 40
1.0
176
     1
 40
1.0
176
     1
  0
VISUALSTYLE
  5
30
102
{ACAD_REACTORS
330
2A
102
}
330
2A
100
AcDbVisualStyle
  2
Wireframe
 70
     5
177
     3
291
     0
 70
    58
 90
        0
176
     1
 90
        2
176
     1
 90
        0
176
     1
 90
        0
176
     1
 40
0.6
176
     1
 40
30.0
176
     1
 62
     7
420
 16777215
176
     1
 90
        1
176
     1
 90
        4
176
     1
 62
     7
176
     1
 62
   257
176
     1
 90
        1
176
     1
 90
        1
176
     1
 40
1.0
176
     1
 90
        0
176
     1
 62
   257
176
     1
 40
1.0
176
     1
 90
        1
176
     1
 90
        6
176
     1
 90
        2
176
     1
 62
     7
176
     1
 90
        3
176
     1
 90
        0
176
     1
 90
        0
176
     1
290
     0
176
     1
 90
        1
176
     1
 40
0.0
176
     1
 90
        0
176
     1
290
     0
176
     1
290
     1
176
     1
290
     1
176
     1
290
     0
176
     1
290
     0
176
     1
290
     0
176
     1
290
     0
176
     1
290
     0
176
     1
290
     0
176
     1
 90
       50
176
     1
 40
0.0
176
     1
 40
1.0
176
     1
 90
        0
176
     1
 62
    18
420
        0
176
     1
 90
       50
176
     1
 90
        3
176
     1
 62
     5
420
      255
176
     1
290
     0
176
     1
 90
       50
176
     1
 90
       50
176
     1
 90
       50
176
     1
290
     0
176
     1
 90
       50
176
     1
 62
   256
176
     0
 40
1.0
176
     0
 90
        2
176
     1
  1
strokes_ogs.tif
176
     1
290
     0
176
     1
 40
1.0
176
     1
 40
1.0
176
     1
  0
VISUALSTYLE
  5
40
102
{ACAD_REACTORS
330
2A
102
}
330
2A
100
AcDbVisualStyle
  2
X-Ray
 70
    25
177
     3
291
     0
 70
    58
 90
        2
176
     1
 90
        2
176
     1
 90
        1
176
     1
 90
        1
176
     1
 40
0.5
176
     1
 40
30.0
176
     1
 62
     7
420
 16777215
176
     1
 90
        1
176
     1
 90
        0
176
     1
 62
     7
176
     1
 62
   257
176
     1
 90
        1
176
     1
 90
        1
176
     1
 40
1.0
176
     1
 90
        8
176
     1
 62
     7
176
     1
 40
1.0
176
     1
 90
        1
176
     1
 90
        6
176
     1
 90
        2
176
     1
 62
     7
176
     1
 90
        3
176
     1
 90
        0
176
     1
 90
        0
176
     1
290
     0
176
     1
 90
       13
176
     1
 40
0.0
176
     1
 90
        0
176
     1
290
     0
176
     1
290
     1
176
     1
290
     1
176
     1
290
     0
176
     1
290
     0
176
     1
290
     0
176
     1
290
     0
176
     1
290
     0
176
     1
290
     0
176
     1
 90
       50
176
     1
 40
0.0
176
     1
 40
1.0
176
     1
 90
        0
176
     1
 62
    18
420
        0
176
     1
 90
       50
176
     1
 90
        3
176
     1
 62
     5
420
      255
176
     1
290
     0
176
     1
 90
       50
176
     1
 90
       50
176
     1
 90
       50
176
     1
290
     0
176
     1
 90
       50
176
     1
 62
   256
176
     0
 40
1.0
176
     0
 90
        2
176
     1
  1
strokes_ogs.tif
176
     1
290
     0
176
     1
 40
1.0
176
     1
 40
1.0
176
     1
  0
DICTIONARYVAR
  5
26E
102
{ACAD_REACTORS
330
26D
102
}
330
26D
100
DictionaryVariables
280
     0
  1
1:1
  0
DICTIONARYVAR
  5
273
102
{ACAD_REACTORS
330
26D
102
}
330
26D
100
DictionaryVariables
280
     0
  1
Standard
  0
DICTIONARYVAR
  5
272
102
{ACAD_REACTORS
330
26D
102
}
330
26D
100
DictionaryVariables
280
     0
  1
Standard
  0
DICTIONARY
  5
26F
330
6A
100
AcDbDictionary
280
     1
281
     1
  3
ACAD_ROUNDTRIP_2008_TABLESTYLE_CELLSTYLEMAP
360
270
  0
CELLSTYLEMAP
  5
270
102
{ACAD_REACTORS
330
26F
102
}
330
26F
100
AcDbCellStyleMap
 90
        3
300
CELLSTYLE
  1
TABLEFORMAT_BEGIN
 90
        5
170
     1
 91
        0
 92
    32768
 62
   257
 93
        1
300
CONTENTFORMAT
  1
CONTENTFORMAT_BEGIN
 90
        0
 91
        0
 92
        4
 93
        0
300

 40
0.0
140
1.0
 94
        5
 62
     0
340
11
144
0.25
309
CONTENTFORMAT_END
171
     1
301
MARGIN
  1
CELLMARGIN_BEGIN
 40
0.06
 40
0.06
 40
0.06
 40
0.06
 40
0.06
 40
0.06
309
CELLMARGIN_END
 94
        6
 95
        1
302
GRIDFORMAT
  1
GRIDFORMAT_BEGIN
 90
        0
 91
        1
 62
     0
 92
       -2
340
14
 93
        0
 40
0.045
309
GRIDFORMAT_END
 95
        2
302
GRIDFORMAT
  1
GRIDFORMAT_BEGIN
 90
        0
 91
        1
 62
     0
 92
       -2
340
14
 93
        0
 40
0.045
309
GRIDFORMAT_END
 95
        4
302
GRIDFORMAT
  1
GRIDFORMAT_BEGIN
 90
        0
 91
        1
 62
     0
 92
       -2
340
14
 93
        0
 40
0.045
309
GRIDFORMAT_END
 95
        8
302
GRIDFORMAT
  1
GRIDFORMAT_BEGIN
 90
        0
 91
        1
 62
     0
 92
       -2
340
14
 93
        0
 40
0.045
309
GRIDFORMAT_END
 95
       16
302
GRIDFORMAT
  1
GRIDFORMAT_BEGIN
 90
        0
 91
        1
 62
     0
 92
       -2
340
14
 93
        0
 40
0.045
309
GRIDFORMAT_END
 95
       32
302
GRIDFORMAT
  1
GRIDFORMAT_BEGIN
 90
        0
 91
        1
 62
     0
 92
       -2
340
14
 93
        0
 40
0.045
309
GRIDFORMAT_END
309
TABLEFORMAT_END
  1
CELLSTYLE_BEGIN
 90
        1
 91
        1
300
_TITLE
309
CELLSTYLE_END
300
CELLSTYLE
  1
TABLEFORMAT_BEGIN
 90
        5
170
     1
 91
        0
 92
        0
 62
   257
 93
        1
300
CONTENTFORMAT
  1
CONTENTFORMAT_BEGIN
 90
        0
 91
        0
 92
        4
 93
        0
300

 40
0.0
140
1.0
 94
        5
 62
     0
340
11
144
0.18
309
CONTENTFORMAT_END
171
     1
301
MARGIN
  1
CELLMARGIN_BEGIN
 40
0.06
 40
0.06
 40
0.06
 40
0.06
 40
0.06
 40
0.06
309
CELLMARGIN_END
 94
        6
 95
        1
302
GRIDFORMAT
  1
GRIDFORMAT_BEGIN
 90
        0
 91
        1
 62
     0
 92
       -2
340
14
 93
        0
 40
0.045
309
GRIDFORMAT_END
 95
        2
302
GRIDFORMAT
  1
GRIDFORMAT_BEGIN
 90
        0
 91
        1
 62
     0
 92
       -2
340
14
 93
        0
 40
0.045
309
GRIDFORMAT_END
 95
        4
302
GRIDFORMAT
  1
GRIDFORMAT_BEGIN
 90
        0
 91
        1
 62
     0
 92
       -2
340
14
 93
        0
 40
0.045
309
GRIDFORMAT_END
 95
        8
302
GRIDFORMAT
  1
GRIDFORMAT_BEGIN
 90
        0
 91
        1
 62
     0
 92
       -2
340
14
 93
        0
 40
0.045
309
GRIDFORMAT_END
 95
       16
302
GRIDFORMAT
  1
GRIDFORMAT_BEGIN
 90
        0
 91
        1
 62
     0
 92
       -2
340
14
 93
        0
 40
0.045
309
GRIDFORMAT_END
 95
       32
302
GRIDFORMAT
  1
GRIDFORMAT_BEGIN
 90
        0
 91
        1
 62
     0
 92
       -2
340
14
 93
        0
 40
0.045
309
GRIDFORMAT_END
309
TABLEFORMAT_END
  1
CELLSTYLE_BEGIN
 90
        2
 91
        1
300
_HEADER
309
CELLSTYLE_END
300
CELLSTYLE
  1
TABLEFORMAT_BEGIN
 90
        5
170
     1
 91
        0
 92
        0
 62
   257
 93
        1
300
CONTENTFORMAT
  1
CONTENTFORMAT_BEGIN
 90
        0
 91
        0
 92
        4
 93
        0
300

 40
0.0
140
1.0
 94
        2
 62
     0
340
11
144
0.18
309
CONTENTFORMAT_END
171
     1
301
MARGIN
  1
CELLMARGIN_BEGIN
 40
0.06
 40
0.06
 40
0.06
 40
0.06
 40
0.06
 40
0.06
309
CELLMARGIN_END
 94
        6
 95
        1
302
GRIDFORMAT
  1
GRIDFORMAT_BEGIN
 90
        0
 91
        1
 62
     0
 92
       -2
340
14
 93
        0
 40
0.045
309
GRIDFORMAT_END
 95
        2
302
GRIDFORMAT
  1
GRIDFORMAT_BEGIN
 90
        0
 91
        1
 62
     0
 92
       -2
340
14
 93
        0
 40
0.045
309
GRIDFORMAT_END
 95
        4
302
GRIDFORMAT
  1
GRIDFORMAT_BEGIN
 90
        0
 91
        1
 62
     0
 92
       -2
340
14
 93
        0
 40
0.045
309
GRIDFORMAT_END
 95
        8
302
GRIDFORMAT
  1
GRIDFORMAT_BEGIN
 90
        0
 91
        1
 62
     0
 92
       -2
340
14
 93
        0
 40
0.045
309
GRIDFORMAT_END
 95
       16
302
GRIDFORMAT
  1
GRIDFORMAT_BEGIN
 90
        0
 91
        1
 62
     0
 92
       -2
340
14
 93
        0
 40
0.045
309
GRIDFORMAT_END
 95
       32
302
GRIDFORMAT
  1
GRIDFORMAT_BEGIN
 90
        0
 91
        1
 62
     0
 92
       -2
340
14
 93
        0
 40
0.045
309
GRIDFORMAT_END
309
TABLEFORMAT_END
  1
CELLSTYLE_BEGIN
 90
        3
 91
        2
300
_DATA
309
CELLSTYLE_END
  0
ENDSEC
  0
EOF