0
SECTION
  2
HEADER
  9
$ACADVER
  1
AC1027
  9
$ACADMAINTVER
 70
     8
  9
$DWGCODEPAGE
  3
ANSI_1252
  9
$REQUIREDVERSIONS
160
                 0
  9
$COMMENTS
  1
File was created by Cadenas
  9
$CUSTOMPROPERTYTAG
  1
NN
  9
$CUSTOMPROPERTY
  1
Imperial - IP Wide Slot Take-Up
  9
$CUSTOMPROPERTYTAG
  1
NT
  9
$CUSTOMPROPERTY
  1
Imperial Wide Slot Take-Up Bearings
  9
$CUSTOMPROPERTYTAG
  1
NB
  9
$CUSTOMPROPERTY
  1
069384
  9
$CUSTOMPROPERTYTAG
  1
NBSYN
  9
$CUSTOMPROPERTY
  1
$PN.
  9
$CUSTOMPROPERTYTAG
  1
LINA
  9
$CUSTOMPROPERTY
  1
069384
  9
$CUSTOMPROPERTYTAG
  1
SS
  9
$CUSTOMPROPERTY
  1
2-1/2
  9
$CUSTOMPROPERTYTAG
  1
PN
  9
$CUSTOMPROPERTY
  1
069384
  9
$CUSTOMPROPERTYTAG
  1
DESCRIPTION
  9
$CUSTOMPROPERTY
  1
WSTU-IP-208RE
  9
$CUSTOMPROPERTYTAG
  1
EF
  9
$CUSTOMPROPERTY
  1
Expansion
  9
$CUSTOMPROPERTYTAG
  1
ST
  9
$CUSTOMPROPERTY
  1
Contact Seal
  9
$CUSTOMPROPERTYTAG
  1
A
  9
$CUSTOMPROPERTY
  1
3-27/64
  9
$CUSTOMPROPERTYTAG
  1
B
  9
$CUSTOMPROPERTY
  1
7-11/16
  9
$CUSTOMPROPERTYTAG
  1
C
  9
$CUSTOMPROPERTY
  1
1-1/16
  9
$CUSTOMPROPERTYTAG
  1
D
  9
$CUSTOMPROPERTY
  1
4-3/8
  9
$CUSTOMPROPERTYTAG
  1
E
  9
$CUSTOMPROPERTY
  1
5
  9
$CUSTOMPROPERTYTAG
  1
F
  9
$CUSTOMPROPERTY
  1
1-3/8
  9
$CUSTOMPROPERTYTAG
  1
G
  9
$CUSTOMPROPERTY
  1
1-1/16
  9
$CUSTOMPROPERTYTAG
  1
H
  9
$CUSTOMPROPERTY
  1
1-1/4
  9
$CUSTOMPROPERTYTAG
  1
J
  9
$CUSTOMPROPERTY
  1
4-1/4
  9
$CUSTOMPROPERTYTAG
  1
K
  9
$CUSTOMPROPERTY
  1
2-1/2
  9
$CUSTOMPROPERTYTAG
  1
L
  9
$CUSTOMPROPERTY
  1
3-7/8
  9
$CUSTOMPROPERTYTAG
  1
M
  9
$CUSTOMPROPERTY
  1
5-1/8
  9
$CUSTOMPROPERTYTAG
  1
N
  9
$CUSTOMPROPERTY
  1
5-7/8
  9
$CUSTOMPROPERTYTAG
  1
R
  9
$CUSTOMPROPERTY
  1
3-7/16
  9
$CUSTOMPROPERTYTAG
  1
S
  9
$CUSTOMPROPERTY
  1
2-7/32
  9
$CUSTOMPROPERTYTAG
  1
T
  9
$CUSTOMPROPERTY
  1
2-7/16
  9
$CUSTOMPROPERTYTAG
  1
X
  9
$CUSTOMPROPERTY
  1
1/4
  9
$CUSTOMPROPERTYTAG
  1
Y
  9
$CUSTOMPROPERTY
  1
0.025
  9
$CUSTOMPROPERTYTAG
  1
Z
  9
$CUSTOMPROPERTY
  1
2-15/16
  9
$CUSTOMPROPERTYTAG
  1
COMPANY
  9
$CUSTOMPROPERTY
  1
baldor
  9
$INSBASE
 10
0.0
 20
0.0
 30
0.0
  9
$EXTMIN
 10
1.000000000000000E+20
 20
1.000000000000000E+20
 30
1.000000000000000E+20
  9
$EXTMAX
 10
-1.000000000000000E+20
 20
-1.000000000000000E+20
 30
-1.000000000000000E+20
  9
$LIMMIN
 10
0.0
 20
0.0
  9
$LIMMAX
 10
12.0
 20
9.0
  9
$ORTHOMODE
 70
     0
  9
$REGENMODE
 70
     1
  9
$FILLMODE
 70
     1
  9
$QTEXTMODE
 70
     0
  9
$MIRRTEXT
 70
     1
  9
$LTSCALE
 40
1.0
  9
$ATTMODE
 70
     1
  9
$TEXTSIZE
 40
0.2
  9
$TRACEWID
 40
0.05
  9
$TEXTSTYLE
  7
Standard
  9
$CLAYER
  8
0
  9
$CELTYPE
  6
ByLayer
  9
$CECOLOR
 62
   256
  9
$CELTSCALE
 40
1.0
  9
$DISPSILH
 70
     0
  9
$DIMSCALE
 40
1.0
  9
$DIMASZ
 40
0.18
  9
$DIMEXO
 40
0.0625
  9
$DIMDLI
 40
0.38
  9
$DIMRND
 40
0.0
  9
$DIMDLE
 40
0.0
  9
$DIMEXE
 40
0.18
  9
$DIMTP
 40
0.0
  9
$DIMTM
 40
0.0
  9
$DIMTXT
 40
0.18
  9
$DIMCEN
 40
0.09
  9
$DIMTSZ
 40
0.0
  9
$DIMTOL
 70
     0
  9
$DIMLIM
 70
     0
  9
$DIMTIH
 70
     1
  9
$DIMTOH
 70
     1
  9
$DIMSE1
 70
     0
  9
$DIMSE2
 70
     0
  9
$DIMTAD
 70
     0
  9
$DIMZIN
 70
     0
  9
$DIMBLK
  1

  9
$DIMASO
 70
     1
  9
$DIMSHO
 70
     1
  9
$DIMPOST
  1

  9
$DIMAPOST
  1

  9
$DIMALT
 70
     0
  9
$DIMALTD
 70
     2
  9
$DIMALTF
 40
25.4
  9
$DIMLFAC
 40
1.0
  9
$DIMTOFL
 70
     0
  9
$DIMTVP
 40
0.0
  9
$DIMTIX
 70
     0
  9
$DIMSOXD
 70
     0
  9
$DIMSAH
 70
     0
  9
$DIMBLK1
  1

  9
$DIMBLK2
  1

  9
$DIMSTYLE
  2
Standard
  9
$DIMCLRD
 70
     0
  9
$DIMCLRE
 70
     0
  9
$DIMCLRT
 70
     0
  9
$DIMTFAC
 40
1.0
  9
$DIMGAP
 40
0.09
  9
$DIMJUST
 70
     0
  9
$DIMSD1
 70
     0
  9
$DIMSD2
 70
     0
  9
$DIMTOLJ
 70
     1
  9
$DIMTZIN
 70
     0
  9
$DIMALTZ
 70
     0
  9
$DIMALTTZ
 70
     0
  9
$DIMUPT
 70
     0
  9
$DIMDEC
 70
     4
  9
$DIMTDEC
 70
     4
  9
$DIMALTU
 70
     2
  9
$DIMALTTD
 70
     2
  9
$DIMTXSTY
  7
Standard
  9
$DIMAUNIT
 70
     0
  9
$DIMADEC
 70
     0
  9
$DIMALTRND
 40
0.0
  9
$DIMAZIN
 70
     0
  9
$DIMDSEP
 70
    46
  9
$DIMATFIT
 70
     3
  9
$DIMFRAC
 70
     0
  9
$DIMLDRBLK
  1

  9
$DIMLUNIT
 70
     2
  9
$DIMLWD
 70
    -2
  9
$DIMLWE
 70
    -2
  9
$DIMTMOVE
 70
     0
  9
$DIMFXL
 40
1.0
  9
$DIMFXLON
 70
     0
  9
$DIMJOGANG
 40
0.7853981633974483
  9
$DIMTFILL
 70
     0
  9
$DIMTFILLCLR
 70
     0
  9
$DIMARCSYM
 70
     0
  9
$DIMLTYPE
  6

  9
$DIMLTEX1
  6

  9
$DIMLTEX2
  6

  9
$DIMTXTDIRECTION
 70
     0
  9
$LUNITS
 70
     2
  9
$LUPREC
 70
     4
  9
$SKETCHINC
 40
0.1
  9
$FILLETRAD
 40
0.5
  9
$AUNITS
 70
     0
  9
$AUPREC
 70
     0
  9
$MENU
  1
.
  9
$ELEVATION
 40
0.0
  9
$PELEVATION
 40
0.0
  9
$THICKNESS
 40
0.0
  9
$LIMCHECK
 70
     0
  9
$CHAMFERA
 40
0.0
  9
$CHAMFERB
 40
0.0
  9
$CHAMFERC
 40
0.0
  9
$CHAMFERD
 40
0.0
  9
$SKPOLY
 70
     0
  9
$TDCREATE
 40
2458168.989719294
  9
$TDUCREATE
 40
2458168.948052628
  9
$TDUPDATE
 40
2458168.989719479
  9
$TDUUPDATE
 40
2458168.948052812
  9
$TDINDWG
 40
0.0000000116
  9
$TDUSRTIMER
 40
0.0000000116
  9
$USRTIMER
 70
     1
  9
$ANGBASE
 50
0.0
  9
$ANGDIR
 70
     0
  9
$PDMODE
 70
     0
  9
$PDSIZE
 40
0.0
  9
$PLINEWID
 40
0.0
  9
$SPLFRAME
 70
     0
  9
$SPLINETYPE
 70
     6
  9
$SPLINESEGS
 70
     8
  9
$HANDSEED
  5
29E
  9
$SURFTAB1
 70
     6
  9
$SURFTAB2
 70
     6
  9
$SURFTYPE
 70
     6
  9
$SURFU
 70
     6
  9
$SURFV
 70
     6
  9
$UCSBASE
  2

  9
$UCSNAME
  2

  9
$UCSORG
 10
0.0
 20
0.0
 30
0.0
  9
$UCSXDIR
 10
1.0
 20
0.0
 30
0.0
  9
$UCSYDIR
 10
0.0
 20
1.0
 30
0.0
  9
$UCSORTHOREF
  2

  9
$UCSORTHOVIEW
 70
     0
  9
$UCSORGTOP
 10
0.0
 20
0.0
 30
0.0
  9
$UCSORGBOTTOM
 10
0.0
 20
0.0
 30
0.0
  9
$UCSORGLEFT
 10
0.0
 20
0.0
 30
0.0
  9
$UCSORGRIGHT
 10
0.0
 20
0.0
 30
0.0
  9
$UCSORGFRONT
 10
0.0
 20
0.0
 30
0.0
  9
$UCSORGBACK
 10
0.0
 20
0.0
 30
0.0
  9
$PUCSBASE
  2

  9
$PUCSNAME
  2

  9
$PUCSORG
 10
0.0
 20
0.0
 30
0.0
  9
$PUCSXDIR
 10
1.0
 20
0.0
 30
0.0
  9
$PUCSYDIR
 10
0.0
 20
1.0
 30
0.0
  9
$PUCSORTHOREF
  2

  9
$PUCSORTHOVIEW
 70
     0
  9
$PUCSORGTOP
 10
0.0
 20
0.0
 30
0.0
  9
$PUCSORGBOTTOM
 10
0.0
 20
0.0
 30
0.0
  9
$PUCSORGLEFT
 10
0.0
 20
0.0
 30
0.0
  9
$PUCSORGRIGHT
 10
0.0
 20
0.0
 30
0.0
  9
$PUCSORGFRONT
 10
0.0
 20
0.0
 30
0.0
  9
$PUCSORGBACK
 10
0.0
 20
0.0
 30
0.0
  9
$USERI1
 70
     0
  9
$USERI2
 70
     0
  9
$USERI3
 70
     0
  9
$USERI4
 70
     0
  9
$USERI5
 70
     0
  9
$USERR1
 40
0.0
  9
$USERR2
 40
0.0
  9
$USERR3
 40
0.0
  9
$USERR4
 40
0.0
  9
$USERR5
 40
0.0
  9
$WORLDVIEW
 70
     1
  9
$SHADEDGE
 70
     3
  9
$SHADEDIF
 70
    70
  9
$TILEMODE
 70
     1
  9
$MAXACTVP
 70
    64
  9
$PINSBASE
 10
0.0
 20
0.0
 30
0.0
  9
$PLIMCHECK
 70
     0
  9
$PEXTMIN
 10
1.000000000000000E+20
 20
1.000000000000000E+20
 30
1.000000000000000E+20
  9
$PEXTMAX
 10
-1.000000000000000E+20
 20
-1.000000000000000E+20
 30
-1.000000000000000E+20
  9
$PLIMMIN
 10
0.0
 20
0.0
  9
$PLIMMAX
 10
12.0
 20
9.0
  9
$UNITMODE
 70
     0
  9
$VISRETAIN
 70
     1
  9
$PLINEGEN
 70
     0
  9
$PSLTSCALE
 70
     1
  9
$TREEDEPTH
 70
  3020
  9
$CMLSTYLE
  2
Standard
  9
$CMLJUST
 70
     0
  9
$CMLSCALE
 40
1.0
  9
$PROXYGRAPHICS
 70
     1
  9
$MEASUREMENT
 70
     0
  9
$CELWEIGHT
370
    -1
  9
$ENDCAPS
280
     0
  9
$JOINSTYLE
280
     0
  9
$LWDISPLAY
290
     0
  9
$INSUNITS
 70
     1
  9
$HYPERLINKBASE
  1

  9
$STYLESHEET
  1

  9
$XEDIT
290
     1
  9
$CEPSNTYPE
380
     0
  9
$PSTYLEMODE
290
     1
  9
$FINGERPRINTGUID
  2
{D1BFE033-3E0E-43DF-81EE-6891C49E73A6}
  9
$VERSIONGUID
  2
{FAEB1C32-E019-11D5-929B-00C0DF256EC4}
  9
$EXTNAMES
290
     1
  9
$PSVPSCALE
 40
0.0
  9
$OLESTARTUP
290
     0
  9
$SORTENTS
280
   127
  9
$INDEXCTL
280
     0
  9
$HIDETEXT
280
     1
  9
$XCLIPFRAME
280
     2
  9
$HALOGAP
280
     0
  9
$OBSCOLOR
 70
   257
  9
$OBSLTYPE
280
     0
  9
$INTERSECTIONDISPLAY
280
     0
  9
$INTERSECTIONCOLOR
 70
   257
  9
$DIMASSOC
280
     2
  9
$PROJECTNAME
  1

  9
$CAMERADISPLAY
290
     0
  9
$LENSLENGTH
 40
50.0
  9
$CAMERAHEIGHT
 40
0.0
  9
$STEPSPERSEC
 40
2.0
  9
$STEPSIZE
 40
6.0
  9
$3DDWFPREC
 40
2.0
  9
$PSOLWIDTH
 40
0.25
  9
$PSOLHEIGHT
 40
4.0
  9
$LOFTANG1
 40
1.570796326794897
  9
$LOFTANG2
 40
1.570796326794897
  9
$LOFTMAG1
 40
0.0
  9
$LOFTMAG2
 40
0.0
  9
$LOFTPARAM
 70
     7
  9
$LOFTNORMALS
280
     1
  9
$LATITUDE
 40
37.795
  9
$LONGITUDE
 40
-122.394
  9
$NORTHDIRECTION
 40
0.0
  9
$TIMEZONE
 70
 -8000
  9
$LIGHTGLYPHDISPLAY
280
     1
  9
$TILEMODELIGHTSYNCH
280
     1
  9
$CMATERIAL
347
44
  9
$SOLIDHIST
280
     0
  9
$SHOWHIST
280
     1
  9
$DWFFRAME
280
     2
  9
$DGNFRAME
280
     2
  9
$REALWORLDSCALE
290
     1
  9
$INTERFERECOLOR
 62
   256
  9
$CSHADOW
280
     0
  9
$SHADOWPLANELOCATION
 40
0.0
  0
ENDSEC
  0
SECTION
  2
CLASSES
  0
CLASS
  1
ACDBDICTIONARYWDFLT
  2
AcDbDictionaryWithDefault
  3
ObjectDBX Classes
 90
        0
 91
        4
280
     0
281
     0
  0
CLASS
  1
VISUALSTYLE
  2
AcDbVisualStyle
  3
ObjectDBX Classes
 90
     4095
 91
        4
280
     0
281
     0
  0
CLASS
  1
MATERIAL
  2
AcDbMaterial
  3
ObjectDBX Classes
 90
     1153
 91
        4
280
     0
281
     0
  0
CLASS
  1
SCALE
  2
AcDbScale
  3
ObjectDBX Classes
 90
     1153
 91
        4
280
     0
281
     0
  0
CLASS
  1
TABLESTYLE
  2
AcDbTableStyle
  3
ObjectDBX Classes
 90
     4095
 91
        4
280
     0
281
     0
  0
CLASS
  1
MLEADERSTYLE
  2
AcDbMLeaderStyle
  3
ACDB_MLEADERSTYLE_CLASS
 90
     4095
 91
        4
280
     0
281
     0
  0
CLASS
  1
SUN
  2
AcDbSun
  3
SCENEOE
 90
     1153
 91
        4
280
     0
281
     0
  0
CLASS
  1
DICTIONARYVAR
  2
AcDbDictionaryVar
  3
ObjectDBX Classes
 90
        0
 91
        4
280
     0
281
     0
  0
CLASS
  1
CELLSTYLEMAP
  2
AcDbCellStyleMap
  3
ObjectDBX Classes
 90
     1152
 91
        4
280
     0
281
     0
  0
ENDSEC
  0
SECTION
  2
TABLES
  0
TABLE
  2
VPORT
  5
8
330
0
100
AcDbSymbolTable
 70
     1
  0
VPORT
  5
29
330
8
100
AcDbSymbolTableRecord
100
AcDbViewportTableRecord
  2
*Active
 70
     0
 10
0.0
 20
0.0
 11
1.0
 21
1.0
 12
-0.2841406249999991
 22
0.0
 13
0.0
 23
0.0
 14
0.5
 24
0.5
 15
0.5
 25
0.5
 16
0.0
 26
0.0
 36
1.0
 17
0.0
 27
0.0
 37
0.0
 40
5.9925
 41
0.6585904255319153
 42
50.0
 43
0.0
 44
0.0
 50
0.0
 51
0.0
 71
     0
 72
   100
 73
     1
 74
     3
 75
     0
 76
     0
 77
     0
 78
     0
281
     0
 65
     1
110
0.0
120
0.0
130
0.0
111
1.0
121
0.0
131
0.0
112
0.0
122
1.0
132
0.0
 79
     0
146
0.0
348
2F
 60
     3
 61
     5
292
     1
282
     1
141
0.0
142
0.0
 63
   250
361
6D
  0
ENDTAB
  0
TABLE
  2
LTYPE
  5
5
330
0
100
AcDbSymbolTable
 70
     3
  0
LTYPE
  5
14
330
5
100
AcDbSymbolTableRecord
100
AcDbLinetypeTableRecord
  2
ByBlock
 70
     0
  3

 72
    65
 73
     0
 40
0.0
  0
LTYPE
  5
15
330
5
100
AcDbSymbolTableRecord
100
AcDbLinetypeTableRecord
  2
ByLayer
 70
     0
  3

 72
    65
 73
     0
 40
0.0
  0
LTYPE
  5
16
330
5
100
AcDbSymbolTableRecord
100
AcDbLinetypeTableRecord
  2
Continuous
 70
     0
  3
Solid line
 72
    65
 73
     0
 40
0.0
  0
LTYPE
  5
A2
330
5
100
AcDbSymbolTableRecord
100
AcDbLinetypeTableRecord
  2
Dashed
 70
     0
  3

 72
    65
 73
     2
 40
2.0
 49
1.0
 74
     0
 49
-1.0
 74
     0
  0
LTYPE
  5
1F5
330
5
100
AcDbSymbolTableRecord
100
AcDbLinetypeTableRecord
  2
Center
 70
     0
  3

 72
    65
 73
     4
 40
1.5
 49
0.45
 74
     0
 49
-0.5
 74
     0
 49
0.05
 74
     0
 49
-0.5
 74
     0
  0
ENDTAB
  0
TABLE
  2
LAYER
  5
2
330
0
100
AcDbSymbolTable
 70
     7
  0
LAYER
  5
10
330
2
100
AcDbSymbolTableRecord
100
AcDbLayerTableRecord
  2
0
 70
     0
 62
     7
  6
Continuous
370
    -3
390
F
347
46
348
0
  0
LAYER
  5
72
330
2
100
AcDbSymbolTableRecord
100
AcDbLayerTableRecord
  2
AM_6
 70
     0
 62
    -2
  6
Continuous
370
    35
390
F
347
46
348
0
  0
LAYER
  5
A3
330
2
100
AcDbSymbolTableRecord
100
AcDbLayerTableRecord
  2
AM_9
 70
     0
 62
     6
  6
Dashed
370
    25
390
F
347
46
348
0
  0
LAYER
  5
123
330
2
100
AcDbSymbolTableRecord
100
AcDbLayerTableRecord
  2
AM_5
 70
     0
 62
     3
  6
Continuous
370
    25
390
F
347
46
348
0
  0
LAYER
  5
127
330
2
100
AcDbSymbolTableRecord
100
AcDbLayerTableRecord
  2
AM_4
 70
     0
 62
     7
  6
Continuous
370
    50
390
F
347
46
348
0
  0
LAYER
  5
1F6
330
2
100
AcDbSymbolTableRecord
100
AcDbLayerTableRecord
  2
AM_7
 70
     0
 62
     7
  6
Center
370
    25
390
F
347
46
348
0
  0
LAYER
  5
287
330
2
100
AcDbSymbolTableRecord
100
AcDbLayerTableRecord
  2
ConnectionPoints
 70
     0
 62
     7
  6
Continuous
370
    50
390
F
347
46
348
0
  0
ENDTAB
  0
TABLE
  2
STYLE
  5
3
330
0
100
AcDbSymbolTable
 70
     1
  0
STYLE
  5
11
330
3
100
AcDbSymbolTableRecord
100
AcDbTextStyleTableRecord
  2
Standard
 70
     0
 40
0.0
 41
1.0
 50
0.0
 71
     0
 42
0.2
  3
txt
  4

  0
ENDTAB
  0
TABLE
  2
VIEW
  5
6
330
0
100
AcDbSymbolTable
 70
     0
  0
ENDTAB
  0
TABLE
  2
UCS
  5
7
330
0
100
AcDbSymbolTable
 70
     0
  0
ENDTAB
  0
TABLE
  2
APPID
  5
9
330
0
100
AcDbSymbolTable
 70
     1
  0
APPID
  5
12
330
9
100
AcDbSymbolTableRecord
100
AcDbRegAppTableRecord
  2
ACAD
 70
     0
  0
ENDTAB
  0
TABLE
  2
DIMSTYLE
  5
A
330
0
100
AcDbSymbolTable
 70
     1
100
AcDbDimStyleTable
  0
DIMSTYLE
105
27
330
A
100
AcDbSymbolTableRecord
100
AcDbDimStyleTableRecord
  2
Standard
 70
     0
178
     0
340
11
  0
ENDTAB
  0
TABLE
  2
BLOCK_RECORD
  5
1
330
0
100
AcDbSymbolTable
 70
     8
  0
BLOCK_RECORD
  5
1F
330
1
100
AcDbSymbolTableRecord
100
AcDbBlockTableRecord
  2
*Model_Space
340
22
 70
     0
280
     1
281
     0
  0
BLOCK_RECORD
  5
1B
330
1
100
AcDbSymbolTableRecord
100
AcDbBlockTableRecord
  2
*Paper_Space
340
1E
 70
     0
280
     1
281
     0
  0
BLOCK_RECORD
  5
23
330
1
100
AcDbSymbolTableRecord
100
AcDbBlockTableRecord
  2
*Paper_Space0
340
26
 70
     0
280
     1
281
     0
  0
BLOCK_RECORD
  5
6E
330
1
100
AcDbSymbolTableRecord
100
AcDbBlockTableRecord
  2
1_069384_2
340
0
102
{BLKREFS
331
6F
102
}
 70
     0
280
     1
281
     0
  0
BLOCK_RECORD
  5
91
330
1
100
AcDbSymbolTableRecord
100
AcDbBlockTableRecord
  2
2_405016_Inch_0_in_069384_2
340
0
102
{BLKREFS
331
92
102
}
 70
     0
280
     1
281
     0
  0
BLOCK_RECORD
  5
108
330
1
100
AcDbSymbolTableRecord
100
AcDbBlockTableRecord
  2
3_ASME_B18_3_10_1_0_in_069384_2
340
0
102
{BLKREFS
331
109
102
}
 70
     0
280
     1
281
     0
  0
BLOCK_RECORD
  5
12E
330
1
100
AcDbSymbolTableRecord
100
AcDbBlockTableRecord
  2
4_ASME_B18_3_10_2_0_in_069384_2
340
0
102
{BLKREFS
331
12F
102
}
 70
     0
280
     1
281
     0
  0
BLOCK_RECORD
  5
152
330
1
100
AcDbSymbolTableRecord
100
AcDbBlockTableRecord
  2
5_070896LW_0_in_069384_2
340
0
102
{BLKREFS
331
153
102
}
 70
     0
280
     1
281
     0
  0
BLOCK_RECORD
  5
188
330
1
100
AcDbSymbolTableRecord
100
AcDbBlockTableRecord
  2
6_070896I_0_in_069384_2
340
0
102
{BLKREFS
331
189
102
}
 70
     0
280
     1
281
     0
  0
BLOCK_RECORD
  5
218
330
1
100
AcDbSymbolTableRecord
100
AcDbBlockTableRecord
  2
7_069384H_0_in_069384_2
340
0
102
{BLKREFS
331
219
102
}
 70
     0
280
     1
281
     0
  0
ENDTAB
  0
ENDSEC
  0
SECTION
  2
BLOCKS
  0
BLOCK
  5
20
330
1F
100
AcDbEntity
  8
0
100
AcDbBlockBegin
  2
*Model_Space
 70
     0
 10
0.0
 20
0.0
 30
0.0
  3
*Model_Space
  1

  0
ENDBLK
  5
21
330
1F
100
AcDbEntity
  8
0
100
AcDbBlockEnd
  0
BLOCK
  5
1C
330
1B
100
AcDbEntity
 67
     1
  8
0
100
AcDbBlockBegin
  2
*Paper_Space
 70
     0
 10
0.0
 20
0.0
 30
0.0
  3
*Paper_Space
  1

  0
ENDBLK
  5
1D
330
1B
100
AcDbEntity
 67
     1
  8
0
100
AcDbBlockEnd
  0
BLOCK
  5
24
330
23
100
AcDbEntity
  8
0
100
AcDbBlockBegin
  2
*Paper_Space0
 70
     0
 10
0.0
 20
0.0
 30
0.0
  3
*Paper_Space0
  1

  0
ENDBLK
  5
25
330
23
100
AcDbEntity
  8
0
100
AcDbBlockEnd
  0
BLOCK
  5
70
330
6E
100
AcDbEntity
  8
0
100
AcDbBlockBegin
  2
1_069384_2
 70
     2
 10
0.0
 20
0.0
 30
0.0
  3
1_069384_2
  1

  0
ATTDEF
  5
73
330
6E
100
AcDbEntity
  8
AM_6
100
AcDbText
 10
6.65046875
 20
2.9375
 30
0.0
 40
0.5
  1
Imperial - IP Wide Slot Take-Up
100
AcDbAttributeDefinition
  3

  2
NN
 70
     8
280
     0
  0
ATTDEF
  5
74
330
6E
100
AcDbEntity
  8
AM_6
100
AcDbText
 10
6.65046875
 20
2.4375
 30
0.0
 40
0.5
  1
Imperial Wide Slot Take-Up Bearings
100
AcDbAttributeDefinition
  3

  2
NT
 70
     8
280
     0
  0
ATTDEF
  5
75
330
6E
100
AcDbEntity
  8
AM_6
100
AcDbText
 10
6.65046875
 20
1.9375
 30
0.0
 40
0.5
  1
069384
100
AcDbAttributeDefinition
  3

  2
NB
 70
     8
280
     0
  0
ATTDEF
  5
76
330
6E
100
AcDbEntity
  8
AM_6
100
AcDbText
 10
6.65046875
 20
1.4375
 30
0.0
 40
0.5
  1
$PN.
100
AcDbAttributeDefinition
  3

  2
NBSYN
 70
     8
280
     0
  0
ATTDEF
  5
77
330
6E
100
AcDbEntity
  8
AM_6
100
AcDbText
 10
6.65046875
 20
0.9375
 30
0.0
 40
0.5
  1
069384
100
AcDbAttributeDefinition
  3

  2
LINA
 70
     8
280
     0
  0
ATTDEF
  5
78
330
6E
100
AcDbEntity
  8
AM_6
100
AcDbText
 10
6.65046875
 20
0.4375
 30
0.0
 40
0.5
  1
2-1/2
100
AcDbAttributeDefinition
  3

  2
SS
 70
     8
280
     0
  0
ATTDEF
  5
79
330
6E
100
AcDbEntity
  8
AM_6
100
AcDbText
 10
6.65046875
 20
-0.0625
 30
0.0
 40
0.5
  1
069384
100
AcDbAttributeDefinition
  3

  2
PN
 70
     8
280
     0
  0
ATTDEF
  5
7A
330
6E
100
AcDbEntity
  8
AM_6
100
AcDbText
 10
6.65046875
 20
-0.5625
 30
0.0
 40
0.5
  1
WSTU-IP-208RE
100
AcDbAttributeDefinition
  3

  2
DESCRIPTION
 70
     8
280
     0
  0
ATTDEF
  5
7B
330
6E
100
AcDbEntity
  8
AM_6
100
AcDbText
 10
6.65046875
 20
-1.0625
 30
0.0
 40
0.5
  1
Expansion
100
AcDbAttributeDefinition
  3

  2
EF
 70
     8
280
     0
  0
ATTDEF
  5
7C
330
6E
100
AcDbEntity
  8
AM_6
100
AcDbText
 10
6.65046875
 20
-1.5625
 30
0.0
 40
0.5
  1
Contact Seal
100
AcDbAttributeDefinition
  3

  2
ST
 70
     8
280
     0
  0
ATTDEF
  5
7D
330
6E
100
AcDbEntity
  8
AM_6
100
AcDbText
 10
6.65046875
 20
-2.0625
 30
0.0
 40
0.5
  1
3-27/64
100
AcDbAttributeDefinition
  3

  2
A
 70
     8
280
     0
  0
ATTDEF
  5
7E
330
6E
100
AcDbEntity
  8
AM_6
100
AcDbText
 10
6.65046875
 20
-2.5625
 30
0.0
 40
0.5
  1
7-11/16
100
AcDbAttributeDefinition
  3

  2
B
 70
     8
280
     0
  0
ATTDEF
  5
7F
330
6E
100
AcDbEntity
  8
AM_6
100
AcDbText
 10
6.65046875
 20
-3.0625
 30
0.0
 40
0.5
  1
1-1/16
100
AcDbAttributeDefinition
  3

  2
C
 70
     8
280
     0
  0
ATTDEF
  5
80
330
6E
100
AcDbEntity
  8
AM_6
100
AcDbText
 10
6.65046875
 20
-3.5625
 30
0.0
 40
0.5
  1
4-3/8
100
AcDbAttributeDefinition
  3

  2
D
 70
     8
280
     0
  0
ATTDEF
  5
81
330
6E
100
AcDbEntity
  8
AM_6
100
AcDbText
 10
6.65046875
 20
-4.0625
 30
0.0
 40
0.5
  1
5
100
AcDbAttributeDefinition
  3

  2
E
 70
     8
280
     0
  0
ATTDEF
  5
82
330
6E
100
AcDbEntity
  8
AM_6
100
AcDbText
 10
6.65046875
 20
-4.5625
 30
0.0
 40
0.5
  1
1-3/8
100
AcDbAttributeDefinition
  3

  2
F
 70
     8
280
     0
  0
ATTDEF
  5
83
330
6E
100
AcDbEntity
  8
AM_6
100
AcDbText
 10
6.65046875
 20
-5.0625
 30
0.0
 40
0.5
  1
1-1/16
100
AcDbAttributeDefinition
  3

  2
G
 70
     8
280
     0
  0
ATTDEF
  5
84
330
6E
100
AcDbEntity
  8
AM_6
100
AcDbText
 10
6.65046875
 20
-5.5625
 30
0.0
 40
0.5
  1
1-1/4
100
AcDbAttributeDefinition
  3

  2
H
 70
     8
280
     0
  0
ATTDEF
  5
85
330
6E
100
AcDbEntity
  8
AM_6
100
AcDbText
 10
6.65046875
 20
-6.0625
 30
0.0
 40
0.5
  1
4-1/4
100
AcDbAttributeDefinition
  3

  2
J
 70
     8
280
     0
  0
ATTDEF
  5
86
330
6E
100
AcDbEntity
  8
AM_6
100
AcDbText
 10
6.65046875
 20
-6.5625
 30
0.0
 40
0.5
  1
2-1/2
100
AcDbAttributeDefinition
  3

  2
K
 70
     8
280
     0
  0
ATTDEF
  5
87
330
6E
100
AcDbEntity
  8
AM_6
100
AcDbText
 10
6.65046875
 20
-7.0625
 30
0.0
 40
0.5
  1
3-7/8
100
AcDbAttributeDefinition
  3

  2
L
 70
     8
280
     0
  0
ATTDEF
  5
88
330
6E
100
AcDbEntity
  8
AM_6
100
AcDbText
 10
6.65046875
 20
-7.5625
 30
0.0
 40
0.5
  1
5-1/8
100
AcDbAttributeDefinition
  3

  2
M
 70
     8
280
     0
  0
ATTDEF
  5
89
330
6E
100
AcDbEntity
  8
AM_6
100
AcDbText
 10
6.65046875
 20
-8.0625
 30
0.0
 40
0.5
  1
5-7/8
100
AcDbAttributeDefinition
  3

  2
N
 70
     8
280
     0
  0
ATTDEF
  5
8A
330
6E
100
AcDbEntity
  8
AM_6
100
AcDbText
 10
6.65046875
 20
-8.5625
 30
0.0
 40
0.5
  1
3-7/16
100
AcDbAttributeDefinition
  3

  2
R
 70
     8
280
     0
  0
ATTDEF
  5
8B
330
6E
100
AcDbEntity
  8
AM_6
100
AcDbText
 10
6.65046875
 20
-9.0625
 30
0.0
 40
0.5
  1
2-7/32
100
AcDbAttributeDefinition
  3

  2
S
 70
     8
280
     0
  0
ATTDEF
  5
8C
330
6E
100
AcDbEntity
  8
AM_6
100
AcDbText
 10
6.65046875
 20
-9.5625
 30
0.0
 40
0.5
  1
2-7/16
100
AcDbAttributeDefinition
  3

  2
T
 70
     8
280
     0
  0
ATTDEF
  5
8D
330
6E
100
AcDbEntity
  8
AM_6
100
AcDbText
 10
6.65046875
 20
-10.0625
 30
0.0
 40
0.5
  1
1/4
100
AcDbAttributeDefinition
  3

  2
X
 70
     8
280
     0
  0
ATTDEF
  5
8E
330
6E
100
AcDbEntity
  8
AM_6
100
AcDbText
 10
6.65046875
 20
-10.5625
 30
0.0
 40
0.5
  1
0.025
100
AcDbAttributeDefinition
  3

  2
Y
 70
     8
280
     0
  0
ATTDEF
  5
8F
330
6E
100
AcDbEntity
  8
AM_6
100
AcDbText
 10
6.65046875
 20
-11.0625
 30
0.0
 40
0.5
  1
2-15/16
100
AcDbAttributeDefinition
  3

  2
Z
 70
     8
280
     0
  0
ATTDEF
  5
90
330
6E
100
AcDbEntity
  8
AM_6
100
AcDbText
 10
6.65046875
 20
-11.5625
 30
0.0
 40
0.5
  1
baldor
100
AcDbAttributeDefinition
  3

  2
COMPANY
 70
     8
280
     0
  0
INSERT
  5
92
330
6E
100
AcDbEntity
  8
0
100
AcDbBlockReference
  2
2_405016_Inch_0_in_069384_2
 10
0.0
 20
0.0
 30
0.0
  0
INSERT
  5
109
330
6E
100
AcDbEntity
  8
0
100
AcDbBlockReference
  2
3_ASME_B18_3_10_1_0_in_069384_2
 10
0.0
 20
0.0
 30
0.0
  0
INSERT
  5
12F
330
6E
100
AcDbEntity
  8
0
100
AcDbBlockReference
  2
4_ASME_B18_3_10_2_0_in_069384_2
 10
0.0
 20
0.0
 30
0.0
  0
INSERT
  5
153
330
6E
100
AcDbEntity
  8
0
100
AcDbBlockReference
  2
5_070896LW_0_in_069384_2
 10
0.0
 20
0.0
 30
0.0
  0
INSERT
  5
189
330
6E
100
AcDbEntity
  8
0
100
AcDbBlockReference
  2
6_070896I_0_in_069384_2
 10
0.0
 20
0.0
 30
0.0
  0
INSERT
  5
219
330
6E
100
AcDbEntity
  8
0
100
AcDbBlockReference
  2
7_069384H_0_in_069384_2
 10
0.0
 20
0.0
 30
0.0
  0
ENDBLK
  5
71
330
6E
100
AcDbEntity
  8
0
100
AcDbBlockEnd
  0
BLOCK
  5
93
330
91
100
AcDbEntity
  8
0
100
AcDbBlockBegin
  2
2_405016_Inch_0_in_069384_2
 70
     2
 10
0.0
 20
0.0
 30
0.0
  3
2_405016_Inch_0_in_069384_2
  1

  0
ATTDEF
  5
95
330
91
100
AcDbEntity
  8
AM_6
100
AcDbText
 10
5.218750000000001
 20
-0.7992530105285058
 30
0.0
 40
0.5
  1
405016 -Inch
100
AcDbAttributeDefinition
  3

  2
NN
 70
     8
280
     0
  0
ATTDEF
  5
96
330
91
100
AcDbEntity
  8
AM_6
100
AcDbText
 10
5.218750000000001
 20
-1.299253010528506
 30
0.0
 40
0.5
  1
Grease Fitting
100
AcDbAttributeDefinition
  3

  2
NT
 70
     8
280
     0
  0
ATTDEF
  5
97
330
91
100
AcDbEntity
  8
AM_6
100
AcDbText
 10
5.218750000000001
 20
-1.799253010528506
 30
0.0
 40
0.5
  1
405016-Inch
100
AcDbAttributeDefinition
  3

  2
NB
 70
     8
280
     0
  0
ATTDEF
  5
98
330
91
100
AcDbEntity
  8
AM_6
100
AcDbText
 10
5.218750000000001
 20
-2.299253010528506
 30
0.0
 40
0.5
  1
$MN.-Inch
100
AcDbAttributeDefinition
  3

  2
NBSYN
 70
     8
280
     0
  0
ATTDEF
  5
99
330
91
100
AcDbEntity
  8
AM_6
100
AcDbText
 10
5.218750000000001
 20
-2.799253010528506
 30
0.0
 40
0.5
  1
405016
100
AcDbAttributeDefinition
  3

  2
LINA
 70
     8
280
     0
  0
ATTDEF
  5
9A
330
91
100
AcDbEntity
  8
AM_6
100
AcDbText
 10
5.218750000000001
 20
-3.299253010528506
 30
0.0
 40
0.5
  1
405016
100
AcDbAttributeDefinition
  3

  2
MN
 70
     8
280
     0
  0
ATTDEF
  5
9B
330
91
100
AcDbEntity
  8
AM_6
100
AcDbText
 10
5.218750000000001
 20
-3.799253010528506
 30
0.0
 40
0.5
  1
7/16 HEX
100
AcDbAttributeDefinition
  3

  2
H
 70
     8
280
     0
  0
ATTDEF
  5
9C
330
91
100
AcDbEntity
  8
AM_6
100
AcDbText
 10
5.218750000000001
 20
-4.299253010528506
 30
0.0
 40
0.5
  1
0.383
100
AcDbAttributeDefinition
  3

  2
NDR
 70
     8
280
     0
  0
ATTDEF
  5
9D
330
91
100
AcDbEntity
  8
AM_6
100
AcDbText
 10
5.218750000000001
 20
-4.799253010528506
 30
0.0
 40
0.5
  1
0.337
100
AcDbAttributeDefinition
  3

  2
KDR
 70
     8
280
     0
  0
ATTDEF
  5
9E
330
91
100
AcDbEntity
  8
AM_6
100
AcDbText
 10
5.218750000000001
 20
-5.299253010528506
 30
0.0
 40
0.5
  1
0.1575
100
AcDbAttributeDefinition
  3

  2
BZE
 70
     8
280
     0
  0
ATTDEF
  5
9F
330
91
100
AcDbEntity
  8
AM_6
100
AcDbText
 10
5.218750000000001
 20
-5.799253010528506
 30
0.0
 40
0.5
  1
0.4375
100
AcDbAttributeDefinition
  3

  2
HEX
 70
     8
280
     0
  0
ATTDEF
  5
A0
330
91
100
AcDbEntity
  8
AM_6
100
AcDbText
 10
5.218750000000001
 20
-6.299253010528506
 30
0.0
 40
0.5
  1
0.281250
100
AcDbAttributeDefinition
  3

  2
HEX2
 70
     8
280
     0
  0
ATTDEF
  5
A1
330
91
100
AcDbEntity
  8
AM_6
100
AcDbText
 10
5.218750000000001
 20
-6.799253010528506
 30
0.0
 40
0.5
  1
baldor
100
AcDbAttributeDefinition
  3

  2
COMPANY
 70
     8
280
     0
  0
LWPOLYLINE
  5
A4
330
91
100
AcDbEntity
  8
AM_9
100
AcDbPolyline
 90
        5
 70
     0
 43
0.0
 10
-0.1791093260592888
 20
-1.326596062459877
 10
-0.1842540823997056
 20
-1.290806539174512
 10
-0.1862220679364952
 20
-1.253875022049884
 10
-0.1844124966919383
 20
-1.215269221582526
 10
-0.1791093260592888
 20
-1.176040167703574
  0
LINE
  5
A5
330
91
100
AcDbEntity
  8
AM_9
100
AcDbLine
 10
-0.1510741298357571
 20
-1.321698820463312
 30
0.0
 11
-0.1791093260592888
 21
-1.326596062459877
 31
0.0
  0
LINE
  5
A6
330
91
100
AcDbEntity
  8
AM_9
100
AcDbLine
 10
-0.1510741298357571
 20
-1.171142925707009
 30
0.0
 11
-0.1791093260592888
 21
-1.176040167703574
 31
0.0
  0
LWPOLYLINE
  5
A7
330
91
100
AcDbEntity
  8
AM_9
100
AcDbPolyline
 90
        5
 70
     0
 43
0.0
 10
-0.1791093260592888
 20
-1.176040167703574
 10
-0.198835512140694
 20
-1.146991199806697
 10
-0.2156330920108726
 20
-1.116905063717177
 10
-0.2290462109660022
 20
-1.08531517231918
 10
-0.2389369657326278
 20
-1.053088124501999
  0
LWPOLYLINE
  5
A8
330
91
100
AcDbEntity
  8
AM_9
100
AcDbPolyline
 90
        5
 70
     0
 43
0.0
 10
-0.2389369657326278
 20
-1.354199914014604
 10
-0.2295338871417797
 20
-1.348377318589351
 10
-0.2166871171046322
 20
-1.341886073975673
 10
-0.1996402057054679
 20
-1.334545468934003
 10
-0.1791093260592888
 20
-1.326596062459877
  0
LWPOLYLINE
  5
A9
330
91
100
AcDbEntity
  8
AM_9
100
AcDbPolyline
 90
        3
 70
     0
 43
0.0
 10
-0.2813919000363601
 20
-1.070685899064451
 10
-0.2911775952746244
 20
-1.075885538603105
 10
-0.2987675689889719
 20
-1.080692493741105
  0
LWPOLYLINE
  5
AA
330
91
100
AcDbEntity
  8
AM_9
100
AcDbPolyline
 90
        3
 70
     0
 43
0.0
 10
-0.2389369657326278
 20
-1.053088124501999
 10
-0.2560939713202354
 20
-1.059674027031756
 10
-0.2711532636537958
 20
-1.065942291957786
  0
LINE
  5
AB
330
91
100
AcDbEntity
  8
AM_9
100
AcDbLine
 10
-0.2099962668917055
 20
-1.04803270756667
 30
0.0
 11
-0.2389369657326278
 21
-1.053088124501999
 31
0.0
  0
LINE
  5
AC
330
91
100
AcDbEntity
  8
AM_9
100
AcDbLine
 10
-0.4592308244157303
 20
-1.344505928735358
 30
0.0
 11
-0.3866303050106362
 21
-1.367308691265262
 31
0.0
  0
LINE
  5
AD
330
91
100
AcDbEntity
  8
AM_9
100
AcDbLine
 10
-0.4335647160356817
 20
-1.098623700071044
 30
0.0
 11
-0.4941352239355601
 21
-1.144689033779108
 31
0.0
  0
LWPOLYLINE
  5
AE
330
91
100
AcDbEntity
  8
AM_9
100
AcDbPolyline
 90
        9
 70
     0
 43
0.0
 10
-0.3659765489814563
 20
-1.109564626992712
 10
-0.3731166752944416
 20
-1.102817376178271
 10
-0.3827661756717905
 20
-1.09607700606672
 10
-0.3924916727677316
 20
-1.091740219372165
 10
-0.402351726009967
 20
-1.089632587552123
 10
-0.4122352263232973
 20
-1.089753079574026
 10
-0.4224178786451993
 20
-1.092343110915795
 10
-0.431400265094572
 20
-1.097069552358571
 10
-0.4348430893965437
 20
-1.09962960275221
  0
LWPOLYLINE
  5
AF
330
91
100
AcDbEntity
  8
AM_9
100
AcDbPolyline
 90
       10
 70
     0
 43
0.0
 10
-0.3879552812705734
 20
-1.366871852588676
 10
-0.3858107491270184
 20
-1.36755822811217
 10
-0.3759356296893363
 20
-1.36934840905515
 10
-0.3660689014478772
 20
-1.368904709409226
 10
-0.3560357454834665
 20
-1.366006505785392
 10
-0.3472219128715105
 20
-1.361032654150822
 10
-0.3395838190886137
 20
-1.35428082580631
 10
-0.3329232430573193
 20
-1.345695379571924
 10
-0.3271301599812123
 20
-1.334953931624902
 10
-0.3270644057358738
 20
-1.334806716012464
  0
LWPOLYLINE
  5
B0
330
91
100
AcDbEntity
  8
AM_9
100
AcDbPolyline
 90
        6
 70
     0
 43
0.0
 10
-0.1510741298357571
 20
-1.321698820463312
 10
-0.1564222384464444
 20
-1.325707824685756
 10
-0.1639940363880806
 20
-1.330160868747565
 10
-0.1744063212866124
 20
-1.335204408332261
 10
-0.1876759562813859
 20
-1.340771941452027
 10
-0.2099962668917055
 20
-1.349144497079275
  0
LINE
  5
B1
330
91
100
AcDbEntity
  8
AM_9
100
AcDbLine
 10
-0.1421266999692682
 20
-1.234993184073653
 30
0.0
 11
-0.1419585098156051
 21
-1.244833843706104
 31
0.0
  0
LWPOLYLINE
  5
B2
330
91
100
AcDbEntity
  8
AM_9
100
AcDbPolyline
 90
        3
 70
     0
 43
0.0
 10
-0.1510741298357571
 20
-1.171142925707009
 10
-0.1458778226760521
 20
-1.197155813356964
 10
-0.1436138355655723
 20
-1.213979263806911
  0
LINE
  5
B3
330
91
100
AcDbEntity
  8
AM_9
100
AcDbLine
 10
-0.1644767193524954
 20
-1.123896917830149
 30
0.0
 11
-0.161663961744082
 21
-1.131444442565515
 31
0.0
  0
LWPOLYLINE
  5
B4
330
91
100
AcDbEntity
  8
AM_9
100
AcDbPolyline
 90
        4
 70
     0
 43
0.0
 10
-0.2099962668917055
 20
-1.04803270756667
 10
-0.194357301502906
 20
-1.068949686443062
 10
-0.1805491420332304
 20
-1.090606610633356
 10
-0.1773558120975258
 20
-1.096300340991745
  0
LWPOLYLINE
  5
B5
330
91
100
AcDbEntity
  8
AM_9
100
AcDbPolyline
 90
        4
 70
     0
 43
0.0
 10
-0.2258378743019628
 20
-1.058026512590484
 10
-0.2189176876709016
 20
-1.054289898722457
 10
-0.2138633349839129
 20
-1.051049562062015
 10
-0.2099962668917055
 20
-1.04803270756667
  0
LWPOLYLINE
  5
B6
330
91
100
AcDbEntity
  8
AM_9
100
AcDbPolyline
 90
        4
 70
     0
 43
0.0
 10
-0.1419585098156051
 20
-1.244833843706104
 10
-0.1420496512545707
 20
-1.252103912764619
 10
-0.1441228263802216
 20
-1.280886347524786
 10
-0.1510741298357571
 20
-1.321698820463312
  0
LINE
  5
B7
330
91
100
AcDbEntity
  8
AM_9
100
AcDbLine
 10
-0.154491484465159
 20
-1.155540106485439
 30
0.0
 11
-0.1510741298357571
 21
-1.171142925707009
 31
0.0
  0
LINE
  5
B8
330
91
100
AcDbEntity
  8
AM_9
100
AcDbLine
 10
-0.1621906923040181
 20
-1.129982767583744
 30
0.0
 11
-0.1614435684917355
 21
-1.132087234391989
 31
0.0
  0
ELLIPSE
  5
B9
330
91
100
AcDbEntity
  8
AM_9
100
AcDbEllipse
 10
-0.2013892028241899
 20
-1.196508627069524
 30
0.0
 11
-0.02419822997670343
 21
0.1385273846248281
 31
0.0
210
0.0
220
0.0
230
1.0
 40
0.3918448289310637
 41
2.298273319621137
 42
6.287803854599765
  0
LWPOLYLINE
  5
BA
330
91
100
AcDbEntity
  8
AM_9
100
AcDbPolyline
 90
        3
 70
     0
 43
0.0
 10
-0.2689146070947223
 20
-1.075477720941061
 10
-0.2512755937295761
 20
-1.068947110590611
 10
-0.2360765106845276
 20
-1.062770119697149
  0
LWPOLYLINE
  5
BB
330
91
100
AcDbEntity
  8
AM_9
100
AcDbPolyline
 90
        4
 70
     0
 43
0.0
 10
-0.260230468443121
 20
-1.130920891216262
 10
-0.2616913382589204
 20
-1.115119690845663
 10
-0.2647402074337708
 20
-1.095131321686127
 10
-0.2689146070947223
 20
-1.075477720941061
  0
LINE
  5
BC
330
91
100
AcDbEntity
  8
AM_9
100
AcDbLine
 10
-0.2689146070947223
 20
-1.075477720941061
 30
0.0
 11
-0.2987675689889719
 21
-1.080692493741105
 31
0.0
  0
LWPOLYLINE
  5
BD
330
91
100
AcDbEntity
  8
AM_9
100
AcDbPolyline
 90
        3
 70
     0
 43
0.0
 10
-0.2987675689889719
 20
-1.080692493741105
 10
-0.3030606061861224
 20
-1.1097529322861
 10
-0.3055458577949632
 20
-1.138836670583569
  0
LWPOLYLINE
  5
BE
330
91
100
AcDbEntity
  8
AM_9
100
AcDbPolyline
 90
        3
 70
     0
 43
0.0
 10
-0.3055458577949632
 20
-1.175472300705641
 10
-0.3030753670497809
 20
-1.203568873395809
 10
-0.2987675689889719
 20
-1.231248388497408
  0
LINE
  5
BF
330
91
100
AcDbEntity
  8
AM_9
100
AcDbLine
 10
-0.2711532636537958
 20
-1.065942291957786
 30
0.0
 11
-0.2813919000363601
 21
-1.070685899064451
 31
0.0
  0
ELLIPSE
  5
C0
330
91
100
AcDbEntity
  8
AM_9
100
AcDbEllipse
 10
-0.2467045921760211
 20
-1.204424406436827
 30
0.0
 11
-0.0241982299767033
 21
0.1385273846248274
 31
0.0
210
0.0
220
0.0
230
1.0
 40
0.3918448289310573
 41
4.935446582132605
 42
6.287803854599789
  0
ELLIPSE
  5
C1
330
91
100
AcDbEntity
  8
AM_9
100
AcDbEllipse
 10
-0.2467045921760219
 20
-1.204424406436826
 30
0.0
 11
-0.02419822997670233
 21
0.1385273846248236
 31
0.0
210
0.0
220
0.0
230
1.0
 40
0.3918448289310587
 41
1.29240219410264
 42
2.099013649813425
  0
LWPOLYLINE
  5
C2
330
91
100
AcDbEntity
  8
AM_9
100
AcDbPolyline
 90
        3
 70
     0
 43
0.0
 10
-0.3055458577949632
 20
-1.138836670583569
 10
-0.3064767622622303
 20
-1.157220540980568
 10
-0.3055458577949632
 20
-1.175472300705641
  0
ELLIPSE
  5
C3
330
91
100
AcDbEntity
  8
AM_9
100
AcDbEllipse
 10
-0.24670459217603
 20
-1.204424406436817
 30
0.0
 11
-0.02419822997669799
 21
0.1385273846248127
 31
0.0
210
0.0
220
0.0
230
1.0
 40
0.3918448289310389
 41
0.2038782172278486
 42
1.010489672938703
  0
LWPOLYLINE
  5
C4
330
91
100
AcDbEntity
  8
AM_9
100
AcDbPolyline
 90
       12
 70
     0
 43
0.0
 10
-0.3285177615505787
 20
-1.337901644628543
 10
-0.3281411783950028
 20
-1.337287066091211
 10
-0.3260934536601944
 20
-1.334597070778119
 10
-0.3218327325565788
 20
-1.330344467753332
 10
-0.3149476507044137
 20
-1.325349477109
 10
-0.3053376956896494
 20
-1.320704999168171
 10
-0.293702975428862
 20
-1.317662752456807
 10
-0.281715484836713
 20
-1.317013041409743
 10
-0.2713278343849848
 20
-1.31848214143729
 10
-0.2636893850428201
 20
-1.320979547386779
 10
-0.2589227239375317
 20
-1.323381944623368
 10
-0.2566136704384712
 20
-1.324937381393022
  0
LWPOLYLINE
  5
C5
330
91
100
AcDbEntity
  8
AM_9
100
AcDbPolyline
 90
        4
 70
     0
 43
0.0
 10
-0.2562052408762747
 20
-1.325269954438109
 10
-0.2562963792513269
 20
-1.325184808292271
 10
-0.2576095710751156
 20
-1.323785304076942
 10
-0.2588099402851223
 20
-1.322348722762721
  0
LWPOLYLINE
  5
C6
330
91
100
AcDbEntity
  8
AM_9
100
AcDbPolyline
 90
        3
 70
     0
 43
0.0
 10
-0.298015828168064
 20
-1.097425713049642
 10
-0.2970102155006578
 20
-1.09480883188124
 10
-0.296611555892984
 20
-1.093956294431552
  0
LWPOLYLINE
  5
C7
330
91
100
AcDbEntity
  8
AM_9
100
AcDbPolyline
 90
       13
 70
     0
 43
0.0
 10
-0.2966336615712359
 20
-1.093995963872322
 10
-0.2976866855393203
 20
-1.095572128375345
 10
-0.3006953617350427
 20
-1.099069568317584
 10
-0.3061234794735461
 20
-1.103780792784073
 10
-0.3142866963600973
 20
-1.108767576486354
 10
-0.3249818863219796
 20
-1.112821466017186
 10
-0.3370242374968446
 20
-1.114801961742187
 10
-0.348513118773074
 20
-1.114372565231005
 10
-0.3577015313346684
 20
-1.112274110093504
 10
-0.3639809771713929
 20
-1.109701168590513
 10
-0.3675492359207512
 20
-1.107619287398913
 10
-0.3688855463675779
 20
-1.106621487499424
 10
-0.368924076567288
 20
-1.106587984621986
  0
ELLIPSE
  5
C8
330
91
100
AcDbEntity
  8
AM_9
100
AcDbEllipse
 10
-0.2467045921764908
 20
-1.204424406437074
 30
0.0
 11
-0.02419822997702624
 21
0.1385273846245465
 31
0.0
210
0.0
220
0.0
230
1.0
 40
0.3918448289287633
 41
2.298273319619921
 42
4.557832171387703
  0
ARC
  5
C9
330
91
100
AcDbEntity
  8
AM_9
100
AcDbCircle
 10
0.0
 20
-1.165963022007026
 30
0.0
 40
0.1999999999999999
100
AcDbArc
 50
215.7413815753211
 51
0.0
  0
LWPOLYLINE
  5
CA
330
91
100
AcDbEntity
  8
AM_9
100
AcDbPolyline
 90
        6
 70
     0
 43
0.0
 10
-0.1622160775050202
 20
-1.282949764116885
 10
-0.1606047421316797
 20
-1.285103594602536
 10
-0.1538031670974778
 20
-1.292318832950908
 10
-0.1472336073736394
 20
-1.296420866301134
 10
-0.1407130262602577
 20
-1.29751983855928
 10
-0.1395613906673452
 20
-1.297374071974408
  0
LWPOLYLINE
  5
CB
330
91
100
AcDbEntity
  8
AM_9
100
AcDbPolyline
 90
        3
 70
     0
 43
0.0
 10
-0.1093750000000001
 20
-0.9352941347167112
 10
-0.0546875000000001
 20
-0.9051228011803567
 10
-0.0000000000000002
 20
-0.8733478374564523
  0
LWPOLYLINE
  5
CC
330
91
100
AcDbEntity
  8
AM_9
100
AcDbPolyline
 90
        3
 70
     0
 43
0.0
 10
-0.0000000000000002
 20
-0.8733478374564523
 10
0.0544416102741494
 20
-0.9049832532451154
 10
0.1093749999999998
 20
-0.9352941347167112
  0
LWPOLYLINE
  5
CD
330
91
100
AcDbEntity
  8
AM_9
100
AcDbPolyline
 90
        4
 70
     0
 43
0.0
 10
-0.179037373850178
 20
-1.248610522213301
 10
-0.1733931390117468
 20
-1.26286471395803
 10
-0.1670729780242512
 20
-1.275378070128611
 10
-0.1622160775050202
 20
-1.282949764116885
  0
LINE
  5
CE
330
91
100
AcDbEntity
  8
AM_9
100
AcDbLine
 10
-0.1719571631012917
 20
-1.079701734990236
 30
0.0
 11
-0.2203175960504093
 21
-1.08814942842966
 31
0.0
  0
LINE
  5
CF
330
91
100
AcDbEntity
  8
AM_9
100
AcDbLine
 10
-0.182460809597967
 20
-1.304867825709388
 30
0.0
 11
-0.1395503959082025
 21
-1.297372152116238
 31
0.0
  0
LWPOLYLINE
  5
D0
330
91
100
AcDbEntity
  8
AM_9
100
AcDbPolyline
 90
       20
 70
     0
 43
0.0
 10
-0.1395613906673452
 20
-1.297374071974408
 10
-0.1347930597680668
 20
-1.295522857261186
 10
-0.1293028157827818
 20
-1.290370466131253
 10
-0.1247141396218193
 20
-1.282508688464218
 10
-0.1208880884981782
 20
-1.271701768482592
 10
-0.118154598914599
 20
-1.258887796509083
 10
-0.1164278875396129
 20
-1.24367499887869
 10
-0.1158549073091555
 20
-1.227373298837882
 10
-0.1164156227038168
 20
-1.209487279681918
 10
-0.1180609686233503
 20
-1.19153261723303
 10
-0.1208367673933813
 20
-1.17298034247146
 10
-0.1245107513506024
 20
-1.15537459992309
 10
-0.1291842652280563
 20
-1.138220182921454
 10
-0.134472979061152
 20
-1.122926311125971
 10
-0.140518627090196
 20
-1.109082198087488
 10
-0.1468270783017122
 20
-1.097822039689067
 10
-0.1535654953592166
 20
-1.088852277073425
 10
-0.1601799433259584
 20
-1.082914951741327
 10
-0.1668493358980662
 20
-1.079856703135615
 10
-0.1719564264904961
 20
-1.079701607023687
  0
LWPOLYLINE
  5
D1
330
91
100
AcDbEntity
  8
AM_9
100
AcDbPolyline
 90
        3
 70
     0
 43
0.0
 10
-0.1719564264904961
 20
-1.079701607023687
 10
-0.1731116383367607
 20
-1.079961453242353
 10
-0.1790373738502117
 20
-1.083315521800762
  0
LWPOLYLINE
  5
D2
330
91
100
AcDbEntity
  8
AM_9
100
AcDbPolyline
 90
        3
 70
     0
 43
0.0
 10
-0.2689146070947223
 20
-1.226033615697363
 10
-0.2634308483997529
 20
-1.196869994973975
 10
-0.2602304684431306
 20
-1.167556521338339
  0
LINE
  5
D3
330
91
100
AcDbEntity
  8
AM_9
100
AcDbLine
 10
-0.2360765106845276
 20
-1.062770119697149
 30
0.0
 11
-0.2258378743019628
 21
-1.058026512590484
 31
0.0
  0
ELLIPSE
  5
D4
330
91
100
AcDbEntity
  8
AM_9
100
AcDbEllipse
 10
-0.2013892028241873
 20
-1.196508627069529
 30
0.0
 11
-0.02419822997670674
 21
0.1385273846248307
 31
0.0
210
0.0
220
0.0
230
1.0
 40
0.3918448289309578
 41
0.2038782172279117
 42
1.01048967293862
  0
LINE
  5
D5
330
91
100
AcDbEntity
  8
AM_9
100
AcDbLine
 10
-0.2602304684431306
 20
-1.167556521338339
 30
0.0
 11
-0.260230468443121
 21
-1.130920891216262
 31
0.0
  0
ELLIPSE
  5
D6
330
91
100
AcDbEntity
  8
AM_9
100
AcDbEllipse
 10
-0.2013892028241853
 20
-1.196508627069523
 30
0.0
 11
-0.02419822997670376
 21
0.1385273846248307
 31
0.0
210
0.0
220
0.0
230
1.0
 40
0.3918448289310655
 41
1.29240219410266
 42
2.099013649813389
  0
LWPOLYLINE
  5
D7
330
91
100
AcDbEntity
  8
AM_9
100
AcDbPolyline
 90
        3
 70
     0
 43
0.0
 10
-0.2099962668917055
 20
-1.349144497079275
 10
-0.2163479371246914
 20
-1.322459969016387
 10
-0.225837874301963
 20
-1.29570923554855
  0
LINE
  5
D8
330
91
100
AcDbEntity
  8
AM_9
100
AcDbLine
 10
-0.225837874301963
 20
-1.29570923554855
 30
0.0
 11
-0.2360765106845278
 21
-1.274515284427926
 31
0.0
  0
LWPOLYLINE
  5
D9
330
91
100
AcDbEntity
  8
AM_9
100
AcDbPolyline
 90
        4
 70
     0
 43
0.0
 10
-0.2360765106845278
 20
-1.274515284427926
 10
-0.2462091938631852
 20
-1.257427159787968
 10
-0.2570505402207575
 20
-1.241583101724835
 10
-0.2689146070947223
 20
-1.226033615697363
  0
LINE
  5
DA
330
91
100
AcDbEntity
  8
AM_9
100
AcDbLine
 10
-0.2689146070947223
 20
-1.226033615697363
 30
0.0
 11
-0.2987675689889719
 21
-1.231248388497408
 31
0.0
  0
LWPOLYLINE
  5
DB
330
91
100
AcDbEntity
  8
AM_9
100
AcDbPolyline
 90
        3
 70
     0
 43
0.0
 10
-0.2987675689889719
 20
-1.231248388497408
 10
-0.2912216284034026
 20
-1.256864944471969
 10
-0.2813919000363601
 20
-1.282431063795229
  0
LINE
  5
DC
330
91
100
AcDbEntity
  8
AM_9
100
AcDbLine
 10
-0.2813919000363601
 20
-1.282431063795229
 30
0.0
 11
-0.2711532636537958
 21
-1.303625014915852
 31
0.0
  0
LWPOLYLINE
  5
DD
330
91
100
AcDbEntity
  8
AM_9
100
AcDbPolyline
 90
        3
 70
     0
 43
0.0
 10
-0.2693378968928355
 20
-1.306999436405697
 10
-0.2561815527589922
 20
-1.329148827045752
 10
-0.2389369657326278
 20
-1.354199914014604
  0
LINE
  5
DE
330
91
100
AcDbEntity
  8
AM_9
100
AcDbLine
 10
-0.2711532636537958
 20
-1.303625014915852
 30
0.0
 11
-0.2693378968928355
 21
-1.306999436405697
 31
0.0
  0
LINE
  5
DF
330
91
100
AcDbEntity
  8
AM_9
100
AcDbLine
 10
-0.2099962668917055
 20
-1.349144497079275
 30
0.0
 11
-0.2389369657326278
 21
-1.354199914014604
 31
0.0
  0
LWPOLYLINE
  5
E0
330
91
100
AcDbEntity
  8
AM_9
100
AcDbPolyline
 90
        3
 70
     0
 43
0.0
 10
0.1093749999999998
 20
-0.9352941347167112
 10
0.1640624999999998
 20
-0.9636723158078077
 10
0.2187499999999998
 20
-0.9904468667113543
  0
LWPOLYLINE
  5
E1
330
91
100
AcDbEntity
  8
AM_9
100
AcDbPolyline
 90
        3
 70
     0
 43
0.0
 10
-0.2187500000000002
 20
-0.9904468667113543
 10
-0.1643083897258505
 20
-0.9637960222561169
 10
-0.1093750000000001
 20
-0.9352941347167112
  0
LINE
  5
E2
330
91
100
AcDbEntity
  8
AM_9
100
AcDbLine
 10
-0.0900554168205884
 20
-0.8876053953324915
 30
0.0
 11
-0.1093750000000001
 21
-0.89783347537512
 31
0.0
  0
LWPOLYLINE
  5
E3
330
91
100
AcDbEntity
  8
AM_9
100
AcDbPolyline
 90
        3
 70
     0
 43
0.0
 10
-0.0000000000000002
 20
-0.8426807433804768
 10
-0.0544416102741498
 20
-0.869331587835714
 10
-0.0866043371237685
 20
-0.8858021599072171
  0
LWPOLYLINE
  5
E4
330
91
100
AcDbEntity
  8
AM_9
100
AcDbPolyline
 90
        3
 70
     0
 43
0.0
 10
0.0884210708280249
 20
-0.8867505358720632
 10
0.0546874999999998
 20
-0.8694552942840234
 10
-0.0000000000000002
 20
-0.8426807433804768
  0
LINE
  5
E5
330
91
100
AcDbEntity
  8
AM_9
100
AcDbLine
 10
0.1093749999999998
 20
-0.89783347537512
 30
0.0
 11
0.0927056562649963
 21
-0.8889950489146697
 31
0.0
  0
LINE
  5
E6
330
91
100
AcDbEntity
  8
AM_9
100
AcDbLine
 10
-0.0000000000000002
 20
-0.8733478374564523
 30
0.0
 11
-0.0000000000000002
 21
-0.8426807433804768
 31
0.0
  0
ELLIPSE
  5
E7
330
91
100
AcDbEntity
  8
AM_9
100
AcDbEllipse
 10
-0.0000000000000001
 20
-1.165963022007026
 30
0.0
 11
-0.1999999999999998
 21
2.449293598294704E-17
 31
0.0
210
0.0
220
0.0
230
1.0
 40
0.9271838545667886
 41
0.461946020566967
 42
5.821239286612623
  0
LWPOLYLINE
  5
E8
330
91
100
AcDbEntity
  8
AM_9
100
AcDbPolyline
 90
        7
 70
     0
 43
0.0
 10
-0.1790373738501785
 20
-1.248610522213301
 10
-0.1842628795203942
 20
-1.233461007614414
 10
-0.1891729979031394
 20
-1.217853873658394
 10
-0.1936098952159725
 20
-1.201183640910808
 10
-0.1971856748420372
 20
-1.183457911177822
 10
-0.1994144431868156
 20
-1.165318179396032
 10
-0.199999999969953
 20
-1.150796153299245
  0
LINE
  5
E9
330
91
100
AcDbEntity
  8
AM_9
100
AcDbLine
 10
-0.2000000000000001
 20
-1.110942678599064
 30
0.0
 11
-0.2000000000000001
 21
-1.150864042799827
 31
0.0
  0
LINE
  5
EA
330
91
100
AcDbEntity
  8
AM_9
100
AcDbLine
 10
0.1999999999999997
 20
-1.165963022007026
 30
0.0
 11
0.1999999999999998
 21
-1.110942678599064
 31
0.0
  0
LWPOLYLINE
  5
EB
330
91
100
AcDbEntity
  8
AM_9
100
AcDbPolyline
 90
        8
 70
     0
 43
0.0
 10
-0.199999999969953
 20
-1.150796153299245
 10
-0.1999786710855129
 20
-1.148103548166936
 10
-0.1988321115509054
 20
-1.131468399910109
 10
-0.196164942998426
 20
-1.116939495572776
 10
-0.1920694300574959
 20
-1.103987720402547
 10
-0.1870948030566197
 20
-1.093640158882145
 10
-0.1815005947613932
 20
-1.085791652502719
 10
-0.1790373738501786
 20
-1.083315521800752
  0
LWPOLYLINE
  5
EC
330
91
100
AcDbEntity
  8
AM_9
100
AcDbPolyline
 90
        3
 70
     0
 43
0.0
 10
0.2187499999999998
 20
-0.9597797726353788
 10
0.1643083897258502
 20
-0.9281443568467156
 10
0.1093749999999998
 20
-0.89783347537512
  0
LWPOLYLINE
  5
ED
330
91
100
AcDbEntity
  8
AM_9
100
AcDbPolyline
 90
        3
 70
     0
 43
0.0
 10
-0.1093750000000001
 20
-0.89783347537512
 10
-0.1640625000000001
 20
-0.9280048089114744
 10
-0.2187500000000002
 20
-0.9597797726353788
  0
LINE
  5
EE
330
91
100
AcDbEntity
  8
AM_9
100
AcDbLine
 10
-0.2187500000000002
 20
-1.224644925221158
 30
0.0
 11
-0.2187500000000002
 21
-0.9597797726353788
 31
0.0
  0
LWPOLYLINE
  5
EF
330
91
100
AcDbEntity
  8
AM_9
100
AcDbPolyline
 90
        3
 70
     0
 43
0.0
 10
-0.1093750000000001
 20
-1.286591222481418
 10
-0.1640625000000001
 20
-1.256419888945063
 10
-0.2187500000000002
 20
-1.224644925221158
  0
LWPOLYLINE
  5
F0
330
91
100
AcDbEntity
  8
AM_9
100
AcDbPolyline
 90
        3
 70
     0
 43
0.0
 10
-0.0000000000000002
 20
-1.341743954476061
 10
-0.0544416102741497
 20
-1.315093110020823
 10
-0.1093750000000001
 20
-1.286591222481418
  0
LWPOLYLINE
  5
F1
330
91
100
AcDbEntity
  8
AM_9
100
AcDbPolyline
 90
        3
 70
     0
 43
0.0
 10
-0.1093750000000001
 20
-1.249130563139826
 10
-0.0546875000000002
 20
-1.279301896676181
 10
-0.0000000000000002
 20
-1.311076860400085
  0
LWPOLYLINE
  5
F2
330
91
100
AcDbEntity
  8
AM_9
100
AcDbPolyline
 90
        3
 70
     0
 43
0.0
 10
-0.2187500000000002
 20
-1.193977831145183
 10
-0.1643083897258506
 20
-1.22062867560042
 10
-0.1093750000000001
 20
-1.249130563139826
  0
LINE
  5
F3
330
91
100
AcDbEntity
  8
AM_9
100
AcDbLine
 10
-0.0000000000000002
 20
-1.341743954476061
 30
0.0
 11
-0.0000000000000002
 21
-1.311076860400085
 31
0.0
  0
LWPOLYLINE
  5
F4
330
91
100
AcDbEntity
  8
AM_9
100
AcDbPolyline
 90
        3
 70
     0
 43
0.0
 10
0.1093749999999998
 20
-1.286591222481418
 10
0.0546874999999998
 20
-1.314969403572514
 10
-0.0000000000000002
 20
-1.341743954476061
  0
LWPOLYLINE
  5
F5
330
91
100
AcDbEntity
  8
AM_9
100
AcDbPolyline
 90
        3
 70
     0
 43
0.0
 10
0.2187499999999998
 20
-1.224644925221158
 10
0.1643083897258502
 20
-1.256280341009822
 10
0.1093749999999998
 20
-1.286591222481418
  0
LINE
  5
F6
330
91
100
AcDbEntity
  8
AM_9
100
AcDbLine
 10
0.2187499999999998
 20
-1.224644925221158
 30
0.0
 11
0.2187499999999998
 21
-0.9597797726353788
 31
0.0
  0
LWPOLYLINE
  5
F7
330
91
100
AcDbEntity
  8
AM_9
100
AcDbPolyline
 90
        3
 70
     0
 43
0.0
 10
0.1093749999999998
 20
-1.249130563139826
 10
0.1640624999999998
 20
-1.22075238204873
 10
0.2187499999999998
 20
-1.193977831145183
  0
LWPOLYLINE
  5
F8
330
91
100
AcDbEntity
  8
AM_9
100
AcDbPolyline
 90
        3
 70
     0
 43
0.0
 10
-0.0000000000000002
 20
-1.311076860400085
 10
0.0544416102741494
 20
-1.279441444611422
 10
0.1093749999999998
 20
-1.249130563139826
  0
LINE
  5
F9
330
91
100
AcDbEntity
  8
AM_9
100
AcDbLine
 10
-0.2000000000000001
 20
-1.044215879146855
 30
0.0
 11
-0.2000000000000001
 21
-1.073482019257473
 31
0.0
  0
LINE
  5
FA
330
91
100
AcDbEntity
  8
AM_9
100
AcDbLine
 10
0.1999999999999997
 20
-1.073482019257473
 30
0.0
 11
0.1999999999999997
 21
-1.044215879146855
 31
0.0
  0
LINE
  5
FB
330
91
100
AcDbEntity
  8
AM_9
100
AcDbLine
 10
-0.184861775919733
 20
-0.9578711759141729
 30
0.0
 11
-0.1909374614401157
 21
-1.030481080943861
 31
0.0
  0
LINE
  5
FC
330
91
100
AcDbEntity
  8
AM_9
100
AcDbLine
 10
0.1909374614401154
 20
-1.030481080943862
 30
0.0
 11
0.1848617759197327
 21
-0.9578711759141729
 31
0.0
  0
ELLIPSE
  5
FD
330
91
100
AcDbEntity
  8
AM_9
100
AcDbEllipse
 10
-0.0000000000000001
 20
-0.9622706868371244
 30
0.0
 11
0.1616637258772237
 21
0.0
 31
0.0
210
0.0
220
0.0
230
1.0
 40
0.927183854566788
 41
0.0
 42
6.283185307179586
  0
ELLIPSE
  5
FE
330
91
100
AcDbEntity
  8
AM_9
100
AcDbEllipse
 10
-0.4687499999999997
 20
-1.243211725336607
 30
0.0
 11
-0.0178069101429343
 21
0.1019390547459398
 31
0.0
210
0.0
220
0.0
230
1.0
 40
0.3918448289310568
 41
0.0
 42
6.283185307179586
  0
ELLIPSE
  5
FF
330
91
100
AcDbEntity
  8
AM_9
100
AcDbEllipse
 10
-0.3729962569746648
 20
-1.226485277341268
 30
0.0
 11
-0.0229195131694012
 21
0.1312071262769274
 31
0.0
210
0.0
220
0.0
230
1.0
 40
0.391844828931059
 41
0.0
 42
6.283185307179586
  0
ELLIPSE
  5
100
330
91
100
AcDbEntity
  8
AM_9
100
AcDbEllipse
 10
-0.2013892028241881
 20
-1.196508627069524
 30
0.0
 11
-0.01892839322622118
 21
0.1083591986398644
 31
0.0
210
0.0
220
0.0
230
1.0
 40
0.3918448289310578
 41
0.0
 42
6.283185307179586
  0
ELLIPSE
  5
101
330
91
100
AcDbEntity
  8
AM_9
100
AcDbEllipse
 10
0.0000000000000002
 20
-1.110942678599064
 30
0.0
 11
-0.2000000000000004
 21
2.449293598294711E-17
 31
0.0
210
0.0
220
0.0
230
1.0
 40
0.9271838545667871
 41
0.0
 42
6.283185307179586
  0
ELLIPSE
  5
102
330
91
100
AcDbEntity
  8
AM_9
100
AcDbEllipse
 10
-0.0000000000000001
 20
-1.110942678599063
 30
0.0
 11
-0.218750000000001
 21
3.259629037943339E-9
 31
0.0
210
0.0
220
0.0
230
1.0
 40
0.9271838545667889
 41
0.0
 42
6.283185307179586
  0
ELLIPSE
  5
103
330
91
100
AcDbEntity
  8
AM_9
100
AcDbEllipse
 10
-0.0000000000000002
 20
-1.073482019257473
 30
0.0
 11
-0.2187500000000003
 21
2.678914873134838E-17
 31
0.0
210
0.0
220
0.0
230
1.0
 40
0.9271838545667902
 41
0.0
 42
6.283185307179586
  0
ELLIPSE
  5
104
330
91
100
AcDbEntity
  8
AM_9
100
AcDbEllipse
 10
-0.0000000000000001
 20
-1.073482019257473
 30
0.0
 11
-0.1999999999999999
 21
2.449293598294705E-17
 31
0.0
210
0.0
220
0.0
230
1.0
 40
0.9271838545667895
 41
0.0
 42
6.283185307179586
  0
ELLIPSE
  5
105
330
91
100
AcDbEntity
  8
AM_9
100
AcDbEllipse
 10
-0.0000000000000002
 20
-1.044215879146855
 30
0.0
 11
-0.2
 21
2.449293598294706E-17
 31
0.0
210
0.0
220
0.0
230
1.0
 40
0.9271838545667879
 41
0.0
 42
6.283185307179586
  0
ELLIPSE
  5
106
330
91
100
AcDbEntity
  8
AM_9
100
AcDbEllipse
 10
-0.0000000000000002
 20
-1.044215879146855
 30
0.0
 11
-0.1915112338502293
 21
2.345336195354436E-17
 31
0.0
210
0.0
220
0.0
230
1.0
 40
0.9271838545667876
 41
0.0
 42
6.283185307179586
  0
ELLIPSE
  5
107
330
91
100
AcDbEntity
  8
AM_9
100
AcDbEllipse
 10
-0.0000000000000002
 20
-0.9711689288462285
 30
0.0
 11
-0.1854172907249857
 21
2.270706915929280E-17
 31
0.0
210
0.0
220
0.0
230
1.0
 40
0.9271838545667863
 41
0.0
 42
6.283185307179586
  0
ENDBLK
  5
94
330
91
100
AcDbEntity
  8
0
100
AcDbBlockEnd
  0
BLOCK
  5
10A
330
108
100
AcDbEntity
  8
0
100
AcDbBlockBegin
  2
3_ASME_B18_3_10_1_0_in_069384_2
 70
     2
 10
0.0
 20
0.0
 30
0.0
  3
3_ASME_B18_3_10_1_0_in_069384_2
  1

  0
ATTDEF
  5
10C
330
108
100
AcDbEntity
  8
AM_6
100
AcDbText
 10
4.032583333333333
 20
-1.482694444444445
 30
0.0
 40
0.5
  1
ANSI/ASME B18.3-1998
100
AcDbAttributeDefinition
  3

  2
NN
 70
     8
280
     0
  0
ATTDEF
  5
10D
330
108
100
AcDbEntity
  8
AM_6
100
AcDbText
 10
4.032583333333333
 20
-1.982694444444445
 30
0.0
 40
0.5
  1
Socket Button Head Cap Screws
100
AcDbAttributeDefinition
  3

  2
NT
 70
     8
280
     0
  0
ATTDEF
  5
10E
330
108
100
AcDbEntity
  8
AM_6
100
AcDbText
 10
4.032583333333333
 20
-2.482694444444444
 30
0.0
 40
0.5
  1
ASME B18.3-10
100
AcDbAttributeDefinition
  3

  2
NB
 70
     8
280
     0
  0
ATTDEF
  5
10F
330
108
100
AcDbEntity
  8
AM_6
100
AcDbText
 10
4.032583333333333
 20
-2.982694444444444
 30
0.0
 40
0.5
  1
ASME B18.3-$NS.
100
AcDbAttributeDefinition
  3

  2
NBSYN
 70
     8
280
     0
  0
ATTDEF
  5
110
330
108
100
AcDbEntity
  8
AM_6
100
AcDbText
 10
4.032583333333333
 20
-3.482694444444444
 30
0.0
 40
0.5
  1
ASME B18.3-10
100
AcDbAttributeDefinition
  3

  2
LINA
 70
     8
280
     0
  0
ATTDEF
  5
111
330
108
100
AcDbEntity
  8
AM_6
100
AcDbText
 10
4.032583333333333
 20
-3.982694444444444
 30
0.0
 40
0.5
  1
10
100
AcDbAttributeDefinition
  3

  2
NS
 70
     8
280
     0
  0
ATTDEF
  5
112
330
108
100
AcDbEntity
  8
AM_6
100
AcDbText
 10
4.032583333333333
 20
-4.482694444444444
 30
0.0
 40
0.5
  1
0.361
100
AcDbAttributeDefinition
  3

  2
A
 70
     8
280
     0
  0
ATTDEF
  5
113
330
108
100
AcDbEntity
  8
AM_6
100
AcDbText
 10
4.032583333333333
 20
-4.982694444444444
 30
0.0
 40
0.5
  1
0.101
100
AcDbAttributeDefinition
  3

  2
H
 70
     8
280
     0
  0
ATTDEF
  5
114
330
108
100
AcDbEntity
  8
AM_6
100
AcDbText
 10
4.032583333333333
 20
-5.482694444444444
 30
0.0
 40
0.5
  1
0.800
100
AcDbAttributeDefinition
  3

  2
L
 70
     8
280
     0
  0
ATTDEF
  5
115
330
108
100
AcDbEntity
  8
AM_6
100
AcDbText
 10
4.032583333333333
 20
-5.982694444444444
 30
0.0
 40
0.5
  1
0.020
100
AcDbAttributeDefinition
  3

  2
S
 70
     8
280
     0
  0
ATTDEF
  5
116
330
108
100
AcDbEntity
  8
AM_6
100
AcDbText
 10
4.032583333333333
 20
-6.482694444444444
 30
0.0
 40
0.5
  1
0.125000
100
AcDbAttributeDefinition
  3

  2
J
 70
     8
280
     0
  0
ATTDEF
  5
117
330
108
100
AcDbEntity
  8
AM_6
100
AcDbText
 10
4.032583333333333
 20
-6.982694444444444
 30
0.0
 40
0.5
  1
baldor
100
AcDbAttributeDefinition
  3

  2
COMPANY
 70
     8
280
     0
  0
LINE
  5
118
330
108
100
AcDbEntity
  8
AM_9
100
AcDbLine
 10
-1.807416666666667
 20
-1.591025660795741
 30
0.0
 11
-1.868416666666667
 21
-1.591025660795741
 31
0.0
  0
LINE
  5
119
330
108
100
AcDbEntity
  8
AM_9
100
AcDbLine
 10
-1.807416666666667
 20
-1.735363228093148
 30
0.0
 11
-1.868416666666667
 21
-1.735363228093148
 31
0.0
  0
LINE
  5
11A
330
108
100
AcDbEntity
  8
AM_9
100
AcDbLine
 10
-1.807416666666667
 20
-1.591025660795741
 30
0.0
 11
-1.807416666666667
 21
-1.735363228093148
 31
0.0
  0
LINE
  5
11B
330
108
100
AcDbEntity
  8
AM_9
100
AcDbLine
 10
-1.807416666666667
 20
-1.627110052620093
 30
0.0
 11
-1.868416666666667
 21
-1.627110052620093
 31
0.0
  0
LINE
  5
11C
330
108
100
AcDbEntity
  8
AM_9
100
AcDbLine
 10
-1.807416666666667
 20
-1.699278836268796
 30
0.0
 11
-1.868416666666667
 21
-1.699278836268796
 31
0.0
  0
LINE
  5
11D
330
108
100
AcDbEntity
  8
AM_9
100
AcDbLine
 10
-0.9674166666666667
 20
-1.586794444444444
 30
0.0
 11
-0.9674166666666667
 21
-1.739594444444444
 31
0.0
  0
LINE
  5
11E
330
108
100
AcDbEntity
  8
AM_9
100
AcDbLine
 10
-0.9674166666666667
 20
-1.586794444444444
 30
0.0
 11
-0.9860166666666668
 21
-1.568194444444444
 31
0.0
  0
LINE
  5
11F
330
108
100
AcDbEntity
  8
AM_9
100
AcDbLine
 10
-0.9860166666666668
 20
-1.758194444444444
 30
0.0
 11
-0.9674166666666667
 21
-1.739594444444444
 31
0.0
  0
LINE
  5
120
330
108
100
AcDbEntity
  8
AM_9
100
AcDbLine
 10
-0.9860166666666668
 20
-1.568194444444444
 30
0.0
 11
-0.9860166666666668
 21
-1.758194444444444
 31
0.0
  0
LINE
  5
121
330
108
100
AcDbEntity
  8
AM_9
100
AcDbLine
 10
-1.767416666666667
 20
-1.758194444444444
 30
0.0
 11
-0.9860166666666668
 21
-1.758194444444444
 31
0.0
  0
LINE
  5
122
330
108
100
AcDbEntity
  8
AM_9
100
AcDbLine
 10
-0.9860166666666668
 20
-1.568194444444444
 30
0.0
 11
-1.767416666666667
 21
-1.568194444444444
 31
0.0
  0
LINE
  5
124
330
108
100
AcDbEntity
  8
AM_5
100
AcDbLine
 10
-1.687416666666667
 20
-1.739594444444444
 30
0.0
 11
-1.719632811687448
 21
-1.758194444444444
 31
0.0
  0
LINE
  5
125
330
108
100
AcDbEntity
  8
AM_5
100
AcDbLine
 10
-1.687416666666667
 20
-1.568194479479496
 30
0.0
 11
-1.687416666666667
 21
-1.758194598016309
 31
0.0
  0
LINE
  5
126
330
108
100
AcDbEntity
  8
AM_5
100
AcDbLine
 10
-1.687416666666667
 20
-1.586794444444444
 30
0.0
 11
-1.719632811687449
 21
-1.568194444444444
 31
0.0
  0
LINE
  5
128
330
108
100
AcDbEntity
  8
AM_4
100
AcDbLine
 10
-1.868416666666667
 20
-1.563694444444444
 30
0.0
 11
-1.868416666666667
 21
-1.762694444444445
 31
0.0
  0
ARC
  5
129
330
108
100
AcDbEntity
  8
AM_4
100
AcDbCircle
 10
-1.787416666666667
 20
-1.762694444444444
 30
0.0
 40
0.0810000000000002
100
AcDbArc
 50
179.9999991462263
 51
270.0
  0
ARC
  5
12A
330
108
100
AcDbEntity
  8
AM_4
100
AcDbCircle
 10
-1.787416666666667
 20
-1.563694444444445
 30
0.0
 40
0.0810000000000002
100
AcDbArc
 50
90.0
 51
179.9999991462263
  0
LINE
  5
12B
330
108
100
AcDbEntity
  8
AM_4
100
AcDbLine
 10
-1.787416666666667
 20
-1.482694444444445
 30
0.0
 11
-1.787416666666667
 21
-1.843694444444444
 31
0.0
  0
LINE
  5
12C
330
108
100
AcDbEntity
  8
AM_4
100
AcDbLine
 10
-1.787416666666667
 20
-1.843694444444444
 30
0.0
 11
-1.767416666666667
 21
-1.843694444444444
 31
0.0
  0
LINE
  5
12D
330
108
100
AcDbEntity
  8
AM_4
100
AcDbLine
 10
-1.767416666666667
 20
-1.482694444444445
 30
0.0
 11
-1.787416666666667
 21
-1.482694444444445
 31
0.0
  0
ENDBLK
  5
10B
330
108
100
AcDbEntity
  8
0
100
AcDbBlockEnd
  0
BLOCK
  5
130
330
12E
100
AcDbEntity
  8
0
100
AcDbBlockBegin
  2
4_ASME_B18_3_10_2_0_in_069384_2
 70
     2
 10
0.0
 20
0.0
 30
0.0
  3
4_ASME_B18_3_10_2_0_in_069384_2
  1

  0
ATTDEF
  5
132
330
12E
100
AcDbEntity
  8
AM_6
100
AcDbText
 10
4.032583333333333
 20
1.843694444444444
 30
0.0
 40
0.5
  1
ANSI/ASME B18.3-1998
100
AcDbAttributeDefinition
  3

  2
NN
 70
     8
280
     0
  0
ATTDEF
  5
133
330
12E
100
AcDbEntity
  8
AM_6
100
AcDbText
 10
4.032583333333333
 20
1.343694444444444
 30
0.0
 40
0.5
  1
Socket Button Head Cap Screws
100
AcDbAttributeDefinition
  3

  2
NT
 70
     8
280
     0
  0
ATTDEF
  5
134
330
12E
100
AcDbEntity
  8
AM_6
100
AcDbText
 10
4.032583333333333
 20
0.8436944444444443
 30
0.0
 40
0.5
  1
ASME B18.3-10
100
AcDbAttributeDefinition
  3

  2
NB
 70
     8
280
     0
  0
ATTDEF
  5
135
330
12E
100
AcDbEntity
  8
AM_6
100
AcDbText
 10
4.032583333333333
 20
0.3436944444444443
 30
0.0
 40
0.5
  1
ASME B18.3-$NS.
100
AcDbAttributeDefinition
  3

  2
NBSYN
 70
     8
280
     0
  0
ATTDEF
  5
136
330
12E
100
AcDbEntity
  8
AM_6
100
AcDbText
 10
4.032583333333333
 20
-0.1563055555555557
 30
0.0
 40
0.5
  1
ASME B18.3-10
100
AcDbAttributeDefinition
  3

  2
LINA
 70
     8
280
     0
  0
ATTDEF
  5
137
330
12E
100
AcDbEntity
  8
AM_6
100
AcDbText
 10
4.032583333333333
 20
-0.6563055555555557
 30
0.0
 40
0.5
  1
10
100
AcDbAttributeDefinition
  3

  2
NS
 70
     8
280
     0
  0
ATTDEF
  5
138
330
12E
100
AcDbEntity
  8
AM_6
100
AcDbText
 10
4.032583333333333
 20
-1.156305555555556
 30
0.0
 40
0.5
  1
0.361
100
AcDbAttributeDefinition
  3

  2
A
 70
     8
280
     0
  0
ATTDEF
  5
139
330
12E
100
AcDbEntity
  8
AM_6
100
AcDbText
 10
4.032583333333333
 20
-1.656305555555556
 30
0.0
 40
0.5
  1
0.101
100
AcDbAttributeDefinition
  3

  2
H
 70
     8
280
     0
  0
ATTDEF
  5
13A
330
12E
100
AcDbEntity
  8
AM_6
100
AcDbText
 10
4.032583333333333
 20
-2.156305555555556
 30
0.0
 40
0.5
  1
0.800
100
AcDbAttributeDefinition
  3

  2
L
 70
     8
280
     0
  0
ATTDEF
  5
13B
330
12E
100
AcDbEntity
  8
AM_6
100
AcDbText
 10
4.032583333333333
 20
-2.656305555555556
 30
0.0
 40
0.5
  1
0.020
100
AcDbAttributeDefinition
  3

  2
S
 70
     8
280
     0
  0
ATTDEF
  5
13C
330
12E
100
AcDbEntity
  8
AM_6
100
AcDbText
 10
4.032583333333333
 20
-3.156305555555556
 30
0.0
 40
0.5
  1
0.125000
100
AcDbAttributeDefinition
  3

  2
J
 70
     8
280
     0
  0
ATTDEF
  5
13D
330
12E
100
AcDbEntity
  8
AM_6
100
AcDbText
 10
4.032583333333333
 20
-3.656305555555556
 30
0.0
 40
0.5
  1
baldor
100
AcDbAttributeDefinition
  3

  2
COMPANY
 70
     8
280
     0
  0
LINE
  5
13E
330
12E
100
AcDbEntity
  8
AM_9
100
AcDbLine
 10
-1.807416666666667
 20
1.735363228093148
 30
0.0
 11
-1.868416666666667
 21
1.735363228093148
 31
0.0
  0
LINE
  5
13F
330
12E
100
AcDbEntity
  8
AM_9
100
AcDbLine
 10
-1.807416666666667
 20
1.591025660795741
 30
0.0
 11
-1.868416666666667
 21
1.591025660795741
 31
0.0
  0
LINE
  5
140
330
12E
100
AcDbEntity
  8
AM_9
100
AcDbLine
 10
-1.807416666666667
 20
1.735363228093148
 30
0.0
 11
-1.807416666666667
 21
1.591025660795741
 31
0.0
  0
LINE
  5
141
330
12E
100
AcDbEntity
  8
AM_9
100
AcDbLine
 10
-1.807416666666667
 20
1.699278836268796
 30
0.0
 11
-1.868416666666667
 21
1.699278836268796
 31
0.0
  0
LINE
  5
142
330
12E
100
AcDbEntity
  8
AM_9
100
AcDbLine
 10
-1.807416666666667
 20
1.627110052620093
 30
0.0
 11
-1.868416666666667
 21
1.627110052620093
 31
0.0
  0
LINE
  5
143
330
12E
100
AcDbEntity
  8
AM_9
100
AcDbLine
 10
-0.9674166666666667
 20
1.739594444444444
 30
0.0
 11
-0.9674166666666667
 21
1.586794444444444
 31
0.0
  0
LINE
  5
144
330
12E
100
AcDbEntity
  8
AM_9
100
AcDbLine
 10
-0.9674166666666667
 20
1.739594444444444
 30
0.0
 11
-0.9860166666666668
 21
1.758194444444444
 31
0.0
  0
LINE
  5
145
330
12E
100
AcDbEntity
  8
AM_9
100
AcDbLine
 10
-0.9860166666666668
 20
1.568194444444444
 30
0.0
 11
-0.9674166666666667
 21
1.586794444444444
 31
0.0
  0
LINE
  5
146
330
12E
100
AcDbEntity
  8
AM_9
100
AcDbLine
 10
-0.9860166666666668
 20
1.758194444444444
 30
0.0
 11
-0.9860166666666668
 21
1.568194444444444
 31
0.0
  0
LINE
  5
147
330
12E
100
AcDbEntity
  8
AM_9
100
AcDbLine
 10
-1.767416666666667
 20
1.568194444444444
 30
0.0
 11
-0.9860166666666668
 21
1.568194444444444
 31
0.0
  0
LINE
  5
148
330
12E
100
AcDbEntity
  8
AM_9
100
AcDbLine
 10
-0.9860166666666668
 20
1.758194444444444
 30
0.0
 11
-1.767416666666667
 21
1.758194444444444
 31
0.0
  0
LINE
  5
149
330
12E
100
AcDbEntity
  8
AM_5
100
AcDbLine
 10
-1.687416666666667
 20
1.586794444444444
 30
0.0
 11
-1.719632811687448
 21
1.568194444444444
 31
0.0
  0
LINE
  5
14A
330
12E
100
AcDbEntity
  8
AM_5
100
AcDbLine
 10
-1.687416666666667
 20
1.758194598016309
 30
0.0
 11
-1.687416666666667
 21
1.568194479479496
 31
0.0
  0
LINE
  5
14B
330
12E
100
AcDbEntity
  8
AM_5
100
AcDbLine
 10
-1.687416666666667
 20
1.739594444444444
 30
0.0
 11
-1.719632811687448
 21
1.758194444444444
 31
0.0
  0
LINE
  5
14C
330
12E
100
AcDbEntity
  8
AM_4
100
AcDbLine
 10
-1.868416666666667
 20
1.762694444444445
 30
0.0
 11
-1.868416666666667
 21
1.563694444444444
 31
0.0
  0
ARC
  5
14D
330
12E
100
AcDbEntity
  8
AM_4
100
AcDbCircle
 10
-1.787416666666667
 20
1.563694444444445
 30
0.0
 40
0.0810000000000002
100
AcDbArc
 50
179.9999991462263
 51
270.0
  0
ARC
  5
14E
330
12E
100
AcDbEntity
  8
AM_4
100
AcDbCircle
 10
-1.787416666666667
 20
1.762694444444444
 30
0.0
 40
0.0810000000000002
100
AcDbArc
 50
90.0
 51
179.9999991462263
  0
LINE
  5
14F
330
12E
100
AcDbEntity
  8
AM_4
100
AcDbLine
 10
-1.787416666666667
 20
1.843694444444444
 30
0.0
 11
-1.787416666666667
 21
1.482694444444445
 31
0.0
  0
LINE
  5
150
330
12E
100
AcDbEntity
  8
AM_4
100
AcDbLine
 10
-1.787416666666667
 20
1.482694444444445
 30
0.0
 11
-1.767416666666667
 21
1.482694444444445
 31
0.0
  0
LINE
  5
151
330
12E
100
AcDbEntity
  8
AM_4
100
AcDbLine
 10
-1.767416666666667
 20
1.843694444444444
 30
0.0
 11
-1.787416666666667
 21
1.843694444444444
 31
0.0
  0
ENDBLK
  5
131
330
12E
100
AcDbEntity
  8
0
100
AcDbBlockEnd
  0
BLOCK
  5
154
330
152
100
AcDbEntity
  8
0
100
AcDbBlockBegin
  2
5_070896LW_0_in_069384_2
 70
     2
 10
0.0
 20
0.0
 30
0.0
  3
5_070896LW_0_in_069384_2
  1

  0
ATTDEF
  5
156
330
152
100
AcDbEntity
  8
AM_6
100
AcDbText
 10
3.672583333333333
 20
1.9375
 30
0.0
 40
0.5
  1
Imperial Insert Lockwasher -Inch
100
AcDbAttributeDefinition
  3

  2
NN
 70
     8
280
     0
  0
ATTDEF
  5
157
330
152
100
AcDbEntity
  8
AM_6
100
AcDbText
 10
3.672583333333333
 20
1.4375
 30
0.0
 40
0.5
  1
Imperial Bearings
100
AcDbAttributeDefinition
  3

  2
NT
 70
     8
280
     0
  0
ATTDEF
  5
158
330
152
100
AcDbEntity
  8
AM_6
100
AcDbText
 10
3.672583333333333
 20
0.9375000000000002
 30
0.0
 40
0.5
  1
070896LW
100
AcDbAttributeDefinition
  3

  2
NB
 70
     8
280
     0
  0
ATTDEF
  5
159
330
152
100
AcDbEntity
  8
AM_6
100
AcDbText
 10
3.672583333333333
 20
0.4375000000000002
 30
0.0
 40
0.5
  1
$PN.LW
100
AcDbAttributeDefinition
  3

  2
NBSYN
 70
     8
280
     0
  0
ATTDEF
  5
15A
330
152
100
AcDbEntity
  8
AM_6
100
AcDbText
 10
3.672583333333333
 20
-0.0624999999999998
 30
0.0
 40
0.5
  1
070896
100
AcDbAttributeDefinition
  3

  2
LINA
 70
     8
280
     0
  0
ATTDEF
  5
15B
330
152
100
AcDbEntity
  8
AM_6
100
AcDbText
 10
3.672583333333333
 20
-0.5624999999999998
 30
0.0
 40
0.5
  1
2-1/2
100
AcDbAttributeDefinition
  3

  2
SS
 70
     8
280
     0
  0
ATTDEF
  5
15C
330
152
100
AcDbEntity
  8
AM_6
100
AcDbText
 10
3.672583333333333
 20
-1.0625
 30
0.0
 40
0.5
  1
2.500000
100
AcDbAttributeDefinition
  3

  2
SS1
 70
     8
280
     0
  0
ATTDEF
  5
15D
330
152
100
AcDbEntity
  8
AM_6
100
AcDbText
 10
3.672583333333333
 20
-1.5625
 30
0.0
 40
0.5
  1
070896
100
AcDbAttributeDefinition
  3

  2
PN
 70
     8
280
     0
  0
ATTDEF
  5
15E
330
152
100
AcDbEntity
  8
AM_6
100
AcDbText
 10
3.672583333333333
 20
-2.0625
 30
0.0
 40
0.5
  1
INS-IP-208R
100
AcDbAttributeDefinition
  3

  2
DESCRIPTION
 70
     8
280
     0
  0
ATTDEF
  5
15F
330
152
100
AcDbEntity
  8
AM_6
100
AcDbText
 10
3.672583333333333
 20
-2.5625
 30
0.0
 40
0.5
  1
4.7241
100
AcDbAttributeDefinition
  3

  2
A
 70
     8
280
     0
  0
ATTDEF
  5
160
330
152
100
AcDbEntity
  8
AM_6
100
AcDbText
 10
3.672583333333333
 20
-3.0625
 30
0.0
 40
0.5
  1
1-9/32
100
AcDbAttributeDefinition
  3

  2
B
 70
     8
280
     0
  0
ATTDEF
  5
161
330
152
100
AcDbEntity
  8
AM_6
100
AcDbText
 10
3.672583333333333
 20
-3.5625
 30
0.0
 40
0.5
  1
3-27/64
100
AcDbAttributeDefinition
  3

  2
C
 70
     8
280
     0
  0
ATTDEF
  5
162
330
152
100
AcDbEntity
  8
AM_6
100
AcDbText
 10
3.672583333333333
 20
-4.0625
 30
0.0
 40
0.5
  1
1.208
100
AcDbAttributeDefinition
  3

  2
D
 70
     8
280
     0
  0
ATTDEF
  5
163
330
152
100
AcDbEntity
  8
AM_6
100
AcDbText
 10
3.672583333333333
 20
-4.5625
 30
0.0
 40
0.5
  1
3-7/8
100
AcDbAttributeDefinition
  3

  2
E
 70
     8
280
     0
  0
ATTDEF
  5
164
330
152
100
AcDbEntity
  8
AM_6
100
AcDbText
 10
3.672583333333333
 20
-5.0625
 30
0.0
 40
0.5
  1
0.1900
100
AcDbAttributeDefinition
  3

  2
NDM
 70
     8
280
     0
  0
ATTDEF
  5
165
330
152
100
AcDbEntity
  8
AM_6
100
AcDbText
 10
3.672583333333333
 20
-5.5625
 30
0.0
 40
0.5
  1
0.1450
100
AcDbAttributeDefinition
  3

  2
KDM
 70
     8
280
     0
  0
ATTDEF
  5
166
330
152
100
AcDbEntity
  8
AM_6
100
AcDbText
 10
3.672583333333333
 20
-6.0625
 30
0.0
 40
0.5
  1
3.35
100
AcDbAttributeDefinition
  3

  2
AL
 70
     8
280
     0
  0
ATTDEF
  5
167
330
152
100
AcDbEntity
  8
AM_6
100
AcDbText
 10
3.672583333333333
 20
-6.5625
 30
0.0
 40
0.5
  1
0.50
100
AcDbAttributeDefinition
  3

  2
BL
 70
     8
280
     0
  0
ATTDEF
  5
168
330
152
100
AcDbEntity
  8
AM_6
100
AcDbText
 10
3.672583333333333
 20
-7.0625
 30
0.0
 40
0.5
  1
0.07
100
AcDbAttributeDefinition
  3

  2
CL
 70
     8
280
     0
  0
ATTDEF
  5
169
330
152
100
AcDbEntity
  8
AM_6
100
AcDbText
 10
3.672583333333333
 20
-7.5625
 30
0.0
 40
0.5
  1
0.44
100
AcDbAttributeDefinition
  3

  2
DL
 70
     8
280
     0
  0
ATTDEF
  5
16A
330
152
100
AcDbEntity
  8
AM_6
100
AcDbText
 10
3.672583333333333
 20
-8.0625
 30
0.0
 40
0.5
  1
baldor
100
AcDbAttributeDefinition
  3

  2
COMPANY
 70
     8
280
     0
  0
LINE
  5
16B
330
152
100
AcDbEntity
  8
AM_9
100
AcDbLine
 10
-1.697416666666667
 20
1.195297772896251
 30
0.0
 11
-1.767416666666667
 21
1.195297772896251
 31
0.0
  0
LINE
  5
16C
330
152
100
AcDbEntity
  8
AM_9
100
AcDbLine
 10
-1.327416666666667
 20
1.162297567155935
 30
0.0
 11
-1.697416666666667
 21
1.162297567155935
 31
0.0
  0
LINE
  5
16D
330
152
100
AcDbEntity
  8
AM_9
100
AcDbLine
 10
-1.327416666666667
 20
1.101225231265198
 30
0.0
 11
-1.767416666666667
 21
1.101225231265198
 31
0.0
  0
LINE
  5
16E
330
152
100
AcDbEntity
  8
AM_9
100
AcDbLine
 10
-1.697416666666667
 20
1.257968425247207
 30
0.0
 11
-1.327416666666667
 21
1.257968425247207
 31
0.0
  0
LINE
  5
16F
330
152
100
AcDbEntity
  8
AM_9
100
AcDbLine
 10
-1.327416666666667
 20
1.19689608935647
 30
0.0
 11
-1.767416666666667
 21
1.19689608935647
 31
0.0
  0
LINE
  5
170
330
152
100
AcDbEntity
  8
AM_9
100
AcDbLine
 10
-1.327416666666667
 20
1.101225231265198
 30
0.0
 11
-1.327416666666667
 21
1.257968425247207
 31
0.0
  0
LINE
  5
171
330
152
100
AcDbEntity
  8
AM_9
100
AcDbLine
 10
-1.697416666666667
 20
1.290968630987523
 30
0.0
 11
-1.767416666666667
 21
1.290968630987523
 31
0.0
  0
LINE
  5
172
330
152
100
AcDbEntity
  8
AM_9
100
AcDbLine
 10
-1.697416666666667
 20
1.663194444444444
 30
0.0
 11
-1.767416666666667
 21
1.663194444444444
 31
0.0
  0
LINE
  5
173
330
152
100
AcDbEntity
  8
AM_9
100
AcDbLine
 10
-1.697416666666667
 20
1.75823324298871
 30
0.0
 11
-1.767416666666667
 21
1.75823324298871
 31
0.0
  0
LINE
  5
174
330
152
100
AcDbEntity
  8
AM_9
100
AcDbLine
 10
-1.697416666666667
 20
-1.663194444444444
 30
0.0
 11
-1.767416666666667
 21
-1.663194444444444
 31
0.0
  0
LINE
  5
175
330
152
100
AcDbEntity
  8
AM_9
100
AcDbLine
 10
-1.767416666666667
 20
-1.758233242988709
 30
0.0
 11
-1.697416666666667
 21
-1.758233242988709
 31
0.0
  0
LINE
  5
176
330
152
100
AcDbEntity
  8
AM_9
100
AcDbLine
 10
-1.697416666666667
 20
1.348007965406408
 30
0.0
 11
-1.767416666666667
 21
1.348007965406408
 31
0.0
  0
LINE
  5
177
330
152
100
AcDbEntity
  8
AM_9
100
AcDbLine
 10
-1.697416666666667
 20
-1.348007965406408
 30
0.0
 11
-1.767416666666667
 21
-1.348007965406408
 31
0.0
  0
LINE
  5
178
330
152
100
AcDbEntity
  8
AM_9
100
AcDbLine
 10
-1.697416666666667
 20
1.020360717645074
 30
0.0
 11
-1.767416666666667
 21
1.020360717645073
 31
0.0
  0
LINE
  5
179
330
152
100
AcDbEntity
  8
AM_9
100
AcDbLine
 10
-1.697416666666667
 20
-1.020360717645074
 30
0.0
 11
-1.767416666666667
 21
-1.020360717645074
 31
0.0
  0
LINE
  5
17A
330
152
100
AcDbEntity
  8
AM_9
100
AcDbLine
 10
-1.697416666666667
 20
0.8860104292196302
 30
0.0
 11
-1.767416666666667
 21
0.8860104292196302
 31
0.0
  0
LINE
  5
17B
330
152
100
AcDbEntity
  8
AM_9
100
AcDbLine
 10
-1.697416666666667
 20
-0.8860104292196292
 30
0.0
 11
-1.767416666666667
 21
-0.8860104292196292
 31
0.0
  0
LINE
  5
17C
330
152
100
AcDbEntity
  8
AM_9
100
AcDbLine
 10
-1.697416666666667
 20
1.243231214311181
 30
0.0
 11
-1.767416666666667
 21
1.243231214311181
 31
0.0
  0
LINE
  5
17D
330
152
100
AcDbEntity
  8
AM_9
100
AcDbLine
 10
-1.697416666666667
 20
1.108880925885738
 30
0.0
 11
-1.767416666666667
 21
1.108880925885738
 31
0.0
  0
LINE
  5
17E
330
152
100
AcDbEntity
  8
AM_9
100
AcDbLine
 10
-1.697416666666667
 20
1.271083507131789
 30
0.0
 11
-1.767416666666667
 21
1.271083507131789
 31
0.0
  0
LINE
  5
17F
330
152
100
AcDbEntity
  8
AM_9
100
AcDbLine
 10
-1.697416666666667
 20
-1.108880925885736
 30
0.0
 11
-1.767416666666667
 21
-1.108880925885736
 31
0.0
  0
LINE
  5
180
330
152
100
AcDbEntity
  8
AM_9
100
AcDbLine
 10
-1.697416666666667
 20
-1.243231214311192
 30
0.0
 11
-1.767416666666667
 21
-1.243231214311192
 31
0.0
  0
LINE
  5
181
330
152
100
AcDbEntity
  8
AM_9
100
AcDbLine
 10
-1.767416666666667
 20
-1.271083507131788
 30
0.0
 11
-1.697416666666667
 21
-1.271083507131788
 31
0.0
  0
LINE
  5
182
330
152
100
AcDbEntity
  8
AM_9
100
AcDbLine
 10
-1.697416666666667
 20
0.0950000000000005
 30
0.0
 11
-1.767416666666667
 21
0.0950000000000006
 31
0.0
  0
LINE
  5
183
330
152
100
AcDbEntity
  8
AM_9
100
AcDbLine
 10
-1.697416666666667
 20
-0.0949999999999993
 30
0.0
 11
-1.767416666666667
 21
-0.0949999999999993
 31
0.0
  0
LINE
  5
184
330
152
100
AcDbEntity
  8
AM_4
100
AcDbLine
 10
-1.697416666666667
 20
1.9375
 30
0.0
 11
-1.767416666666667
 21
1.9375
 31
0.0
  0
LINE
  5
185
330
152
100
AcDbEntity
  8
AM_4
100
AcDbLine
 10
-1.767416666666667
 20
-1.9375
 30
0.0
 11
-1.697416666666667
 21
-1.9375
 31
0.0
  0
LINE
  5
186
330
152
100
AcDbEntity
  8
AM_4
100
AcDbLine
 10
-1.767416666666667
 20
1.9375
 30
0.0
 11
-1.767416666666667
 21
-1.9375
 31
0.0
  0
LINE
  5
187
330
152
100
AcDbEntity
  8
AM_4
100
AcDbLine
 10
-1.697416666666667
 20
1.9375
 30
0.0
 11
-1.697416666666667
 21
-1.9375
 31
0.0
  0
ENDBLK
  5
155
330
152
100
AcDbEntity
  8
0
100
AcDbBlockEnd
  0
BLOCK
  5
18A
330
188
100
AcDbEntity
  8
0
100
AcDbBlockBegin
  2
6_070896I_0_in_069384_2
 70
     2
 10
0.0
 20
0.0
 30
0.0
  3
6_070896I_0_in_069384_2
  1

  0
ATTDEF
  5
18C
330
188
100
AcDbEntity
  8
AM_6
100
AcDbText
 10
6.65046875
 20
2.36205
 30
0.0
 40
0.5
  1
Imperial Insert -Inch
100
AcDbAttributeDefinition
  3

  2
NN
 70
     8
280
     0
  0
ATTDEF
  5
18D
330
188
100
AcDbEntity
  8
AM_6
100
AcDbText
 10
6.65046875
 20
1.86205
 30
0.0
 40
0.5
  1
Imperial Bearings
100
AcDbAttributeDefinition
  3

  2
NT
 70
     8
280
     0
  0
ATTDEF
  5
18E
330
188
100
AcDbEntity
  8
AM_6
100
AcDbText
 10
6.65046875
 20
1.36205
 30
0.0
 40
0.5
  1
070896I
100
AcDbAttributeDefinition
  3

  2
NB
 70
     8
280
     0
  0
ATTDEF
  5
18F
330
188
100
AcDbEntity
  8
AM_6
100
AcDbText
 10
6.65046875
 20
0.8620500000000004
 30
0.0
 40
0.5
  1
$PN.I
100
AcDbAttributeDefinition
  3

  2
NBSYN
 70
     8
280
     0
  0
ATTDEF
  5
190
330
188
100
AcDbEntity
  8
AM_6
100
AcDbText
 10
6.65046875
 20
0.3620500000000004
 30
0.0
 40
0.5
  1
070896
100
AcDbAttributeDefinition
  3

  2
LINA
 70
     8
280
     0
  0
ATTDEF
  5
191
330
188
100
AcDbEntity
  8
AM_6
100
AcDbText
 10
6.65046875
 20
-0.1379499999999996
 30
0.0
 40
0.5
  1
2-1/2
100
AcDbAttributeDefinition
  3

  2
SS
 70
     8
280
     0
  0
ATTDEF
  5
192
330
188
100
AcDbEntity
  8
AM_6
100
AcDbText
 10
6.65046875
 20
-0.6379499999999996
 30
0.0
 40
0.5
  1
2.500000
100
AcDbAttributeDefinition
  3

  2
SS1
 70
     8
280
     0
  0
ATTDEF
  5
193
330
188
100
AcDbEntity
  8
AM_6
100
AcDbText
 10
6.65046875
 20
-1.13795
 30
0.0
 40
0.5
  1
070896
100
AcDbAttributeDefinition
  3

  2
PN
 70
     8
280
     0
  0
ATTDEF
  5
194
330
188
100
AcDbEntity
  8
AM_6
100
AcDbText
 10
6.65046875
 20
-1.63795
 30
0.0
 40
0.5
  1
INS-IP-208R
100
AcDbAttributeDefinition
  3

  2
DESCRIPTION
 70
     8
280
     0
  0
ATTDEF
  5
195
330
188
100
AcDbEntity
  8
AM_6
100
AcDbText
 10
6.65046875
 20
-2.13795
 30
0.0
 40
0.5
  1
Contact Seal
100
AcDbAttributeDefinition
  3

  2
ST
 70
     8
280
     0
  0
ATTDEF
  5
196
330
188
100
AcDbEntity
  8
AM_6
100
AcDbText
 10
6.65046875
 20
-2.63795
 30
0.0
 40
0.5
  1
4.7241
100
AcDbAttributeDefinition
  3

  2
A
 70
     8
280
     0
  0
ATTDEF
  5
197
330
188
100
AcDbEntity
  8
AM_6
100
AcDbText
 10
6.65046875
 20
-3.13795
 30
0.0
 40
0.5
  1
1-9/32
100
AcDbAttributeDefinition
  3

  2
B
 70
     8
280
     0
  0
ATTDEF
  5
198
330
188
100
AcDbEntity
  8
AM_6
100
AcDbText
 10
6.65046875
 20
-3.63795
 30
0.0
 40
0.5
  1
3-27/64
100
AcDbAttributeDefinition
  3

  2
C
 70
     8
280
     0
  0
ATTDEF
  5
199
330
188
100
AcDbEntity
  8
AM_6
100
AcDbText
 10
6.65046875
 20
-4.13795
 30
0.0
 40
0.5
  1
1.208
100
AcDbAttributeDefinition
  3

  2
D
 70
     8
280
     0
  0
ATTDEF
  5
19A
330
188
100
AcDbEntity
  8
AM_6
100
AcDbText
 10
6.65046875
 20
-4.63795
 30
0.0
 40
0.5
  1
3-7/8
100
AcDbAttributeDefinition
  3

  2
E
 70
     8
280
     0
  0
ATTDEF
  5
19B
330
188
100
AcDbEntity
  8
AM_6
100
AcDbText
 10
6.65046875
 20
-5.13795
 30
0.0
 40
0.5
  1
0.1900
100
AcDbAttributeDefinition
  3

  2
NDM
 70
     8
280
     0
  0
ATTDEF
  5
19C
330
188
100
AcDbEntity
  8
AM_6
100
AcDbText
 10
6.65046875
 20
-5.63795
 30
0.0
 40
0.5
  1
0.101
100
AcDbAttributeDefinition
  3

  2
H
 70
     8
280
     0
  0
ATTDEF
  5
19D
330
188
100
AcDbEntity
  8
AM_6
100
AcDbText
 10
6.65046875
 20
-6.13795
 30
0.0
 40
0.5
  1
0.1450
100
AcDbAttributeDefinition
  3

  2
KDM
 70
     8
280
     0
  0
ATTDEF
  5
19E
330
188
100
AcDbEntity
  8
AM_6
100
AcDbText
 10
6.65046875
 20
-6.63795
 30
0.0
 40
0.5
  1
3.35
100
AcDbAttributeDefinition
  3

  2
AL
 70
     8
280
     0
  0
ATTDEF
  5
19F
330
188
100
AcDbEntity
  8
AM_6
100
AcDbText
 10
6.65046875
 20
-7.13795
 30
0.0
 40
0.5
  1
0.50
100
AcDbAttributeDefinition
  3

  2
BL
 70
     8
280
     0
  0
ATTDEF
  5
1A0
330
188
100
AcDbEntity
  8
AM_6
100
AcDbText
 10
6.65046875
 20
-7.63795
 30
0.0
 40
0.5
  1
0.07
100
AcDbAttributeDefinition
  3

  2
CL
 70
     8
280
     0
  0
ATTDEF
  5
1A1
330
188
100
AcDbEntity
  8
AM_6
100
AcDbText
 10
6.65046875
 20
-8.13795
 30
0.0
 40
0.5
  1
0.44
100
AcDbAttributeDefinition
  3

  2
DL
 70
     8
280
     0
  0
ATTDEF
  5
1A2
330
188
100
AcDbEntity
  8
AM_6
100
AcDbText
 10
6.65046875
 20
-8.63795
 30
0.0
 40
0.5
  1
0.8000
100
AcDbAttributeDefinition
  3

  2
LL
 70
     8
280
     0
  0
ATTDEF
  5
1A3
330
188
100
AcDbEntity
  8
AM_6
100
AcDbText
 10
6.65046875
 20
-9.13795
 30
0.0
 40
0.5
  1
0.025
100
AcDbAttributeDefinition
  3

  2
Y
 70
     8
280
     0
  0
ATTDEF
  5
1A4
330
188
100
AcDbEntity
  8
AM_6
100
AcDbText
 10
6.65046875
 20
-9.63795
 30
0.0
 40
0.5
  1
0.025000
100
AcDbAttributeDefinition
  3

  2
Y1
 70
     8
280
     0
  0
ATTDEF
  5
1A5
330
188
100
AcDbEntity
  8
AM_6
100
AcDbText
 10
6.65046875
 20
-10.13795
 30
0.0
 40
0.5
  1
2-15/16
100
AcDbAttributeDefinition
  3

  2
Z
 70
     8
280
     0
  0
ATTDEF
  5
1A6
330
188
100
AcDbEntity
  8
AM_6
100
AcDbText
 10
6.65046875
 20
-10.63795
 30
0.0
 40
0.5
  1
2.937500
100
AcDbAttributeDefinition
  3

  2
Z1
 70
     8
280
     0
  0
ATTDEF
  5
1A7
330
188
100
AcDbEntity
  8
AM_6
100
AcDbText
 10
6.65046875
 20
-11.13795
 30
0.0
 40
0.5
  1
baldor
100
AcDbAttributeDefinition
  3

  2
COMPANY
 70
     8
280
     0
  0
LINE
  5
1A8
330
188
100
AcDbEntity
  8
AM_9
100
AcDbLine
 10
0.8857499999999997
 20
1.261190428617456
 30
0.0
 11
-1.697416666666667
 21
1.261190428617456
 31
0.0
  0
LINE
  5
1A9
330
188
100
AcDbEntity
  8
AM_9
100
AcDbLine
 10
0.8857499999999997
 20
1.165519570526183
 30
0.0
 11
-1.697416666666667
 21
1.165519570526183
 31
0.0
  0
LINE
  5
1AA
330
188
100
AcDbEntity
  8
AM_9
100
AcDbLine
 10
-0.8574166666666683
 20
-1.663194444444444
 30
0.0
 11
-0.891200656500016
 21
-1.590744444444445
 31
0.0
  0
LINE
  5
1AB
330
188
100
AcDbEntity
  8
AM_9
100
AcDbLine
 10
-0.891200656500016
 20
-1.735644444444444
 30
0.0
 11
-0.8574166666666683
 21
-1.663194444444444
 31
0.0
  0
LINE
  5
1AC
330
188
100
AcDbEntity
  8
AM_9
100
AcDbLine
 10
-0.8574166666666664
 20
1.663194444444444
 30
0.0
 11
-0.8912006564999958
 21
1.735644444444444
 31
0.0
  0
LINE
  5
1AD
330
188
100
AcDbEntity
  8
AM_9
100
AcDbLine
 10
-0.8912006564999958
 20
1.590744444444445
 30
0.0
 11
-0.8574166666666664
 21
1.663194444444444
 31
0.0
  0
LINE
  5
1AE
330
188
100
AcDbEntity
  8
AM_9
100
AcDbLine
 10
-1.674866666666656
 20
-1.735644444444444
 30
0.0
 11
-0.891200656500016
 21
-1.735644444444444
 31
0.0
  0
LINE
  5
1AF
330
188
100
AcDbEntity
  8
AM_9
100
AcDbLine
 10
-0.891200656500016
 20
-1.590744444444445
 30
0.0
 11
-1.674866666666656
 21
-1.590744444444445
 31
0.0
  0
LINE
  5
1B0
330
188
100
AcDbEntity
  8
AM_9
100
AcDbLine
 10
-0.891200656500016
 20
-1.590744444444445
 30
0.0
 11
-0.891200656500016
 21
-1.735644444444444
 31
0.0
  0
LINE
  5
1B1
330
188
100
AcDbEntity
  8
AM_9
100
AcDbLine
 10
-0.8912006564999958
 20
1.590744444444445
 30
0.0
 11
-0.8912006564999958
 21
1.735644444444444
 31
0.0
  0
LINE
  5
1B2
330
188
100
AcDbEntity
  8
AM_9
100
AcDbLine
 10
-0.8912006564999958
 20
1.735644444444444
 30
0.0
 11
-1.674866666666667
 21
1.735644444444444
 31
0.0
  0
LINE
  5
1B3
330
188
100
AcDbEntity
  8
AM_9
100
AcDbLine
 10
-1.674866666666667
 20
1.590744444444445
 30
0.0
 11
-0.8912006564999958
 21
1.590744444444445
 31
0.0
  0
LINE
  5
1B4
330
188
100
AcDbEntity
  8
AM_9
100
AcDbLine
 10
-1.674866666666667
 20
1.590744444444445
 30
0.0
 11
-1.674866666666667
 21
1.735644444444444
 31
0.0
  0
LINE
  5
1B5
330
188
100
AcDbEntity
  8
AM_9
100
AcDbLine
 10
-1.674866666666667
 20
1.735644444444444
 30
0.0
 11
-1.697416666666667
 21
1.758194444444444
 31
0.0
  0
LINE
  5
1B6
330
188
100
AcDbEntity
  8
AM_9
100
AcDbLine
 10
-1.697416666666667
 20
1.568194444444444
 30
0.0
 11
-1.674866666666667
 21
1.590744444444445
 31
0.0
  0
LINE
  5
1B7
330
188
100
AcDbEntity
  8
AM_9
100
AcDbLine
 10
-1.674866666666656
 20
-1.590744444444445
 30
0.0
 11
-1.697416666666675
 21
-1.568194444444444
 31
0.0
  0
LINE
  5
1B8
330
188
100
AcDbEntity
  8
AM_9
100
AcDbLine
 10
-1.697416666666675
 20
-1.758194444444444
 30
0.0
 11
-1.674866666666656
 21
-1.735644444444444
 31
0.0
  0
LINE
  5
1B9
330
188
100
AcDbEntity
  8
AM_9
100
AcDbLine
 10
-1.674866666666656
 20
-1.590744444444445
 30
0.0
 11
-1.674866666666656
 21
-1.735644444444444
 31
0.0
  0
LINE
  5
1BA
330
188
100
AcDbEntity
  8
AM_9
100
AcDbLine
 10
0.8857499999999997
 20
1.19689608935647
 30
0.0
 11
-1.96875
 21
1.19689608935647
 31
0.0
  0
LINE
  5
1BB
330
188
100
AcDbEntity
  8
AM_9
100
AcDbLine
 10
-1.96875
 20
1.101225231265198
 30
0.0
 11
0.8857499999999997
 21
1.101225231265198
 31
0.0
  0
LINE
  5
1BC
330
188
100
AcDbEntity
  8
AM_9
100
AcDbLine
 10
-0.8957812499999995
 20
1.25
 30
0.0
 11
-1.96875
 21
1.25
 31
0.0
  0
LINE
  5
1BD
330
188
100
AcDbEntity
  8
AM_9
100
AcDbLine
 10
-1.96875
 20
-1.25
 30
0.0
 11
-0.8957812499999998
 21
-1.25
 31
0.0
  0
LINE
  5
1BE
330
188
100
AcDbEntity
  8
AM_9
100
AcDbLine
 10
-1.96875
 20
1.257968425247207
 30
0.0
 11
-1.697416666666667
 21
1.257968425247208
 31
0.0
  0
LINE
  5
1BF
330
188
100
AcDbEntity
  8
AM_9
100
AcDbLine
 10
-1.697416666666667
 20
1.162297567155935
 30
0.0
 11
-1.96875
 21
1.162297567155935
 31
0.0
  0
LINE
  5
1C0
330
188
100
AcDbEntity
  8
AM_9
100
AcDbLine
 10
-1.697416666666667
 20
1.315789473684211
 30
0.0
 11
-1.767416666666667
 21
1.315789473684211
 31
0.0
  0
LINE
  5
1C1
330
188
100
AcDbEntity
  8
AM_9
100
AcDbLine
 10
-1.767416666666667
 20
-1.315789473684211
 30
0.0
 11
-1.697416666666667
 21
-1.315789473684211
 31
0.0
  0
LINE
  5
1C2
330
188
100
AcDbEntity
  8
AM_9
100
AcDbLine
 10
1.453125
 20
1.315789473684211
 30
0.0
 11
0.8857499999999997
 21
1.315789473684211
 31
0.0
  0
LINE
  5
1C3
330
188
100
AcDbEntity
  8
AM_9
100
AcDbLine
 10
0.8857499999999997
 20
-1.315789473684211
 30
0.0
 11
1.453125
 21
-1.315789473684211
 31
0.0
  0
LINE
  5
1C4
330
188
100
AcDbEntity
  8
AM_9
100
AcDbLine
 10
-1.257416666666667
 20
-1.00762716319083
 30
0.0
 11
-1.697416666666667
 21
-1.00762716319083
 31
0.0
  0
LINE
  5
1C5
330
188
100
AcDbEntity
  8
AM_9
100
AcDbLine
 10
-1.257416666666667
 20
1.00762716319083
 30
0.0
 11
-1.697416666666667
 21
1.00762716319083
 31
0.0
  0
LINE
  5
1C6
330
188
100
AcDbEntity
  8
AM_9
100
AcDbLine
 10
1.453125
 20
-1.46875
 30
0.0
 11
1.453125
 21
1.46875
 31
0.0
  0
LINE
  5
1C7
330
188
100
AcDbEntity
  8
AM_9
100
AcDbLine
 10
1.478125
 20
1.46875
 30
0.0
 11
1.453125
 21
1.46875
 31
0.0
  0
LINE
  5
1C8
330
188
100
AcDbEntity
  8
AM_9
100
AcDbLine
 10
1.453125
 20
-1.46875
 30
0.0
 11
1.478125
 21
-1.46875
 31
0.0
  0
LINE
  5
1C9
330
188
100
AcDbEntity
  8
AM_9
100
AcDbLine
 10
-1.257416666666667
 20
-1.00762716319083
 30
0.0
 11
-1.257416666666667
 21
-1.192745529690402
 31
0.0
  0
LINE
  5
1CA
330
188
100
AcDbEntity
  8
AM_9
100
AcDbLine
 10
-1.257416666666667
 20
1.192745529690402
 30
0.0
 11
-1.257416666666667
 21
1.00762716319083
 31
0.0
  0
LINE
  5
1CB
330
188
100
AcDbEntity
  8
AM_9
100
AcDbLine
 10
1.21875
 20
1.631944444444444
 30
0.0
 11
1.142
 21
1.631944444444444
 31
0.0
  0
LINE
  5
1CC
330
188
100
AcDbEntity
  8
AM_9
100
AcDbLine
 10
1.142
 20
-1.631944444444444
 30
0.0
 11
1.21875
 21
-1.631944444444444
 31
0.0
  0
LINE
  5
1CD
330
188
100
AcDbEntity
  8
AM_9
100
AcDbLine
 10
1.478125
 20
-0.4243471835968318
 30
0.0
 11
1.478125
 21
0.4243471835968318
 31
0.0
  0
LINE
  5
1CE
330
188
100
AcDbEntity
  8
AM_9
100
AcDbLine
 10
1.440464743589743
 20
-0.5385028972312951
 30
0.0
 11
1.440464743589743
 21
0.5385028972312951
 31
0.0
  0
LINE
  5
1CF
330
188
100
AcDbEntity
  8
AM_9
100
AcDbLine
 10
-1.21875
 20
-1.954215408330049
 30
0.0
 11
-0.3955000000000001
 21
-1.982963931814131
 31
0.0
  0
LINE
  5
1D0
330
188
100
AcDbEntity
  8
AM_9
100
AcDbLine
 10
-0.3955000000000001
 20
1.982963931814131
 30
0.0
 11
-1.21875
 21
1.954215408330049
 31
0.0
  0
LINE
  5
1D1
330
188
100
AcDbEntity
  8
AM_9
100
AcDbLine
 10
1.141999999999999
 20
-1.956368966601195
 30
0.0
 11
1.141999999999999
 21
1.956368966601195
 31
0.0
  0
ARC
  5
1D2
330
188
100
AcDbEntity
  8
AM_9
100
AcDbCircle
 10
1.041999999999533
 20
1.956368966600926
 30
0.0
 40
0.1000000000004664
100
AcDbArc
 50
0.0
 51
59.99999999984565
  0
ARC
  5
1D3
330
188
100
AcDbEntity
  8
AM_9
100
AcDbCircle
 10
1.041999999999999
 20
-1.956368966601195
 30
0.0
 40
0.1000000000000001
100
AcDbArc
 50
300.0000000000001
 51
0.0
  0
LINE
  5
1D4
330
188
100
AcDbEntity
  8
AM_9
100
AcDbLine
 10
1.092
 20
2.042971506979639
 30
0.0
 11
0.8857499999999997
 21
2.16205
 31
0.0
  0
LINE
  5
1D5
330
188
100
AcDbEntity
  8
AM_9
100
AcDbLine
 10
0.8857499999999997
 20
-2.16205
 30
0.0
 11
1.092
 21
-2.042971506979639
 31
0.0
  0
LINE
  5
1D6
330
188
100
AcDbEntity
  8
AM_9
100
AcDbLine
 10
1.092
 20
-2.042971506979639
 30
0.0
 11
1.092
 21
2.042971506979639
 31
0.0
  0
LINE
  5
1D7
330
188
100
AcDbEntity
  8
AM_9
100
AcDbLine
 10
0.2821115016199602
 20
2.2979875
 30
0.0
 11
0.2081384983800394
 21
2.2979875
 31
0.0
  0
LINE
  5
1D8
330
188
100
AcDbEntity
  8
AM_9
100
AcDbLine
 10
0.2081384983800394
 20
-2.2979875
 30
0.0
 11
0.2821115016199602
 21
-2.2979875
 31
0.0
  0
LINE
  5
1D9
330
188
100
AcDbEntity
  8
AM_9
100
AcDbLine
 10
0.2821115016199602
 20
-2.2979875
 30
0.0
 11
0.3190980032399207
 21
-2.36205
 31
0.0
  0
LINE
  5
1DA
330
188
100
AcDbEntity
  8
AM_9
100
AcDbLine
 10
0.3190980032399207
 20
2.36205
 30
0.0
 11
0.2821115016199602
 21
2.2979875
 31
0.0
  0
LINE
  5
1DB
330
188
100
AcDbEntity
  8
AM_9
100
AcDbLine
 10
0.2821115016199602
 20
-2.2979875
 30
0.0
 11
0.2821115016199602
 21
2.2979875
 31
0.0
  0
LINE
  5
1DC
330
188
100
AcDbEntity
  8
AM_9
100
AcDbLine
 10
0.2081384983800394
 20
2.2979875
 30
0.0
 11
0.1711519967600787
 21
2.36205
 31
0.0
  0
LINE
  5
1DD
330
188
100
AcDbEntity
  8
AM_9
100
AcDbLine
 10
0.1711519967600787
 20
-2.36205
 30
0.0
 11
0.2081384983800394
 21
-2.2979875
 31
0.0
  0
LINE
  5
1DE
330
188
100
AcDbEntity
  8
AM_9
100
AcDbLine
 10
0.2081384983800394
 20
-2.2979875
 30
0.0
 11
0.2081384983800394
 21
2.2979875
 31
0.0
  0
LINE
  5
1DF
330
188
100
AcDbEntity
  8
AM_9
100
AcDbLine
 10
0.83575
 20
2.36205
 30
0.0
 11
0.3190980032399207
 21
2.36205
 31
0.0
  0
LINE
  5
1E0
330
188
100
AcDbEntity
  8
AM_9
100
AcDbLine
 10
0.3190980032399207
 20
-2.36205
 30
0.0
 11
0.83575
 21
-2.36205
 31
0.0
  0
LINE
  5
1E1
330
188
100
AcDbEntity
  8
AM_9
100
AcDbLine
 10
0.3190980032399207
 20
-2.36205
 30
0.0
 11
0.3190980032399207
 21
2.36205
 31
0.0
  0
LINE
  5
1E2
330
188
100
AcDbEntity
  8
AM_9
100
AcDbLine
 10
0.8857499999999997
 20
-2.31205
 30
0.0
 11
0.8857499999999997
 21
2.31205
 31
0.0
  0
ARC
  5
1E3
330
188
100
AcDbEntity
  8
AM_9
100
AcDbCircle
 10
0.8357500000000002
 20
2.31205
 30
0.0
 40
0.0499999999999995
100
AcDbArc
 50
0.0
 51
90.0
  0
ARC
  5
1E4
330
188
100
AcDbEntity
  8
AM_9
100
AcDbCircle
 10
0.8357500000000002
 20
-2.31205
 30
0.0
 40
0.0499999999999998
100
AcDbArc
 50
270.0
 51
0.0
  0
LINE
  5
1E5
330
188
100
AcDbEntity
  8
AM_9
100
AcDbLine
 10
0.83575
 20
-2.36205
 30
0.0
 11
0.83575
 21
2.36205
 31
0.0
  0
LINE
  5
1E6
330
188
100
AcDbEntity
  8
AM_9
100
AcDbLine
 10
-0.3955000000000001
 20
-2.31205
 30
0.0
 11
-0.3955000000000001
 21
2.31205
 31
0.0
  0
ARC
  5
1E7
330
188
100
AcDbEntity
  8
AM_9
100
AcDbCircle
 10
-0.3455000000000011
 20
2.312050000000001
 30
0.0
 40
0.0499999999999989
100
AcDbArc
 50
90.0
 51
180.0
  0
ARC
  5
1E8
330
188
100
AcDbEntity
  8
AM_9
100
AcDbCircle
 10
-0.3455000000000011
 20
-2.312050000000001
 30
0.0
 40
0.049999999999999
100
AcDbArc
 50
180.0
 51
270.0
  0
LINE
  5
1E9
330
188
100
AcDbEntity
  8
AM_9
100
AcDbLine
 10
0.1711519967600787
 20
2.36205
 30
0.0
 11
-0.3455000000000006
 21
2.36205
 31
0.0
  0
LINE
  5
1EA
330
188
100
AcDbEntity
  8
AM_9
100
AcDbLine
 10
-0.3455000000000006
 20
-2.36205
 30
0.0
 11
0.1711519967600787
 21
-2.36205
 31
0.0
  0
LINE
  5
1EB
330
188
100
AcDbEntity
  8
AM_9
100
AcDbLine
 10
0.1711519967600787
 20
-2.36205
 30
0.0
 11
0.1711519967600787
 21
2.36205
 31
0.0
  0
LINE
  5
1EC
330
188
100
AcDbEntity
  8
AM_9
100
AcDbLine
 10
-0.3455000000000006
 20
-2.36205
 30
0.0
 11
-0.3455000000000006
 21
2.36205
 31
0.0
  0
LINE
  5
1ED
330
188
100
AcDbEntity
  8
AM_5
100
AcDbLine
 10
-0.9374166666666666
 20
1.735644444444444
 30
0.0
 11
-0.9374166666666666
 21
1.758194444444444
 31
0.0
  0
LINE
  5
1EE
330
188
100
AcDbEntity
  8
AM_5
100
AcDbLine
 10
-0.9374166666666666
 20
1.758194444444444
 30
0.0
 11
-0.9243974180964405
 21
1.735644444444444
 31
0.0
  0
LINE
  5
1EF
330
188
100
AcDbEntity
  8
AM_5
100
AcDbLine
 10
-0.9374166666666666
 20
1.590744444444445
 30
0.0
 11
-0.9374166666666666
 21
1.568194444444444
 31
0.0
  0
LINE
  5
1F0
330
188
100
AcDbEntity
  8
AM_5
100
AcDbLine
 10
-0.9374166666666666
 20
1.568194444444444
 30
0.0
 11
-0.9243974180964405
 21
1.590744444444445
 31
0.0
  0
LINE
  5
1F1
330
188
100
AcDbEntity
  8
AM_5
100
AcDbLine
 10
-0.9374166666666647
 20
-1.735644444444444
 30
0.0
 11
-0.9374166666666647
 21
-1.758194444444444
 31
0.0
  0
LINE
  5
1F2
330
188
100
AcDbEntity
  8
AM_5
100
AcDbLine
 10
-0.9374166666666647
 20
-1.758194444444444
 30
0.0
 11
-0.9243974180964433
 21
-1.735644444444444
 31
0.0
  0
LINE
  5
1F3
330
188
100
AcDbEntity
  8
AM_5
100
AcDbLine
 10
-0.9374166666666647
 20
-1.590744444444445
 30
0.0
 11
-0.9374166666666647
 21
-1.568194444444444
 31
0.0
  0
LINE
  5
1F4
330
188
100
AcDbEntity
  8
AM_5
100
AcDbLine
 10
-0.9374166666666647
 20
-1.568194444444444
 30
0.0
 11
-0.9243974180964433
 21
-1.590744444444445
 31
0.0
  0
LINE
  5
1F7
330
188
100
AcDbEntity
  8
AM_7
100
AcDbLine
 10
1.65046875
 20
0.0
 30
0.0
 11
-2.14109375
 21
0.0
 31
0.0
  0
LINE
  5
1F8
330
188
100
AcDbEntity
  8
AM_7
100
AcDbLine
 10
-0.8154166666666663
 20
1.663194444444444
 30
0.0
 11
-1.913466666666667
 21
1.663194444444444
 31
0.0
  0
LINE
  5
1F9
330
188
100
AcDbEntity
  8
AM_7
100
AcDbLine
 10
-0.8154166666666679
 20
-1.663194444444444
 30
0.0
 11
-1.913466666666667
 21
-1.663194444444444
 31
0.0
  0
ARC
  5
1FA
330
188
100
AcDbEntity
  8
AM_4
100
AcDbCircle
 10
-1.647416666666667
 20
-1.889215561259645
 30
0.0
 40
0.05
100
AcDbArc
 50
180.0
 51
268.0000000000001
  0
ARC
  5
1FB
330
188
100
AcDbEntity
  8
AM_4
100
AcDbCircle
 10
-1.647416666666667
 20
1.889215561259645
 30
0.0
 40
0.0499999999999999
100
AcDbArc
 50
92.0
 51
180.0
  0
LWPOLYLINE
  5
1FC
330
188
100
AcDbEntity
  8
AM_4
100
AcDbPolyline
 90
        6
 70
     0
 43
0.0
 10
-1.697416666666667
 20
1.500905736762308
 10
-1.69689519195521
 20
1.506043662286855
 10
-1.691645342911153
 20
1.517539989191865
 10
-1.681315153523579
 20
1.52712121451395
 10
-1.667157780662395
 20
1.533669989616411
 10
-1.649161641501792
 20
1.536544848730685
  0
LWPOLYLINE
  5
1FD
330
188
100
AcDbEntity
  8
AM_4
100
AcDbPolyline
 90
        6
 70
     0
 43
0.0
 10
-1.649161641501792
 20
-1.536544848730685
 10
-1.665498431399264
 20
-1.534153533934661
 10
-1.679803446599458
 20
-1.528075939344721
 10
-1.690526718338504
 20
-1.518972330603809
 10
-1.696475489563237
 20
-1.507793588446512
 10
-1.697416666666667
 20
-1.500905736762308
  0
LINE
  5
1FE
330
188
100
AcDbEntity
  8
AM_4
100
AcDbLine
 10
-1.767416666666667
 20
1.315789473684211
 30
0.0
 11
-1.96875
 21
1.315789473684211
 31
0.0
  0
LINE
  5
1FF
330
188
100
AcDbEntity
  8
AM_4
100
AcDbLine
 10
-1.96875
 20
-1.315789473684211
 30
0.0
 11
-1.767416666666667
 21
-1.315789473684211
 31
0.0
  0
LINE
  5
200
330
188
100
AcDbEntity
  8
AM_4
100
AcDbLine
 10
-1.96875
 20
-1.315789473684211
 30
0.0
 11
-1.96875
 21
1.315789473684211
 31
0.0
  0
LINE
  5
201
330
188
100
AcDbEntity
  8
AM_4
100
AcDbLine
 10
-1.257416666666667
 20
-1.361180553784104
 30
0.0
 11
-1.697416666666667
 21
-1.361180553784104
 31
0.0
  0
LINE
  5
202
330
188
100
AcDbEntity
  8
AM_4
100
AcDbLine
 10
-1.257416666666667
 20
1.361180553784104
 30
0.0
 11
-1.697416666666667
 21
1.361180553784104
 31
0.0
  0
LINE
  5
203
330
188
100
AcDbEntity
  8
AM_4
100
AcDbLine
 10
1.440464743589743
 20
1.631944444444444
 30
0.0
 11
1.21875
 21
1.631944444444444
 31
0.0
  0
LINE
  5
204
330
188
100
AcDbEntity
  8
AM_4
100
AcDbLine
 10
1.21875
 20
-1.631944444444444
 30
0.0
 11
1.440464743589743
 21
-1.631944444444444
 31
0.0
  0
LINE
  5
205
330
188
100
AcDbEntity
  8
AM_4
100
AcDbLine
 10
1.478125
 20
0.4243471835968318
 30
0.0
 11
1.478125
 21
1.594284188595369
 31
0.0
  0
LINE
  5
206
330
188
100
AcDbEntity
  8
AM_4
100
AcDbLine
 10
1.440464743589743
 20
0.5385028972312951
 30
0.0
 11
1.440464743589743
 21
1.631944444444444
 31
0.0
  0
LINE
  5
207
330
188
100
AcDbEntity
  8
AM_4
100
AcDbLine
 10
1.478125
 20
-1.594284188595369
 30
0.0
 11
1.478125
 21
-0.4243471835968318
 31
0.0
  0
ARC
  5
208
330
188
100
AcDbEntity
  8
AM_4
100
AcDbCircle
 10
1.440464743589743
 20
1.594284188034188
 30
0.0
 40
0.0376602564102562
100
AcDbArc
 50
0.0
 51
90.0
  0
ARC
  5
209
330
188
100
AcDbEntity
  8
AM_4
100
AcDbCircle
 10
1.440464743589743
 20
-1.594284188034188
 30
0.0
 40
0.0376602564102562
100
AcDbArc
 50
270.0
 51
0.0
  0
LINE
  5
20A
330
188
100
AcDbEntity
  8
AM_4
100
AcDbLine
 10
1.440464743589743
 20
-1.631944444444444
 30
0.0
 11
1.440464743589743
 21
-0.5385028972312951
 31
0.0
  0
LWPOLYLINE
  5
20B
330
188
100
AcDbEntity
  8
AM_4
100
AcDbPolyline
 90
        6
 70
     0
 43
0.0
 10
-1.649161641501792
 20
1.182991458137411
 10
-1.665498431399271
 20
1.180600143341385
 10
-1.679803446599464
 20
1.174522548751443
 10
-1.690526718338507
 20
1.16541894001053
 10
-1.696475489563238
 20
1.154240197853232
 10
-1.697416666666667
 20
1.147352346169034
  0
LWPOLYLINE
  5
20C
330
188
100
AcDbEntity
  8
AM_4
100
AcDbPolyline
 90
        6
 70
     0
 43
0.0
 10
-1.697416666666667
 20
-1.147352346169034
 10
-1.69689519195521
 20
-1.152490271693581
 10
-1.691645342911153
 20
-1.163986598598591
 10
-1.681315153523579
 20
-1.173567823920677
 10
-1.667157780662395
 20
-1.180116599023138
 10
-1.649161641501792
 20
-1.182991458137411
  0
LINE
  5
20D
330
188
100
AcDbEntity
  8
AM_4
100
AcDbLine
 10
-1.649161641501792
 20
-1.182991458137411
 30
0.0
 11
-1.649161641501792
 21
1.182991458137411
 31
0.0
  0
LINE
  5
20E
330
188
100
AcDbEntity
  8
AM_4
100
AcDbLine
 10
-1.649161641501792
 20
-1.182991458137411
 30
0.0
 11
-1.257416666666667
 21
-1.192745529690402
 31
0.0
  0
LINE
  5
20F
330
188
100
AcDbEntity
  8
AM_4
100
AcDbLine
 10
-1.257416666666667
 20
-1.192745529690402
 30
0.0
 11
-1.257416666666667
 21
-1.546298920283676
 31
0.0
  0
LINE
  5
210
330
188
100
AcDbEntity
  8
AM_4
100
AcDbLine
 10
-1.257416666666667
 20
-1.546298920283676
 30
0.0
 11
-1.649161641501792
 21
-1.536544848730685
 31
0.0
  0
LINE
  5
211
330
188
100
AcDbEntity
  8
AM_4
100
AcDbLine
 10
-1.649161641501792
 20
1.536544848730685
 30
0.0
 11
-1.649161641501792
 21
1.9391851026106
 31
0.0
  0
LINE
  5
212
330
188
100
AcDbEntity
  8
AM_4
100
AcDbLine
 10
-1.649161641501792
 20
1.536544848730685
 30
0.0
 11
-1.257416666666667
 21
1.546298920283676
 31
0.0
  0
LINE
  5
213
330
188
100
AcDbEntity
  8
AM_4
100
AcDbLine
 10
-1.257416666666667
 20
1.546298920283676
 30
0.0
 11
-1.257416666666667
 21
1.192745529690402
 31
0.0
  0
LINE
  5
214
330
188
100
AcDbEntity
  8
AM_4
100
AcDbLine
 10
-1.257416666666667
 20
1.192745529690402
 30
0.0
 11
-1.649161641501792
 21
1.182991458137411
 31
0.0
  0
LINE
  5
215
330
188
100
AcDbEntity
  8
AM_4
100
AcDbLine
 10
-1.649161641501792
 20
-1.9391851026106
 30
0.0
 11
-1.21875
 21
-1.954215408330049
 31
0.0
  0
LINE
  5
216
330
188
100
AcDbEntity
  8
AM_4
100
AcDbLine
 10
-1.21875
 20
1.954215408330049
 30
0.0
 11
-1.649161641501792
 21
1.9391851026106
 31
0.0
  0
LINE
  5
217
330
188
100
AcDbEntity
  8
AM_4
100
AcDbLine
 10
-1.649161641501792
 20
-1.9391851026106
 30
0.0
 11
-1.649161641501792
 21
-1.536544848730685
 31
0.0
  0
ENDBLK
  5
18B
330
188
100
AcDbEntity
  8
0
100
AcDbBlockEnd
  0
BLOCK
  5
21A
330
218
100
AcDbEntity
  8
0
100
AcDbBlockBegin
  2
7_069384H_0_in_069384_2
 70
     2
 10
0.0
 20
0.0
 30
0.0
  3
7_069384H_0_in_069384_2
  1

  0
ATTDEF
  5
21C
330
218
100
AcDbEntity
  8
AM_6
100
AcDbText
 10
6.537830955551215
 20
2.9375
 30
0.0
 40
0.5
  1
WSTU-IP -Housing -Inch
100
AcDbAttributeDefinition
  3

  2
NN
 70
     8
280
     0
  0
ATTDEF
  5
21D
330
218
100
AcDbEntity
  8
AM_6
100
AcDbText
 10
6.537830955551215
 20
2.4375
 30
0.0
 40
0.5
  1
Imperial Wide Slot Take-Up Bearings
100
AcDbAttributeDefinition
  3

  2
NT
 70
     8
280
     0
  0
ATTDEF
  5
21E
330
218
100
AcDbEntity
  8
AM_6
100
AcDbText
 10
6.537830955551215
 20
1.9375
 30
0.0
 40
0.5
  1
069384H
100
AcDbAttributeDefinition
  3

  2
NB
 70
     8
280
     0
  0
ATTDEF
  5
21F
330
218
100
AcDbEntity
  8
AM_6
100
AcDbText
 10
6.537830955551215
 20
1.4375
 30
0.0
 40
0.5
  1
$PN.H
100
AcDbAttributeDefinition
  3

  2
NBSYN
 70
     8
280
     0
  0
ATTDEF
  5
220
330
218
100
AcDbEntity
  8
AM_6
100
AcDbText
 10
6.537830955551215
 20
0.9375
 30
0.0
 40
0.5
  1
069384
100
AcDbAttributeDefinition
  3

  2
LINA
 70
     8
280
     0
  0
ATTDEF
  5
221
330
218
100
AcDbEntity
  8
AM_6
100
AcDbText
 10
6.537830955551215
 20
0.4375
 30
0.0
 40
0.5
  1
2-1/2
100
AcDbAttributeDefinition
  3

  2
SS
 70
     8
280
     0
  0
ATTDEF
  5
222
330
218
100
AcDbEntity
  8
AM_6
100
AcDbText
 10
6.537830955551215
 20
-0.0625
 30
0.0
 40
0.5
  1
069384
100
AcDbAttributeDefinition
  3

  2
PN
 70
     8
280
     0
  0
ATTDEF
  5
223
330
218
100
AcDbEntity
  8
AM_6
100
AcDbText
 10
6.537830955551215
 20
-0.5625
 30
0.0
 40
0.5
  1
WSTU-IP-208RE
100
AcDbAttributeDefinition
  3

  2
DESCRIPTION
 70
     8
280
     0
  0
ATTDEF
  5
224
330
218
100
AcDbEntity
  8
AM_6
100
AcDbText
 10
6.537830955551215
 20
-1.0625
 30
0.0
 40
0.5
  1
Expansion
100
AcDbAttributeDefinition
  3

  2
EF
 70
     8
280
     0
  0
ATTDEF
  5
225
330
218
100
AcDbEntity
  8
AM_6
100
AcDbText
 10
6.537830955551215
 20
-1.5625
 30
0.0
 40
0.5
  1
Contact Seal
100
AcDbAttributeDefinition
  3

  2
ST
 70
     8
280
     0
  0
ATTDEF
  5
226
330
218
100
AcDbEntity
  8
AM_6
100
AcDbText
 10
6.537830955551215
 20
-2.0625
 30
0.0
 40
0.5
  1
3-27/64
100
AcDbAttributeDefinition
  3

  2
A
 70
     8
280
     0
  0
ATTDEF
  5
227
330
218
100
AcDbEntity
  8
AM_6
100
AcDbText
 10
6.537830955551215
 20
-2.5625
 30
0.0
 40
0.5
  1
7-11/16
100
AcDbAttributeDefinition
  3

  2
B
 70
     8
280
     0
  0
ATTDEF
  5
228
330
218
100
AcDbEntity
  8
AM_6
100
AcDbText
 10
6.537830955551215
 20
-3.0625
 30
0.0
 40
0.5
  1
1-1/16
100
AcDbAttributeDefinition
  3

  2
C
 70
     8
280
     0
  0
ATTDEF
  5
229
330
218
100
AcDbEntity
  8
AM_6
100
AcDbText
 10
6.537830955551215
 20
-3.5625
 30
0.0
 40
0.5
  1
4-3/8
100
AcDbAttributeDefinition
  3

  2
D
 70
     8
280
     0
  0
ATTDEF
  5
22A
330
218
100
AcDbEntity
  8
AM_6
100
AcDbText
 10
6.537830955551215
 20
-4.0625
 30
0.0
 40
0.5
  1
5
100
AcDbAttributeDefinition
  3

  2
E
 70
     8
280
     0
  0
ATTDEF
  5
22B
330
218
100
AcDbEntity
  8
AM_6
100
AcDbText
 10
6.537830955551215
 20
-4.5625
 30
0.0
 40
0.5
  1
1-3/8
100
AcDbAttributeDefinition
  3

  2
F
 70
     8
280
     0
  0
ATTDEF
  5
22C
330
218
100
AcDbEntity
  8
AM_6
100
AcDbText
 10
6.537830955551215
 20
-5.0625
 30
0.0
 40
0.5
  1
1-1/16
100
AcDbAttributeDefinition
  3

  2
G
 70
     8
280
     0
  0
ATTDEF
  5
22D
330
218
100
AcDbEntity
  8
AM_6
100
AcDbText
 10
6.537830955551215
 20
-5.5625
 30
0.0
 40
0.5
  1
1-1/4
100
AcDbAttributeDefinition
  3

  2
H
 70
     8
280
     0
  0
ATTDEF
  5
22E
330
218
100
AcDbEntity
  8
AM_6
100
AcDbText
 10
6.537830955551215
 20
-6.0625
 30
0.0
 40
0.5
  1
4-1/4
100
AcDbAttributeDefinition
  3

  2
J
 70
     8
280
     0
  0
ATTDEF
  5
22F
330
218
100
AcDbEntity
  8
AM_6
100
AcDbText
 10
6.537830955551215
 20
-6.5625
 30
0.0
 40
0.5
  1
2-1/2
100
AcDbAttributeDefinition
  3

  2
K
 70
     8
280
     0
  0
ATTDEF
  5
230
330
218
100
AcDbEntity
  8
AM_6
100
AcDbText
 10
6.537830955551215
 20
-7.0625
 30
0.0
 40
0.5
  1
3-7/8
100
AcDbAttributeDefinition
  3

  2
L
 70
     8
280
     0
  0
ATTDEF
  5
231
330
218
100
AcDbEntity
  8
AM_6
100
AcDbText
 10
6.537830955551215
 20
-7.5625
 30
0.0
 40
0.5
  1
5-1/8
100
AcDbAttributeDefinition
  3

  2
M
 70
     8
280
     0
  0
ATTDEF
  5
232
330
218
100
AcDbEntity
  8
AM_6
100
AcDbText
 10
6.537830955551215
 20
-8.0625
 30
0.0
 40
0.5
  1
5-7/8
100
AcDbAttributeDefinition
  3

  2
N
 70
     8
280
     0
  0
ATTDEF
  5
233
330
218
100
AcDbEntity
  8
AM_6
100
AcDbText
 10
6.537830955551215
 20
-8.5625
 30
0.0
 40
0.5
  1
3-7/16
100
AcDbAttributeDefinition
  3

  2
R
 70
     8
280
     0
  0
ATTDEF
  5
234
330
218
100
AcDbEntity
  8
AM_6
100
AcDbText
 10
6.537830955551215
 20
-9.0625
 30
0.0
 40
0.5
  1
2-7/32
100
AcDbAttributeDefinition
  3

  2
S
 70
     8
280
     0
  0
ATTDEF
  5
235
330
218
100
AcDbEntity
  8
AM_6
100
AcDbText
 10
6.537830955551215
 20
-9.5625
 30
0.0
 40
0.5
  1
2-7/16
100
AcDbAttributeDefinition
  3

  2
T
 70
     8
280
     0
  0
ATTDEF
  5
236
330
218
100
AcDbEntity
  8
AM_6
100
AcDbText
 10
6.537830955551215
 20
-10.0625
 30
0.0
 40
0.5
  1
1/4
100
AcDbAttributeDefinition
  3

  2
X
 70
     8
280
     0
  0
ATTDEF
  5
237
330
218
100
AcDbEntity
  8
AM_6
100
AcDbText
 10
6.537830955551215
 20
-10.5625
 30
0.0
 40
0.5
  1
0.025
100
AcDbAttributeDefinition
  3

  2
Y
 70
     8
280
     0
  0
ATTDEF
  5
238
330
218
100
AcDbEntity
  8
AM_6
100
AcDbText
 10
6.537830955551215
 20
-11.0625
 30
0.0
 40
0.5
  1
2-15/16
100
AcDbAttributeDefinition
  3

  2
Z
 70
     8
280
     0
  0
ATTDEF
  5
239
330
218
100
AcDbEntity
  8
AM_6
100
AcDbText
 10
6.537830955551215
 20
-11.5625
 30
0.0
 40
0.5
  1
baldor
100
AcDbAttributeDefinition
  3

  2
COMPANY
 70
     8
280
     0
  0
LWPOLYLINE
  5
23A
330
218
100
AcDbEntity
  8
AM_9
100
AcDbPolyline
 90
        5
 70
     0
 43
0.0
 10
0.4776637495721479
 20
-0.8682178760752602
 10
0.4854074859923604
 20
-0.8947299525350981
 10
0.4958079936828573
 20
-0.9468592985513716
 10
0.4999332108698052
 20
-0.9991734437965718
 10
0.4999999999999998
 20
-1.006755219805264
  0
LWPOLYLINE
  5
23B
330
218
100
AcDbEntity
  8
AM_9
100
AcDbPolyline
 90
       25
 70
     0
 43
0.0
 10
-0.4776615170438228
 20
-0.8682110364751948
 10
-0.4731407771334524
 20
-0.8551407516195744
 10
-0.4525090634755927
 20
-0.8063981211568453
 10
-0.4261732914547592
 20
-0.7595944925196614
 10
-0.3945579988940566
 20
-0.7154558411583354
 10
-0.3582405512849516
 20
-0.6748352052139568
 10
-0.3168375118392089
 20
-0.6376873205876701
 10
-0.271296178148563
 20
-0.6050146554825745
 10
-0.2224519926256206
 20
-0.5774992499286007
 10
-0.1706218666776484
 20
-0.5555225873628219
 10
-0.1164082348474669
 20
-0.5393311944404315
 10
-0.0608520574527129
 20
-0.5292950632163103
 10
-0.0053247225617916
 20
-0.5256582604412867
 10
0.050448056785052
 20
-0.5281763745907875
 10
0.105401377243053
 20
-0.5367915517361298
 10
0.1585650733627809
 20
-0.5513383886630854
 10
0.2099220744745228
 20
-0.5715869593351348
 10
0.2585430186615605
 20
-0.5971045403236442
 10
0.3044568497520305
 20
-0.6280379080193834
 10
0.3467297599682297
 20
-0.6637020273172954
 10
0.3846030700273337
 20
-0.7033799073811888
 10
0.4180772818338307
 20
-0.7472887958015113
 10
0.4463725160144795
 20
-0.7944157136234503
 10
0.4689441616270469
 20
-0.8438185016545967
 10
0.4776637495721479
 20
-0.8682178760752602
  0
LWPOLYLINE
  5
23C
330
218
100
AcDbEntity
  8
AM_9
100
AcDbPolyline
 90
        4
 70
     0
 43
0.0
 10
-0.5000000000000001
 20
-1.006755219805262
 10
-0.497100917108371
 20
-0.9567036703146778
 10
-0.4881015465158167
 20
-0.9055642106753933
 10
-0.4776615170438228
 20
-0.8682110364751948
  0
ELLIPSE
  5
23D
330
218
100
AcDbEntity
  8
AM_9
100
AcDbEllipse
 10
0.0000000000000103
 20
-1.006755219805254
 30
0.0
 11
-0.5000000000000102
 21
6.123233995736891E-17
 31
0.0
210
0.0
220
0.0
230
1.0
 40
0.9271838545667841
 41
3.141592653589793
 42
6.283185307179586
  0
ELLIPSE
  5
23E
330
218
100
AcDbEntity
  8
AM_9
100
AcDbEllipse
 10
-0.0000000000000002
 20
-1.044215879146855
 30
0.0
 11
0.4
 21
0.0
 31
0.0
210
0.0
220
0.0
230
1.0
 40
0.9271838545667876
 41
0.0
 42
6.283185307179586
  0
LINE
  5
23F
330
218
100
AcDbEntity
  8
AM_9
100
AcDbLine
 10
0.4999869437069001
 20
-1.010159685759555
 30
0.0
 11
0.4999965581383856
 21
-1.005007234213639
 31
0.0
  0
LWPOLYLINE
  5
240
330
218
100
AcDbEntity
  8
AM_9
100
AcDbPolyline
 90
       22
 70
     0
 43
0.0
 10
-0.0000000000000001
 20
-1.477628761631979
 10
0.0206076294700139
 20
-1.477229021088518
 10
0.0562564937555084
 20
-1.474641543087571
 10
0.0916311851891024
 20
-1.469661181874906
 10
0.1265447492087532
 20
-1.462311845452336
 10
0.1608173460574954
 20
-1.452629526934481
 10
0.1942720278018662
 20
-1.440662437612232
 10
0.2267356751900353
 20
-1.426470892339493
 10
0.2580399636946958
 20
-1.41012713194498
 10
0.288022353386852
 20
-1.3917150672834
 10
0.31652709396912
 20
-1.37132992842191
 10
0.3434062296163166
 20
-1.349077803799771
 10
0.3685205817324441
 20
-1.325075058082516
 10
0.3917406823715381
 20
-1.299447623902521
 10
0.4129476280075155
 20
-1.272330171324855
 10
0.4320338235542593
 20
-1.243865168778943
 10
0.4489035905978866
 20
-1.214201858998704
 10
0.4634736216404297
 20
-1.183495181649659
 10
0.4756732729754435
 20
-1.151904679333648
 10
0.4854447011973343
 20
-1.119593424536734
 10
0.4927428604977654
 20
-1.086727001495331
 10
0.4944098624794757
 20
-1.077002745626011
  0
LWPOLYLINE
  5
241
330
218
100
AcDbEntity
  8
AM_9
100
AcDbPolyline
 90
       22
 70
     0
 43
0.0
 10
-0.4946587937509029
 20
-1.075429485759705
 10
-0.4915230198853085
 20
-1.093133905819387
 10
-0.4837660501189071
 20
-1.125820760064088
 10
-0.4735647078762921
 20
-1.157900337701853
 10
-0.4609698433795907
 20
-1.189213920916749
 10
-0.4460434437524984
 20
-1.21960619082045
 10
-0.4288585507675045
 20
-1.248925780976454
 10
-0.4094991661709698
 20
-1.277025894026303
 10
-0.3880601132344363
 20
-1.303764984148782
 10
-0.3646468249913172
 20
-1.329007497021798
 10
-0.339375035417101
 20
-1.352624649383431
 10
-0.3123703585702473
 20
-1.374495223521485
 10
-0.2837677509510869
 20
-1.394506348882123
 10
-0.2537108624164601
 20
-1.412554243650683
 10
-0.2223512894315716
 20
-1.428544893142122
 10
-0.1898477502091696
 20
-1.442394648158053
 10
-0.1563652039262899
 20
-1.454030733880525
 10
-0.1220739358467946
 20
-1.46339166715723
 10
-0.0871486273839194
 20
-1.470427586208352
 10
-0.0517674257231404
 20
-1.475100501233822
 10
-0.0161110224422598
 20
-1.47738447687709
 10
-0.0000000000000001
 20
-1.477628761631979
  0
LINE
  5
242
330
218
100
AcDbEntity
  8
AM_9
100
AcDbLine
 10
-0.4999964600903829
 20
-1.00852792783326
 30
0.0
 11
-0.4999792089379569
 21
-1.011051332853046
 31
0.0
  0
LWPOLYLINE
  5
243
330
218
100
AcDbEntity
  8
AM_9
100
AcDbPolyline
 90
       29
 70
     0
 43
0.0
 10
0.4999999999999998
 20
-1.006755219805264
 10
0.4971897032227862
 20
-1.055355140931851
 10
0.4888588659572651
 20
-1.103160341315084
 10
0.4751575678026166
 20
-1.149376730556547
 10
0.4550646462956113
 20
-1.195754170258296
 10
0.4293935141936673
 20
-1.239617430237803
 10
0.3986213833736694
 20
-1.28023721190778
 10
0.3624252211265696
 20
-1.317774663355133
 10
0.3216008434175558
 20
-1.351414978251531
 10
0.2768892213523759
 20
-1.380617927504072
 10
0.228204303956323
 20
-1.405317293250168
 10
0.1764153659046733
 20
-1.425124274238831
 10
0.1225016753827604
 20
-1.43970478870564
 10
0.0617363378218284
 20
-1.449480634122016
 10
-0.0000000000000001
 20
-1.452770145628034
 10
-0.0555011265364422
 20
-1.450091511725984
 10
-0.1104714938282964
 20
-1.44214557470547
 10
-0.1638722985218416
 20
-1.429067281594944
 10
-0.2151492517932599
 20
-1.410899783388567
 10
-0.2638993436163249
 20
-1.387829517981637
 10
-0.3092443668240307
 20
-1.360226156025503
 10
-0.3511681673038803
 20
-1.327845200971931
 10
-0.3888316038387069
 20
-1.29124218860587
 10
-0.4215454033574531
 20
-1.251010088049484
 10
-0.4491180395543775
 20
-1.207050588252795
 10
-0.4710861751279332
 20
-1.160044360260442
 10
-0.4870142867904448
 20
-1.110830406785834
 10
-0.4967304139125215
 20
-1.059365737096421
 10
-0.5000000000000001
 20
-1.006755219805262
  0
ELLIPSE
  5
244
330
218
100
AcDbEntity
  8
AM_9
100
AcDbEllipse
 10
-0.0000000000000002
 20
-1.006755219805264
 30
0.0
 11
-0.5
 21
6.123233995736766E-17
 31
0.0
210
0.0
220
0.0
230
1.0
 40
0.927183854566787
 41
0.3579699739844493
 42
2.879631080833562
  0
LINE
  5
245
330
218
100
AcDbEntity
  8
AM_9
100
AcDbLine
 10
-0.8957812499999996
 20
1.5612494995996
 30
0.0
 11
0.8957812500000003
 21
1.561249499599599
 31
0.0
  0
LINE
  5
246
330
218
100
AcDbEntity
  8
AM_9
100
AcDbLine
 10
0.8957812500000001
 20
-1.5612494995996
 30
0.0
 11
-0.8957812499999998
 21
-1.5612494995996
 31
0.0
  0
LINE
  5
247
330
218
100
AcDbEntity
  8
AM_9
100
AcDbLine
 10
-1.21875
 20
-2.36205
 30
0.0
 11
1.21875
 21
-2.36205
 31
0.0
  0
LINE
  5
248
330
218
100
AcDbEntity
  8
AM_9
100
AcDbLine
 10
1.21875
 20
2.36205
 30
0.0
 11
-1.21875
 21
2.36205
 31
0.0
  0
LINE
  5
249
330
218
100
AcDbEntity
  8
AM_9
100
AcDbLine
 10
1.21875
 20
0.9378552582096893
 30
0.0
 11
1.21875
 21
-0.9378552582096893
 31
0.0
  0
LINE
  5
24A
330
218
100
AcDbEntity
  8
AM_9
100
AcDbLine
 10
1.08125
 20
1.093536686788131
 30
0.0
 11
1.08125
 21
-1.093536686788131
 31
0.0
  0
LINE
  5
24B
330
218
100
AcDbEntity
  8
AM_9
100
AcDbLine
 10
-1.081249999999998
 20
1.093536686788132
 30
0.0
 11
-1.081249999999998
 21
-1.093536686788132
 31
0.0
  0
LINE
  5
24C
330
218
100
AcDbEntity
  8
AM_9
100
AcDbLine
 10
-1.21875
 20
0.9378552582096887
 30
0.0
 11
-1.21875
 21
-0.9378552582096887
 31
0.0
  0
LINE
  5
24D
330
218
100
AcDbEntity
  8
AM_9
100
AcDbLine
 10
-0.8957812499999996
 20
1.135416666666667
 30
0.0
 11
0.8957812500000002
 21
1.135416666666667
 31
0.0
  0
LINE
  5
24E
330
218
100
AcDbEntity
  8
AM_9
100
AcDbLine
 10
-0.8957812499999996
 20
1.25
 30
0.0
 11
0.8957812500000002
 21
1.25
 31
0.0
  0
LINE
  5
24F
330
218
100
AcDbEntity
  8
AM_9
100
AcDbLine
 10
-0.8957812499999996
 20
1.25
 30
0.0
 11
-0.8957812499999996
 21
-1.25
 31
0.0
  0
LINE
  5
250
330
218
100
AcDbEntity
  8
AM_9
100
AcDbLine
 10
0.8957812500000002
 20
-1.25
 30
0.0
 11
0.8957812500000002
 21
1.25
 31
0.0
  0
LINE
  5
251
330
218
100
AcDbEntity
  8
AM_9
100
AcDbLine
 10
-0.8957812499999996
 20
-1.135416666666667
 30
0.0
 11
0.8957812500000002
 21
-1.135416666666667
 31
0.0
  0
LINE
  5
252
330
218
100
AcDbEntity
  8
AM_9
100
AcDbLine
 10
-0.8957812499999996
 20
-1.25
 30
0.0
 11
0.8957812500000002
 21
-1.25
 31
0.0
  0
LINE
  5
253
330
218
100
AcDbEntity
  8
AM_7
100
AcDbLine
 10
0.0000000000000003
 20
-0.721875
 30
0.0
 11
0.0000000000000003
 21
0.721875
 31
0.0
  0
LINE
  5
254
330
218
100
AcDbEntity
  8
AM_4
100
AcDbLine
 10
-1.096875
 20
-2.9375
 30
0.0
 11
-1.096875
 21
-1.559715823017553
 31
0.0
  0
LINE
  5
255
330
218
100
AcDbEntity
  8
AM_4
100
AcDbLine
 10
-0.5312499999999998
 20
-2.5625
 30
0.0
 11
-0.5312499999999998
 21
-2.9375
 31
0.0
  0
LINE
  5
256
330
218
100
AcDbEntity
  8
AM_4
100
AcDbLine
 10
-1.096875
 20
-2.9375
 30
0.0
 11
-0.5312499999999998
 21
-2.9375
 31
0.0
  0
LINE
  5
257
330
218
100
AcDbEntity
  8
AM_4
100
AcDbLine
 10
1.096875
 20
1.559715823017553
 30
0.0
 11
1.096875
 21
2.9375
 31
0.0
  0
LINE
  5
258
330
218
100
AcDbEntity
  8
AM_4
100
AcDbLine
 10
0.5312500000000001
 20
2.5625
 30
0.0
 11
0.5312500000000001
 21
2.9375
 31
0.0
  0
LINE
  5
259
330
218
100
AcDbEntity
  8
AM_4
100
AcDbLine
 10
0.5312500000000001
 20
2.9375
 30
0.0
 11
1.096875
 21
2.9375
 31
0.0
  0
LINE
  5
25A
330
218
100
AcDbEntity
  8
AM_4
100
AcDbLine
 10
0.5312500000000001
 20
-2.9375
 30
0.0
 11
0.5312500000000001
 21
-2.5625
 31
0.0
  0
LINE
  5
25B
330
218
100
AcDbEntity
  8
AM_4
100
AcDbLine
 10
0.5312500000000001
 20
-2.5625
 30
0.0
 11
-0.5312499999999998
 21
-2.5625
 31
0.0
  0
LINE
  5
25C
330
218
100
AcDbEntity
  8
AM_4
100
AcDbLine
 10
1.096875
 20
-2.9375
 30
0.0
 11
1.096875
 21
-1.559715823017553
 31
0.0
  0
LINE
  5
25D
330
218
100
AcDbEntity
  8
AM_4
100
AcDbLine
 10
-1.096875
 20
-2.8
 30
0.0
 11
-0.5312499999999998
 21
-2.8
 31
0.0
  0
LINE
  5
25E
330
218
100
AcDbEntity
  8
AM_4
100
AcDbLine
 10
-0.5312499999999998
 20
2.9375
 30
0.0
 11
-0.5312499999999998
 21
2.5625
 31
0.0
  0
LINE
  5
25F
330
218
100
AcDbEntity
  8
AM_4
100
AcDbLine
 10
-1.096875
 20
2.9375
 30
0.0
 11
-0.5312499999999998
 21
2.9375
 31
0.0
  0
LINE
  5
260
330
218
100
AcDbEntity
  8
AM_4
100
AcDbLine
 10
-1.096875
 20
1.559715823017553
 30
0.0
 11
-1.096875
 21
2.9375
 31
0.0
  0
LINE
  5
261
330
218
100
AcDbEntity
  8
AM_4
100
AcDbLine
 10
-1.096875
 20
2.8
 30
0.0
 11
-0.5312499999999998
 21
2.8
 31
0.0
  0
LINE
  5
262
330
218
100
AcDbEntity
  8
AM_4
100
AcDbLine
 10
0.5312500000000001
 20
2.8
 30
0.0
 11
1.096875
 21
2.8
 31
0.0
  0
LINE
  5
263
330
218
100
AcDbEntity
  8
AM_4
100
AcDbLine
 10
-0.5312499999999998
 20
2.5625
 30
0.0
 11
0.5312500000000001
 21
2.5625
 31
0.0
  0
LINE
  5
264
330
218
100
AcDbEntity
  8
AM_4
100
AcDbLine
 10
0.5312500000000001
 20
-2.9375
 30
0.0
 11
1.096875
 21
-2.9375
 31
0.0
  0
LINE
  5
265
330
218
100
AcDbEntity
  8
AM_4
100
AcDbLine
 10
0.5312500000000001
 20
-2.8
 30
0.0
 11
1.096875
 21
-2.8
 31
0.0
  0
LWPOLYLINE
  5
266
330
218
100
AcDbEntity
  8
AM_4
100
AcDbPolyline
 90
        4
 70
     0
 43
0.0
 10
1.08125
 20
1.5612494995996
 10
1.082065369095625
 20
1.561245338039589
 10
1.095790825332775
 20
1.559921911622021
 10
1.096875
 20
1.559715823017553
  0
LWPOLYLINE
  5
267
330
218
100
AcDbEntity
  8
AM_4
100
AcDbPolyline
 90
        3
 70
     0
 43
0.0
 10
1.096875
 20
-1.559715823017553
 10
1.085873522297772
 20
-1.561115647703174
 10
1.08125
 20
-1.5612494995996
  0
LINE
  5
268
330
218
100
AcDbEntity
  8
AM_4
100
AcDbLine
 10
1.21875
 20
-0.9378552582096893
 30
0.0
 11
1.21875
 21
-2.55
 31
0.0
  0
LINE
  5
269
330
218
100
AcDbEntity
  8
AM_4
100
AcDbLine
 10
1.21875
 20
2.55
 30
0.0
 11
1.21875
 21
0.9378552582096893
 31
0.0
  0
ARC
  5
26A
330
218
100
AcDbEntity
  8
AM_4
100
AcDbCircle
 10
1.081249999999999
 20
-2.549999999999999
 30
0.0
 40
0.1375000000000008
100
AcDbArc
 50
276.5249788441441
 51
0.0
  0
ARC
  5
26B
330
218
100
AcDbEntity
  8
AM_4
100
AcDbCircle
 10
1.081249999999999
 20
2.549999999999999
 30
0.0
 40
0.1375000000000006
100
AcDbArc
 50
0.0
 51
83.47502115585588
  0
LINE
  5
26C
330
218
100
AcDbEntity
  8
AM_4
100
AcDbLine
 10
-0.8957812499999996
 20
1.5612494995996
 30
0.0
 11
-1.081249999999998
 21
1.5612494995996
 31
0.0
  0
LINE
  5
26D
330
218
100
AcDbEntity
  8
AM_4
100
AcDbLine
 10
-1.081249999999998
 20
-1.5612494995996
 30
0.0
 11
-0.8957812499999996
 21
-1.5612494995996
 31
0.0
  0
LINE
  5
26E
330
218
100
AcDbEntity
  8
AM_4
100
AcDbLine
 10
0.8957812500000001
 20
-1.5612494995996
 30
0.0
 11
1.08125
 21
-1.5612494995996
 31
0.0
  0
LINE
  5
26F
330
218
100
AcDbEntity
  8
AM_4
100
AcDbLine
 10
1.08125
 20
-1.093536686788131
 30
0.0
 11
1.08125
 21
-1.5612494995996
 31
0.0
  0
LINE
  5
270
330
218
100
AcDbEntity
  8
AM_4
100
AcDbLine
 10
1.08125
 20
1.5612494995996
 30
0.0
 11
1.08125
 21
1.093536686788131
 31
0.0
  0
LINE
  5
271
330
218
100
AcDbEntity
  8
AM_4
100
AcDbLine
 10
1.08125
 20
1.5612494995996
 30
0.0
 11
0.8957812500000002
 21
1.5612494995996
 31
0.0
  0
LWPOLYLINE
  5
272
330
218
100
AcDbEntity
  8
AM_4
100
AcDbPolyline
 90
        3
 70
     0
 43
0.0
 10
-1.081249999999998
 20
-1.5612494995996
 10
-1.085873522297771
 20
-1.561115647703174
 10
-1.096875
 20
-1.559715823017553
  0
LINE
  5
273
330
218
100
AcDbEntity
  8
AM_4
100
AcDbLine
 10
-1.081249999999998
 20
-1.093536686788132
 30
0.0
 11
-1.081249999999998
 21
-1.5612494995996
 31
0.0
  0
LINE
  5
274
330
218
100
AcDbEntity
  8
AM_4
100
AcDbLine
 10
-1.081249999999998
 20
1.5612494995996
 30
0.0
 11
-1.081249999999998
 21
1.093536686788132
 31
0.0
  0
LWPOLYLINE
  5
275
330
218
100
AcDbEntity
  8
AM_4
100
AcDbPolyline
 90
        3
 70
     0
 43
0.0
 10
-1.096875
 20
1.559715823017553
 10
-1.095790825332774
 20
1.559921911622021
 10
-1.081249999999998
 20
1.5612494995996
  0
LINE
  5
276
330
218
100
AcDbEntity
  8
AM_4
100
AcDbLine
 10
-1.21875
 20
-0.9378552582096887
 30
0.0
 11
-1.21875
 21
-2.55
 31
0.0
  0
LINE
  5
277
330
218
100
AcDbEntity
  8
AM_4
100
AcDbLine
 10
-1.21875
 20
2.55
 30
0.0
 11
-1.21875
 21
0.9378552582096887
 31
0.0
  0
ARC
  5
278
330
218
100
AcDbEntity
  8
AM_4
100
AcDbCircle
 10
-1.081249999999999
 20
-2.549999999999999
 30
0.0
 40
0.1375000000000011
100
AcDbArc
 50
180.0
 51
263.4750211558558
  0
ARC
  5
279
330
218
100
AcDbEntity
  8
AM_4
100
AcDbCircle
 10
-1.081249999999999
 20
2.549999999999999
 30
0.0
 40
0.1375000000000008
100
AcDbArc
 50
96.52497884414423
 51
180.0
  0
LINE
  5
27A
330
218
100
AcDbEntity
  8
AM_4
100
AcDbLine
 10
-0.8957812499999996
 20
1.9875
 30
0.0
 11
-0.8957812499999996
 21
1.25
 31
0.0
  0
LINE
  5
27B
330
218
100
AcDbEntity
  8
AM_4
100
AcDbLine
 10
-0.8957812499999996
 20
-1.25
 30
0.0
 11
-0.8957812499999996
 21
-1.9875
 31
0.0
  0
LINE
  5
27C
330
218
100
AcDbEntity
  8
AM_4
100
AcDbLine
 10
0.8957812500000003
 20
-1.9875
 30
0.0
 11
0.8957812500000002
 21
-1.25
 31
0.0
  0
LINE
  5
27D
330
218
100
AcDbEntity
  8
AM_4
100
AcDbLine
 10
0.8957812500000002
 20
1.25
 30
0.0
 11
0.8957812500000002
 21
1.9875
 31
0.0
  0
ARC
  5
27E
330
218
100
AcDbEntity
  8
AM_4
100
AcDbCircle
 10
0.7582812500000005
 20
1.9875
 30
0.0
 40
0.1374999999999997
100
AcDbArc
 50
0.0
 51
90.0
  0
LINE
  5
27F
330
218
100
AcDbEntity
  8
AM_4
100
AcDbLine
 10
0.7582812500000001
 20
2.125
 30
0.0
 11
-0.7582812499999997
 21
2.125
 31
0.0
  0
CIRCLE
  5
280
330
218
100
AcDbEntity
  8
AM_4
100
AcDbCircle
 10
0.0000000000000003
 20
0.0
 30
0.0
 40
0.6875
  0
ARC
  5
281
330
218
100
AcDbEntity
  8
AM_4
100
AcDbCircle
 10
0.0000000000000007
 20
-0.0000000000000001
 30
0.0
 40
1.537830955551215
100
AcDbArc
 50
125.626330022843
 51
234.373669977157
  0
ARC
  5
282
330
218
100
AcDbEntity
  8
AM_4
100
AcDbCircle
 10
-0.7582812500000005
 20
-1.987500000000001
 30
0.0
 40
0.1374999999999992
100
AcDbArc
 50
180.0
 51
270.0
  0
LINE
  5
283
330
218
100
AcDbEntity
  8
AM_4
100
AcDbLine
 10
-0.7582812500000002
 20
-2.125
 30
0.0
 11
0.7582812500000002
 21
-2.125
 31
0.0
  0
ARC
  5
284
330
218
100
AcDbEntity
  8
AM_4
100
AcDbCircle
 10
0.7582812499999996
 20
-1.987499999999999
 30
0.0
 40
0.1375000000000008
100
AcDbArc
 50
270.0
 51
0.0
  0
ARC
  5
285
330
218
100
AcDbEntity
  8
AM_4
100
AcDbCircle
 10
0.0000000000000002
 20
0.0
 30
0.0
 40
1.537830955551215
100
AcDbArc
 50
305.6263300228429
 51
54.37366997715703
  0
ARC
  5
286
330
218
100
AcDbEntity
  8
AM_4
100
AcDbCircle
 10
-0.75828125
 20
1.9875
 30
0.0
 40
0.1374999999999997
100
AcDbArc
 50
90.0
 51
180.0
  0
ENDBLK
  5
21B
330
218
100
AcDbEntity
  8
0
100
AcDbBlockEnd
  0
ENDSEC
  0
SECTION
  2
ENTITIES
  0
INSERT
  5
6F
330
1F
100
AcDbEntity
  8
0
100
AcDbBlockReference
  2
1_069384_2
 10
0.0
 20
0.0
 30
0.0
  0
POINT
  5
288
330
1F
100
AcDbEntity
  8
ConnectionPoints
100
AcDbPoint
 10
-1.767416666666667
 20
-1.663194444444444
 30
0.0000000000000001
  0
POINT
  5
289
330
1F
100
AcDbEntity
  8
ConnectionPoints
100
AcDbPoint
 10
-1.767416666666667
 20
1.663194444444444
 30
0.0000000000000001
  0
POINT
  5
28A
330
1F
100
AcDbEntity
  8
ConnectionPoints
100
AcDbPoint
 10
-1.697416666666667
 20
0.0
 30
0.0000000000000001
  0
POINT
  5
28B
330
1F
100
AcDbEntity
  8
ConnectionPoints
100
AcDbPoint
 10
-1.96875
 20
0.0
 30
0.0000000000000001
  0
POINT
  5
28C
330
1F
100
AcDbEntity
  8
ConnectionPoints
100
AcDbPoint
 10
-1.896416666666667
 20
0.0
 30
0.0000000000000001
  0
POINT
  5
28D
330
1F
100
AcDbEntity
  8
ConnectionPoints
100
AcDbPoint
 10
-1.697416666666667
 20
1.663194444444444
 30
0.0000000000000001
  0
POINT
  5
28E
330
1F
100
AcDbEntity
  8
ConnectionPoints
100
AcDbPoint
 10
-1.86775
 20
1.663194444444444
 30
0.0000000000000001
  0
POINT
  5
28F
330
1F
100
AcDbEntity
  8
ConnectionPoints
100
AcDbPoint
 10
-1.697416666666667
 20
-1.663194444444444
 30
0.0000000000000001
  0
POINT
  5
290
330
1F
100
AcDbEntity
  8
ConnectionPoints
100
AcDbPoint
 10
-1.86775
 20
-1.663194444444444
 30
0.0000000000000001
  0
POINT
  5
291
330
1F
100
AcDbEntity
  8
ConnectionPoints
100
AcDbPoint
 10
-1.697416666666667
 20
0.0
 30
0.0000000000000001
  0
POINT
  5
292
330
1F
100
AcDbEntity
  8
ConnectionPoints
100
AcDbPoint
 10
-0.0000000000000002
 20
-1.044215879146855
 30
-2.58452499460492
  0
POINT
  5
293
330
1F
100
AcDbEntity
  8
ConnectionPoints
100
AcDbPoint
 10
-1.96875
 20
0.0
 30
0.0000000000000001
  0
POINT
  5
294
330
1F
100
AcDbEntity
  8
ConnectionPoints
100
AcDbPoint
 10
-2.21875
 20
0.0
 30
0.0000000000000001
  0
ENDSEC
  0
SECTION
  2
OBJECTS
  0
DICTIONARY
  5
C
330
0
100
AcDbDictionary
281
     1
  3
ACAD_DETAILVIEWSTYLE
350
29C
  3
ACAD_GROUP
350
D
  3
ACAD_LAYOUT
350
1A
  3
ACAD_MATERIAL
350
43
  3
ACAD_MLEADERSTYLE
350
6B
  3
ACAD_MLINESTYLE
350
17
  3
ACAD_PLOTSETTINGS
350
19
  3
ACAD_PLOTSTYLENAME
350
E
  3
ACAD_SCALELIST
350
47
  3
ACAD_SECTIONVIEWSTYLE
350
29D
  3
ACAD_TABLESTYLE
350
69
  3
ACAD_VISUALSTYLE
350
2A
  3
ACDB_RECOMPOSE_DATA
350
299
  3
AcDbVariableDictionary
350
295
  0
SUN
  5
6D
330
29
100
AcDbSun
 90
        1
290
     0
 63
     7
421
 16777215
 40
1.0
291
     1
 91
  2455826
 92
 54000000
292
     0
 70
     2
 71
   256
280
     1
  0
DICTIONARY
  5
29C
102
{ACAD_REACTORS
330
C
102
}
330
C
100
AcDbDictionary
281
     1
  0
DICTIONARY
  5
D
102
{ACAD_REACTORS
330
C
102
}
330
C
100
AcDbDictionary
281
     1
  0
DICTIONARY
  5
1A
102
{ACAD_REACTORS
330
C
102
}
330
C
100
AcDbDictionary
281
     1
  3
Layout1
350
1E
  3
Layout2
350
26
  3
Model
350
22
  0
DICTIONARY
  5
43
102
{ACAD_REACTORS
330
C
102
}
330
C
100
AcDbDictionary
281
     1
  3
ByBlock
350
45
  3
ByLayer
350
44
  3
Global
350
46
  0
DICTIONARY
  5
6B
102
{ACAD_REACTORS
330
C
102
}
330
C
100
AcDbDictionary
281
     1
  3
Standard
350
6C
  0
DICTIONARY
  5
17
102
{ACAD_REACTORS
330
C
102
}
330
C
100
AcDbDictionary
281
     1
  3
Standard
350
18
  0
DICTIONARY
  5
19
102
{ACAD_REACTORS
330
C
102
}
330
C
100
AcDbDictionary
281
     1
  0
ACDBDICTIONARYWDFLT
  5
E
102
{ACAD_REACTORS
330
C
102
}
330
C
100
AcDbDictionary
281
     1
  3
Normal
350
F
100
AcDbDictionaryWithDefault
340
F
  0
DICTIONARY
  5
47
102
{ACAD_REACTORS
330
C
102
}
330
C
100
AcDbDictionary
281
     1
  3
A0
350
48
  3
A1
350
49
  3
A2
350
4A
  3
A3
350
4B
  3
A4
350
4C
  3
A5
350
4D
  3
A6
350
4E
  3
A7
350
4F
  3
A8
350
50
  3
A9
350
51
  3
B0
350
52
  3
B1
350
53
  3
B2
350
54
  3
B3
350
55
  3
B4
350
56
  3
B5
350
57
  3
B6
350
58
  3
B7
350
59
  3
B8
350
5A
  3
B9
350
5B
  3
C0
350
5C
  3
C1
350
5D
  3
C2
350
5E
  3
C3
350
5F
  3
C4
350
60
  3
C5
350
61
  3
C6
350
62
  3
C7
350
63
  3
C8
350
64
  3
C9
350
65
  3
D0
350
66
  3
D1
350
67
  3
D2
350
68
  0
DICTIONARY
  5
29D
102
{ACAD_REACTORS
330
C
102
}
330
C
100
AcDbDictionary
281
     1
  0
DICTIONARY
  5
69
102
{ACAD_REACTORS
330
C
102
}
330
C
100
AcDbDictionary
281
     1
  3
Standard
350
6A
  0
DICTIONARY
  5
2A
102
{ACAD_REACTORS
330
C
102
}
330
C
100
AcDbDictionary
281
     1
  3
2dWireframe
350
2F
  3
Basic
350
32
  3
Brighten
350
36
  3
ColorChange
350
3A
  3
Conceptual
350
34
  3
Dim
350
35
  3
EdgeColorOff
350
3D
  3
Facepattern
350
39
  3
Flat
350
2B
  3
FlatWithEdges
350
2C
  3
Gouraud
350
2D
  3
GouraudWithEdges
350
2E
  3
Hidden
350
31
  3
JitterOff
350
3B
  3
Linepattern
350
38
  3
OverhangOff
350
3C
  3
Realistic
350
33
  3
Shaded
350
42
  3
Shaded with edges
350
41
  3
Shades of Gray
350
3E
  3
Sketchy
350
3F
  3
Thicken
350
37
  3
Wireframe
350
30
  3
X-Ray
350
40
  0
XRECORD
  5
299
102
{ACAD_REACTORS
330
C
102
}
330
C
100
AcDbXrecord
280
     1
 90
        1
330
6A
  0
DICTIONARY
  5
295
102
{ACAD_REACTORS
330
C
102
}
330
C
100
AcDbDictionary
281
     1
  3
CANNOSCALE
350
296
  3
CMLEADERSTYLE
350
29B
  3
CTABLESTYLE
350
29A
  0
LAYOUT
  5
1E
102
{ACAD_REACTORS
330
1A
102
}
330
1A
100
AcDbPlotSettings
  1

  2
none_device
  4

  6

 40
0.0
 41
0.0
 42
0.0
 43
0.0
 44
0.0
 45
0.0
 46
0.0
 47
0.0
 48
0.0
 49
0.0
140
0.0
141
0.0
142
1.0
143
1.0
 70
   688
 72
     0
 73
     0
 74
     5
  7

 75
    16
 76
     0
 77
     2
 78
   300
147
1.0
148
0.0
149
0.0
100
AcDbLayout
  1
Layout1
 70
     1
 71
     1
 10
0.0
 20
0.0
 11
12.0
 21
9.0
 12
0.0
 22
0.0
 32
0.0
 14
1.000000000000000E+20
 24
1.000000000000000E+20
 34
1.000000000000000E+20
 15
-1.000000000000000E+20
 25
-1.000000000000000E+20
 35
-1.000000000000000E+20
146
0.0
 13
0.0
 23
0.0
 33
0.0
 16
1.0
 26
0.0
 36
0.0
 17
0.0
 27
1.0
 37
0.0
 76
     0
330
1B
  0
LAYOUT
  5
26
102
{ACAD_REACTORS
330
1A
102
}
330
1A
100
AcDbPlotSettings
  1

  2
none_device
  4

  6

 40
0.0
 41
0.0
 42
0.0
 43
0.0
 44
0.0
 45
0.0
 46
0.0
 47
0.0
 48
0.0
 49
0.0
140
0.0
141
0.0
142
1.0
143
1.0
 70
   688
 72
     0
 73
     0
 74
     5
  7

 75
    16
 76
     0
 77
     2
 78
   300
147
1.0
148
0.0
149
0.0
100
AcDbLayout
  1
Layout2
 70
     1
 71
     2
 10
0.0
 20
0.0
 11
0.0
 21
0.0
 12
0.0
 22
0.0
 32
0.0
 14
0.0
 24
0.0
 34
0.0
 15
0.0
 25
0.0
 35
0.0
146
0.0
 13
0.0
 23
0.0
 33
0.0
 16
1.0
 26
0.0
 36
0.0
 17
0.0
 27
1.0
 37
0.0
 76
     0
330
23
  0
LAYOUT
  5
22
102
{ACAD_REACTORS
330
1A
102
}
330
1A
100
AcDbPlotSettings
  1

  2
none_device
  4
Letter_(8.50_x_11.00_Inches)
  6

 40
6.35
 41
6.35
 42
6.35000508
 43
6.35000508
 44
215.9
 45
279.4
 46
0.0
 47
0.0
 48
0.0
 49
0.0
140
0.0
141
0.0
142
1.0
143
1.0
 70
  1712
 72
     0
 73
     0
 74
     0
  7

 75
     0
 76
     0
 77
     2
 78
   300
147
1.0
148
0.0
149
0.0
100
AcDbLayout
  1
Model
 70
     1
 71
     0
 10
0.0
 20
0.0
 11
12.0
 21
9.0
 12
0.0
 22
0.0
 32
0.0
 14
1.000000000000000E+20
 24
1.000000000000000E+20
 34
1.000000000000000E+20
 15
-1.000000000000000E+20
 25
-1.000000000000000E+20
 35
-1.000000000000000E+20
146
0.0
 13
0.0
 23
0.0
 33
0.0
 16
1.0
 26
0.0
 36
0.0
 17
0.0
 27
1.0
 37
0.0
 76
     0
330
1F
331
29
  0
MATERIAL
  5
45
102
{ACAD_REACTORS
330
43
102
}
330
43
100
AcDbMaterial
  1
ByBlock
 72
     1
 94
      127
  0
MATERIAL
  5
44
102
{ACAD_REACTORS
330
43
102
}
330
43
100
AcDbMaterial
  1
ByLayer
 72
     1
 94
      127
  0
MATERIAL
  5
46
102
{ACAD_REACTORS
330
43
102
}
330
43
100
AcDbMaterial
  1
Global
 72
     1
 94
      127
  0
MLEADERSTYLE
  5
6C
102
{ACAD_REACTORS
330
6B
102
}
330
6B
100
AcDbMLeaderStyle
179
     2
170
     2
171
     1
172
     0
 90
        2
 40
0.0
 41
0.0
173
     1
 91
-1056964608
340
14
 92
       -2
290
     1
 42
0.09
291
     1
 43
0.36
  3
Standard
341
0
 44
0.18
300

342
11
174
     1
178
     6
175
     1
176
     0
 93
-1056964608
 45
0.18
292
     0
297
     0
 46
0.18
343
0
 94
-1056964608
 47
1.0
 49
1.0
140
1.0
293
     1
141
0.0
294
     1
177
     0
142
1.0
295
     0
296
     0
143
0.125
271
     0
272
     9
273
     9
298
     0
  0
MLINESTYLE
  5
18
102
{ACAD_REACTORS
330
17
102
}
330
17
100
AcDbMlineStyle
  2
Standard
 70
     0
  3

 62
   256
 51
90.0
 52
90.0
 71
     2
 49
0.5
 62
   256
  6
BYLAYER
 49
-0.5
 62
   256
  6
BYLAYER
  0
ACDBPLACEHOLDER
  5
F
102
{ACAD_REACTORS
330
E
102
}
330
E
  0
SCALE
  5
48
102
{ACAD_REACTORS
330
47
102
}
330
47
100
AcDbScale
 70
     0
300
1:1
140
1.0
141
1.0
290
     1
  0
SCALE
  5
49
102
{ACAD_REACTORS
330
47
102
}
330
47
100
AcDbScale
 70
     0
300
1:2
140
1.0
141
2.0
290
     0
  0
SCALE
  5
4A
102
{ACAD_REACTORS
330
47
102
}
330
47
100
AcDbScale
 70
     0
300
1:4
140
1.0
141
4.0
290
     0
  0
SCALE
  5
4B
102
{ACAD_REACTORS
330
47
102
}
330
47
100
AcDbScale
 70
     0
300
1:5
140
1.0
141
5.0
290
     0
  0
SCALE
  5
4C
102
{ACAD_REACTORS
330
47
102
}
330
47
100
AcDbScale
 70
     0
300
1:8
140
1.0
141
8.0
290
     0
  0
SCALE
  5
4D
102
{ACAD_REACTORS
330
47
102
}
330
47
100
AcDbScale
 70
     0
300
1:10
140
1.0
141
10.0
290
     0
  0
SCALE
  5
4E
102
{ACAD_REACTORS
330
47
102
}
330
47
100
AcDbScale
 70
     0
300
1:16
140
1.0
141
16.0
290
     0
  0
SCALE
  5
4F
102
{ACAD_REACTORS
330
47
102
}
330
47
100
AcDbScale
 70
     0
300
1:20
140
1.0
141
20.0
290
     0
  0
SCALE
  5
50
102
{ACAD_REACTORS
330
47
102
}
330
47
100
AcDbScale
 70
     0
300
1:30
140
1.0
141
30.0
290
     0
  0
SCALE
  5
51
102
{ACAD_REACTORS
330
47
102
}
330
47
100
AcDbScale
 70
     0
300
1:40
140
1.0
141
40.0
290
     0
  0
SCALE
  5
52
102
{ACAD_REACTORS
330
47
102
}
330
47
100
AcDbScale
 70
     0
300
1:50
140
1.0
141
50.0
290
     0
  0
SCALE
  5
53
102
{ACAD_REACTORS
330
47
102
}
330
47
100
AcDbScale
 70
     0
300
1:100
140
1.0
141
100.0
290
     0
  0
SCALE
  5
54
102
{ACAD_REACTORS
330
47
102
}
330
47
100
AcDbScale
 70
     0
300
2:1
140
2.0
141
1.0
290
     0
  0
SCALE
  5
55
102
{ACAD_REACTORS
330
47
102
}
330
47
100
AcDbScale
 70
     0
300
4:1
140
4.0
141
1.0
290
     0
  0
SCALE
  5
56
102
{ACAD_REACTORS
330
47
102
}
330
47
100
AcDbScale
 70
     0
300
8:1
140
8.0
141
1.0
290
     0
  0
SCALE
  5
57
102
{ACAD_REACTORS
330
47
102
}
330
47
100
AcDbScale
 70
     0
300
10:1
140
10.0
141
1.0
290
     0
  0
SCALE
  5
58
102
{ACAD_REACTORS
330
47
102
}
330
47
100
AcDbScale
 70
     0
300
100:1
140
100.0
141
1.0
290
     0
  0
SCALE
  5
59
102
{ACAD_REACTORS
330
47
102
}
330
47
100
AcDbScale
 70
     0
300
1/128" = 1'-0"
140
0.0078125
141
12.0
290
     0
  0
SCALE
  5
5A
102
{ACAD_REACTORS
330
47
102
}
330
47
100
AcDbScale
 70
     0
300
1/64" = 1'-0"
140
0.015625
141
12.0
290
     0
  0
SCALE
  5
5B
102
{ACAD_REACTORS
330
47
102
}
330
47
100
AcDbScale
 70
     0
300
1/32" = 1'-0"
140
0.03125
141
12.0
290
     0
  0
SCALE
  5
5C
102
{ACAD_REACTORS
330
47
102
}
330
47
100
AcDbScale
 70
     0
300
1/16" = 1'-0"
140
0.0625
141
12.0
290
     0
  0
SCALE
  5
5D
102
{ACAD_REACTORS
330
47
102
}
330
47
100
AcDbScale
 70
     0
300
3/32" = 1'-0"
140
0.09375
141
12.0
290
     0
  0
SCALE
  5
5E
102
{ACAD_REACTORS
330
47
102
}
330
47
100
AcDbScale
 70
     0
300
1/8" = 1'-0"
140
0.125
141
12.0
290
     0
  0
SCALE
  5
5F
102
{ACAD_REACTORS
330
47
102
}
330
47
100
AcDbScale
 70
     0
300
3/16" = 1'-0"
140
0.1875
141
12.0
290
     0
  0
SCALE
  5
60
102
{ACAD_REACTORS
330
47
102
}
330
47
100
AcDbScale
 70
     0
300
1/4" = 1'-0"
140
0.25
141
12.0
290
     0
  0
SCALE
  5
61
102
{ACAD_REACTORS
330
47
102
}
330
47
100
AcDbScale
 70
     0
300
3/8" = 1'-0"
140
0.375
141
12.0
290
     0
  0
SCALE
  5
62
102
{ACAD_REACTORS
330
47
102
}
330
47
100
AcDbScale
 70
     0
300
1/2" = 1'-0"
140
0.5
141
12.0
290
     0
  0
SCALE
  5
63
102
{ACAD_REACTORS
330
47
102
}
330
47
100
AcDbScale
 70
     0
300
3/4" = 1'-0"
140
0.75
141
12.0
290
     0
  0
SCALE
  5
64
102
{ACAD_REACTORS
330
47
102
}
330
47
100
AcDbScale
 70
     0
300
1" = 1'-0"
140
1.0
141
12.0
290
     0
  0
SCALE
  5
65
102
{ACAD_REACTORS
330
47
102
}
330
47
100
AcDbScale
 70
     0
300
1-1/2" = 1'-0"
140
1.5
141
12.0
290
     0
  0
SCALE
  5
66
102
{ACAD_REACTORS
330
47
102
}
330
47
100
AcDbScale
 70
     0
300
3" = 1'-0"
140
3.0
141
12.0
290
     0
  0
SCALE
  5
67
102
{ACAD_REACTORS
330
47
102
}
330
47
100
AcDbScale
 70
     0
300
6" = 1'-0"
140
6.0
141
12.0
290
     0
  0
SCALE
  5
68
102
{ACAD_REACTORS
330
47
102
}
330
47
100
AcDbScale
 70
     0
300
1'-0" = 1'-0"
140
12.0
141
12.0
290
     0
  0
TABLESTYLE
  5
6A
102
{ACAD_REACTORS
330
69
102
}
102
{ACAD_XDICTIONARY
360
297
102
}
330
69
100
AcDbTableStyle
  3
Standard
 70
     0
 71
     0
 40
0.06
 41
0.06
280
     0
281
     0
  7
Standard
140
0.18
170
     2
 62
     0
 63
   257
283
     0
 90
        4
 91
        0
  1

274
    -2
284
     1
 64
     0
275
    -2
285
     1
 65
     0
276
    -2
286
     1
 66
     0
277
    -2
287
     1
 67
     0
278
    -2
288
     1
 68
     0
279
    -2
289
     1
 69
     0
  7
Standard
140
0.25
170
     5
 62
     0
 63
   257
283
     0
 90
        4
 91
        0
  1

274
    -2
284
     1
 64
     0
275
    -2
285
     1
 65
     0
276
    -2
286
     1
 66
     0
277
    -2
287
     1
 67
     0
278
    -2
288
     1
 68
     0
279
    -2
289
     1
 69
     0
  7
Standard
140
0.18
170
     5
 62
     0
 63
   257
283
     0
 90
        4
 91
        0
  1

274
    -2
284
     1
 64
     0
275
    -2
285
     1
 65
     0
276
    -2
286
     1
 66
     0
277
    -2
287
     1
 67
     0
278
    -2
288
     1
 68
     0
279
    -2
289
     1
 69
     0
  0
VISUALSTYLE
  5
2F
102
{ACAD_REACTORS
330
2A
102
}
330
2A
100
AcDbVisualStyle
  2
2dWireframe
 70
     4
177
     3
291
     0
 70
    58
 90
        0
176
     1
 90
        2
176
     1
 90
        0
176
     1
 90
        0
176
     1
 40
0.6
176
     1
 40
30.0
176
     1
 62
     7
420
 16777215
176
     1
 90
        1
176
     1
 90
        4
176
     1
 62
     7
176
     1
 62
   257
176
     1
 90
        1
176
     1
 90
        1
176
     1
 40
1.0
176
     1
 90
        0
176
     1
 62
   257
176
     1
 40
1.0
176
     1
 90
        1
176
     1
 90
        6
176
     1
 90
        2
176
     1
 62
     7
176
     1
 90
        5
176
     1
 90
        0
176
     1
 90
        0
176
     1
290
     0
176
     1
 90
        1
176
     1
 40
0.0
176
     1
 90
        0
176
     1
290
     1
176
     1
290
     1
176
     1
290
     0
176
     1
290
     0
176
     1
290
     0
176
     1
290
     0
176
     1
290
     0
176
     1
290
     0
176
     1
290
     0
176
     1
 90
       50
176
     1
 40
0.0
176
     1
 40
1.0
176
     1
 90
        0
176
     1
 62
    18
420
        0
176
     1
 90
       50
176
     1
 90
        3
176
     1
 62
     5
420
      255
176
     1
290
     0
176
     1
 90
       50
176
     1
 90
       50
176
     1
 90
       50
176
     1
290
     0
176
     1
 90
       50
176
     1
 62
   256
176
     0
 40
1.0
176
     0
 90
        2
176
     1
  1
strokes_ogs.tif
176
     1
290
     0
176
     1
 40
1.0
176
     1
 40
1.0
176
     1
  0
VISUALSTYLE
  5
32
102
{ACAD_REACTORS
330
2A
102
}
330
2A
100
AcDbVisualStyle
  2
Basic
 70
     7
177
     3
291
     1
 70
    58
 90
        1
176
     1
 90
        0
176
     1
 90
        1
176
     1
 90
        0
176
     1
 40
0.6
176
     1
 40
30.0
176
     1
 62
     7
420
 16777215
176
     1
 90
        0
176
     1
 90
        4
176
     1
 62
     7
176
     1
 62
   257
176
     1
 90
        1
176
     1
 90
        1
176
     1
 40
1.0
176
     1
 90
        8
176
     1
 62
     7
176
     1
 40
1.0
176
     1
 90
        1
176
     1
 90
        6
176
     1
 90
        2
176
     1
 62
     7
176
     1
 90
        5
176
     1
 90
        0
176
     1
 90
        0
176
     1
290
     0
176
     1
 90
        1
176
     1
 40
0.0
176
     1
 90
        0
176
     1
290
     0
176
     1
290
     1
176
     1
290
     1
176
     1
290
     0
176
     1
290
     0
176
     1
290
     0
176
     1
290
     0
176
     1
290
     0
176
     1
290
     0
176
     1
 90
       50
176
     1
 40
0.0
176
     1
 40
1.0
176
     1
 90
        0
176
     1
 62
    18
420
        0
176
     1
 90
       50
176
     1
 90
        3
176
     1
 62
     5
420
      255
176
     1
290
     0
176
     1
 90
       50
176
     1
 90
       50
176
     1
 90
       50
176
     1
290
     0
176
     1
 90
       50
176
     1
 62
   256
176
     0
 40
1.0
176
     0
 90
        2
176
     1
  1
strokes_ogs.tif
176
     1
290
     0
176
     1
 40
1.0
176
     1
 40
1.0
176
     1
  0
VISUALSTYLE
  5
36
102
{ACAD_REACTORS
330
2A
102
}
330
2A
100
AcDbVisualStyle
  2
Brighten
 70
    12
177
     3
291
     1
 70
    58
 90
        2
176
     1
 90
        2
176
     1
 90
        0
176
     1
 90
        0
176
     1
 40
0.6
176
     1
 40
30.0
176
     1
 62
     7
420
 16777215
176
     1
 90
        1
176
     1
 90
        4
176
     1
 62
     7
176
     1
 62
   257
176
     1
 90
        1
176
     1
 90
        1
176
     1
 40
1.0
176
     1
 90
        8
176
     1
 62
     7
176
     1
 40
1.0
176
     1
 90
        1
176
     1
 90
        6
176
     1
 90
        2
176
     1
 62
     7
176
     1
 90
        5
176
     1
 90
        0
176
     1
 90
        0
176
     1
290
     0
176
     1
 90
        1
176
     1
 40
50.0
176
     1
 90
        0
176
     1
290
     0
176
     1
290
     1
176
     1
290
     1
176
     1
290
     0
176
     1
290
     0
176
     1
290
     0
176
     1
290
     0
176
     1
290
     0
176
     1
290
     0
176
     1
 90
       50
176
     1
 40
0.0
176
     1
 40
1.0
176
     1
 90
        0
176
     1
 62
    18
420
        0
176
     1
 90
       50
176
     1
 90
        3
176
     1
 62
     5
420
      255
176
     1
290
     0
176
     1
 90
       50
176
     1
 90
       50
176
     1
 90
       50
176
     1
290
     0
176
     1
 90
       50
176
     1
 62
   256
176
     0
 40
1.0
176
     0
 90
        2
176
     1
  1
strokes_ogs.tif
176
     1
290
     0
176
     1
 40
1.0
176
     1
 40
1.0
176
     1
  0
VISUALSTYLE
  5
3A
102
{ACAD_REACTORS
330
2A
102
}
330
2A
100
AcDbVisualStyle
  2
ColorChange
 70
    16
177
     3
291
     1
 70
    58
 90
        2
176
     1
 90
        2
176
     1
 90
        3
176
     1
 90
        0
176
     1
 40
0.6
176
     1
 40
30.0
176
     1
 62
     8
420
  8421504
176
     1
 90
        1
176
     1
 90
        4
176
     1
 62
     7
176
     1
 62
   257
176
     1
 90
        1
176
     1
 90
        1
176
     1
 40
1.0
176
     1
 90
        8
176
     1
 62
     8
420
  8421504
176
     1
 40
1.0
176
     1
 90
        1
176
     1
 90
        6
176
     1
 90
        2
176
     1
 62
     7
176
     1
 90
        5
176
     1
 90
        0
176
     1
 90
        0
176
     1
290
     0
176
     1
 90
        1
176
     1
 40
0.0
176
     1
 90
        0
176
     1
290
     0
176
     1
290
     1
176
     1
290
     1
176
     1
290
     0
176
     1
290
     0
176
     1
290
     0
176
     1
290
     0
176
     1
290
     0
176
     1
290
     0
176
     1
 90
       50
176
     1
 40
0.0
176
     1
 40
1.0
176
     1
 90
        0
176
     1
 62
    18
420
        0
176
     1
 90
       50
176
     1
 90
        3
176
     1
 62
     5
420
      255
176
     1
290
     0
176
     1
 90
       50
176
     1
 90
       50
176
     1
 90
       50
176
     1
290
     0
176
     1
 90
       50
176
     1
 62
   256
176
     0
 40
1.0
176
     0
 90
        2
176
     1
  1
strokes_ogs.tif
176
     1
290
     0
176
     1
 40
1.0
176
     1
 40
1.0
176
     1
  0
VISUALSTYLE
  5
34
102
{ACAD_REACTORS
330
2A
102
}
330
2A
100
AcDbVisualStyle
  2
Conceptual
 70
     9
177
     3
291
     0
 70
    58
 90
        3
176
     1
 90
        2
176
     1
 90
        0
176
     1
 90
        0
176
     1
 40
0.6
176
     1
 40
30.0
176
     1
 62
     7
420
 16777215
176
     1
 90
        2
176
     1
 90
        2
176
     1
 62
     7
176
     1
 62
   257
176
     1
 90
        1
176
     1
 90
        1
176
     1
 40
179.0
176
     1
 90
        8
176
     1
 62
     7
176
     1
 40
1.0
176
     1
 90
        1
176
     1
 90
        6
176
     1
 90
        2
176
     1
 62
     7
176
     1
 90
        3
176
     1
 90
        0
176
     1
 90
        0
176
     1
290
     0
176
     1
 90
        1
176
     1
 40
0.0
176
     1
 90
        0
176
     1
290
     0
176
     1
290
     1
176
     1
290
     1
176
     1
290
     0
176
     1
290
     0
176
     1
290
     0
176
     1
290
     0
176
     1
290
     0
176
     1
290
     0
176
     1
 90
       50
176
     1
 40
0.0
176
     1
 40
1.0
176
     1
 90
        0
176
     1
 62
    18
420
        0
176
     1
 90
       50
176
     1
 90
        3
176
     1
 62
     5
420
      255
176
     1
290
     0
176
     1
 90
       50
176
     1
 90
       50
176
     1
 90
       50
176
     1
290
     0
176
     1
 90
       50
176
     1
 62
   256
176
     0
 40
1.0
176
     0
 90
        2
176
     1
  1
strokes_ogs.tif
176
     1
290
     0
176
     1
 40
1.0
176
     1
 40
1.0
176
     1
  0
VISUALSTYLE
  5
35
102
{ACAD_REACTORS
330
2A
102
}
330
2A
100
AcDbVisualStyle
  2
Dim
 70
    11
177
     3
291
     1
 70
    58
 90
        2
176
     1
 90
        2
176
     1
 90
        0
176
     1
 90
        0
176
     1
 40
0.6
176
     1
 40
30.0
176
     1
 62
     7
420
 16777215
176
     1
 90
        1
176
     1
 90
        4
176
     1
 62
     7
176
     1
 62
   257
176
     1
 90
        1
176
     1
 90
        1
176
     1
 40
1.0
176
     1
 90
        8
176
     1
 62
     7
176
     1
 40
1.0
176
     1
 90
        1
176
     1
 90
        6
176
     1
 90
        2
176
     1
 62
     7
176
     1
 90
        5
176
     1
 90
        0
176
     1
 90
        0
176
     1
290
     0
176
     1
 90
        1
176
     1
 40
-50.0
176
     1
 90
        0
176
     1
290
     0
176
     1
290
     1
176
     1
290
     1
176
     1
290
     0
176
     1
290
     0
176
     1
290
     0
176
     1
290
     0
176
     1
290
     0
176
     1
290
     0
176
     1
 90
       50
176
     1
 40
0.0
176
     1
 40
1.0
176
     1
 90
        0
176
     1
 62
    18
420
        0
176
     1
 90
       50
176
     1
 90
        3
176
     1
 62
     5
420
      255
176
     1
290
     0
176
     1
 90
       50
176
     1
 90
       50
176
     1
 90
       50
176
     1
290
     0
176
     1
 90
       50
176
     1
 62
   256
176
     0
 40
1.0
176
     0
 90
        2
176
     1
  1
strokes_ogs.tif
176
     1
290
     0
176
     1
 40
1.0
176
     1
 40
1.0
176
     1
  0
VISUALSTYLE
  5
3D
102
{ACAD_REACTORS
330
2A
102
}
330
2A
100
AcDbVisualStyle
  2
EdgeColorOff
 70
    22
177
     3
291
     1
 70
    58
 90
        2
176
     0
 90
        2
176
     0
 90
        0
176
     0
 90
        0
176
     0
 40
0.6
176
     0
 40
30.0
176
     0
 62
     7
420
 16777215
176
     0
 90
        1
176
     0
 90
        4
176
     0
 62
     7
176
     0
 62
   257
176
     0
 90
        1
176
     0
 90
        1
176
     0
 40
1.0
176
     0
 90
        8
176
     2
 62
     7
176
     0
 40
1.0
176
     0
 90
        1
176
     0
 90
        6
176
     0
 90
        2
176
     0
 62
     7
176
     0
 90
        5
176
     0
 90
        0
176
     0
 90
        0
176
     0
290
     0
176
     0
 90
        1
176
     0
 40
0.0
176
     0
 90
        0
176
     0
290
     0
176
     0
290
     1
176
     0
290
     1
176
     0
290
     0
176
     0
290
     0
176
     0
290
     0
176
     0
290
     0
176
     0
290
     0
176
     0
290
     0
176
     0
 90
       50
176
     0
 40
0.0
176
     0
 40
1.0
176
     0
 90
        0
176
     0
 62
    18
420
        0
176
     0
 90
       50
176
     0
 90
        3
176
     0
 62
     5
420
      255
176
     0
290
     0
176
     0
 90
       50
176
     0
 90
       50
176
     0
 90
       50
176
     0
290
     0
176
     0
 90
       50
176
     0
 62
   256
176
     0
 40
1.0
176
     0
 90
        2
176
     0
  1
strokes_ogs.tif
176
     0
290
     0
176
     0
 40
1.0
176
     0
 40
1.0
176
     0
  0
VISUALSTYLE
  5
39
102
{ACAD_REACTORS
330
2A
102
}
330
2A
100
AcDbVisualStyle
  2
Facepattern
 70
    15
177
     3
291
     1
 70
    58
 90
        2
176
     1
 90
        2
176
     1
 90
        0
176
     1
 90
        0
176
     1
 40
0.6
176
     1
 40
30.0
176
     1
 62
     7
420
 16777215
176
     1
 90
        1
176
     1
 90
        4
176
     1
 62
     7
176
     1
 62
   257
176
     1
 90
        1
176
     1
 90
        1
176
     1
 40
1.0
176
     1
 90
        8
176
     1
 62
     7
176
     1
 40
1.0
176
     1
 90
        1
176
     1
 90
        6
176
     1
 90
        2
176
     1
 62
     7
176
     1
 90
        5
176
     1
 90
        0
176
     1
 90
        0
176
     1
290
     0
176
     1
 90
        1
176
     1
 40
0.0
176
     1
 90
        0
176
     1
290
     0
176
     1
290
     1
176
     1
290
     1
176
     1
290
     0
176
     1
290
     0
176
     1
290
     0
176
     1
290
     0
176
     1
290
     0
176
     1
290
     0
176
     1
 90
       50
176
     1
 40
0.0
176
     1
 40
1.0
176
     1
 90
        0
176
     1
 62
    18
420
        0
176
     1
 90
       50
176
     1
 90
        3
176
     1
 62
     5
420
      255
176
     1
290
     0
176
     1
 90
       50
176
     1
 90
       50
176
     1
 90
       50
176
     1
290
     0
176
     1
 90
       50
176
     1
 62
   256
176
     0
 40
1.0
176
     0
 90
        2
176
     1
  1
strokes_ogs.tif
176
     1
290
     0
176
     1
 40
1.0
176
     1
 40
1.0
176
     1
  0
VISUALSTYLE
  5
2B
102
{ACAD_REACTORS
330
2A
102
}
330
2A
100
AcDbVisualStyle
  2
Flat
 70
     0
177
     3
291
     1
 70
    58
 90
        2
176
     1
 90
        1
176
     1
 90
        1
176
     1
 90
        2
176
     1
 40
0.6
176
     1
 40
30.0
176
     1
 62
     7
420
 16777215
176
     1
 90
        0
176
     1
 90
        0
176
     1
 62
     7
176
     1
 62
   257
176
     1
 90
        1
176
     1
 90
        1
176
     1
 40
1.0
176
     1
 90
        8
176
     1
 62
     7
176
     1
 40
1.0
176
     1
 90
        1
176
     1
 90
        6
176
     1
 90
        2
176
     1
 62
     7
176
     1
 90
        5
176
     1
 90
        0
176
     1
 90
        0
176
     1
290
     0
176
     1
 90
       13
176
     1
 40
0.0
176
     1
 90
        0
176
     1
290
     0
176
     1
290
     1
176
     1
290
     1
176
     1
290
     0
176
     1
290
     0
176
     1
290
     0
176
     1
290
     0
176
     1
290
     0
176
     1
290
     0
176
     1
 90
       50
176
     1
 40
0.0
176
     1
 40
1.0
176
     1
 90
        0
176
     1
 62
    18
420
        0
176
     1
 90
       50
176
     1
 90
        3
176
     1
 62
     5
420
      255
176
     1
290
     0
176
     1
 90
       50
176
     1
 90
       50
176
     1
 90
       50
176
     1
290
     0
176
     1
 90
       50
176
     1
 62
   256
176
     0
 40
1.0
176
     0
 90
        2
176
     1
  1
strokes_ogs.tif
176
     1
290
     0
176
     1
 40
1.0
176
     1
 40
1.0
176
     1
  0
VISUALSTYLE
  5
2C
102
{ACAD_REACTORS
330
2A
102
}
330
2A
100
AcDbVisualStyle
  2
FlatWithEdges
 70
     1
177
     3
291
     1
 70
    58
 90
        2
176
     1
 90
        1
176
     1
 90
        1
176
     1
 90
        2
176
     1
 40
0.6
176
     1
 40
30.0
176
     1
 62
     7
420
 16777215
176
     1
 90
        1
176
     1
 90
        0
176
     1
 62
     7
176
     1
 62
   257
176
     1
 90
        1
176
     1
 90
        1
176
     1
 40
1.0
176
     1
 90
        0
176
     1
 62
   257
176
     1
 40
1.0
176
     1
 90
        1
176
     1
 90
        6
176
     1
 90
        2
176
     1
 62
     7
176
     1
 90
        5
176
     1
 90
        0
176
     1
 90
        0
176
     1
290
     0
176
     1
 90
       13
176
     1
 40
0.0
176
     1
 90
        0
176
     1
290
     0
176
     1
290
     1
176
     1
290
     1
176
     1
290
     0
176
     1
290
     0
176
     1
290
     0
176
     1
290
     0
176
     1
290
     0
176
     1
290
     0
176
     1
 90
       50
176
     1
 40
0.0
176
     1
 40
1.0
176
     1
 90
        0
176
     1
 62
    18
420
        0
176
     1
 90
       50
176
     1
 90
        3
176
     1
 62
     5
420
      255
176
     1
290
     0
176
     1
 90
       50
176
     1
 90
       50
176
     1
 90
       50
176
     1
290
     0
176
     1
 90
       50
176
     1
 62
   256
176
     0
 40
1.0
176
     0
 90
        2
176
     1
  1
strokes_ogs.tif
176
     1
290
     0
176
     1
 40
1.0
176
     1
 40
1.0
176
     1
  0
VISUALSTYLE
  5
2D
102
{ACAD_REACTORS
330
2A
102
}
330
2A
100
AcDbVisualStyle
  2
Gouraud
 70
     2
177
     3
291
     1
 70
    58
 90
        2
176
     1
 90
        2
176
     1
 90
        1
176
     1
 90
        2
176
     1
 40
0.6
176
     1
 40
30.0
176
     1
 62
     7
420
 16777215
176
     1
 90
        0
176
     1
 90
        0
176
     1
 62
     7
176
     1
 62
   257
176
     1
 90
        1
176
     1
 90
        1
176
     1
 40
1.0
176
     1
 90
        0
176
     1
 62
     7
176
     1
 40
1.0
176
     1
 90
        1
176
     1
 90
        6
176
     1
 90
        2
176
     1
 62
     7
176
     1
 90
        5
176
     1
 90
        0
176
     1
 90
        0
176
     1
290
     0
176
     1
 90
       13
176
     1
 40
0.0
176
     1
 90
        0
176
     1
290
     0
176
     1
290
     1
176
     1
290
     1
176
     1
290
     0
176
     1
290
     0
176
     1
290
     0
176
     1
290
     0
176
     1
290
     0
176
     1
290
     0
176
     1
 90
       50
176
     1
 40
0.0
176
     1
 40
1.0
176
     1
 90
        0
176
     1
 62
    18
420
        0
176
     1
 90
       50
176
     1
 90
        3
176
     1
 62
     5
420
      255
176
     1
290
     0
176
     1
 90
       50
176
     1
 90
       50
176
     1
 90
       50
176
     1
290
     0
176
     1
 90
       50
176
     1
 62
   256
176
     0
 40
1.0
176
     0
 90
        2
176
     1
  1
strokes_ogs.tif
176
     1
290
     0
176
     1
 40
1.0
176
     1
 40
1.0
176
     1
  0
VISUALSTYLE
  5
2E
102
{ACAD_REACTORS
330
2A
102
}
330
2A
100
AcDbVisualStyle
  2
GouraudWithEdges
 70
     3
177
     3
291
     1
 70
    58
 90
        2
176
     1
 90
        2
176
     1
 90
        1
176
     1
 90
        2
176
     1
 40
0.6
176
     1
 40
30.0
176
     1
 62
     7
420
 16777215
176
     1
 90
        1
176
     1
 90
        0
176
     1
 62
     7
176
     1
 62
   257
176
     1
 90
        1
176
     1
 90
        1
176
     1
 40
1.0
176
     1
 90
        0
176
     1
 62
   257
176
     1
 40
1.0
176
     1
 90
        1
176
     1
 90
        6
176
     1
 90
        2
176
     1
 62
     7
176
     1
 90
        5
176
     1
 90
        0
176
     1
 90
        0
176
     1
290
     0
176
     1
 90
       13
176
     1
 40
0.0
176
     1
 90
        0
176
     1
290
     0
176
     1
290
     1
176
     1
290
     1
176
     1
290
     0
176
     1
290
     0
176
     1
290
     0
176
     1
290
     0
176
     1
290
     0
176
     1
290
     0
176
     1
 90
       50
176
     1
 40
0.0
176
     1
 40
1.0
176
     1
 90
        0
176
     1
 62
    18
420
        0
176
     1
 90
       50
176
     1
 90
        3
176
     1
 62
     5
420
      255
176
     1
290
     0
176
     1
 90
       50
176
     1
 90
       50
176
     1
 90
       50
176
     1
290
     0
176
     1
 90
       50
176
     1
 62
   256
176
     0
 40
1.0
176
     0
 90
        2
176
     1
  1
strokes_ogs.tif
176
     1
290
     0
176
     1
 40
1.0
176
     1
 40
1.0
176
     1
  0
VISUALSTYLE
  5
31
102
{ACAD_REACTORS
330
2A
102
}
330
2A
100
AcDbVisualStyle
  2
Hidden
 70
     6
177
     3
291
     0
 70
    58
 90
        1
176
     1
 90
        2
176
     1
 90
        2
176
     1
 90
        0
176
     1
 40
0.6
176
     1
 40
30.0
176
     1
 62
     7
420
 16777215
176
     1
 90
        2
176
     1
 90
        2
176
     1
 62
     7
176
     1
 62
   257
176
     1
 90
        2
176
     1
 90
        1
176
     1
 40
40.0
176
     1
 90
        0
176
     1
 62
   257
176
     1
 40
1.0
176
     1
 90
        1
176
     1
 90
        6
176
     1
 90
        2
176
     1
 62
     7
176
     1
 90
        3
176
     1
 90
        0
176
     1
 90
        0
176
     1
290
     0
176
     1
 90
        1
176
     1
 40
0.0
176
     1
 90
        0
176
     1
290
     0
176
     1
290
     1
176
     1
290
     1
176
     1
290
     0
176
     1
290
     0
176
     1
290
     0
176
     1
290
     0
176
     1
290
     0
176
     1
290
     0
176
     1
 90
       50
176
     1
 40
0.0
176
     1
 40
1.0
176
     1
 90
        0
176
     1
 62
    18
420
        0
176
     1
 90
       50
176
     1
 90
        3
176
     1
 62
     5
420
      255
176
     1
290
     0
176
     1
 90
       50
176
     1
 90
       50
176
     1
 90
       50
176
     1
290
     0
176
     1
 90
       50
176
     1
 62
   256
176
     0
 40
1.0
176
     0
 90
        2
176
     1
  1
strokes_ogs.tif
176
     1
290
     0
176
     1
 40
1.0
176
     1
 40
1.0
176
     1
  0
VISUALSTYLE
  5
3B
102
{ACAD_REACTORS
330
2A
102
}
330
2A
100
AcDbVisualStyle
  2
JitterOff
 70
    20
177
     3
291
     1
 70
    58
 90
        2
176
     0
 90
        2
176
     0
 90
        0
176
     0
 90
        0
176
     0
 40
0.6
176
     0
 40
30.0
176
     0
 62
     7
420
 16777215
176
     0
 90
        1
176
     0
 90
        4
176
     0
 62
     7
176
     0
 62
   257
176
     0
 90
        1
176
     0
 90
        1
176
     0
 40
1.0
176
     0
 90
       10
176
     2
 62
     7
176
     0
 40
1.0
176
     0
 90
        1
176
     0
 90
        6
176
     0
 90
        2
176
     0
 62
     7
176
     0
 90
        5
176
     0
 90
        0
176
     0
 90
        0
176
     0
290
     0
176
     0
 90
        1
176
     0
 40
0.0
176
     0
 90
        0
176
     0
290
     0
176
     0
290
     1
176
     0
290
     1
176
     0
290
     0
176
     0
290
     0
176
     0
290
     0
176
     0
290
     0
176
     0
290
     0
176
     0
290
     0
176
     0
 90
       50
176
     0
 40
0.0
176
     0
 40
1.0
176
     0
 90
        0
176
     0
 62
    18
420
        0
176
     0
 90
       50
176
     0
 90
        3
176
     0
 62
     5
420
      255
176
     0
290
     0
176
     0
 90
       50
176
     0
 90
       50
176
     0
 90
       50
176
     0
290
     0
176
     0
 90
       50
176
     0
 62
   256
176
     0
 40
1.0
176
     0
 90
        2
176
     0
  1
strokes_ogs.tif
176
     0
290
     0
176
     0
 40
1.0
176
     0
 40
1.0
176
     0
  0
VISUALSTYLE
  5
38
102
{ACAD_REACTORS
330
2A
102
}
330
2A
100
AcDbVisualStyle
  2
Linepattern
 70
    14
177
     3
291
     1
 70
    58
 90
        2
176
     1
 90
        2
176
     1
 90
        0
176
     1
 90
        0
176
     1
 40
0.6
176
     1
 40
30.0
176
     1
 62
     7
420
 16777215
176
     1
 90
        1
176
     1
 90
        4
176
     1
 62
     7
176
     1
 62
   257
176
     1
 90
        7
176
     1
 90
        7
176
     1
 40
1.0
176
     1
 90
        8
176
     1
 62
     7
176
     1
 40
1.0
176
     1
 90
        1
176
     1
 90
        6
176
     1
 90
        2
176
     1
 62
     7
176
     1
 90
        5
176
     1
 90
        0
176
     1
 90
        0
176
     1
290
     0
176
     1
 90
        1
176
     1
 40
0.0
176
     1
 90
        0
176
     1
290
     0
176
     1
290
     1
176
     1
290
     1
176
     1
290
     0
176
     1
290
     0
176
     1
290
     0
176
     1
290
     0
176
     1
290
     0
176
     1
290
     0
176
     1
 90
       50
176
     1
 40
0.0
176
     1
 40
1.0
176
     1
 90
        0
176
     1
 62
    18
420
        0
176
     1
 90
       50
176
     1
 90
        3
176
     1
 62
     5
420
      255
176
     1
290
     0
176
     1
 90
       50
176
     1
 90
       50
176
     1
 90
       50
176
     1
290
     0
176
     1
 90
       50
176
     1
 62
   256
176
     0
 40
1.0
176
     0
 90
        2
176
     1
  1
strokes_ogs.tif
176
     1
290
     0
176
     1
 40
1.0
176
     1
 40
1.0
176
     1
  0
VISUALSTYLE
  5
3C
102
{ACAD_REACTORS
330
2A
102
}
330
2A
100
AcDbVisualStyle
  2
OverhangOff
 70
    21
177
     3
291
     1
 70
    58
 90
        2
176
     0
 90
        2
176
     0
 90
        0
176
     0
 90
        0
176
     0
 40
0.6
176
     0
 40
30.0
176
     0
 62
     7
420
 16777215
176
     0
 90
        1
176
     0
 90
        4
176
     0
 62
     7
176
     0
 62
   257
176
     0
 90
        1
176
     0
 90
        1
176
     0
 40
1.0
176
     0
 90
        9
176
     2
 62
     7
176
     0
 40
1.0
176
     0
 90
        1
176
     0
 90
        6
176
     0
 90
        2
176
     0
 62
     7
176
     0
 90
        5
176
     0
 90
        0
176
     0
 90
        0
176
     0
290
     0
176
     0
 90
        1
176
     0
 40
0.0
176
     0
 90
        0
176
     0
290
     0
176
     0
290
     1
176
     0
290
     1
176
     0
290
     0
176
     0
290
     0
176
     0
290
     0
176
     0
290
     0
176
     0
290
     0
176
     0
290
     0
176
     0
 90
       50
176
     0
 40
0.0
176
     0
 40
1.0
176
     0
 90
        0
176
     0
 62
    18
420
        0
176
     0
 90
       50
176
     0
 90
        3
176
     0
 62
     5
420
      255
176
     0
290
     0
176
     0
 90
       50
176
     0
 90
       50
176
     0
 90
       50
176
     0
290
     0
176
     0
 90
       50
176
     0
 62
   256
176
     0
 40
1.0
176
     0
 90
        2
176
     0
  1
strokes_ogs.tif
176
     0
290
     0
176
     0
 40
1.0
176
     0
 40
1.0
176
     0
  0
VISUALSTYLE
  5
33
102
{ACAD_REACTORS
330
2A
102
}
330
2A
100
AcDbVisualStyle
  2
Realistic
 70
     8
177
     3
291
     0
 70
    58
 90
        2
176
     1
 90
        3
176
     1
 90
        0
176
     1
 90
        2
176
     1
 40
0.6
176
     1
 40
30.0
176
     1
 62
     7
420
 16777215
176
     1
 90
        0
176
     1
 90
        0
176
     1
 62
     7
176
     1
 62
   257
176
     1
 90
        1
176
     1
 90
        1
176
     1
 40
1.0
176
     1
 90
        8
176
     1
 62
   257
176
     1
 40
1.0
176
     1
 90
        1
176
     1
 90
        6
176
     1
 90
        2
176
     1
 62
     7
176
     1
 90
        3
176
     1
 90
        0
176
     1
 90
        0
176
     1
290
     0
176
     1
 90
       13
176
     1
 40
0.0
176
     1
 90
        0
176
     1
290
     0
176
     1
290
     1
176
     1
290
     1
176
     1
290
     0
176
     1
290
     0
176
     1
290
     0
176
     1
290
     0
176
     1
290
     0
176
     1
290
     0
176
     1
 90
       50
176
     1
 40
0.0
176
     1
 40
1.0
176
     1
 90
        0
176
     1
 62
    18
420
        0
176
     1
 90
       50
176
     1
 90
        3
176
     1
 62
     5
420
      255
176
     1
290
     0
176
     1
 90
       50
176
     1
 90
       50
176
     1
 90
       50
176
     1
290
     0
176
     1
 90
       50
176
     1
 62
   256
176
     0
 40
1.0
176
     0
 90
        2
176
     1
  1
strokes_ogs.tif
176
     1
290
     0
176
     1
 40
1.0
176
     1
 40
1.0
176
     1
  0
VISUALSTYLE
  5
42
102
{ACAD_REACTORS
330
2A
102
}
330
2A
100
AcDbVisualStyle
  2
Shaded
 70
    27
177
     3
291
     0
 70
    58
 90
        2
176
     1
 90
        2
176
     1
 90
        1
176
     1
 90
        2
176
     1
 40
0.6
176
     1
 40
30.0
176
     1
 62
     7
420
 16777215
176
     1
 90
        0
176
     1
 90
        4
176
     1
 62
     7
176
     1
 62
   257
176
     1
 90
        1
176
     1
 90
        1
176
     1
 40
1.0
176
     1
 90
        8
176
     1
 62
   257
176
     1
 40
1.0
176
     1
 90
        1
176
     1
 90
        6
176
     1
 90
        2
176
     1
 62
     8
420
  7895160
176
     1
 90
        3
176
     1
 90
        0
176
     1
 90
        0
176
     1
290
     0
176
     1
 90
        5
176
     1
 40
0.0
176
     1
 90
        0
176
     1
290
     0
176
     1
290
     1
176
     1
290
     1
176
     1
290
     0
176
     1
290
     0
176
     1
290
     0
176
     1
290
     0
176
     1
290
     0
176
     1
290
     0
176
     1
 90
       50
176
     1
 40
0.0
176
     1
 40
1.0
176
     1
 90
        0
176
     1
 62
    18
420
        0
176
     1
 90
       50
176
     1
 90
        3
176
     1
 62
     5
420
      255
176
     1
290
     0
176
     1
 90
       50
176
     1
 90
       50
176
     1
 90
       50
176
     1
290
     0
176
     1
 90
       50
176
     1
 62
   256
176
     0
 40
1.0
176
     0
 90
        2
176
     1
  1
strokes_ogs.tif
176
     1
290
     0
176
     1
 40
1.0
176
     1
 40
1.0
176
     1
  0
VISUALSTYLE
  5
41
102
{ACAD_REACTORS
330
2A
102
}
330
2A
100
AcDbVisualStyle
  2
Shaded with edges
 70
    26
177
     3
291
     0
 70
    58
 90
        2
176
     1
 90
        2
176
     1
 90
        1
176
     1
 90
        2
176
     1
 40
0.6
176
     1
 40
30.0
176
     1
 62
     7
420
 16777215
176
     1
 90
        1
176
     1
 90
       10
176
     1
 62
     7
176
     1
 62
   257
176
     1
 90
        2
176
     1
 90
        1
176
     1
 40
1.0
176
     1
 90
        8
176
     1
 62
   257
176
     1
 40
1.0
176
     1
 90
        1
176
     1
 90
        6
176
     1
 90
        2
176
     1
 62
     7
176
     1
 90
        3
176
     1
 90
        0
176
     1
 90
        0
176
     1
290
     0
176
     1
 90
        5
176
     1
 40
0.0
176
     1
 90
        0
176
     1
290
     0
176
     1
290
     1
176
     1
290
     1
176
     1
290
     0
176
     1
290
     0
176
     1
290
     0
176
     1
290
     0
176
     1
290
     0
176
     1
290
     0
176
     1
 90
       50
176
     1
 40
0.0
176
     1
 40
1.0
176
     1
 90
        0
176
     1
 62
    18
420
        0
176
     1
 90
       50
176
     1
 90
        3
176
     1
 62
     5
420
      255
176
     1
290
     0
176
     1
 90
       50
176
     1
 90
       50
176
     1
 90
       50
176
     1
290
     0
176
     1
 90
       50
176
     1
 62
   256
176
     0
 40
1.0
176
     0
 90
        2
176
     1
  1
strokes_ogs.tif
176
     1
290
     0
176
     1
 40
1.0
176
     1
 40
1.0
176
     1
  0
VISUALSTYLE
  5
3E
102
{ACAD_REACTORS
330
2A
102
}
330
2A
100
AcDbVisualStyle
  2
Shades of Gray
 70
    23
177
     3
291
     0
 70
    58
 90
        2
176
     1
 90
        2
176
     1
 90
        3
176
     1
 90
        0
176
     1
 40
0.6
176
     1
 40
30.0
176
     1
 62
     7
420
 16777215
176
     1
 90
        2
176
     1
 90
        2
176
     1
 62
     7
176
     1
 62
     7
176
     1
 90
        1
176
     1
 90
        1
176
     1
 40
40.0
176
     1
 90
        8
176
     1
 62
     7
176
     1
 40
1.0
176
     1
 90
        1
176
     1
 90
        6
176
     1
 90
        2
176
     1
 62
     7
176
     1
 90
        3
176
     1
 90
        0
176
     1
 90
        0
176
     1
290
     0
176
     1
 90
        1
176
     1
 40
0.0
176
     1
 90
        0
176
     1
290
     0
176
     1
290
     1
176
     1
290
     1
176
     1
290
     0
176
     1
290
     0
176
     1
290
     0
176
     1
290
     0
176
     1
290
     0
176
     1
290
     0
176
     1
 90
       50
176
     1
 40
0.0
176
     1
 40
1.0
176
     1
 90
        0
176
     1
 62
    18
420
        0
176
     1
 90
       50
176
     1
 90
        3
176
     1
 62
     5
420
      255
176
     1
290
     0
176
     1
 90
       50
176
     1
 90
       50
176
     1
 90
       50
176
     1
290
     0
176
     1
 90
       50
176
     1
 62
   256
176
     0
 40
1.0
176
     0
 90
        2
176
     1
  1
strokes_ogs.tif
176
     1
290
     0
176
     1
 40
1.0
176
     1
 40
1.0
176
     1
  0
VISUALSTYLE
  5
3F
102
{ACAD_REACTORS
330
2A
102
}
330
2A
100
AcDbVisualStyle
  2
Sketchy
 70
    24
177
     3
291
     0
 70
    58
 90
        1
176
     1
 90
        2
176
     1
 90
        2
176
     1
 90
        0
176
     1
 40
0.6
176
     1
 40
30.0
176
     1
 62
     7
420
 16777215
176
     1
 90
        2
176
     1
 90
        2
176
     1
 62
     7
176
     1
 62
     7
176
     1
 90
        1
176
     1
 90
        1
176
     1
 40
40.0
176
     1
 90
       11
176
     1
 62
     7
176
     1
 40
1.0
176
     1
 90
        1
176
     1
 90
        6
176
     1
 90
        2
176
     1
 62
     7
176
     1
 90
        6
176
     1
 90
        0
176
     1
 90
        0
176
     1
290
     0
176
     1
 90
        1
176
     1
 40
0.0
176
     1
 90
        0
176
     1
290
     0
176
     1
290
     1
176
     1
290
     1
176
     1
290
     0
176
     1
290
     0
176
     1
290
     0
176
     1
290
     0
176
     1
290
     0
176
     1
290
     0
176
     1
 90
       50
176
     1
 40
0.0
176
     1
 40
1.0
176
     1
 90
        0
176
     1
 62
    18
420
        0
176
     1
 90
       50
176
     1
 90
        3
176
     1
 62
     5
420
      255
176
     1
290
     0
176
     1
 90
       50
176
     1
 90
       50
176
     1
 90
       50
176
     1
290
     0
176
     1
 90
       50
176
     1
 62
   256
176
     0
 40
1.0
176
     0
 90
        2
176
     1
  1
strokes_ogs.tif
176
     1
290
     0
176
     1
 40
1.0
176
     1
 40
1.0
176
     1
  0
VISUALSTYLE
  5
37
102
{ACAD_REACTORS
330
2A
102
}
330
2A
100
AcDbVisualStyle
  2
Thicken
 70
    13
177
     3
291
     1
 70
    58
 90
        2
176
     1
 90
        2
176
     1
 90
        0
176
     1
 90
        0
176
     1
 40
0.6
176
     1
 40
30.0
176
     1
 62
     7
420
 16777215
176
     1
 90
        1
176
     1
 90
        4
176
     1
 62
     7
176
     1
 62
   257
176
     1
 90
        1
176
     1
 90
        1
176
     1
 40
1.0
176
     1
 90
       12
176
     1
 62
     7
176
     1
 40
1.0
176
     1
 90
        1
176
     1
 90
        6
176
     1
 90
        2
176
     1
 62
     7
176
     1
 90
        5
176
     1
 90
        0
176
     1
 90
        0
176
     1
290
     0
176
     1
 90
        1
176
     1
 40
0.0
176
     1
 90
        0
176
     1
290
     0
176
     1
290
     1
176
     1
290
     1
176
     1
290
     0
176
     1
290
     0
176
     1
290
     0
176
     1
290
     0
176
     1
290
     0
176
     1
290
     0
176
     1
 90
       50
176
     1
 40
0.0
176
     1
 40
1.0
176
     1
 90
        0
176
     1
 62
    18
420
        0
176
     1
 90
       50
176
     1
 90
        3
176
     1
 62
     5
420
      255
176
     1
290
     0
176
     1
 90
       50
176
     1
 90
       50
176
     1
 90
       50
176
     1
290
     0
176
     1
 90
       50
176
     1
 62
   256
176
     0
 40
1.0
176
     0
 90
        2
176
     1
  1
strokes_ogs.tif
176
     1
290
     0
176
     1
 40
1.0
176
     1
 40
1.0
176
     1
  0
VISUALSTYLE
  5
30
102
{ACAD_REACTORS
330
2A
102
}
330
2A
100
AcDbVisualStyle
  2
Wireframe
 70
     5
177
     3
291
     0
 70
    58
 90
        0
176
     1
 90
        2
176
     1
 90
        0
176
     1
 90
        0
176
     1
 40
0.6
176
     1
 40
30.0
176
     1
 62
     7
420
 16777215
176
     1
 90
        1
176
     1
 90
        4
176
     1
 62
     7
176
     1
 62
   257
176
     1
 90
        1
176
     1
 90
        1
176
     1
 40
1.0
176
     1
 90
        0
176
     1
 62
   257
176
     1
 40
1.0
176
     1
 90
        1
176
     1
 90
        6
176
     1
 90
        2
176
     1
 62
     7
176
     1
 90
        3
176
     1
 90
        0
176
     1
 90
        0
176
     1
290
     0
176
     1
 90
        1
176
     1
 40
0.0
176
     1
 90
        0
176
     1
290
     0
176
     1
290
     1
176
     1
290
     1
176
     1
290
     0
176
     1
290
     0
176
     1
290
     0
176
     1
290
     0
176
     1
290
     0
176
     1
290
     0
176
     1
 90
       50
176
     1
 40
0.0
176
     1
 40
1.0
176
     1
 90
        0
176
     1
 62
    18
420
        0
176
     1
 90
       50
176
     1
 90
        3
176
     1
 62
     5
420
      255
176
     1
290
     0
176
     1
 90
       50
176
     1
 90
       50
176
     1
 90
       50
176
     1
290
     0
176
     1
 90
       50
176
     1
 62
   256
176
     0
 40
1.0
176
     0
 90
        2
176
     1
  1
strokes_ogs.tif
176
     1
290
     0
176
     1
 40
1.0
176
     1
 40
1.0
176
     1
  0
VISUALSTYLE
  5
40
102
{ACAD_REACTORS
330
2A
102
}
330
2A
100
AcDbVisualStyle
  2
X-Ray
 70
    25
177
     3
291
     0
 70
    58
 90
        2
176
     1
 90
        2
176
     1
 90
        1
176
     1
 90
        1
176
     1
 40
0.5
176
     1
 40
30.0
176
     1
 62
     7
420
 16777215
176
     1
 90
        1
176
     1
 90
        0
176
     1
 62
     7
176
     1
 62
   257
176
     1
 90
        1
176
     1
 90
        1
176
     1
 40
1.0
176
     1
 90
        8
176
     1
 62
     7
176
     1
 40
1.0
176
     1
 90
        1
176
     1
 90
        6
176
     1
 90
        2
176
     1
 62
     7
176
     1
 90
        3
176
     1
 90
        0
176
     1
 90
        0
176
     1
290
     0
176
     1
 90
       13
176
     1
 40
0.0
176
     1
 90
        0
176
     1
290
     0
176
     1
290
     1
176
     1
290
     1
176
     1
290
     0
176
     1
290
     0
176
     1
290
     0
176
     1
290
     0
176
     1
290
     0
176
     1
290
     0
176
     1
 90
       50
176
     1
 40
0.0
176
     1
 40
1.0
176
     1
 90
        0
176
     1
 62
    18
420
        0
176
     1
 90
       50
176
     1
 90
        3
176
     1
 62
     5
420
      255
176
     1
290
     0
176
     1
 90
       50
176
     1
 90
       50
176
     1
 90
       50
176
     1
290
     0
176
     1
 90
       50
176
     1
 62
   256
176
     0
 40
1.0
176
     0
 90
        2
176
     1
  1
strokes_ogs.tif
176
     1
290
     0
176
     1
 40
1.0
176
     1
 40
1.0
176
     1
  0
DICTIONARYVAR
  5
296
102
{ACAD_REACTORS
330
295
102
}
330
295
100
DictionaryVariables
280
     0
  1
1:1
  0
DICTIONARYVAR
  5
29B
102
{ACAD_REACTORS
330
295
102
}
330
295
100
DictionaryVariables
280
     0
  1
Standard
  0
DICTIONARYVAR
  5
29A
102
{ACAD_REACTORS
330
295
102
}
330
295
100
DictionaryVariables
280
     0
  1
Standard
  0
DICTIONARY
  5
297
330
6A
100
AcDbDictionary
280
     1
281
     1
  3
ACAD_ROUNDTRIP_2008_TABLESTYLE_CELLSTYLEMAP
360
298
  0
CELLSTYLEMAP
  5
298
102
{ACAD_REACTORS
330
297
102
}
330
297
100
AcDbCellStyleMap
 90
        3
300
CELLSTYLE
  1
TABLEFORMAT_BEGIN
 90
        5
170
     1
 91
        0
 92
    32768
 62
   257
 93
        1
300
CONTENTFORMAT
  1
CONTENTFORMAT_BEGIN
 90
        0
 91
        0
 92
        4
 93
        0
300

 40
0.0
140
1.0
 94
        5
 62
     0
340
11
144
0.25
309
CONTENTFORMAT_END
171
     1
301
MARGIN
  1
CELLMARGIN_BEGIN
 40
0.06
 40
0.06
 40
0.06
 40
0.06
 40
0.06
 40
0.06
309
CELLMARGIN_END
 94
        6
 95
        1
302
GRIDFORMAT
  1
GRIDFORMAT_BEGIN
 90
        0
 91
        1
 62
     0
 92
       -2
340
14
 93
        0
 40
0.045
309
GRIDFORMAT_END
 95
        2
302
GRIDFORMAT
  1
GRIDFORMAT_BEGIN
 90
        0
 91
        1
 62
     0
 92
       -2
340
14
 93
        0
 40
0.045
309
GRIDFORMAT_END
 95
        4
302
GRIDFORMAT
  1
GRIDFORMAT_BEGIN
 90
        0
 91
        1
 62
     0
 92
       -2
340
14
 93
        0
 40
0.045
309
GRIDFORMAT_END
 95
        8
302
GRIDFORMAT
  1
GRIDFORMAT_BEGIN
 90
        0
 91
        1
 62
     0
 92
       -2
340
14
 93
        0
 40
0.045
309
GRIDFORMAT_END
 95
       16
302
GRIDFORMAT
  1
GRIDFORMAT_BEGIN
 90
        0
 91
        1
 62
     0
 92
       -2
340
14
 93
        0
 40
0.045
309
GRIDFORMAT_END
 95
       32
302
GRIDFORMAT
  1
GRIDFORMAT_BEGIN
 90
        0
 91
        1
 62
     0
 92
       -2
340
14
 93
        0
 40
0.045
309
GRIDFORMAT_END
309
TABLEFORMAT_END
  1
CELLSTYLE_BEGIN
 90
        1
 91
        1
300
_TITLE
309
CELLSTYLE_END
300
CELLSTYLE
  1
TABLEFORMAT_BEGIN
 90
        5
170
     1
 91
        0
 92
        0
 62
   257
 93
        1
300
CONTENTFORMAT
  1
CONTENTFORMAT_BEGIN
 90
        0
 91
        0
 92
        4
 93
        0
300

 40
0.0
140
1.0
 94
        5
 62
     0
340
11
144
0.18
309
CONTENTFORMAT_END
171
     1
301
MARGIN
  1
CELLMARGIN_BEGIN
 40
0.06
 40
0.06
 40
0.06
 40
0.06
 40
0.06
 40
0.06
309
CELLMARGIN_END
 94
        6
 95
        1
302
GRIDFORMAT
  1
GRIDFORMAT_BEGIN
 90
        0
 91
        1
 62
     0
 92
       -2
340
14
 93
        0
 40
0.045
309
GRIDFORMAT_END
 95
        2
302
GRIDFORMAT
  1
GRIDFORMAT_BEGIN
 90
        0
 91
        1
 62
     0
 92
       -2
340
14
 93
        0
 40
0.045
309
GRIDFORMAT_END
 95
        4
302
GRIDFORMAT
  1
GRIDFORMAT_BEGIN
 90
        0
 91
        1
 62
     0
 92
       -2
340
14
 93
        0
 40
0.045
309
GRIDFORMAT_END
 95
        8
302
GRIDFORMAT
  1
GRIDFORMAT_BEGIN
 90
        0
 91
        1
 62
     0
 92
       -2
340
14
 93
        0
 40
0.045
309
GRIDFORMAT_END
 95
       16
302
GRIDFORMAT
  1
GRIDFORMAT_BEGIN
 90
        0
 91
        1
 62
     0
 92
       -2
340
14
 93
        0
 40
0.045
309
GRIDFORMAT_END
 95
       32
302
GRIDFORMAT
  1
GRIDFORMAT_BEGIN
 90
        0
 91
        1
 62
     0
 92
       -2
340
14
 93
        0
 40
0.045
309
GRIDFORMAT_END
309
TABLEFORMAT_END
  1
CELLSTYLE_BEGIN
 90
        2
 91
        1
300
_HEADER
309
CELLSTYLE_END
300
CELLSTYLE
  1
TABLEFORMAT_BEGIN
 90
        5
170
     1
 91
        0
 92
        0
 62
   257
 93
        1
300
CONTENTFORMAT
  1
CONTENTFORMAT_BEGIN
 90
        0
 91
        0
 92
        4
 93
        0
300

 40
0.0
140
1.0
 94
        2
 62
     0
340
11
144
0.18
309
CONTENTFORMAT_END
171
     1
301
MARGIN
  1
CELLMARGIN_BEGIN
 40
0.06
 40
0.06
 40
0.06
 40
0.06
 40
0.06
 40
0.06
309
CELLMARGIN_END
 94
        6
 95
        1
302
GRIDFORMAT
  1
GRIDFORMAT_BEGIN
 90
        0
 91
        1
 62
     0
 92
       -2
340
14
 93
        0
 40
0.045
309
GRIDFORMAT_END
 95
        2
302
GRIDFORMAT
  1
GRIDFORMAT_BEGIN
 90
        0
 91
        1
 62
     0
 92
       -2
340
14
 93
        0
 40
0.045
309
GRIDFORMAT_END
 95
        4
302
GRIDFORMAT
  1
GRIDFORMAT_BEGIN
 90
        0
 91
        1
 62
     0
 92
       -2
340
14
 93
        0
 40
0.045
309
GRIDFORMAT_END
 95
        8
302
GRIDFORMAT
  1
GRIDFORMAT_BEGIN
 90
        0
 91
        1
 62
     0
 92
       -2
340
14
 93
        0
 40
0.045
309
GRIDFORMAT_END
 95
       16
302
GRIDFORMAT
  1
GRIDFORMAT_BEGIN
 90
        0
 91
        1
 62
     0
 92
       -2
340
14
 93
        0
 40
0.045
309
GRIDFORMAT_END
 95
       32
302
GRIDFORMAT
  1
GRIDFORMAT_BEGIN
 90
        0
 91
        1
 62
     0
 92
       -2
340
14
 93
        0
 40
0.045
309
GRIDFORMAT_END
309
TABLEFORMAT_END
  1
CELLSTYLE_BEGIN
 90
        3
 91
        2
300
_DATA
309
CELLSTYLE_END
  0
ENDSEC
  0
EOF