0
SECTION
  2
HEADER
  9
$ACADVER
  1
AC1027
  9
$ACADMAINTVER
 70
     8
  9
$DWGCODEPAGE
  3
ANSI_1252
  9
$REQUIREDVERSIONS
160
                 0
  9
$COMMENTS
  1
File was created by Cadenas
  9
$CUSTOMPROPERTYTAG
  1
NN
  9
$CUSTOMPROPERTY
  1
Imperial - IP Wide Slot Take-Up
  9
$CUSTOMPROPERTYTAG
  1
NT
  9
$CUSTOMPROPERTY
  1
Imperial Wide Slot Take-Up Bearings
  9
$CUSTOMPROPERTYTAG
  1
NB
  9
$CUSTOMPROPERTY
  1
069384
  9
$CUSTOMPROPERTYTAG
  1
NBSYN
  9
$CUSTOMPROPERTY
  1
$PN.
  9
$CUSTOMPROPERTYTAG
  1
LINA
  9
$CUSTOMPROPERTY
  1
069384
  9
$CUSTOMPROPERTYTAG
  1
SS
  9
$CUSTOMPROPERTY
  1
2-1/2
  9
$CUSTOMPROPERTYTAG
  1
PN
  9
$CUSTOMPROPERTY
  1
069384
  9
$CUSTOMPROPERTYTAG
  1
DESCRIPTION
  9
$CUSTOMPROPERTY
  1
WSTU-IP-208RE
  9
$CUSTOMPROPERTYTAG
  1
EF
  9
$CUSTOMPROPERTY
  1
Expansion
  9
$CUSTOMPROPERTYTAG
  1
ST
  9
$CUSTOMPROPERTY
  1
Contact Seal
  9
$CUSTOMPROPERTYTAG
  1
A
  9
$CUSTOMPROPERTY
  1
3-27/64
  9
$CUSTOMPROPERTYTAG
  1
B
  9
$CUSTOMPROPERTY
  1
7-11/16
  9
$CUSTOMPROPERTYTAG
  1
C
  9
$CUSTOMPROPERTY
  1
1-1/16
  9
$CUSTOMPROPERTYTAG
  1
D
  9
$CUSTOMPROPERTY
  1
4-3/8
  9
$CUSTOMPROPERTYTAG
  1
E
  9
$CUSTOMPROPERTY
  1
5
  9
$CUSTOMPROPERTYTAG
  1
F
  9
$CUSTOMPROPERTY
  1
1-3/8
  9
$CUSTOMPROPERTYTAG
  1
G
  9
$CUSTOMPROPERTY
  1
1-1/16
  9
$CUSTOMPROPERTYTAG
  1
H
  9
$CUSTOMPROPERTY
  1
1-1/4
  9
$CUSTOMPROPERTYTAG
  1
J
  9
$CUSTOMPROPERTY
  1
4-1/4
  9
$CUSTOMPROPERTYTAG
  1
K
  9
$CUSTOMPROPERTY
  1
2-1/2
  9
$CUSTOMPROPERTYTAG
  1
L
  9
$CUSTOMPROPERTY
  1
3-7/8
  9
$CUSTOMPROPERTYTAG
  1
M
  9
$CUSTOMPROPERTY
  1
5-1/8
  9
$CUSTOMPROPERTYTAG
  1
N
  9
$CUSTOMPROPERTY
  1
5-7/8
  9
$CUSTOMPROPERTYTAG
  1
R
  9
$CUSTOMPROPERTY
  1
3-7/16
  9
$CUSTOMPROPERTYTAG
  1
S
  9
$CUSTOMPROPERTY
  1
2-7/32
  9
$CUSTOMPROPERTYTAG
  1
T
  9
$CUSTOMPROPERTY
  1
2-7/16
  9
$CUSTOMPROPERTYTAG
  1
X
  9
$CUSTOMPROPERTY
  1
1/4
  9
$CUSTOMPROPERTYTAG
  1
Y
  9
$CUSTOMPROPERTY
  1
0.025
  9
$CUSTOMPROPERTYTAG
  1
Z
  9
$CUSTOMPROPERTY
  1
2-15/16
  9
$CUSTOMPROPERTYTAG
  1
COMPANY
  9
$CUSTOMPROPERTY
  1
baldor
  9
$INSBASE
 10
0.0
 20
0.0
 30
0.0
  9
$EXTMIN
 10
1.000000000000000E+20
 20
1.000000000000000E+20
 30
1.000000000000000E+20
  9
$EXTMAX
 10
-1.000000000000000E+20
 20
-1.000000000000000E+20
 30
-1.000000000000000E+20
  9
$LIMMIN
 10
0.0
 20
0.0
  9
$LIMMAX
 10
12.0
 20
9.0
  9
$ORTHOMODE
 70
     0
  9
$REGENMODE
 70
     1
  9
$FILLMODE
 70
     1
  9
$QTEXTMODE
 70
     0
  9
$MIRRTEXT
 70
     1
  9
$LTSCALE
 40
1.0
  9
$ATTMODE
 70
     1
  9
$TEXTSIZE
 40
0.2
  9
$TRACEWID
 40
0.05
  9
$TEXTSTYLE
  7
Standard
  9
$CLAYER
  8
0
  9
$CELTYPE
  6
ByLayer
  9
$CECOLOR
 62
   256
  9
$CELTSCALE
 40
1.0
  9
$DISPSILH
 70
     0
  9
$DIMSCALE
 40
1.0
  9
$DIMASZ
 40
0.18
  9
$DIMEXO
 40
0.0625
  9
$DIMDLI
 40
0.38
  9
$DIMRND
 40
0.0
  9
$DIMDLE
 40
0.0
  9
$DIMEXE
 40
0.18
  9
$DIMTP
 40
0.0
  9
$DIMTM
 40
0.0
  9
$DIMTXT
 40
0.18
  9
$DIMCEN
 40
0.09
  9
$DIMTSZ
 40
0.0
  9
$DIMTOL
 70
     0
  9
$DIMLIM
 70
     0
  9
$DIMTIH
 70
     1
  9
$DIMTOH
 70
     1
  9
$DIMSE1
 70
     0
  9
$DIMSE2
 70
     0
  9
$DIMTAD
 70
     0
  9
$DIMZIN
 70
     0
  9
$DIMBLK
  1

  9
$DIMASO
 70
     1
  9
$DIMSHO
 70
     1
  9
$DIMPOST
  1

  9
$DIMAPOST
  1

  9
$DIMALT
 70
     0
  9
$DIMALTD
 70
     2
  9
$DIMALTF
 40
25.4
  9
$DIMLFAC
 40
1.0
  9
$DIMTOFL
 70
     0
  9
$DIMTVP
 40
0.0
  9
$DIMTIX
 70
     0
  9
$DIMSOXD
 70
     0
  9
$DIMSAH
 70
     0
  9
$DIMBLK1
  1

  9
$DIMBLK2
  1

  9
$DIMSTYLE
  2
Standard
  9
$DIMCLRD
 70
     0
  9
$DIMCLRE
 70
     0
  9
$DIMCLRT
 70
     0
  9
$DIMTFAC
 40
1.0
  9
$DIMGAP
 40
0.09
  9
$DIMJUST
 70
     0
  9
$DIMSD1
 70
     0
  9
$DIMSD2
 70
     0
  9
$DIMTOLJ
 70
     1
  9
$DIMTZIN
 70
     0
  9
$DIMALTZ
 70
     0
  9
$DIMALTTZ
 70
     0
  9
$DIMUPT
 70
     0
  9
$DIMDEC
 70
     4
  9
$DIMTDEC
 70
     4
  9
$DIMALTU
 70
     2
  9
$DIMALTTD
 70
     2
  9
$DIMTXSTY
  7
Standard
  9
$DIMAUNIT
 70
     0
  9
$DIMADEC
 70
     0
  9
$DIMALTRND
 40
0.0
  9
$DIMAZIN
 70
     0
  9
$DIMDSEP
 70
    46
  9
$DIMATFIT
 70
     3
  9
$DIMFRAC
 70
     0
  9
$DIMLDRBLK
  1

  9
$DIMLUNIT
 70
     2
  9
$DIMLWD
 70
    -2
  9
$DIMLWE
 70
    -2
  9
$DIMTMOVE
 70
     0
  9
$DIMFXL
 40
1.0
  9
$DIMFXLON
 70
     0
  9
$DIMJOGANG
 40
0.7853981633974483
  9
$DIMTFILL
 70
     0
  9
$DIMTFILLCLR
 70
     0
  9
$DIMARCSYM
 70
     0
  9
$DIMLTYPE
  6

  9
$DIMLTEX1
  6

  9
$DIMLTEX2
  6

  9
$DIMTXTDIRECTION
 70
     0
  9
$LUNITS
 70
     2
  9
$LUPREC
 70
     4
  9
$SKETCHINC
 40
0.1
  9
$FILLETRAD
 40
0.5
  9
$AUNITS
 70
     0
  9
$AUPREC
 70
     0
  9
$MENU
  1
.
  9
$ELEVATION
 40
0.0
  9
$PELEVATION
 40
0.0
  9
$THICKNESS
 40
0.0
  9
$LIMCHECK
 70
     0
  9
$CHAMFERA
 40
0.0
  9
$CHAMFERB
 40
0.0
  9
$CHAMFERC
 40
0.0
  9
$CHAMFERD
 40
0.0
  9
$SKPOLY
 70
     0
  9
$TDCREATE
 40
2458168.989709896
  9
$TDUCREATE
 40
2458168.948043229
  9
$TDUPDATE
 40
2458168.989710069
  9
$TDUUPDATE
 40
2458168.948043403
  9
$TDINDWG
 40
0.0000000116
  9
$TDUSRTIMER
 40
0.0000000116
  9
$USRTIMER
 70
     1
  9
$ANGBASE
 50
0.0
  9
$ANGDIR
 70
     0
  9
$PDMODE
 70
     0
  9
$PDSIZE
 40
0.0
  9
$PLINEWID
 40
0.0
  9
$SPLFRAME
 70
     0
  9
$SPLINETYPE
 70
     6
  9
$SPLINESEGS
 70
     8
  9
$HANDSEED
  5
251
  9
$SURFTAB1
 70
     6
  9
$SURFTAB2
 70
     6
  9
$SURFTYPE
 70
     6
  9
$SURFU
 70
     6
  9
$SURFV
 70
     6
  9
$UCSBASE
  2

  9
$UCSNAME
  2

  9
$UCSORG
 10
0.0
 20
0.0
 30
0.0
  9
$UCSXDIR
 10
1.0
 20
0.0
 30
0.0
  9
$UCSYDIR
 10
0.0
 20
1.0
 30
0.0
  9
$UCSORTHOREF
  2

  9
$UCSORTHOVIEW
 70
     0
  9
$UCSORGTOP
 10
0.0
 20
0.0
 30
0.0
  9
$UCSORGBOTTOM
 10
0.0
 20
0.0
 30
0.0
  9
$UCSORGLEFT
 10
0.0
 20
0.0
 30
0.0
  9
$UCSORGRIGHT
 10
0.0
 20
0.0
 30
0.0
  9
$UCSORGFRONT
 10
0.0
 20
0.0
 30
0.0
  9
$UCSORGBACK
 10
0.0
 20
0.0
 30
0.0
  9
$PUCSBASE
  2

  9
$PUCSNAME
  2

  9
$PUCSORG
 10
0.0
 20
0.0
 30
0.0
  9
$PUCSXDIR
 10
1.0
 20
0.0
 30
0.0
  9
$PUCSYDIR
 10
0.0
 20
1.0
 30
0.0
  9
$PUCSORTHOREF
  2

  9
$PUCSORTHOVIEW
 70
     0
  9
$PUCSORGTOP
 10
0.0
 20
0.0
 30
0.0
  9
$PUCSORGBOTTOM
 10
0.0
 20
0.0
 30
0.0
  9
$PUCSORGLEFT
 10
0.0
 20
0.0
 30
0.0
  9
$PUCSORGRIGHT
 10
0.0
 20
0.0
 30
0.0
  9
$PUCSORGFRONT
 10
0.0
 20
0.0
 30
0.0
  9
$PUCSORGBACK
 10
0.0
 20
0.0
 30
0.0
  9
$USERI1
 70
     0
  9
$USERI2
 70
     0
  9
$USERI3
 70
     0
  9
$USERI4
 70
     0
  9
$USERI5
 70
     0
  9
$USERR1
 40
0.0
  9
$USERR2
 40
0.0
  9
$USERR3
 40
0.0
  9
$USERR4
 40
0.0
  9
$USERR5
 40
0.0
  9
$WORLDVIEW
 70
     1
  9
$SHADEDGE
 70
     3
  9
$SHADEDIF
 70
    70
  9
$TILEMODE
 70
     1
  9
$MAXACTVP
 70
    64
  9
$PINSBASE
 10
0.0
 20
0.0
 30
0.0
  9
$PLIMCHECK
 70
     0
  9
$PEXTMIN
 10
1.000000000000000E+20
 20
1.000000000000000E+20
 30
1.000000000000000E+20
  9
$PEXTMAX
 10
-1.000000000000000E+20
 20
-1.000000000000000E+20
 30
-1.000000000000000E+20
  9
$PLIMMIN
 10
0.0
 20
0.0
  9
$PLIMMAX
 10
12.0
 20
9.0
  9
$UNITMODE
 70
     0
  9
$VISRETAIN
 70
     1
  9
$PLINEGEN
 70
     0
  9
$PSLTSCALE
 70
     1
  9
$TREEDEPTH
 70
  3020
  9
$CMLSTYLE
  2
Standard
  9
$CMLJUST
 70
     0
  9
$CMLSCALE
 40
1.0
  9
$PROXYGRAPHICS
 70
     1
  9
$MEASUREMENT
 70
     0
  9
$CELWEIGHT
370
    -1
  9
$ENDCAPS
280
     0
  9
$JOINSTYLE
280
     0
  9
$LWDISPLAY
290
     0
  9
$INSUNITS
 70
     1
  9
$HYPERLINKBASE
  1

  9
$STYLESHEET
  1

  9
$XEDIT
290
     1
  9
$CEPSNTYPE
380
     0
  9
$PSTYLEMODE
290
     1
  9
$FINGERPRINTGUID
  2
{69078760-F434-47CD-A5DC-8360047F9CA2}
  9
$VERSIONGUID
  2
{FAEB1C32-E019-11D5-929B-00C0DF256EC4}
  9
$EXTNAMES
290
     1
  9
$PSVPSCALE
 40
0.0
  9
$OLESTARTUP
290
     0
  9
$SORTENTS
280
   127
  9
$INDEXCTL
280
     0
  9
$HIDETEXT
280
     1
  9
$XCLIPFRAME
280
     2
  9
$HALOGAP
280
     0
  9
$OBSCOLOR
 70
   257
  9
$OBSLTYPE
280
     0
  9
$INTERSECTIONDISPLAY
280
     0
  9
$INTERSECTIONCOLOR
 70
   257
  9
$DIMASSOC
280
     2
  9
$PROJECTNAME
  1

  9
$CAMERADISPLAY
290
     0
  9
$LENSLENGTH
 40
50.0
  9
$CAMERAHEIGHT
 40
0.0
  9
$STEPSPERSEC
 40
2.0
  9
$STEPSIZE
 40
6.0
  9
$3DDWFPREC
 40
2.0
  9
$PSOLWIDTH
 40
0.25
  9
$PSOLHEIGHT
 40
4.0
  9
$LOFTANG1
 40
1.570796326794897
  9
$LOFTANG2
 40
1.570796326794897
  9
$LOFTMAG1
 40
0.0
  9
$LOFTMAG2
 40
0.0
  9
$LOFTPARAM
 70
     7
  9
$LOFTNORMALS
280
     1
  9
$LATITUDE
 40
37.795
  9
$LONGITUDE
 40
-122.394
  9
$NORTHDIRECTION
 40
0.0
  9
$TIMEZONE
 70
 -8000
  9
$LIGHTGLYPHDISPLAY
280
     1
  9
$TILEMODELIGHTSYNCH
280
     1
  9
$CMATERIAL
347
44
  9
$SOLIDHIST
280
     0
  9
$SHOWHIST
280
     1
  9
$DWFFRAME
280
     2
  9
$DGNFRAME
280
     2
  9
$REALWORLDSCALE
290
     1
  9
$INTERFERECOLOR
 62
   256
  9
$CSHADOW
280
     0
  9
$SHADOWPLANELOCATION
 40
0.0
  0
ENDSEC
  0
SECTION
  2
CLASSES
  0
CLASS
  1
ACDBDICTIONARYWDFLT
  2
AcDbDictionaryWithDefault
  3
ObjectDBX Classes
 90
        0
 91
        4
280
     0
281
     0
  0
CLASS
  1
VISUALSTYLE
  2
AcDbVisualStyle
  3
ObjectDBX Classes
 90
     4095
 91
        4
280
     0
281
     0
  0
CLASS
  1
MATERIAL
  2
AcDbMaterial
  3
ObjectDBX Classes
 90
     1153
 91
        4
280
     0
281
     0
  0
CLASS
  1
SCALE
  2
AcDbScale
  3
ObjectDBX Classes
 90
     1153
 91
        4
280
     0
281
     0
  0
CLASS
  1
TABLESTYLE
  2
AcDbTableStyle
  3
ObjectDBX Classes
 90
     4095
 91
        4
280
     0
281
     0
  0
CLASS
  1
MLEADERSTYLE
  2
AcDbMLeaderStyle
  3
ACDB_MLEADERSTYLE_CLASS
 90
     4095
 91
        4
280
     0
281
     0
  0
CLASS
  1
SUN
  2
AcDbSun
  3
SCENEOE
 90
     1153
 91
        4
280
     0
281
     0
  0
CLASS
  1
DICTIONARYVAR
  2
AcDbDictionaryVar
  3
ObjectDBX Classes
 90
        0
 91
        4
280
     0
281
     0
  0
CLASS
  1
CELLSTYLEMAP
  2
AcDbCellStyleMap
  3
ObjectDBX Classes
 90
     1152
 91
        4
280
     0
281
     0
  0
ENDSEC
  0
SECTION
  2
TABLES
  0
TABLE
  2
VPORT
  5
8
330
0
100
AcDbSymbolTable
 70
     1
  0
VPORT
  5
29
330
8
100
AcDbSymbolTableRecord
100
AcDbViewportTableRecord
  2
*Active
 70
     0
 10
0.0
 20
0.0
 11
1.0
 21
1.0
 12
0.9390087694906697
 22
0.0
 13
0.0
 23
0.0
 14
0.5
 24
0.5
 15
0.5
 25
0.5
 16
0.0
 26
0.0
 36
1.0
 17
0.0
 27
0.0
 37
0.0
 40
5.9925
 41
1.400550206130837
 42
50.0
 43
0.0
 44
0.0
 50
0.0
 51
0.0
 71
     0
 72
   100
 73
     1
 74
     3
 75
     0
 76
     0
 77
     0
 78
     0
281
     0
 65
     1
110
0.0
120
0.0
130
0.0
111
1.0
121
0.0
131
0.0
112
0.0
122
1.0
132
0.0
 79
     0
146
0.0
348
2F
 60
     3
 61
     5
292
     1
282
     1
141
0.0
142
0.0
 63
   250
361
6D
  0
ENDTAB
  0
TABLE
  2
LTYPE
  5
5
330
0
100
AcDbSymbolTable
 70
     3
  0
LTYPE
  5
14
330
5
100
AcDbSymbolTableRecord
100
AcDbLinetypeTableRecord
  2
ByBlock
 70
     0
  3

 72
    65
 73
     0
 40
0.0
  0
LTYPE
  5
15
330
5
100
AcDbSymbolTableRecord
100
AcDbLinetypeTableRecord
  2
ByLayer
 70
     0
  3

 72
    65
 73
     0
 40
0.0
  0
LTYPE
  5
16
330
5
100
AcDbSymbolTableRecord
100
AcDbLinetypeTableRecord
  2
Continuous
 70
     0
  3
Solid line
 72
    65
 73
     0
 40
0.0
  0
LTYPE
  5
A2
330
5
100
AcDbSymbolTableRecord
100
AcDbLinetypeTableRecord
  2
Dashed
 70
     0
  3

 72
    65
 73
     2
 40
2.0
 49
1.0
 74
     0
 49
-1.0
 74
     0
  0
LTYPE
  5
C8
330
5
100
AcDbSymbolTableRecord
100
AcDbLinetypeTableRecord
  2
Center
 70
     0
  3

 72
    65
 73
     4
 40
1.5
 49
0.45
 74
     0
 49
-0.5
 74
     0
 49
0.05
 74
     0
 49
-0.5
 74
     0
  0
ENDTAB
  0
TABLE
  2
LAYER
  5
2
330
0
100
AcDbSymbolTable
 70
     7
  0
LAYER
  5
10
330
2
100
AcDbSymbolTableRecord
100
AcDbLayerTableRecord
  2
0
 70
     0
 62
     7
  6
Continuous
370
    -3
390
F
347
46
348
0
  0
LAYER
  5
72
330
2
100
AcDbSymbolTableRecord
100
AcDbLayerTableRecord
  2
AM_6
 70
     0
 62
    -2
  6
Continuous
370
    35
390
F
347
46
348
0
  0
LAYER
  5
A3
330
2
100
AcDbSymbolTableRecord
100
AcDbLayerTableRecord
  2
AM_9
 70
     0
 62
     6
  6
Dashed
370
    25
390
F
347
46
348
0
  0
LAYER
  5
C1
330
2
100
AcDbSymbolTableRecord
100
AcDbLayerTableRecord
  2
AM_5
 70
     0
 62
     3
  6
Continuous
370
    25
390
F
347
46
348
0
  0
LAYER
  5
C9
330
2
100
AcDbSymbolTableRecord
100
AcDbLayerTableRecord
  2
AM_7
 70
     0
 62
     7
  6
Center
370
    25
390
F
347
46
348
0
  0
LAYER
  5
CC
330
2
100
AcDbSymbolTableRecord
100
AcDbLayerTableRecord
  2
AM_4
 70
     0
 62
     7
  6
Continuous
370
    50
390
F
347
46
348
0
  0
LAYER
  5
23A
330
2
100
AcDbSymbolTableRecord
100
AcDbLayerTableRecord
  2
ConnectionPoints
 70
     0
 62
     7
  6
Continuous
370
    50
390
F
347
46
348
0
  0
ENDTAB
  0
TABLE
  2
STYLE
  5
3
330
0
100
AcDbSymbolTable
 70
     1
  0
STYLE
  5
11
330
3
100
AcDbSymbolTableRecord
100
AcDbTextStyleTableRecord
  2
Standard
 70
     0
 40
0.0
 41
1.0
 50
0.0
 71
     0
 42
0.2
  3
txt
  4

  0
ENDTAB
  0
TABLE
  2
VIEW
  5
6
330
0
100
AcDbSymbolTable
 70
     0
  0
ENDTAB
  0
TABLE
  2
UCS
  5
7
330
0
100
AcDbSymbolTable
 70
     0
  0
ENDTAB
  0
TABLE
  2
APPID
  5
9
330
0
100
AcDbSymbolTable
 70
     1
  0
APPID
  5
12
330
9
100
AcDbSymbolTableRecord
100
AcDbRegAppTableRecord
  2
ACAD
 70
     0
  0
ENDTAB
  0
TABLE
  2
DIMSTYLE
  5
A
330
0
100
AcDbSymbolTable
 70
     1
100
AcDbDimStyleTable
  0
DIMSTYLE
105
27
330
A
100
AcDbSymbolTableRecord
100
AcDbDimStyleTableRecord
  2
Standard
 70
     0
178
     0
340
11
  0
ENDTAB
  0
TABLE
  2
BLOCK_RECORD
  5
1
330
0
100
AcDbSymbolTable
 70
     8
  0
BLOCK_RECORD
  5
1F
330
1
100
AcDbSymbolTableRecord
100
AcDbBlockTableRecord
  2
*Model_Space
340
22
 70
     0
280
     1
281
     0
  0
BLOCK_RECORD
  5
1B
330
1
100
AcDbSymbolTableRecord
100
AcDbBlockTableRecord
  2
*Paper_Space
340
1E
 70
     0
280
     1
281
     0
  0
BLOCK_RECORD
  5
23
330
1
100
AcDbSymbolTableRecord
100
AcDbBlockTableRecord
  2
*Paper_Space0
340
26
 70
     0
280
     1
281
     0
  0
BLOCK_RECORD
  5
6E
330
1
100
AcDbSymbolTableRecord
100
AcDbBlockTableRecord
  2
1_069384_0
340
0
102
{BLKREFS
331
6F
102
}
 70
     0
280
     1
281
     0
  0
BLOCK_RECORD
  5
91
330
1
100
AcDbSymbolTableRecord
100
AcDbBlockTableRecord
  2
2_405016_Inch_0_in_069384_0
340
0
102
{BLKREFS
331
92
102
}
 70
     0
280
     1
281
     0
  0
BLOCK_RECORD
  5
10D
330
1
100
AcDbSymbolTableRecord
100
AcDbBlockTableRecord
  2
3_ASME_B18_3_10_1_0_in_069384_0
340
0
102
{BLKREFS
331
10E
102
}
 70
     0
280
     1
281
     0
  0
BLOCK_RECORD
  5
12A
330
1
100
AcDbSymbolTableRecord
100
AcDbBlockTableRecord
  2
4_ASME_B18_3_10_2_0_in_069384_0
340
0
102
{BLKREFS
331
12B
102
}
 70
     0
280
     1
281
     0
  0
BLOCK_RECORD
  5
147
330
1
100
AcDbSymbolTableRecord
100
AcDbBlockTableRecord
  2
5_070896LW_0_in_069384_0
340
0
102
{BLKREFS
331
148
102
}
 70
     0
280
     1
281
     0
  0
BLOCK_RECORD
  5
191
330
1
100
AcDbSymbolTableRecord
100
AcDbBlockTableRecord
  2
6_070896I_0_in_069384_0
340
0
102
{BLKREFS
331
192
102
}
 70
     0
280
     1
281
     0
  0
BLOCK_RECORD
  5
1EE
330
1
100
AcDbSymbolTableRecord
100
AcDbBlockTableRecord
  2
7_069384H_0_in_069384_0
340
0
102
{BLKREFS
331
1EF
102
}
 70
     0
280
     1
281
     0
  0
ENDTAB
  0
ENDSEC
  0
SECTION
  2
BLOCKS
  0
BLOCK
  5
20
330
1F
100
AcDbEntity
  8
0
100
AcDbBlockBegin
  2
*Model_Space
 70
     0
 10
0.0
 20
0.0
 30
0.0
  3
*Model_Space
  1

  0
ENDBLK
  5
21
330
1F
100
AcDbEntity
  8
0
100
AcDbBlockEnd
  0
BLOCK
  5
1C
330
1B
100
AcDbEntity
 67
     1
  8
0
100
AcDbBlockBegin
  2
*Paper_Space
 70
     0
 10
0.0
 20
0.0
 30
0.0
  3
*Paper_Space
  1

  0
ENDBLK
  5
1D
330
1B
100
AcDbEntity
 67
     1
  8
0
100
AcDbBlockEnd
  0
BLOCK
  5
24
330
23
100
AcDbEntity
  8
0
100
AcDbBlockBegin
  2
*Paper_Space0
 70
     0
 10
0.0
 20
0.0
 30
0.0
  3
*Paper_Space0
  1

  0
ENDBLK
  5
25
330
23
100
AcDbEntity
  8
0
100
AcDbBlockEnd
  0
BLOCK
  5
70
330
6E
100
AcDbEntity
  8
0
100
AcDbBlockBegin
  2
1_069384_0
 70
     2
 10
0.0
 20
0.0
 30
0.0
  3
1_069384_0
  1

  0
ATTDEF
  5
73
330
6E
100
AcDbEntity
  8
AM_6
100
AcDbText
 10
10.053125
 20
2.9375
 30
0.0
 40
0.5
  1
Imperial - IP Wide Slot Take-Up
100
AcDbAttributeDefinition
  3

  2
NN
 70
     8
280
     0
  0
ATTDEF
  5
74
330
6E
100
AcDbEntity
  8
AM_6
100
AcDbText
 10
10.053125
 20
2.4375
 30
0.0
 40
0.5
  1
Imperial Wide Slot Take-Up Bearings
100
AcDbAttributeDefinition
  3

  2
NT
 70
     8
280
     0
  0
ATTDEF
  5
75
330
6E
100
AcDbEntity
  8
AM_6
100
AcDbText
 10
10.053125
 20
1.9375
 30
0.0
 40
0.5
  1
069384
100
AcDbAttributeDefinition
  3

  2
NB
 70
     8
280
     0
  0
ATTDEF
  5
76
330
6E
100
AcDbEntity
  8
AM_6
100
AcDbText
 10
10.053125
 20
1.4375
 30
0.0
 40
0.5
  1
$PN.
100
AcDbAttributeDefinition
  3

  2
NBSYN
 70
     8
280
     0
  0
ATTDEF
  5
77
330
6E
100
AcDbEntity
  8
AM_6
100
AcDbText
 10
10.053125
 20
0.9375000000000004
 30
0.0
 40
0.5
  1
069384
100
AcDbAttributeDefinition
  3

  2
LINA
 70
     8
280
     0
  0
ATTDEF
  5
78
330
6E
100
AcDbEntity
  8
AM_6
100
AcDbText
 10
10.053125
 20
0.4375000000000004
 30
0.0
 40
0.5
  1
2-1/2
100
AcDbAttributeDefinition
  3

  2
SS
 70
     8
280
     0
  0
ATTDEF
  5
79
330
6E
100
AcDbEntity
  8
AM_6
100
AcDbText
 10
10.053125
 20
-0.0624999999999996
 30
0.0
 40
0.5
  1
069384
100
AcDbAttributeDefinition
  3

  2
PN
 70
     8
280
     0
  0
ATTDEF
  5
7A
330
6E
100
AcDbEntity
  8
AM_6
100
AcDbText
 10
10.053125
 20
-0.5624999999999996
 30
0.0
 40
0.5
  1
WSTU-IP-208RE
100
AcDbAttributeDefinition
  3

  2
DESCRIPTION
 70
     8
280
     0
  0
ATTDEF
  5
7B
330
6E
100
AcDbEntity
  8
AM_6
100
AcDbText
 10
10.053125
 20
-1.0625
 30
0.0
 40
0.5
  1
Expansion
100
AcDbAttributeDefinition
  3

  2
EF
 70
     8
280
     0
  0
ATTDEF
  5
7C
330
6E
100
AcDbEntity
  8
AM_6
100
AcDbText
 10
10.053125
 20
-1.5625
 30
0.0
 40
0.5
  1
Contact Seal
100
AcDbAttributeDefinition
  3

  2
ST
 70
     8
280
     0
  0
ATTDEF
  5
7D
330
6E
100
AcDbEntity
  8
AM_6
100
AcDbText
 10
10.053125
 20
-2.0625
 30
0.0
 40
0.5
  1
3-27/64
100
AcDbAttributeDefinition
  3

  2
A
 70
     8
280
     0
  0
ATTDEF
  5
7E
330
6E
100
AcDbEntity
  8
AM_6
100
AcDbText
 10
10.053125
 20
-2.5625
 30
0.0
 40
0.5
  1
7-11/16
100
AcDbAttributeDefinition
  3

  2
B
 70
     8
280
     0
  0
ATTDEF
  5
7F
330
6E
100
AcDbEntity
  8
AM_6
100
AcDbText
 10
10.053125
 20
-3.0625
 30
0.0
 40
0.5
  1
1-1/16
100
AcDbAttributeDefinition
  3

  2
C
 70
     8
280
     0
  0
ATTDEF
  5
80
330
6E
100
AcDbEntity
  8
AM_6
100
AcDbText
 10
10.053125
 20
-3.5625
 30
0.0
 40
0.5
  1
4-3/8
100
AcDbAttributeDefinition
  3

  2
D
 70
     8
280
     0
  0
ATTDEF
  5
81
330
6E
100
AcDbEntity
  8
AM_6
100
AcDbText
 10
10.053125
 20
-4.0625
 30
0.0
 40
0.5
  1
5
100
AcDbAttributeDefinition
  3

  2
E
 70
     8
280
     0
  0
ATTDEF
  5
82
330
6E
100
AcDbEntity
  8
AM_6
100
AcDbText
 10
10.053125
 20
-4.5625
 30
0.0
 40
0.5
  1
1-3/8
100
AcDbAttributeDefinition
  3

  2
F
 70
     8
280
     0
  0
ATTDEF
  5
83
330
6E
100
AcDbEntity
  8
AM_6
100
AcDbText
 10
10.053125
 20
-5.0625
 30
0.0
 40
0.5
  1
1-1/16
100
AcDbAttributeDefinition
  3

  2
G
 70
     8
280
     0
  0
ATTDEF
  5
84
330
6E
100
AcDbEntity
  8
AM_6
100
AcDbText
 10
10.053125
 20
-5.5625
 30
0.0
 40
0.5
  1
1-1/4
100
AcDbAttributeDefinition
  3

  2
H
 70
     8
280
     0
  0
ATTDEF
  5
85
330
6E
100
AcDbEntity
  8
AM_6
100
AcDbText
 10
10.053125
 20
-6.0625
 30
0.0
 40
0.5
  1
4-1/4
100
AcDbAttributeDefinition
  3

  2
J
 70
     8
280
     0
  0
ATTDEF
  5
86
330
6E
100
AcDbEntity
  8
AM_6
100
AcDbText
 10
10.053125
 20
-6.5625
 30
0.0
 40
0.5
  1
2-1/2
100
AcDbAttributeDefinition
  3

  2
K
 70
     8
280
     0
  0
ATTDEF
  5
87
330
6E
100
AcDbEntity
  8
AM_6
100
AcDbText
 10
10.053125
 20
-7.0625
 30
0.0
 40
0.5
  1
3-7/8
100
AcDbAttributeDefinition
  3

  2
L
 70
     8
280
     0
  0
ATTDEF
  5
88
330
6E
100
AcDbEntity
  8
AM_6
100
AcDbText
 10
10.053125
 20
-7.5625
 30
0.0
 40
0.5
  1
5-1/8
100
AcDbAttributeDefinition
  3

  2
M
 70
     8
280
     0
  0
ATTDEF
  5
89
330
6E
100
AcDbEntity
  8
AM_6
100
AcDbText
 10
10.053125
 20
-8.0625
 30
0.0
 40
0.5
  1
5-7/8
100
AcDbAttributeDefinition
  3

  2
N
 70
     8
280
     0
  0
ATTDEF
  5
8A
330
6E
100
AcDbEntity
  8
AM_6
100
AcDbText
 10
10.053125
 20
-8.5625
 30
0.0
 40
0.5
  1
3-7/16
100
AcDbAttributeDefinition
  3

  2
R
 70
     8
280
     0
  0
ATTDEF
  5
8B
330
6E
100
AcDbEntity
  8
AM_6
100
AcDbText
 10
10.053125
 20
-9.0625
 30
0.0
 40
0.5
  1
2-7/32
100
AcDbAttributeDefinition
  3

  2
S
 70
     8
280
     0
  0
ATTDEF
  5
8C
330
6E
100
AcDbEntity
  8
AM_6
100
AcDbText
 10
10.053125
 20
-9.5625
 30
0.0
 40
0.5
  1
2-7/16
100
AcDbAttributeDefinition
  3

  2
T
 70
     8
280
     0
  0
ATTDEF
  5
8D
330
6E
100
AcDbEntity
  8
AM_6
100
AcDbText
 10
10.053125
 20
-10.0625
 30
0.0
 40
0.5
  1
1/4
100
AcDbAttributeDefinition
  3

  2
X
 70
     8
280
     0
  0
ATTDEF
  5
8E
330
6E
100
AcDbEntity
  8
AM_6
100
AcDbText
 10
10.053125
 20
-10.5625
 30
0.0
 40
0.5
  1
0.025
100
AcDbAttributeDefinition
  3

  2
Y
 70
     8
280
     0
  0
ATTDEF
  5
8F
330
6E
100
AcDbEntity
  8
AM_6
100
AcDbText
 10
10.053125
 20
-11.0625
 30
0.0
 40
0.5
  1
2-15/16
100
AcDbAttributeDefinition
  3

  2
Z
 70
     8
280
     0
  0
ATTDEF
  5
90
330
6E
100
AcDbEntity
  8
AM_6
100
AcDbText
 10
10.053125
 20
-11.5625
 30
0.0
 40
0.5
  1
baldor
100
AcDbAttributeDefinition
  3

  2
COMPANY
 70
     8
280
     0
  0
INSERT
  5
92
330
6E
100
AcDbEntity
  8
0
100
AcDbBlockReference
  2
2_405016_Inch_0_in_069384_0
 10
0.0
 20
0.0
 30
0.0
  0
INSERT
  5
10E
330
6E
100
AcDbEntity
  8
0
100
AcDbBlockReference
  2
3_ASME_B18_3_10_1_0_in_069384_0
 10
0.0
 20
0.0
 30
0.0
  0
INSERT
  5
12B
330
6E
100
AcDbEntity
  8
0
100
AcDbBlockReference
  2
4_ASME_B18_3_10_2_0_in_069384_0
 10
0.0
 20
0.0
 30
0.0
  0
INSERT
  5
148
330
6E
100
AcDbEntity
  8
0
100
AcDbBlockReference
  2
5_070896LW_0_in_069384_0
 10
0.0
 20
0.0
 30
0.0
  0
INSERT
  5
192
330
6E
100
AcDbEntity
  8
0
100
AcDbBlockReference
  2
6_070896I_0_in_069384_0
 10
0.0
 20
0.0
 30
0.0
  0
INSERT
  5
1EF
330
6E
100
AcDbEntity
  8
0
100
AcDbBlockReference
  2
7_069384H_0_in_069384_0
 10
0.0
 20
0.0
 30
0.0
  0
ENDBLK
  5
71
330
6E
100
AcDbEntity
  8
0
100
AcDbBlockEnd
  0
BLOCK
  5
93
330
91
100
AcDbEntity
  8
0
100
AcDbBlockBegin
  2
2_405016_Inch_0_in_069384_0
 70
     2
 10
0.0
 20
0.0
 30
0.0
  3
2_405016_Inch_0_in_069384_0
  1

  0
ATTDEF
  5
95
330
91
100
AcDbEntity
  8
AM_6
100
AcDbText
 10
2.678856771211356
 20
-0.7992530105285054
 30
0.0
 40
0.5
  1
405016 -Inch
100
AcDbAttributeDefinition
  3

  2
NN
 70
     8
280
     0
  0
ATTDEF
  5
96
330
91
100
AcDbEntity
  8
AM_6
100
AcDbText
 10
2.678856771211356
 20
-1.299253010528505
 30
0.0
 40
0.5
  1
Grease Fitting
100
AcDbAttributeDefinition
  3

  2
NT
 70
     8
280
     0
  0
ATTDEF
  5
97
330
91
100
AcDbEntity
  8
AM_6
100
AcDbText
 10
2.678856771211356
 20
-1.799253010528505
 30
0.0
 40
0.5
  1
405016-Inch
100
AcDbAttributeDefinition
  3

  2
NB
 70
     8
280
     0
  0
ATTDEF
  5
98
330
91
100
AcDbEntity
  8
AM_6
100
AcDbText
 10
2.678856771211356
 20
-2.299253010528505
 30
0.0
 40
0.5
  1
$MN.-Inch
100
AcDbAttributeDefinition
  3

  2
NBSYN
 70
     8
280
     0
  0
ATTDEF
  5
99
330
91
100
AcDbEntity
  8
AM_6
100
AcDbText
 10
2.678856771211356
 20
-2.799253010528505
 30
0.0
 40
0.5
  1
405016
100
AcDbAttributeDefinition
  3

  2
LINA
 70
     8
280
     0
  0
ATTDEF
  5
9A
330
91
100
AcDbEntity
  8
AM_6
100
AcDbText
 10
2.678856771211356
 20
-3.299253010528505
 30
0.0
 40
0.5
  1
405016
100
AcDbAttributeDefinition
  3

  2
MN
 70
     8
280
     0
  0
ATTDEF
  5
9B
330
91
100
AcDbEntity
  8
AM_6
100
AcDbText
 10
2.678856771211356
 20
-3.799253010528505
 30
0.0
 40
0.5
  1
7/16 HEX
100
AcDbAttributeDefinition
  3

  2
H
 70
     8
280
     0
  0
ATTDEF
  5
9C
330
91
100
AcDbEntity
  8
AM_6
100
AcDbText
 10
2.678856771211356
 20
-4.299253010528505
 30
0.0
 40
0.5
  1
0.383
100
AcDbAttributeDefinition
  3

  2
NDR
 70
     8
280
     0
  0
ATTDEF
  5
9D
330
91
100
AcDbEntity
  8
AM_6
100
AcDbText
 10
2.678856771211356
 20
-4.799253010528505
 30
0.0
 40
0.5
  1
0.337
100
AcDbAttributeDefinition
  3

  2
KDR
 70
     8
280
     0
  0
ATTDEF
  5
9E
330
91
100
AcDbEntity
  8
AM_6
100
AcDbText
 10
2.678856771211356
 20
-5.299253010528505
 30
0.0
 40
0.5
  1
0.1575
100
AcDbAttributeDefinition
  3

  2
BZE
 70
     8
280
     0
  0
ATTDEF
  5
9F
330
91
100
AcDbEntity
  8
AM_6
100
AcDbText
 10
2.678856771211356
 20
-5.799253010528505
 30
0.0
 40
0.5
  1
0.4375
100
AcDbAttributeDefinition
  3

  2
HEX
 70
     8
280
     0
  0
ATTDEF
  5
A0
330
91
100
AcDbEntity
  8
AM_6
100
AcDbText
 10
2.678856771211356
 20
-6.299253010528505
 30
0.0
 40
0.5
  1
0.281250
100
AcDbAttributeDefinition
  3

  2
HEX2
 70
     8
280
     0
  0
ATTDEF
  5
A1
330
91
100
AcDbEntity
  8
AM_6
100
AcDbText
 10
2.678856771211356
 20
-6.799253010528505
 30
0.0
 40
0.5
  1
baldor
100
AcDbAttributeDefinition
  3

  2
COMPANY
 70
     8
280
     0
  0
LINE
  5
A4
330
91
100
AcDbEntity
  8
AM_9
100
AcDbLine
 10
-2.321143228788645
 20
-1.112162683339597
 30
0.0
 11
-2.442263824048226
 21
-0.8123786903346516
 31
0.0
  0
LINE
  5
A5
330
91
100
AcDbEntity
  8
AM_9
100
AcDbLine
 10
-2.442263824048226
 20
-0.8123786903346516
 30
0.0
 11
-2.47318598787258
 21
-0.7992530105285054
 31
0.0
  0
LINE
  5
A6
330
91
100
AcDbEntity
  8
AM_9
100
AcDbLine
 10
-2.334268908594791
 20
-1.143084847163951
 30
0.0
 11
-2.321143228788645
 21
-1.112162683339597
 31
0.0
  0
ARC
  5
A7
330
91
100
AcDbEntity
  8
AM_9
100
AcDbCircle
 10
-2.885859747339128
 20
-1.165963022007028
 30
0.0
 40
0.199999999999998
100
AcDbArc
 50
157.7881206635021
 51
246.1512651410332
  0
LINE
  5
A8
330
91
100
AcDbEntity
  8
AM_9
100
AcDbLine
 10
-2.334268908594791
 20
-1.143084847163951
 30
0.0
 11
-2.47318598787258
 21
-0.7992530105285054
 31
0.0
  0
LINE
  5
A9
330
91
100
AcDbEntity
  8
AM_9
100
AcDbLine
 10
-2.47318598787258
 20
-0.7992530105285054
 30
0.0
 11
-2.656266365518432
 21
-0.8666497551527579
 31
0.0
  0
LINE
  5
AA
330
91
100
AcDbEntity
  8
AM_9
100
AcDbLine
 10
-2.512783623691408
 20
-1.221782003140952
 30
0.0
 11
-2.334268908594791
 21
-1.143084847163951
 31
0.0
  0
LINE
  5
AB
330
91
100
AcDbEntity
  8
AM_9
100
AcDbLine
 10
-3.115414181764554
 20
-1.171142925707009
 30
0.0
 11
-3.127535281048251
 21
-1.176040167703574
 31
0.0
  0
LINE
  5
AC
330
91
100
AcDbEntity
  8
AM_9
100
AcDbLine
 10
-3.054585651828931
 20
-1.321698820463312
 30
0.0
 11
-3.066706751112627
 21
-1.326596062459877
 31
0.0
  0
LWPOLYLINE
  5
AD
330
91
100
AcDbEntity
  8
AM_9
100
AcDbPolyline
 90
        6
 70
     0
 43
0.0
 10
-3.115414181764554
 20
-1.171142925707009
 10
-3.10229091932828
 20
-1.197155813356964
 10
-3.089851917701344
 20
-1.224004870474875
 10
-3.078165147644304
 20
-1.252103912764619
 10
-3.067578949071508
 20
-1.280886347524786
 10
-3.054585651828931
 20
-1.321698820463312
  0
LINE
  5
AE
330
91
100
AcDbEntity
  8
AM_9
100
AcDbLine
 10
-2.844815787480102
 20
-1.267550387466244
 30
0.0
 11
-2.927314936175796
 21
-1.063357829111494
 31
0.0
  0
ELLIPSE
  5
AF
330
91
100
AcDbEntity
  8
AM_9
100
AcDbEllipse
 10
-2.96146277285896
 20
-1.196508627069524
 30
0.0
 11
-0.05267905219911296
 21
0.1303852295484547
 31
0.0
210
0.0
220
0.0
230
1.0
 40
0.9063077870366504
 41
5.859216366485144
 42
9.848746901463825
  0
LWPOLYLINE
  5
B0
330
91
100
AcDbEntity
  8
AM_9
100
AcDbPolyline
 90
        7
 70
     0
 43
0.0
 10
-3.027439422199826
 20
-1.04803270756667
 10
-3.040789562013053
 20
-1.068949686443062
 10
-3.055288553330905
 20
-1.090606610633356
 10
-3.07132378760235
 20
-1.113349553595467
 10
-3.088641538337685
 20
-1.136725402545404
 10
-3.101832815762599
 20
-1.153895108204592
 10
-3.115414181764554
 20
-1.171142925707009
  0
LWPOLYLINE
  5
B1
330
91
100
AcDbEntity
  8
AM_9
100
AcDbPolyline
 90
        6
 70
     0
 43
0.0
 10
-3.054585651828931
 20
-1.321698820463312
 10
-3.025657462731075
 20
-1.325707824685756
 10
-2.997125769490433
 20
-1.330160868747565
 10
-2.968863921585677
 20
-1.335204408332261
 10
-2.941584812446751
 20
-1.340771941452027
 10
-2.905782362328579
 20
-1.349144497079275
  0
LWPOLYLINE
  5
B2
330
91
100
AcDbEntity
  8
AM_9
100
AcDbPolyline
 90
        5
 70
     0
 43
0.0
 10
-2.852467989756075
 20
-1.248610522213301
 10
-2.862517051678905
 20
-1.26286471395803
 10
-2.875137468725919
 20
-1.275378070128611
 10
-2.889271604081539
 20
-1.285103594602536
 10
-2.900546880992327
 20
-1.290535830183293
  0
LWPOLYLINE
  5
B3
330
91
100
AcDbEntity
  8
AM_9
100
AcDbPolyline
 90
       13
 70
     0
 43
0.0
 10
-2.852467989756075
 20
-1.248610522213301
 10
-2.845335511571848
 20
-1.233461007614414
 10
-2.841013472084156
 20
-1.217853873658394
 10
-2.839155110368364
 20
-1.201183640910808
 10
-2.839911059391208
 20
-1.183457911177822
 10
-2.843439195489311
 20
-1.165318179396032
 10
-2.849452995588185
 20
-1.148103548166936
 10
-2.858095539540745
 20
-1.131468399910109
 10
-2.868573802317601
 20
-1.116939495572776
 10
-2.88131872669818
 20
-1.103987720402547
 10
-2.895529906560348
 20
-1.093640158882145
 10
-2.911688261374894
 20
-1.085791652502719
 10
-2.919251504922177
 20
-1.083315521800752
  0
LINE
  5
B4
330
91
100
AcDbEntity
  8
AM_9
100
AcDbLine
 10
-2.982949850966442
 20
-1.086551148446981
 30
0.0
 11
-3.002669498134711
 21
-1.094518403067178
 31
0.0
  0
LINE
  5
B5
330
91
100
AcDbEntity
  8
AM_9
100
AcDbLine
 10
-2.920256047583211
 20
-1.298498851071871
 30
0.0
 11
-2.900536476813126
 21
-1.290531627318544
 31
0.0
  0
LWPOLYLINE
  5
B6
330
91
100
AcDbEntity
  8
AM_9
100
AcDbPolyline
 90
       21
 70
     0
 43
0.0
 10
-2.900546880992327
 20
-1.290535830183293
 10
-2.905322399560736
 20
-1.292318832950908
 10
-2.921957056406137
 20
-1.296420866301134
 10
-2.939643092896246
 20
-1.29751983855928
 10
-2.956888474818065
 20
-1.295522857261186
 10
-2.97419756300785
 20
-1.290370466131253
 10
-2.990087819413968
 20
-1.282508688464218
 10
-3.005046103743845
 20
-1.271701768482592
 10
-3.017785776003193
 20
-1.258887796509083
 10
-3.028707203227431
 20
-1.24367499887869
 10
-3.036877687836091
 20
-1.227373298837882
 10
-3.042553849922256
 20
-1.209487279681918
 10
-3.045258001682436
 20
-1.19153261723303
 10
-3.04507417149541
 20
-1.17298034247146
 10
-3.042016585536756
 20
-1.15537459992309
 10
-3.035998884465191
 20
-1.138220182921454
 10
-3.027510230638546
 20
-1.122926311125971
 10
-3.016316971404797
 20
-1.109082198087488
 10
-3.003327256064417
 20
-1.097822039689067
 10
-2.988190444839258
 20
-1.088852277073425
 10
-2.982958084526471
 20
-1.086554475447644
  0
LWPOLYLINE
  5
B7
330
91
100
AcDbEntity
  8
AM_9
100
AcDbPolyline
 90
        5
 70
     0
 43
0.0
 10
-2.982958084526471
 20
-1.086554475447644
 10
-2.972146500559051
 20
-1.082914951741327
 10
-2.95475823034702
 20
-1.079856703135615
 10
-2.937202622622631
 20
-1.079961453242353
 10
-2.919251504922161
 20
-1.083315521800762
  0
ELLIPSE
  5
B8
330
91
100
AcDbEntity
  8
AM_9
100
AcDbEllipse
 10
-2.961462772858965
 20
-1.196508627069523
 30
0.0
 11
-0.05267905219911341
 21
0.1303852295484593
 31
0.0
210
0.0
220
0.0
230
1.0
 40
0.9063077870366463
 41
3.764821264091969
 42
4.571432719802694
  0
ELLIPSE
  5
B9
330
91
100
AcDbEntity
  8
AM_9
100
AcDbEllipse
 10
-2.961462772858963
 20
-1.196508627069529
 30
0.0
 11
-0.05267905219913249
 21
0.1303852295484518
 31
0.0
210
0.0
220
0.0
230
1.0
 40
0.9063077870366884
 41
4.853345240966599
 42
5.659956696677306
  0
LWPOLYLINE
  5
BA
330
91
100
AcDbEntity
  8
AM_9
100
AcDbPolyline
 90
        5
 70
     0
 43
0.0
 10
-3.066706751112627
 20
-1.326596062459877
 10
-3.083754104343527
 20
-1.290806539174512
 10
-3.09966516283966
 20
-1.253875022049884
 10
-3.114352832823107
 20
-1.215269221582526
 10
-3.127535281048251
 20
-1.176040167703574
  0
LWPOLYLINE
  5
BB
330
91
100
AcDbEntity
  8
AM_9
100
AcDbPolyline
 90
        4
 70
     0
 43
0.0
 10
-2.966206516746089
 20
-1.346819936908927
 10
-2.994297186883988
 20
-1.341886073975673
 10
-3.031254027915042
 20
-1.334545468934003
 10
-3.066706751112627
 20
-1.326596062459877
  0
LWPOLYLINE
  5
BC
330
91
100
AcDbEntity
  8
AM_9
100
AcDbPolyline
 90
        4
 70
     0
 43
0.0
 10
-3.127535281048251
 20
-1.176040167703574
 10
-3.108429390853269
 20
-1.146991199806697
 10
-3.08761032806721
 20
-1.116905063717177
 10
-3.069182437681181
 20
-1.091533674176938
  0
ELLIPSE
  5
BD
330
91
100
AcDbEntity
  8
AM_9
100
AcDbEllipse
 10
-2.981055014305513
 20
-1.204424406436826
 30
0.0
 11
-0.0526790521991125
 21
0.1303852295484546
 31
0.0
210
0.0
220
0.0
230
1.0
 40
0.9063077870366483
 41
0.2349033541232224
 42
2.898719285027819
  0
LWPOLYLINE
  5
BE
330
91
100
AcDbEntity
  8
AM_9
100
AcDbPolyline
 90
       16
 70
     0
 43
0.0
 10
-2.921562767337077
 20
-1.225707536069492
 10
-2.922473829891056
 20
-1.243553629742021
 10
-2.926459963141883
 20
-1.261394764265213
 10
-2.933275127748229
 20
-1.277400550630875
 10
-2.9425998602327
 20
-1.29113691251023
 10
-2.954198066253382
 20
-1.302312634555076
 10
-2.968012580812499
 20
-1.310661118948366
 10
-2.984055926515667
 20
-1.31572349687558
 10
-3.001730716167969
 20
-1.316822490057166
 10
-3.017726240319087
 20
-1.314260565670817
 10
-3.035036258485378
 20
-1.307717548258665
 10
-3.051213352196864
 20
-1.297633601058167
 10
-3.065687934219453
 20
-1.284427294903986
 10
-3.077934828586517
 20
-1.268597187435661
 10
-3.087016132056025
 20
-1.251822467317029
 10
-3.088677302155427
 20
-1.247906633212571
  0
LWPOLYLINE
  5
BF
330
91
100
AcDbEntity
  8
AM_9
100
AcDbPolyline
 90
       16
 70
     0
 43
0.0
 10
-3.088677302155427
 20
-1.247906633212571
 10
-3.091647488817663
 20
-1.239737635314162
 10
-3.096237944144098
 20
-1.220267507411928
 10
-3.097522409743608
 20
-1.200762243231713
 10
-3.095560462118609
 20
-1.1820299666363
 10
-3.090570699110619
 20
-1.164757208033915
 10
-3.082862898889769
 20
-1.149487105009362
 10
-3.072741853751447
 20
-1.136598637450255
 10
-3.060388741648914
 20
-1.126355145467628
 10
-3.045804758758769
 20
-1.119063139370909
 10
-3.029062896101995
 20
-1.11528208803697
 10
-3.013071854064215
 20
-1.115395881181776
 10
-2.997116101841422
 20
-1.118822044617696
 10
-2.980034994060289
 20
-1.126241342754043
 10
-2.964216136175365
 20
-1.1371100703522
 10
-2.953005159338011
 20
-1.147830816912725
  0
ELLIPSE
  5
C0
330
91
100
AcDbEntity
  8
AM_9
100
AcDbEllipse
 10
-3.035657585856012
 20
-1.226485277341268
 30
0.0
 11
0.04989531183857375
 21
-0.1234952303787614
 31
0.0
210
0.0
220
0.0
230
1.0
 40
0.9063077870366509
 41
0.0
 42
6.283185307179586
  0
LINE
  5
C2
330
91
100
AcDbEntity
  8
AM_5
100
AcDbLine
 10
-2.482827886626159
 20
-1.18344040814811
 30
0.0
 11
-2.321143228788644
 21
-1.112162683339597
 31
0.0
  0
LINE
  5
C3
330
91
100
AcDbEntity
  8
AM_5
100
AcDbLine
 10
-2.512783623691409
 20
-1.221782003140953
 30
0.0
 11
-2.482827886626159
 21
-1.18344040814811
 31
0.0
  0
LINE
  5
C4
330
91
100
AcDbEntity
  8
AM_5
100
AcDbLine
 10
-2.47420772857626
 20
-1.204776048011784
 30
0.0
 11
-2.616703859750291
 21
-0.852085747080257
 31
0.0
  0
LINE
  5
C5
330
91
100
AcDbEntity
  8
AM_5
100
AcDbLine
 10
-2.608083701700393
 20
-0.8734213869439298
 30
0.0
 11
-2.442263824048226
 21
-0.8123786903346516
 31
0.0
  0
LINE
  5
C6
330
91
100
AcDbEntity
  8
AM_5
100
AcDbLine
 10
-2.656266365518433
 20
-0.8666497551527576
 30
0.0
 11
-2.608083701700393
 21
-0.8734213869439298
 31
0.0
  0
ELLIPSE
  5
C7
330
91
100
AcDbEntity
  8
AM_9
100
AcDbEllipse
 10
-2.961462772858961
 20
-1.196508627069524
 30
0.0
 11
-0.04120672527575086
 21
0.1019902240023467
 31
0.0
210
0.0
220
0.0
230
1.0
 40
0.9063077870366489
 41
0.0
 42
6.283185307179586
  0
LINE
  5
CA
330
91
100
AcDbEntity
  8
AM_7
100
AcDbLine
 10
-3.09585974733913
 20
-1.165963022007022
 30
0.0
 11
-2.675859747339122
 21
-1.165963022007022
 31
0.0
  0
LINE
  5
CB
330
91
100
AcDbEntity
  8
AM_7
100
AcDbLine
 10
-2.885859747339126
 20
-1.375963022007026
 30
0.0
 11
-2.885859747339126
 21
-0.9559630220070184
 31
0.0
  0
LINE
  5
CD
330
91
100
AcDbEntity
  8
AM_4
100
AcDbLine
 10
-2.667734426389898
 20
-1.313764146785549
 30
0.0
 11
-2.646650128983616
 21
-1.341743954476061
 31
0.0
  0
LINE
  5
CE
330
91
100
AcDbEntity
  8
AM_4
100
AcDbLine
 10
-2.667734426389898
 20
-1.313764146785549
 30
0.0
 11
-2.83162481100936
 21
-0.9081212104125795
 31
0.0
  0
LINE
  5
CF
330
91
100
AcDbEntity
  8
AM_4
100
AcDbLine
 10
-2.835894444338891
 20
-0.8733478374564523
 30
0.0
 11
-2.83162481100936
 21
-0.9081212104125795
 31
0.0
  0
LINE
  5
D0
330
91
100
AcDbEntity
  8
AM_4
100
AcDbLine
 10
-2.570746407603689
 20
-1.311076860400085
 30
0.0
 11
-2.575016040933219
 21
-1.276303487443958
 31
0.0
  0
LINE
  5
D1
330
91
100
AcDbEntity
  8
AM_4
100
AcDbLine
 10
-2.575016040933219
 20
-1.276303487443958
 30
0.0
 11
-2.738906425552681
 21
-0.8706605510709884
 31
0.0
  0
LINE
  5
D2
330
91
100
AcDbEntity
  8
AM_4
100
AcDbLine
 10
-2.738906425552681
 20
-0.8706605510709884
 30
0.0
 11
-2.759990722958963
 21
-0.8426807433804768
 31
0.0
  0
ARC
  5
D3
330
91
100
AcDbEntity
  8
AM_4
100
AcDbCircle
 10
-2.885859747339126
 20
-1.165963022007023
 30
0.0
 40
0.2000000000000035
100
AcDbArc
 50
246.1512651410332
 51
291.9999999999995
  0
ARC
  5
D4
330
91
100
AcDbEntity
  8
AM_4
100
AcDbCircle
 10
-2.885859747339129
 20
-1.165963022007023
 30
0.0
 40
0.1999999999999954
100
AcDbArc
 50
111.9999999999994
 51
157.7881206635032
  0
LINE
  5
D5
330
91
100
AcDbEntity
  8
AM_4
100
AcDbLine
 10
-2.659446313288103
 20
-0.8587791082334976
 30
0.0
 11
-2.731882551926132
 21
-0.8880452483441157
 31
0.0
  0
LINE
  5
D6
330
91
100
AcDbEntity
  8
AM_4
100
AcDbLine
 10
-2.582039914559768
 20
-1.258918790170831
 30
0.0
 11
-2.509603675921738
 21
-1.229652650060213
 31
0.0
  0
LINE
  5
D7
330
91
100
AcDbEntity
  8
AM_4
100
AcDbLine
 10
-2.927314936175796
 20
-1.063357829111494
 30
0.0
 11
-2.960781066022308
 21
-0.9805262510936688
 31
0.0
  0
LINE
  5
D8
330
91
100
AcDbEntity
  8
AM_4
100
AcDbLine
 10
-2.824600937382812
 20
-0.9255059076857067
 30
0.0
 11
-2.960781066022308
 21
-0.9805262510936688
 31
0.0
  0
LINE
  5
D9
330
91
100
AcDbEntity
  8
AM_4
100
AcDbLine
 10
-2.810938428655944
 20
-1.351399792920384
 30
0.0
 11
-2.674758300016447
 21
-1.296379449512422
 31
0.0
  0
LINE
  5
DA
330
91
100
AcDbEntity
  8
AM_4
100
AcDbLine
 10
-2.810938428655944
 20
-1.351399792920384
 30
0.0
 11
-2.844815787480102
 21
-1.267550387466244
 31
0.0
  0
LWPOLYLINE
  5
DB
330
91
100
AcDbEntity
  8
AM_4
100
AcDbPolyline
 90
        3
 70
     0
 43
0.0
 10
-2.646650128983616
 20
-1.341743954476061
 10
-2.66459334134445
 20
-1.315093110020823
 10
-2.678713000441401
 20
-1.286591222481418
  0
LINE
  5
DC
330
91
100
AcDbEntity
  8
AM_4
100
AcDbLine
 10
-2.646650128983616
 20
-1.341743954476061
 30
0.0
 11
-2.570746407603689
 21
-1.311076860400085
 31
0.0
  0
LWPOLYLINE
  5
DD
330
91
100
AcDbEntity
  8
AM_4
100
AcDbPolyline
 90
        3
 70
     0
 43
0.0
 10
-2.585994614984723
 20
-1.249130563139826
 10
-2.576385949296732
 20
-1.279301896676181
 10
-2.570746407603689
 20
-1.311076860400085
  0
LINE
  5
DE
330
91
100
AcDbEntity
  8
AM_4
100
AcDbLine
 10
-2.835894444338891
 20
-0.8733478374564523
 30
0.0
 11
-2.759990722958963
 21
-0.8426807433804768
 31
0.0
  0
LWPOLYLINE
  5
DF
330
91
100
AcDbEntity
  8
AM_4
100
AcDbPolyline
 90
        3
 70
     0
 43
0.0
 10
-2.820646236957857
 20
-0.9352941347167112
 10
-2.830254902645847
 20
-0.9051228011803567
 10
-2.835894444338891
 20
-0.8733478374564523
  0
LWPOLYLINE
  5
E0
330
91
100
AcDbEntity
  8
AM_4
100
AcDbPolyline
 90
        3
 70
     0
 43
0.0
 10
-2.759990722958963
 20
-0.8426807433804768
 10
-2.742047510598129
 20
-0.869331587835714
 10
-2.727927851501178
 20
-0.89783347537512
  0
LWPOLYLINE
  5
E1
330
91
100
AcDbEntity
  8
AM_4
100
AcDbPolyline
 90
        3
 70
     0
 43
0.0
 10
-2.788583365500072
 20
-0.9904468667113543
 10
-2.806526577860906
 20
-0.9637960222561169
 10
-2.820646236957857
 20
-0.9352941347167112
  0
LWPOLYLINE
  5
E2
330
91
100
AcDbEntity
  8
AM_4
100
AcDbPolyline
 90
        3
 70
     0
 43
0.0
 10
-2.727927851501178
 20
-0.89783347537512
 10
-2.718319185813188
 20
-0.9280048089114744
 10
-2.712679644120144
 20
-0.9597797726353788
  0
LWPOLYLINE
  5
E3
330
91
100
AcDbEntity
  8
AM_4
100
AcDbPolyline
 90
        3
 70
     0
 43
0.0
 10
-2.678713000441401
 20
-1.286591222481418
 10
-2.688321666129391
 20
-1.256419888945063
 10
-2.693961207822435
 20
-1.224644925221158
  0
LINE
  5
E4
330
91
100
AcDbEntity
  8
AM_4
100
AcDbLine
 10
-2.788583365500072
 20
-0.9904468667113543
 30
0.0
 11
-2.712679644120144
 21
-0.9597797726353788
 31
0.0
  0
LWPOLYLINE
  5
E5
330
91
100
AcDbEntity
  8
AM_4
100
AcDbPolyline
 90
        4
 70
     0
 43
0.0
 10
-2.749679618699629
 20
-1.110942678599064
 10
-2.766496169504488
 20
-1.065536122996825
 10
-2.780858194758324
 20
-1.01913787469999
 10
-2.788583365500072
 20
-0.9904468667113543
  0
LWPOLYLINE
  5
E6
330
91
100
AcDbEntity
  8
AM_4
100
AcDbPolyline
 90
        3
 70
     0
 43
0.0
 10
-2.693961207822435
 20
-1.224644925221158
 10
-2.723679009055463
 20
-1.168850950643971
 10
-2.749679618699629
 20
-1.110942678599064
  0
LINE
  5
E7
330
91
100
AcDbEntity
  8
AM_4
100
AcDbLine
 10
-2.693961207822435
 20
-1.224644925221158
 30
0.0
 11
-2.618057486442507
 21
-1.193977831145183
 31
0.0
  0
LWPOLYLINE
  5
E8
330
91
100
AcDbEntity
  8
AM_4
100
AcDbPolyline
 90
        4
 70
     0
 43
0.0
 10
-2.712679644120144
 20
-0.9597797726353788
 10
-2.698306218042884
 20
-0.9857847111124197
 10
-2.676467556721225
 20
-1.029008376132232
 10
-2.65696123324295
 20
-1.073482019257473
  0
LWPOLYLINE
  5
E9
330
91
100
AcDbEntity
  8
AM_4
100
AcDbPolyline
 90
        3
 70
     0
 43
0.0
 10
-2.65696123324295
 20
-1.073482019257473
 10
-2.635524797845255
 20
-1.132928110107553
 10
-2.618057486442507
 20
-1.193977831145183
  0
LWPOLYLINE
  5
EA
330
91
100
AcDbEntity
  8
AM_4
100
AcDbPolyline
 90
        3
 70
     0
 43
0.0
 10
-2.618057486442507
 20
-1.193977831145183
 10
-2.600114274081674
 20
-1.22062867560042
 10
-2.585994614984723
 20
-1.249130563139826
  0
LINE
  5
EB
330
91
100
AcDbEntity
  8
AM_4
100
AcDbLine
 10
-2.918294958323749
 20
-1.354199914014604
 30
0.0
 11
-2.966206516746089
 21
-1.346819936908927
 31
0.0
  0
LINE
  5
EC
330
91
100
AcDbEntity
  8
AM_4
100
AcDbLine
 10
-3.069182437681181
 20
-1.091533674176938
 30
0.0
 11
-3.039952018194997
 21
-1.053088124501999
 31
0.0
  0
LWPOLYLINE
  5
ED
330
91
100
AcDbEntity
  8
AM_4
100
AcDbPolyline
 90
        3
 70
     0
 43
0.0
 10
-2.905782362328579
 20
-1.349144497079275
 10
-2.884891604053417
 20
-1.322459969016387
 10
-2.864835176565962
 20
-1.29570923554855
  0
LINE
  5
EE
330
91
100
AcDbEntity
  8
AM_4
100
AcDbLine
 10
-2.864835176565962
 20
-1.29570923554855
 30
0.0
 11
-2.849716888343374
 21
-1.274515284427926
 31
0.0
  0
LWPOLYLINE
  5
EF
330
91
100
AcDbEntity
  8
AM_4
100
AcDbPolyline
 90
        4
 70
     0
 43
0.0
 10
-2.849716888343374
 20
-1.274515284427926
 10
-2.838060252896205
 20
-1.257427159787968
 10
-2.827662727421604
 20
-1.241583101724835
 10
-2.817805961183354
 20
-1.226033615697363
  0
LWPOLYLINE
  5
F0
330
91
100
AcDbEntity
  8
AM_4
100
AcDbPolyline
 90
        3
 70
     0
 43
0.0
 10
-2.884427418012515
 20
-1.303625014915852
 10
-2.901884717094148
 20
-1.329148827045752
 10
-2.918294958323749
 20
-1.354199914014604
  0
LINE
  5
F1
330
91
100
AcDbEntity
  8
AM_4
100
AcDbLine
 10
-2.905782362328579
 20
-1.349144497079275
 30
0.0
 11
-2.918294958323749
 21
-1.354199914014604
 31
0.0
  0
LWPOLYLINE
  5
F2
330
91
100
AcDbEntity
  8
AM_4
100
AcDbPolyline
 90
        3
 70
     0
 43
0.0
 10
-2.878634491118977
 20
-1.075477720941061
 10
-2.906054757946036
 20
-1.068947110590611
 10
-2.935267488088394
 20
-1.062770119697149
  0
LINE
  5
F3
330
91
100
AcDbEntity
  8
AM_4
100
AcDbLine
 10
-2.935267488088394
 20
-1.062770119697149
 30
0.0
 11
-2.960865230068933
 21
-1.058026512590484
 31
0.0
  0
LWPOLYLINE
  5
F4
330
91
100
AcDbEntity
  8
AM_4
100
AcDbPolyline
 90
        4
 70
     0
 43
0.0
 10
-2.960865230068933
 20
-1.058026512590484
 10
-2.983556054162344
 20
-1.054289898722457
 10
-3.005322788685945
 20
-1.051049562062015
 10
-3.027439422199826
 20
-1.04803270756667
  0
LINE
  5
F5
330
91
100
AcDbEntity
  8
AM_4
100
AcDbLine
 10
-3.027439422199826
 20
-1.04803270756667
 30
0.0
 11
-3.039952018194997
 21
-1.053088124501999
 31
0.0
  0
LWPOLYLINE
  5
F6
330
91
100
AcDbEntity
  8
AM_4
100
AcDbPolyline
 90
        3
 70
     0
 43
0.0
 10
-3.039952018194997
 20
-1.053088124501999
 10
-3.010906104604481
 20
-1.059674027031756
 10
-2.980457471515485
 20
-1.065942291957786
  0
LWPOLYLINE
  5
F7
330
91
100
AcDbEntity
  8
AM_4
100
AcDbPolyline
 90
        3
 70
     0
 43
0.0
 10
-2.830712976784296
 20
-1.231248388497408
 10
-2.850356566947425
 20
-1.256864944471969
 10
-2.869309129789928
 20
-1.282431063795229
  0
LWPOLYLINE
  5
F8
330
91
100
AcDbEntity
  8
AM_4
100
AcDbPolyline
 90
        3
 70
     0
 43
0.0
 10
-2.954859729534947
 20
-1.070685899064451
 10
-2.923628892278065
 20
-1.075885538603105
 10
-2.891541506719919
 20
-1.080692493741105
  0
LWPOLYLINE
  5
F9
330
91
100
AcDbEntity
  8
AM_4
100
AcDbPolyline
 90
        3
 70
     0
 43
0.0
 10
-2.817805961183354
 20
-1.226033615697363
 10
-2.826830887463842
 20
-1.196869994973975
 10
-2.837064735659448
 20
-1.167556521338339
  0
LINE
  5
FA
330
91
100
AcDbEntity
  8
AM_4
100
AcDbLine
 10
-2.837064735659448
 20
-1.167556521338339
 30
0.0
 11
-2.851866491028759
 21
-1.130920891216262
 31
0.0
  0
LWPOLYLINE
  5
FB
330
91
100
AcDbEntity
  8
AM_4
100
AcDbPolyline
 90
        4
 70
     0
 43
0.0
 10
-2.851866491028759
 20
-1.130920891216262
 10
-2.858985304188498
 20
-1.115119690845663
 10
-2.868594494296647
 20
-1.095131321686127
 10
-2.878634491118977
 20
-1.075477720941061
  0
LINE
  5
FC
330
91
100
AcDbEntity
  8
AM_4
100
AcDbLine
 10
-2.878634491118977
 20
-1.075477720941061
 30
0.0
 11
-2.891541506719919
 21
-1.080692493741105
 31
0.0
  0
LWPOLYLINE
  5
FD
330
91
100
AcDbEntity
  8
AM_4
100
AcDbPolyline
 90
        3
 70
     0
 43
0.0
 10
-2.891541506719919
 20
-1.080692493741105
 10
-2.881959420361343
 20
-1.1097529322861
 10
-2.871458732475315
 20
-1.138836670583569
  0
LWPOLYLINE
  5
FE
330
91
100
AcDbEntity
  8
AM_4
100
AcDbPolyline
 90
        3
 70
     0
 43
0.0
 10
-2.856656977106001
 20
-1.175472300705641
 10
-2.844062743418162
 20
-1.203568873395809
 10
-2.830712976784296
 20
-1.231248388497408
  0
LINE
  5
FF
330
91
100
AcDbEntity
  8
AM_4
100
AcDbLine
 10
-2.817805961183354
 20
-1.226033615697363
 30
0.0
 11
-2.830712976784296
 21
-1.231248388497408
 31
0.0
  0
LINE
  5
100
330
91
100
AcDbEntity
  8
AM_4
100
AcDbLine
 10
-2.980457471515485
 20
-1.065942291957786
 30
0.0
 11
-2.954859729534947
 21
-1.070685899064451
 31
0.0
  0
ELLIPSE
  5
101
330
91
100
AcDbEntity
  8
AM_4
100
AcDbEllipse
 10
-2.981055014305512
 20
-1.204424406436828
 30
0.0
 11
-0.05267905219910719
 21
0.1303852295484536
 31
0.0
210
0.0
220
0.0
230
1.0
 40
0.9063077870366485
 41
2.898719285027848
 42
3.56556159428428
  0
ELLIPSE
  5
102
330
91
100
AcDbEntity
  8
AM_4
100
AcDbEllipse
 10
-2.981055014305513
 20
-1.204424406436824
 30
0.0
 11
-0.0526790521991156
 21
0.1303852295484513
 31
0.0
210
0.0
220
0.0
230
1.0
 40
0.9063077870366507
 41
5.859216366485109
 42
6.518088661302785
  0
LINE
  5
103
330
91
100
AcDbEntity
  8
AM_4
100
AcDbLine
 10
-2.869309129789928
 20
-1.282431063795229
 30
0.0
 11
-2.884427418012515
 21
-1.303625014915852
 31
0.0
  0
ELLIPSE
  5
104
330
91
100
AcDbEntity
  8
AM_4
100
AcDbEllipse
 10
-2.981055014305511
 20
-1.204424406436826
 30
0.0
 11
-0.05267905219911074
 21
0.1303852295484522
 31
0.0
210
0.0
220
0.0
230
1.0
 40
0.906307787036651
 41
3.764821264091932
 42
4.571432719802716
  0
LWPOLYLINE
  5
105
330
91
100
AcDbEntity
  8
AM_4
100
AcDbPolyline
 90
        3
 70
     0
 43
0.0
 10
-2.871458732475315
 20
-1.138836670583569
 10
-2.86449934556479
 20
-1.157220540980568
 10
-2.856656977106001
 20
-1.175472300705641
  0
ELLIPSE
  5
106
330
91
100
AcDbEntity
  8
AM_4
100
AcDbEllipse
 10
-2.981055014305514
 20
-1.204424406436826
 30
0.0
 11
-0.05267905219911517
 21
0.130385229548454
 31
0.0
210
0.0
220
0.0
230
1.0
 40
0.9063077870366457
 41
4.853345240966658
 42
5.659956696677417
  0
LWPOLYLINE
  5
107
330
91
100
AcDbEntity
  8
AM_4
100
AcDbPolyline
 90
        4
 70
     0
 43
0.0
 10
-3.16749333008061
 20
-1.175232498225169
 10
-3.172335051348729
 20
-1.193189746642348
 10
-3.175051632000014
 20
-1.21702981467809
 10
-3.175087751748123
 20
-1.224743698339033
  0
LWPOLYLINE
  5
108
330
91
100
AcDbEntity
  8
AM_4
100
AcDbPolyline
 90
       30
 70
     0
 43
0.0
 10
-3.097168494914214
 20
-1.35374222905444
 10
-3.089620367193191
 20
-1.357486647722727
 10
-3.06735957152429
 20
-1.365398507555472
 10
-3.044369282093911
 20
-1.369145509201688
 10
-3.021378418392255
 20
-1.368628590670723
 10
-2.999103139852529
 20
-1.36389627857379
 10
-2.97821455176091
 20
-1.355130687777748
 10
-2.959319817851968
 20
-1.342625954747491
 10
-2.942962028843556
 20
-1.326777336975004
 10
-2.929595153502288
 20
-1.308050279883487
 10
-2.919597797859347
 20
-1.286979809876983
 10
-2.913266315118399
 20
-1.264168767614061
 10
-2.910801557441228
 20
-1.2402805132013
 10
-2.912295331306048
 20
-1.216022530743078
 10
-2.917722086301801
 20
-1.192123288366379
 10
-2.926937532749176
 20
-1.169307321010532
 10
-2.939682474175876
 20
-1.148272202655588
 10
-2.955585512982527
 20
-1.129671809720673
 10
-2.974175134621472
 20
-1.114088625717758
 10
-2.994886804426409
 20
-1.102018040784735
 10
-3.017076330847838
 20
-1.093846016262875
 10
-3.040041647998291
 20
-1.089827397502381
 10
-3.063054284970999
 20
-1.090070848614587
 10
-3.085396193972542
 20
-1.094537025654994
 10
-3.106392633568396
 20
-1.103051746286376
 10
-3.125432736090171
 20
-1.115327955353847
 10
-3.141967549766606
 20
-1.130975446806845
 10
-3.155538313555305
 20
-1.149533313210986
 10
-3.165761474698922
 20
-1.170470953653585
 10
-3.16749333008061
 20
-1.175232498225169
  0
LWPOLYLINE
  5
109
330
91
100
AcDbEntity
  8
AM_4
100
AcDbPolyline
 90
        6
 70
     0
 43
0.0
 10
-3.164014903709162
 20
-1.2783450000318
 10
-3.158230756701996
 20
-1.290981590912818
 10
-3.145280872214548
 20
-1.311860426769286
 10
-3.129190426018287
 20
-1.330283965403048
 10
-3.110446872672183
 20
-1.345655743115228
 10
-3.097168494914214
 20
-1.35374222905444
  0
ELLIPSE
  5
10A
330
91
100
AcDbEntity
  8
AM_4
100
AcDbEllipse
 10
-3.047086431280574
 20
-1.231102830623808
 30
0.0
 11
-0.05212596656866356
 21
0.1290162945757209
 31
0.0
210
0.0
220
0.0
230
1.0
 40
0.9063077870366426
 41
1.174080152945284
 42
1.570796326794897
  0
ELLIPSE
  5
10B
330
91
100
AcDbEntity
  8
AM_4
100
AcDbEllipse
 10
-3.077056997393623
 20
-1.243211725336605
 30
0.0
 11
0.03876527951952143
 21
-0.0959474337077755
 31
0.0
210
0.0
220
0.0
230
1.0
 40
0.9063077870366473
 41
0.0
 42
6.283185307179586
  0
ELLIPSE
  5
10C
330
91
100
AcDbEntity
  8
AM_4
100
AcDbEllipse
 10
-3.047086431280571
 20
-1.231102830623806
 30
0.0
 11
-0.0521259665686653
 21
0.1290162945757221
 31
0.0
210
0.0
220
0.0
230
1.0
 40
0.9063077870366489
 41
1.570796326794897
 42
7.457265460124873
  0
ENDBLK
  5
94
330
91
100
AcDbEntity
  8
0
100
AcDbBlockEnd
  0
BLOCK
  5
10F
330
10D
100
AcDbEntity
  8
0
100
AcDbBlockBegin
  2
3_ASME_B18_3_10_1_0_in_069384_0
 70
     2
 10
0.0
 20
0.0
 30
0.0
  3
3_ASME_B18_3_10_1_0_in_069384_0
  1

  0
ATTDEF
  5
111
330
10D
100
AcDbEntity
  8
AM_6
100
AcDbText
 10
5.189525
 20
-1.482694444444445
 30
0.0
 40
0.5
  1
ANSI/ASME B18.3-1998
100
AcDbAttributeDefinition
  3

  2
NN
 70
     8
280
     0
  0
ATTDEF
  5
112
330
10D
100
AcDbEntity
  8
AM_6
100
AcDbText
 10
5.189525
 20
-1.982694444444445
 30
0.0
 40
0.5
  1
Socket Button Head Cap Screws
100
AcDbAttributeDefinition
  3

  2
NT
 70
     8
280
     0
  0
ATTDEF
  5
113
330
10D
100
AcDbEntity
  8
AM_6
100
AcDbText
 10
5.189525
 20
-2.482694444444444
 30
0.0
 40
0.5
  1
ASME B18.3-10
100
AcDbAttributeDefinition
  3

  2
NB
 70
     8
280
     0
  0
ATTDEF
  5
114
330
10D
100
AcDbEntity
  8
AM_6
100
AcDbText
 10
5.189525
 20
-2.982694444444444
 30
0.0
 40
0.5
  1
ASME B18.3-$NS.
100
AcDbAttributeDefinition
  3

  2
NBSYN
 70
     8
280
     0
  0
ATTDEF
  5
115
330
10D
100
AcDbEntity
  8
AM_6
100
AcDbText
 10
5.189525
 20
-3.482694444444444
 30
0.0
 40
0.5
  1
ASME B18.3-10
100
AcDbAttributeDefinition
  3

  2
LINA
 70
     8
280
     0
  0
ATTDEF
  5
116
330
10D
100
AcDbEntity
  8
AM_6
100
AcDbText
 10
5.189525
 20
-3.982694444444444
 30
0.0
 40
0.5
  1
10
100
AcDbAttributeDefinition
  3

  2
NS
 70
     8
280
     0
  0
ATTDEF
  5
117
330
10D
100
AcDbEntity
  8
AM_6
100
AcDbText
 10
5.189525
 20
-4.482694444444444
 30
0.0
 40
0.5
  1
0.361
100
AcDbAttributeDefinition
  3

  2
A
 70
     8
280
     0
  0
ATTDEF
  5
118
330
10D
100
AcDbEntity
  8
AM_6
100
AcDbText
 10
5.189525
 20
-4.982694444444444
 30
0.0
 40
0.5
  1
0.101
100
AcDbAttributeDefinition
  3

  2
H
 70
     8
280
     0
  0
ATTDEF
  5
119
330
10D
100
AcDbEntity
  8
AM_6
100
AcDbText
 10
5.189525
 20
-5.482694444444444
 30
0.0
 40
0.5
  1
0.800
100
AcDbAttributeDefinition
  3

  2
L
 70
     8
280
     0
  0
ATTDEF
  5
11A
330
10D
100
AcDbEntity
  8
AM_6
100
AcDbText
 10
5.189525
 20
-5.982694444444444
 30
0.0
 40
0.5
  1
0.020
100
AcDbAttributeDefinition
  3

  2
S
 70
     8
280
     0
  0
ATTDEF
  5
11B
330
10D
100
AcDbEntity
  8
AM_6
100
AcDbText
 10
5.189525
 20
-6.482694444444444
 30
0.0
 40
0.5
  1
0.125000
100
AcDbAttributeDefinition
  3

  2
J
 70
     8
280
     0
  0
ATTDEF
  5
11C
330
10D
100
AcDbEntity
  8
AM_6
100
AcDbText
 10
5.189525
 20
-6.982694444444444
 30
0.0
 40
0.5
  1
baldor
100
AcDbAttributeDefinition
  3

  2
COMPANY
 70
     8
280
     0
  0
ARC
  5
11D
330
10D
100
AcDbEntity
  8
AM_5
100
AcDbCircle
 10
0.0000000000000002
 20
-1.663194444444444
 30
0.0
 40
0.0701999999999997
100
AcDbArc
 50
74.99999999999986
 51
14.99999999999985
  0
LINE
  5
11E
330
10D
100
AcDbEntity
  8
AM_7
100
AcDbLine
 10
-0.1895249999999999
 20
-1.663194444444444
 30
0.0
 11
0.1895249999999999
 21
-1.663194444444444
 31
0.0
  0
LINE
  5
11F
330
10D
100
AcDbEntity
  8
AM_4
100
AcDbLine
 10
0.0
 20
-1.735363228093148
 30
0.0
 11
-0.0625
 21
-1.699278836268796
 31
0.0
  0
LINE
  5
120
330
10D
100
AcDbEntity
  8
AM_4
100
AcDbLine
 10
-0.0625
 20
-1.627110052620093
 30
0.0
 11
0.0
 21
-1.591025660795741
 31
0.0
  0
LINE
  5
121
330
10D
100
AcDbEntity
  8
AM_4
100
AcDbLine
 10
0.0
 20
-1.591025660795741
 30
0.0
 11
0.0625
 21
-1.627110052620093
 31
0.0
  0
LINE
  5
122
330
10D
100
AcDbEntity
  8
AM_4
100
AcDbLine
 10
0.0625
 20
-1.627110052620093
 30
0.0
 11
0.0625
 21
-1.699278836268796
 31
0.0
  0
LINE
  5
123
330
10D
100
AcDbEntity
  8
AM_4
100
AcDbLine
 10
0.0625
 20
-1.699278836268796
 30
0.0
 11
0.0
 21
-1.735363228093148
 31
0.0
  0
LINE
  5
124
330
10D
100
AcDbEntity
  8
AM_4
100
AcDbLine
 10
-0.0625
 20
-1.699278836268796
 30
0.0
 11
-0.0625
 21
-1.627110052620093
 31
0.0
  0
CIRCLE
  5
125
330
10D
100
AcDbEntity
  8
AM_4
100
AcDbCircle
 10
0.0
 20
-1.663194444444444
 30
0.0
 40
0.0995
  0
ARC
  5
126
330
10D
100
AcDbEntity
  8
AM_5
100
AcDbCircle
 10
0.0000000000000001
 20
-1.663194444444444
 30
0.0
 40
0.0763999999999999
100
AcDbArc
 50
75.00000000000006
 51
14.99999999999994
  0
ARC
  5
127
330
10D
100
AcDbEntity
  8
AM_5
100
AcDbCircle
 10
-0.0000000000000001
 20
-1.663194444444444
 30
0.0
 40
0.0764
100
AcDbArc
 50
14.9999999999999
 51
195.0000000000002
  0
ARC
  5
128
330
10D
100
AcDbEntity
  8
AM_5
100
AcDbCircle
 10
-0.0000000000000002
 20
-1.663194444444444
 30
0.0
 40
0.0702000000000002
100
AcDbArc
 50
345.0000000000001
 51
285.0000000000002
  0
CIRCLE
  5
129
330
10D
100
AcDbEntity
  8
AM_4
100
AcDbCircle
 10
0.0
 20
-1.663194444444444
 30
0.0
 40
0.1804999999999999
  0
ENDBLK
  5
110
330
10D
100
AcDbEntity
  8
0
100
AcDbBlockEnd
  0
BLOCK
  5
12C
330
12A
100
AcDbEntity
  8
0
100
AcDbBlockBegin
  2
4_ASME_B18_3_10_2_0_in_069384_0
 70
     2
 10
0.0
 20
0.0
 30
0.0
  3
4_ASME_B18_3_10_2_0_in_069384_0
  1

  0
ATTDEF
  5
12E
330
12A
100
AcDbEntity
  8
AM_6
100
AcDbText
 10
5.189525
 20
1.843694444444444
 30
0.0
 40
0.5
  1
ANSI/ASME B18.3-1998
100
AcDbAttributeDefinition
  3

  2
NN
 70
     8
280
     0
  0
ATTDEF
  5
12F
330
12A
100
AcDbEntity
  8
AM_6
100
AcDbText
 10
5.189525
 20
1.343694444444444
 30
0.0
 40
0.5
  1
Socket Button Head Cap Screws
100
AcDbAttributeDefinition
  3

  2
NT
 70
     8
280
     0
  0
ATTDEF
  5
130
330
12A
100
AcDbEntity
  8
AM_6
100
AcDbText
 10
5.189525
 20
0.8436944444444443
 30
0.0
 40
0.5
  1
ASME B18.3-10
100
AcDbAttributeDefinition
  3

  2
NB
 70
     8
280
     0
  0
ATTDEF
  5
131
330
12A
100
AcDbEntity
  8
AM_6
100
AcDbText
 10
5.189525
 20
0.3436944444444443
 30
0.0
 40
0.5
  1
ASME B18.3-$NS.
100
AcDbAttributeDefinition
  3

  2
NBSYN
 70
     8
280
     0
  0
ATTDEF
  5
132
330
12A
100
AcDbEntity
  8
AM_6
100
AcDbText
 10
5.189525
 20
-0.1563055555555557
 30
0.0
 40
0.5
  1
ASME B18.3-10
100
AcDbAttributeDefinition
  3

  2
LINA
 70
     8
280
     0
  0
ATTDEF
  5
133
330
12A
100
AcDbEntity
  8
AM_6
100
AcDbText
 10
5.189525
 20
-0.6563055555555557
 30
0.0
 40
0.5
  1
10
100
AcDbAttributeDefinition
  3

  2
NS
 70
     8
280
     0
  0
ATTDEF
  5
134
330
12A
100
AcDbEntity
  8
AM_6
100
AcDbText
 10
5.189525
 20
-1.156305555555556
 30
0.0
 40
0.5
  1
0.361
100
AcDbAttributeDefinition
  3

  2
A
 70
     8
280
     0
  0
ATTDEF
  5
135
330
12A
100
AcDbEntity
  8
AM_6
100
AcDbText
 10
5.189525
 20
-1.656305555555556
 30
0.0
 40
0.5
  1
0.101
100
AcDbAttributeDefinition
  3

  2
H
 70
     8
280
     0
  0
ATTDEF
  5
136
330
12A
100
AcDbEntity
  8
AM_6
100
AcDbText
 10
5.189525
 20
-2.156305555555556
 30
0.0
 40
0.5
  1
0.800
100
AcDbAttributeDefinition
  3

  2
L
 70
     8
280
     0
  0
ATTDEF
  5
137
330
12A
100
AcDbEntity
  8
AM_6
100
AcDbText
 10
5.189525
 20
-2.656305555555556
 30
0.0
 40
0.5
  1
0.020
100
AcDbAttributeDefinition
  3

  2
S
 70
     8
280
     0
  0
ATTDEF
  5
138
330
12A
100
AcDbEntity
  8
AM_6
100
AcDbText
 10
5.189525
 20
-3.156305555555556
 30
0.0
 40
0.5
  1
0.125000
100
AcDbAttributeDefinition
  3

  2
J
 70
     8
280
     0
  0
ATTDEF
  5
139
330
12A
100
AcDbEntity
  8
AM_6
100
AcDbText
 10
5.189525
 20
-3.656305555555556
 30
0.0
 40
0.5
  1
baldor
100
AcDbAttributeDefinition
  3

  2
COMPANY
 70
     8
280
     0
  0
ARC
  5
13A
330
12A
100
AcDbEntity
  8
AM_5
100
AcDbCircle
 10
-0.0000000000000001
 20
1.663194444444445
 30
0.0
 40
0.0701999999999997
100
AcDbArc
 50
74.99999999999986
 51
14.99999999999985
  0
LINE
  5
13B
330
12A
100
AcDbEntity
  8
AM_7
100
AcDbLine
 10
-0.1895249999999999
 20
1.663194444444444
 30
0.0
 11
0.1895249999999999
 21
1.663194444444444
 31
0.0
  0
LINE
  5
13C
330
12A
100
AcDbEntity
  8
AM_4
100
AcDbLine
 10
0.0625
 20
1.627110052620093
 30
0.0
 11
0.0
 21
1.591025660795741
 31
0.0
  0
LINE
  5
13D
330
12A
100
AcDbEntity
  8
AM_4
100
AcDbLine
 10
0.0
 20
1.591025660795741
 30
0.0
 11
-0.0625
 21
1.627110052620093
 31
0.0
  0
CIRCLE
  5
13E
330
12A
100
AcDbEntity
  8
AM_4
100
AcDbCircle
 10
0.0
 20
1.663194444444444
 30
0.0
 40
0.0995
  0
LINE
  5
13F
330
12A
100
AcDbEntity
  8
AM_4
100
AcDbLine
 10
-0.0625
 20
1.627110052620093
 30
0.0
 11
-0.0625
 21
1.699278836268796
 31
0.0
  0
LINE
  5
140
330
12A
100
AcDbEntity
  8
AM_4
100
AcDbLine
 10
-0.0625
 20
1.699278836268796
 30
0.0
 11
0.0
 21
1.735363228093148
 31
0.0
  0
LINE
  5
141
330
12A
100
AcDbEntity
  8
AM_4
100
AcDbLine
 10
0.0
 20
1.735363228093148
 30
0.0
 11
0.0625
 21
1.699278836268796
 31
0.0
  0
LINE
  5
142
330
12A
100
AcDbEntity
  8
AM_4
100
AcDbLine
 10
0.0625
 20
1.699278836268796
 30
0.0
 11
0.0625
 21
1.627110052620093
 31
0.0
  0
ARC
  5
143
330
12A
100
AcDbEntity
  8
AM_5
100
AcDbCircle
 10
0.0000000000000001
 20
1.663194444444445
 30
0.0
 40
0.0763999999999999
100
AcDbArc
 50
75.00000000000006
 51
14.9999999999999
  0
ARC
  5
144
330
12A
100
AcDbEntity
  8
AM_5
100
AcDbCircle
 10
-0.0000000000000001
 20
1.663194444444445
 30
0.0
 40
0.0764
100
AcDbArc
 50
14.9999999999999
 51
195.0000000000002
  0
ARC
  5
145
330
12A
100
AcDbEntity
  8
AM_5
100
AcDbCircle
 10
-0.0000000000000002
 20
1.663194444444444
 30
0.0
 40
0.0702000000000002
100
AcDbArc
 50
345.0000000000001
 51
285.0000000000002
  0
CIRCLE
  5
146
330
12A
100
AcDbEntity
  8
AM_4
100
AcDbCircle
 10
0.0
 20
1.663194444444444
 30
0.0
 40
0.1804999999999999
  0
ENDBLK
  5
12D
330
12A
100
AcDbEntity
  8
0
100
AcDbBlockEnd
  0
BLOCK
  5
149
330
147
100
AcDbEntity
  8
0
100
AcDbBlockBegin
  2
5_070896LW_0_in_069384_0
 70
     2
 10
0.0
 20
0.0
 30
0.0
  3
5_070896LW_0_in_069384_0
  1

  0
ATTDEF
  5
14B
330
147
100
AcDbEntity
  8
AM_6
100
AcDbText
 10
6.9375
 20
1.9375
 30
0.0
 40
0.5
  1
Imperial Insert Lockwasher -Inch
100
AcDbAttributeDefinition
  3

  2
NN
 70
     8
280
     0
  0
ATTDEF
  5
14C
330
147
100
AcDbEntity
  8
AM_6
100
AcDbText
 10
6.9375
 20
1.4375
 30
0.0
 40
0.5
  1
Imperial Bearings
100
AcDbAttributeDefinition
  3

  2
NT
 70
     8
280
     0
  0
ATTDEF
  5
14D
330
147
100
AcDbEntity
  8
AM_6
100
AcDbText
 10
6.9375
 20
0.9375
 30
0.0
 40
0.5
  1
070896LW
100
AcDbAttributeDefinition
  3

  2
NB
 70
     8
280
     0
  0
ATTDEF
  5
14E
330
147
100
AcDbEntity
  8
AM_6
100
AcDbText
 10
6.9375
 20
0.4375
 30
0.0
 40
0.5
  1
$PN.LW
100
AcDbAttributeDefinition
  3

  2
NBSYN
 70
     8
280
     0
  0
ATTDEF
  5
14F
330
147
100
AcDbEntity
  8
AM_6
100
AcDbText
 10
6.9375
 20
-0.0625
 30
0.0
 40
0.5
  1
070896
100
AcDbAttributeDefinition
  3

  2
LINA
 70
     8
280
     0
  0
ATTDEF
  5
150
330
147
100
AcDbEntity
  8
AM_6
100
AcDbText
 10
6.9375
 20
-0.5625
 30
0.0
 40
0.5
  1
2-1/2
100
AcDbAttributeDefinition
  3

  2
SS
 70
     8
280
     0
  0
ATTDEF
  5
151
330
147
100
AcDbEntity
  8
AM_6
100
AcDbText
 10
6.9375
 20
-1.0625
 30
0.0
 40
0.5
  1
2.500000
100
AcDbAttributeDefinition
  3

  2
SS1
 70
     8
280
     0
  0
ATTDEF
  5
152
330
147
100
AcDbEntity
  8
AM_6
100
AcDbText
 10
6.9375
 20
-1.5625
 30
0.0
 40
0.5
  1
070896
100
AcDbAttributeDefinition
  3

  2
PN
 70
     8
280
     0
  0
ATTDEF
  5
153
330
147
100
AcDbEntity
  8
AM_6
100
AcDbText
 10
6.9375
 20
-2.0625
 30
0.0
 40
0.5
  1
INS-IP-208R
100
AcDbAttributeDefinition
  3

  2
DESCRIPTION
 70
     8
280
     0
  0
ATTDEF
  5
154
330
147
100
AcDbEntity
  8
AM_6
100
AcDbText
 10
6.9375
 20
-2.5625
 30
0.0
 40
0.5
  1
4.7241
100
AcDbAttributeDefinition
  3

  2
A
 70
     8
280
     0
  0
ATTDEF
  5
155
330
147
100
AcDbEntity
  8
AM_6
100
AcDbText
 10
6.9375
 20
-3.0625
 30
0.0
 40
0.5
  1
1-9/32
100
AcDbAttributeDefinition
  3

  2
B
 70
     8
280
     0
  0
ATTDEF
  5
156
330
147
100
AcDbEntity
  8
AM_6
100
AcDbText
 10
6.9375
 20
-3.5625
 30
0.0
 40
0.5
  1
3-27/64
100
AcDbAttributeDefinition
  3

  2
C
 70
     8
280
     0
  0
ATTDEF
  5
157
330
147
100
AcDbEntity
  8
AM_6
100
AcDbText
 10
6.9375
 20
-4.0625
 30
0.0
 40
0.5
  1
1.208
100
AcDbAttributeDefinition
  3

  2
D
 70
     8
280
     0
  0
ATTDEF
  5
158
330
147
100
AcDbEntity
  8
AM_6
100
AcDbText
 10
6.9375
 20
-4.5625
 30
0.0
 40
0.5
  1
3-7/8
100
AcDbAttributeDefinition
  3

  2
E
 70
     8
280
     0
  0
ATTDEF
  5
159
330
147
100
AcDbEntity
  8
AM_6
100
AcDbText
 10
6.9375
 20
-5.0625
 30
0.0
 40
0.5
  1
0.1900
100
AcDbAttributeDefinition
  3

  2
NDM
 70
     8
280
     0
  0
ATTDEF
  5
15A
330
147
100
AcDbEntity
  8
AM_6
100
AcDbText
 10
6.9375
 20
-5.5625
 30
0.0
 40
0.5
  1
0.1450
100
AcDbAttributeDefinition
  3

  2
KDM
 70
     8
280
     0
  0
ATTDEF
  5
15B
330
147
100
AcDbEntity
  8
AM_6
100
AcDbText
 10
6.9375
 20
-6.0625
 30
0.0
 40
0.5
  1
3.35
100
AcDbAttributeDefinition
  3

  2
AL
 70
     8
280
     0
  0
ATTDEF
  5
15C
330
147
100
AcDbEntity
  8
AM_6
100
AcDbText
 10
6.9375
 20
-6.5625
 30
0.0
 40
0.5
  1
0.50
100
AcDbAttributeDefinition
  3

  2
BL
 70
     8
280
     0
  0
ATTDEF
  5
15D
330
147
100
AcDbEntity
  8
AM_6
100
AcDbText
 10
6.9375
 20
-7.0625
 30
0.0
 40
0.5
  1
0.07
100
AcDbAttributeDefinition
  3

  2
CL
 70
     8
280
     0
  0
ATTDEF
  5
15E
330
147
100
AcDbEntity
  8
AM_6
100
AcDbText
 10
6.9375
 20
-7.5625
 30
0.0
 40
0.5
  1
0.44
100
AcDbAttributeDefinition
  3

  2
DL
 70
     8
280
     0
  0
ATTDEF
  5
15F
330
147
100
AcDbEntity
  8
AM_6
100
AcDbText
 10
6.9375
 20
-8.0625
 30
0.0
 40
0.5
  1
baldor
100
AcDbAttributeDefinition
  3

  2
COMPANY
 70
     8
280
     0
  0
ARC
  5
160
330
147
100
AcDbEntity
  8
AM_9
100
AcDbCircle
 10
0.0000000000000031
 20
-0.0000000000000087
 30
0.0
 40
1.31578947368422
100
AcDbArc
 50
107.0486801875822
 51
117.9513198124178
  0
LINE
  5
161
330
147
100
AcDbEntity
  8
AM_9
100
AcDbLine
 10
0.0949999999999998
 20
1.663194444444444
 30
0.0
 11
0.0949999999999997
 21
1.509717247441111
 31
0.0
  0
LINE
  5
162
330
147
100
AcDbEntity
  8
AM_9
100
AcDbLine
 10
-0.094999999999999
 20
-1.663194444444444
 30
0.0
 11
-0.0949999999999992
 21
-1.509717247441111
 31
0.0
  0
LINE
  5
163
330
147
100
AcDbEntity
  8
AM_9
100
AcDbLine
 10
-0.0950000000000003
 20
1.509717247441111
 30
0.0
 11
-0.0950000000000002
 21
1.663194444444444
 31
0.0
  0
LINE
  5
164
330
147
100
AcDbEntity
  8
AM_9
100
AcDbLine
 10
0.0950000000000007
 20
-1.509717247441112
 30
0.0
 11
0.0950000000000009
 21
-1.663194444444444
 31
0.0
  0
LINE
  5
165
330
147
100
AcDbEntity
  8
AM_7
100
AcDbLine
 10
-1.275833507527766
 20
1.176083499212249
 30
0.0
 11
-1.076333490896733
 21
1.176083499212249
 31
0.0
  0
LINE
  5
166
330
147
100
AcDbEntity
  8
AM_7
100
AcDbLine
 10
-1.176083499212249
 20
1.076333490896733
 30
0.0
 11
-1.176083499212249
 21
1.275833507527765
 31
0.0
  0
LINE
  5
167
330
147
100
AcDbEntity
  8
AM_7
100
AcDbLine
 10
1.076333490896733
 20
-1.176083499212249
 30
0.0
 11
1.275833507527766
 21
-1.176083499212249
 31
0.0
  0
LINE
  5
168
330
147
100
AcDbEntity
  8
AM_7
100
AcDbLine
 10
1.17608349921225
 20
-1.275833507527765
 30
0.0
 11
1.17608349921225
 21
-1.076333490896732
 31
0.0
  0
LINE
  5
169
330
147
100
AcDbEntity
  8
AM_7
100
AcDbLine
 10
1.66323323506917
 20
-0.0997500083155158
 30
0.0
 11
1.66323323506917
 21
0.0997500083155171
 31
0.0
  0
LINE
  5
16A
330
147
100
AcDbEntity
  8
AM_7
100
AcDbLine
 10
1.076333490896732
 20
1.176083499212249
 30
0.0
 11
1.275833507527765
 21
1.176083499212249
 31
0.0
  0
LINE
  5
16B
330
147
100
AcDbEntity
  8
AM_7
100
AcDbLine
 10
1.176083499212249
 20
1.076333490896733
 30
0.0
 11
1.176083499212249
 21
1.275833507527766
 31
0.0
  0
LINE
  5
16C
330
147
100
AcDbEntity
  8
AM_7
100
AcDbLine
 10
-1.275833507527765
 20
-1.17608349921225
 30
0.0
 11
-1.076333490896732
 21
-1.17608349921225
 31
0.0
  0
LINE
  5
16D
330
147
100
AcDbEntity
  8
AM_7
100
AcDbLine
 10
-1.176083499212248
 20
-1.275833507527766
 30
0.0
 11
-1.176083499212248
 21
-1.076333490896733
 31
0.0
  0
LINE
  5
16E
330
147
100
AcDbEntity
  8
AM_4
100
AcDbLine
 10
0.0949999999999997
 20
1.509717247441111
 30
0.0
 11
0.0950000000000001
 21
1.348007965406408
 31
0.0
  0
LINE
  5
16F
330
147
100
AcDbEntity
  8
AM_4
100
AcDbLine
 10
-0.886010429219632
 20
-1.020360717645072
 30
0.0
 11
-1.108880925885736
 21
-1.243231214311182
 31
0.0
  0
ARC
  5
170
330
147
100
AcDbEntity
  8
AM_4
100
AcDbCircle
 10
0.0000000000000027
 20
0.0000000000000042
 30
0.0
 40
1.351351351351356
100
AcDbArc
 50
229.0312184017858
 51
265.968781598214
  0
ARC
  5
171
330
147
100
AcDbEntity
  8
AM_4
100
AcDbCircle
 10
-1.660479075457098
 20
-0.0000000000000012
 30
0.0
 40
0.0950387985442652
100
AcDbArc
 50
91.63722984507618
 51
268.3627701549241
  0
ARC
  5
172
330
147
100
AcDbEntity
  8
AM_4
100
AcDbCircle
 10
0.00000000000001
 20
0.0000000000000046
 30
0.0
 40
1.351351351351341
100
AcDbArc
 50
4.031218401785788
 51
40.96878159821423
  0
LINE
  5
173
330
147
100
AcDbEntity
  8
AM_4
100
AcDbLine
 10
1.243231214311181
 20
1.108880925885738
 30
0.0
 11
1.020360717645074
 21
0.8860104292196302
 31
0.0
  0
ARC
  5
174
330
147
100
AcDbEntity
  8
AM_4
100
AcDbCircle
 10
-0.0000000000000019
 20
-0.0000000000000033
 30
0.0
 40
1.351351351351355
100
AcDbArc
 50
49.03121840178591
 51
85.96878159821401
  0
LINE
  5
175
330
147
100
AcDbEntity
  8
AM_4
100
AcDbLine
 10
-0.0949999999999992
 20
-1.509717247441111
 30
0.0
 11
-0.0949999999999995
 21
-1.348007965406408
 31
0.0
  0
ARC
  5
176
330
147
100
AcDbEntity
  8
AM_4
100
AcDbCircle
 10
-0.0000000000000001
 20
-0.0000000000000102
 30
0.0
 40
1.351351351351361
100
AcDbArc
 50
94.03121840178586
 51
107.1925533253696
  0
LINE
  5
177
330
147
100
AcDbEntity
  8
AM_4
100
AcDbLine
 10
-0.0949999999999997
 20
1.348007965406407
 30
0.0
 11
-0.0950000000000003
 21
1.509717247441111
 31
0.0
  0
ARC
  5
178
330
147
100
AcDbEntity
  8
AM_4
100
AcDbCircle
 10
0.0000000000000075
 20
-0.000000000000018
 30
0.0
 40
1.250000000000019
100
AcDbArc
 50
106.7608295227333
 51
118.2391704772667
  0
LINE
  5
179
330
147
100
AcDbEntity
  8
AM_4
100
AcDbLine
 10
-0.6304075736445327
 20
1.195297772896251
 30
0.0
 11
-0.616738440865791
 21
1.162297567155935
 31
0.0
  0
LINE
  5
17A
330
147
100
AcDbEntity
  8
AM_4
100
AcDbLine
 10
0.8860104292196306
 20
1.020360717645073
 30
0.0
 11
1.108880925885737
 21
1.243231214311181
 31
0.0
  0
ARC
  5
17B
330
147
100
AcDbEntity
  8
AM_4
100
AcDbCircle
 10
1.176083499212249
 20
1.176083499212249
 30
0.0
 40
0.0950000079195394
100
AcDbArc
 50
314.9766048530745
 51
135.0233951469257
  0
LINE
  5
17C
330
147
100
AcDbEntity
  8
AM_4
100
AcDbLine
 10
1.348007965406408
 20
0.0949999999999998
 30
0.0
 11
1.663194444444444
 21
0.0950000000000006
 31
0.0
  0
ARC
  5
17D
330
147
100
AcDbEntity
  8
AM_4
100
AcDbCircle
 10
1.66323323506917
 20
0.0000000000000007
 30
0.0
 40
0.0950000079195394
100
AcDbArc
 50
269.9766048530744
 51
90.02339514692565
  0
LINE
  5
17E
330
147
100
AcDbEntity
  8
AM_4
100
AcDbLine
 10
1.663194444444444
 20
-0.0949999999999993
 30
0.0
 11
1.348007965406408
 21
-0.0949999999999997
 31
0.0
  0
ARC
  5
17F
330
147
100
AcDbEntity
  8
AM_4
100
AcDbCircle
 10
0.0000000000000053
 20
-0.0000000000000022
 30
0.0
 40
1.351351351351346
100
AcDbArc
 50
319.0312184017859
 51
355.968781598214
  0
LINE
  5
180
330
147
100
AcDbEntity
  8
AM_4
100
AcDbLine
 10
1.020360717645075
 20
-0.8860104292196292
 30
0.0
 11
1.243231214311181
 21
-1.108880925885736
 31
0.0
  0
ARC
  5
181
330
147
100
AcDbEntity
  8
AM_4
100
AcDbCircle
 10
1.17608349921225
 20
-1.176083499212249
 30
0.0
 40
0.0950000079195396
100
AcDbArc
 50
224.9766048530839
 51
45.02339514692591
  0
LINE
  5
182
330
147
100
AcDbEntity
  8
AM_4
100
AcDbLine
 10
1.108880925885749
 20
-1.243231214311192
 30
0.0
 11
0.8860104292196304
 21
-1.020360717645074
 31
0.0
  0
ARC
  5
183
330
147
100
AcDbEntity
  8
AM_4
100
AcDbCircle
 10
0.0000000000000016
 20
-0.0000000000000033
 30
0.0
 40
1.351351351351348
100
AcDbArc
 50
274.0312184017859
 51
310.9687815982142
  0
LINE
  5
184
330
147
100
AcDbEntity
  8
AM_4
100
AcDbLine
 10
0.0950000000000012
 20
-1.348007965406408
 30
0.0
 11
0.0950000000000007
 21
-1.509717247441112
 31
0.0
  0
ARC
  5
185
330
147
100
AcDbEntity
  8
AM_4
100
AcDbCircle
 10
-1.176083499212248
 20
-1.17608349921225
 30
0.0
 40
0.0950000079195393
100
AcDbArc
 50
134.9766048530744
 51
315.0233951469259
  0
LINE
  5
186
330
147
100
AcDbEntity
  8
AM_4
100
AcDbLine
 10
-1.24323121431118
 20
-1.108880925885738
 30
0.0
 11
-1.020360717645074
 21
-0.8860104292196302
 31
0.0
  0
ARC
  5
187
330
147
100
AcDbEntity
  8
AM_4
100
AcDbCircle
 10
0.0000000000000007
 20
0.0000000000000002
 30
0.0
 40
1.351351351351352
100
AcDbArc
 50
184.031218401786
 51
220.9687815982141
  0
LINE
  5
188
330
147
100
AcDbEntity
  8
AM_4
100
AcDbLine
 10
-1.348007965406408
 20
-0.0950000000000006
 30
0.0
 11
-1.663194444444444
 21
-0.095000000000001
 31
0.0
  0
LINE
  5
189
330
147
100
AcDbEntity
  8
AM_4
100
AcDbLine
 10
-1.663194444444445
 20
0.0949999999999987
 30
0.0
 11
-1.348007965406408
 21
0.0949999999999997
 31
0.0
  0
ARC
  5
18A
330
147
100
AcDbEntity
  8
AM_4
100
AcDbCircle
 10
0.0000000000000018
 20
-0.0000000000000016
 30
0.0
 40
1.351351351351353
100
AcDbArc
 50
139.0312184017859
 51
175.9687815982139
  0
LINE
  5
18B
330
147
100
AcDbEntity
  8
AM_4
100
AcDbLine
 10
-1.020360717645074
 20
0.8860104292196298
 30
0.0
 11
-1.243231214311181
 21
1.108880925885737
 31
0.0
  0
ARC
  5
18C
330
147
100
AcDbEntity
  8
AM_4
100
AcDbCircle
 10
-1.176083499212249
 20
1.176083499212249
 30
0.0
 40
0.0950000079195393
100
AcDbArc
 50
44.97660485308385
 51
225.0233951469255
  0
LINE
  5
18D
330
147
100
AcDbEntity
  8
AM_4
100
AcDbLine
 10
-1.108880925885748
 20
1.243231214311192
 30
0.0
 11
-0.8860104292196299
 21
1.020360717645074
 31
0.0
  0
ARC
  5
18E
330
147
100
AcDbEntity
  8
AM_4
100
AcDbCircle
 10
0.000000000000019
 20
-0.0000000000000246
 30
0.0
 40
1.351351351351382
100
AcDbArc
 50
117.8074466746306
 51
130.968781598214
  0
LINE
  5
18F
330
147
100
AcDbEntity
  8
AM_4
100
AcDbLine
 10
-0.3857685577379693
 20
1.257968425247207
 30
0.0
 11
-0.3994376905167104
 21
1.290968630987523
 31
0.0
  0
CIRCLE
  5
190
330
147
100
AcDbEntity
  8
AM_4
100
AcDbCircle
 10
0.0
 20
0.0
 30
0.0
 40
1.9375
  0
ENDBLK
  5
14A
330
147
100
AcDbEntity
  8
0
100
AcDbBlockEnd
  0
BLOCK
  5
193
330
191
100
AcDbEntity
  8
0
100
AcDbBlockBegin
  2
6_070896I_0_in_069384_0
 70
     2
 10
0.0
 20
0.0
 30
0.0
  3
6_070896I_0_in_069384_0
  1

  0
ATTDEF
  5
195
330
191
100
AcDbEntity
  8
AM_6
100
AcDbText
 10
7.31205
 20
2.31205
 30
0.0
 40
0.5
  1
Imperial Insert -Inch
100
AcDbAttributeDefinition
  3

  2
NN
 70
     8
280
     0
  0
ATTDEF
  5
196
330
191
100
AcDbEntity
  8
AM_6
100
AcDbText
 10
7.31205
 20
1.81205
 30
0.0
 40
0.5
  1
Imperial Bearings
100
AcDbAttributeDefinition
  3

  2
NT
 70
     8
280
     0
  0
ATTDEF
  5
197
330
191
100
AcDbEntity
  8
AM_6
100
AcDbText
 10
7.31205
 20
1.31205
 30
0.0
 40
0.5
  1
070896I
100
AcDbAttributeDefinition
  3

  2
NB
 70
     8
280
     0
  0
ATTDEF
  5
198
330
191
100
AcDbEntity
  8
AM_6
100
AcDbText
 10
7.31205
 20
0.8120500000000002
 30
0.0
 40
0.5
  1
$PN.I
100
AcDbAttributeDefinition
  3

  2
NBSYN
 70
     8
280
     0
  0
ATTDEF
  5
199
330
191
100
AcDbEntity
  8
AM_6
100
AcDbText
 10
7.31205
 20
0.3120500000000002
 30
0.0
 40
0.5
  1
070896
100
AcDbAttributeDefinition
  3

  2
LINA
 70
     8
280
     0
  0
ATTDEF
  5
19A
330
191
100
AcDbEntity
  8
AM_6
100
AcDbText
 10
7.31205
 20
-0.1879499999999998
 30
0.0
 40
0.5
  1
2-1/2
100
AcDbAttributeDefinition
  3

  2
SS
 70
     8
280
     0
  0
ATTDEF
  5
19B
330
191
100
AcDbEntity
  8
AM_6
100
AcDbText
 10
7.31205
 20
-0.6879499999999998
 30
0.0
 40
0.5
  1
2.500000
100
AcDbAttributeDefinition
  3

  2
SS1
 70
     8
280
     0
  0
ATTDEF
  5
19C
330
191
100
AcDbEntity
  8
AM_6
100
AcDbText
 10
7.31205
 20
-1.18795
 30
0.0
 40
0.5
  1
070896
100
AcDbAttributeDefinition
  3

  2
PN
 70
     8
280
     0
  0
ATTDEF
  5
19D
330
191
100
AcDbEntity
  8
AM_6
100
AcDbText
 10
7.31205
 20
-1.68795
 30
0.0
 40
0.5
  1
INS-IP-208R
100
AcDbAttributeDefinition
  3

  2
DESCRIPTION
 70
     8
280
     0
  0
ATTDEF
  5
19E
330
191
100
AcDbEntity
  8
AM_6
100
AcDbText
 10
7.31205
 20
-2.18795
 30
0.0
 40
0.5
  1
Contact Seal
100
AcDbAttributeDefinition
  3

  2
ST
 70
     8
280
     0
  0
ATTDEF
  5
19F
330
191
100
AcDbEntity
  8
AM_6
100
AcDbText
 10
7.31205
 20
-2.68795
 30
0.0
 40
0.5
  1
4.7241
100
AcDbAttributeDefinition
  3

  2
A
 70
     8
280
     0
  0
ATTDEF
  5
1A0
330
191
100
AcDbEntity
  8
AM_6
100
AcDbText
 10
7.31205
 20
-3.18795
 30
0.0
 40
0.5
  1
1-9/32
100
AcDbAttributeDefinition
  3

  2
B
 70
     8
280
     0
  0
ATTDEF
  5
1A1
330
191
100
AcDbEntity
  8
AM_6
100
AcDbText
 10
7.31205
 20
-3.68795
 30
0.0
 40
0.5
  1
3-27/64
100
AcDbAttributeDefinition
  3

  2
C
 70
     8
280
     0
  0
ATTDEF
  5
1A2
330
191
100
AcDbEntity
  8
AM_6
100
AcDbText
 10
7.31205
 20
-4.18795
 30
0.0
 40
0.5
  1
1.208
100
AcDbAttributeDefinition
  3

  2
D
 70
     8
280
     0
  0
ATTDEF
  5
1A3
330
191
100
AcDbEntity
  8
AM_6
100
AcDbText
 10
7.31205
 20
-4.68795
 30
0.0
 40
0.5
  1
3-7/8
100
AcDbAttributeDefinition
  3

  2
E
 70
     8
280
     0
  0
ATTDEF
  5
1A4
330
191
100
AcDbEntity
  8
AM_6
100
AcDbText
 10
7.31205
 20
-5.18795
 30
0.0
 40
0.5
  1
0.1900
100
AcDbAttributeDefinition
  3

  2
NDM
 70
     8
280
     0
  0
ATTDEF
  5
1A5
330
191
100
AcDbEntity
  8
AM_6
100
AcDbText
 10
7.31205
 20
-5.68795
 30
0.0
 40
0.5
  1
0.101
100
AcDbAttributeDefinition
  3

  2
H
 70
     8
280
     0
  0
ATTDEF
  5
1A6
330
191
100
AcDbEntity
  8
AM_6
100
AcDbText
 10
7.31205
 20
-6.18795
 30
0.0
 40
0.5
  1
0.1450
100
AcDbAttributeDefinition
  3

  2
KDM
 70
     8
280
     0
  0
ATTDEF
  5
1A7
330
191
100
AcDbEntity
  8
AM_6
100
AcDbText
 10
7.31205
 20
-6.68795
 30
0.0
 40
0.5
  1
3.35
100
AcDbAttributeDefinition
  3

  2
AL
 70
     8
280
     0
  0
ATTDEF
  5
1A8
330
191
100
AcDbEntity
  8
AM_6
100
AcDbText
 10
7.31205
 20
-7.18795
 30
0.0
 40
0.5
  1
0.50
100
AcDbAttributeDefinition
  3

  2
BL
 70
     8
280
     0
  0
ATTDEF
  5
1A9
330
191
100
AcDbEntity
  8
AM_6
100
AcDbText
 10
7.31205
 20
-7.68795
 30
0.0
 40
0.5
  1
0.07
100
AcDbAttributeDefinition
  3

  2
CL
 70
     8
280
     0
  0
ATTDEF
  5
1AA
330
191
100
AcDbEntity
  8
AM_6
100
AcDbText
 10
7.31205
 20
-8.18795
 30
0.0
 40
0.5
  1
0.44
100
AcDbAttributeDefinition
  3

  2
DL
 70
     8
280
     0
  0
ATTDEF
  5
1AB
330
191
100
AcDbEntity
  8
AM_6
100
AcDbText
 10
7.31205
 20
-8.68795
 30
0.0
 40
0.5
  1
0.8000
100
AcDbAttributeDefinition
  3

  2
LL
 70
     8
280
     0
  0
ATTDEF
  5
1AC
330
191
100
AcDbEntity
  8
AM_6
100
AcDbText
 10
7.31205
 20
-9.18795
 30
0.0
 40
0.5
  1
0.025
100
AcDbAttributeDefinition
  3

  2
Y
 70
     8
280
     0
  0
ATTDEF
  5
1AD
330
191
100
AcDbEntity
  8
AM_6
100
AcDbText
 10
7.31205
 20
-9.68795
 30
0.0
 40
0.5
  1
0.025000
100
AcDbAttributeDefinition
  3

  2
Y1
 70
     8
280
     0
  0
ATTDEF
  5
1AE
330
191
100
AcDbEntity
  8
AM_6
100
AcDbText
 10
7.31205
 20
-10.18795
 30
0.0
 40
0.5
  1
2-15/16
100
AcDbAttributeDefinition
  3

  2
Z
 70
     8
280
     0
  0
ATTDEF
  5
1AF
330
191
100
AcDbEntity
  8
AM_6
100
AcDbText
 10
7.31205
 20
-10.68795
 30
0.0
 40
0.5
  1
2.937500
100
AcDbAttributeDefinition
  3

  2
Z1
 70
     8
280
     0
  0
ATTDEF
  5
1B0
330
191
100
AcDbEntity
  8
AM_6
100
AcDbText
 10
7.31205
 20
-11.18795
 30
0.0
 40
0.5
  1
baldor
100
AcDbAttributeDefinition
  3

  2
COMPANY
 70
     8
280
     0
  0
CIRCLE
  5
1B1
330
191
100
AcDbEntity
  8
AM_9
100
AcDbCircle
 10
0.0
 20
0.0
 30
0.0
 40
1.46875
  0
CIRCLE
  5
1B2
330
191
100
AcDbEntity
  8
AM_9
100
AcDbCircle
 10
0.0
 20
0.0
 30
0.0
 40
1.594284188595369
  0
CIRCLE
  5
1B3
330
191
100
AcDbEntity
  8
AM_9
100
AcDbCircle
 10
0.0
 20
0.0
 30
0.0
 40
1.631944444444444
  0
CIRCLE
  5
1B4
330
191
100
AcDbEntity
  8
AM_9
100
AcDbCircle
 10
0.0
 20
0.0
 30
0.0
 40
1.956368966601195
  0
CIRCLE
  5
1B5
330
191
100
AcDbEntity
  8
AM_9
100
AcDbCircle
 10
0.0
 20
0.0
 30
0.0
 40
2.042971506979639
  0
CIRCLE
  5
1B6
330
191
100
AcDbEntity
  8
AM_9
100
AcDbCircle
 10
0.0
 20
0.0
 30
0.0
 40
2.16205
  0
CIRCLE
  5
1B7
330
191
100
AcDbEntity
  8
AM_9
100
AcDbCircle
 10
0.0
 20
0.0
 30
0.0
 40
2.2979875
  0
LINE
  5
1B8
330
191
100
AcDbEntity
  8
AM_9
100
AcDbLine
 10
1.182991458137411
 20
-1.536544848730685
 30
0.0
 11
1.00762716319083
 21
-1.361180553784104
 31
0.0
  0
LINE
  5
1B9
330
191
100
AcDbEntity
  8
AM_9
100
AcDbLine
 10
-1.00762716319083
 20
-1.361180553784104
 30
0.0
 11
-1.182991458137411
 21
-1.536544848730685
 31
0.0
  0
LINE
  5
1BA
330
191
100
AcDbEntity
  8
AM_9
100
AcDbLine
 10
1.536544848730685
 20
1.182991458137411
 30
0.0
 11
1.361180553784104
 21
1.00762716319083
 31
0.0
  0
LINE
  5
1BB
330
191
100
AcDbEntity
  8
AM_9
100
AcDbLine
 10
1.361180553784104
 20
-1.00762716319083
 30
0.0
 11
1.536544848730685
 21
-1.182991458137411
 31
0.0
  0
CIRCLE
  5
1BC
330
191
100
AcDbEntity
  8
AM_9
100
AcDbCircle
 10
0.0
 20
1.663194444444444
 30
0.0
 40
0.0724499999999999
  0
LINE
  5
1BD
330
191
100
AcDbEntity
  8
AM_9
100
AcDbLine
 10
-1.361180553784104
 20
1.00762716319083
 30
0.0
 11
-1.536544848730685
 21
1.182991458137411
 31
0.0
  0
LINE
  5
1BE
330
191
100
AcDbEntity
  8
AM_9
100
AcDbLine
 10
-1.536544848730685
 20
-1.18299145813741
 30
0.0
 11
-1.361180553784104
 21
-1.00762716319083
 31
0.0
  0
CIRCLE
  5
1BF
330
191
100
AcDbEntity
  8
AM_9
100
AcDbCircle
 10
0.0
 20
-1.663194444444444
 30
0.0
 40
0.0724499999999999
  0
LINE
  5
1C0
330
191
100
AcDbEntity
  8
AM_9
100
AcDbLine
 10
1.00762716319083
 20
1.361180553784104
 30
0.0
 11
1.182991458137411
 21
1.536544848730685
 31
0.0
  0
LINE
  5
1C1
330
191
100
AcDbEntity
  8
AM_9
100
AcDbLine
 10
-1.182991458137411
 20
1.536544848730685
 30
0.0
 11
-1.00762716319083
 21
1.361180553784104
 31
0.0
  0
LINE
  5
1C2
330
191
100
AcDbEntity
  8
AM_9
100
AcDbLine
 10
-1.25106173404533
 20
1.117745982929604
 30
0.0
 11
-1.361180553784104
 21
1.00762716319083
 31
0.0
  0
LINE
  5
1C3
330
191
100
AcDbEntity
  8
AM_9
100
AcDbLine
 10
-1.00762716319083
 20
1.361180553784104
 30
0.0
 11
-1.117745982929604
 21
1.25106173404533
 31
0.0
  0
ARC
  5
1C4
330
191
100
AcDbEntity
  8
AM_9
100
AcDbCircle
 10
-0.0000000000000016
 20
-0.0000000000000003
 30
0.0
 40
1.889215561259643
100
AcDbArc
 50
142.6042581316176
 51
217.3957418683823
  0
LINE
  5
1C5
330
191
100
AcDbEntity
  8
AM_9
100
AcDbLine
 10
-1.117745982929603
 20
-1.251061734045331
 30
0.0
 11
-1.00762716319083
 21
-1.361180553784104
 31
0.0
  0
LINE
  5
1C6
330
191
100
AcDbEntity
  8
AM_9
100
AcDbLine
 10
-1.361180553784104
 20
-1.00762716319083
 30
0.0
 11
-1.251061734045329
 21
-1.117745982929605
 31
0.0
  0
ARC
  5
1C7
330
191
100
AcDbEntity
  8
AM_9
100
AcDbCircle
 10
0.0000000000000003
 20
0.0000000000000002
 30
0.0
 40
1.889215561259645
100
AcDbArc
 50
232.6042581316177
 51
307.3957418683823
  0
LINE
  5
1C8
330
191
100
AcDbEntity
  8
AM_9
100
AcDbLine
 10
1.251061734045331
 20
-1.117745982929603
 30
0.0
 11
1.361180553784104
 21
-1.00762716319083
 31
0.0
  0
LINE
  5
1C9
330
191
100
AcDbEntity
  8
AM_9
100
AcDbLine
 10
1.00762716319083
 20
-1.361180553784104
 30
0.0
 11
1.117745982929604
 21
-1.25106173404533
 31
0.0
  0
ARC
  5
1CA
330
191
100
AcDbEntity
  8
AM_9
100
AcDbCircle
 10
0.0000000000000011
 20
0.0000000000000004
 30
0.0
 40
1.889215561259644
100
AcDbArc
 50
322.6042581316177
 51
37.39574186838235
  0
LINE
  5
1CB
330
191
100
AcDbEntity
  8
AM_9
100
AcDbLine
 10
1.117745982929604
 20
1.25106173404533
 30
0.0
 11
1.00762716319083
 21
1.361180553784104
 31
0.0
  0
LINE
  5
1CC
330
191
100
AcDbEntity
  8
AM_9
100
AcDbLine
 10
1.361180553784104
 20
1.00762716319083
 30
0.0
 11
1.25106173404533
 21
1.117745982929604
 31
0.0
  0
ARC
  5
1CD
330
191
100
AcDbEntity
  8
AM_9
100
AcDbCircle
 10
-0.000000000000023
 20
0.0000000000000577
 30
0.0
 40
1.319261213720255
100
AcDbArc
 50
107.0630690378181
 51
117.936930962182
  0
ARC
  5
1CE
330
191
100
AcDbEntity
  8
AM_9
100
AcDbCircle
 10
0.0000000000000001
 20
-0.0000000000000007
 30
0.0
 40
1.889215561259645
100
AcDbArc
 50
52.60425813161768
 51
127.3957418683823
  0
ARC
  5
1CF
330
191
100
AcDbEntity
  8
AM_5
100
AcDbCircle
 10
0.0000000000000002
 20
-1.663194444444444
 30
0.0
 40
0.095
100
AcDbArc
 50
75.00000000000006
 51
14.99999999999994
  0
CIRCLE
  5
1D0
330
191
100
AcDbEntity
  8
AM_4
100
AcDbCircle
 10
0.0
 20
0.0
 30
0.0
 40
2.31205
  0
LINE
  5
1D1
330
191
100
AcDbEntity
  8
AM_4
100
AcDbLine
 10
-1.192745529690402
 20
1.546298920283676
 30
0.0
 11
-1.182991458137411
 21
1.536544848730685
 31
0.0
  0
LINE
  5
1D2
330
191
100
AcDbEntity
  8
AM_4
100
AcDbLine
 10
-1.536544848730685
 20
1.182991458137411
 30
0.0
 11
-1.546298920283675
 21
1.192745529690402
 31
0.0
  0
LINE
  5
1D3
330
191
100
AcDbEntity
  8
AM_4
100
AcDbLine
 10
1.192745529690402
 20
-1.546298920283676
 30
0.0
 11
1.182991458137411
 21
-1.536544848730685
 31
0.0
  0
LINE
  5
1D4
330
191
100
AcDbEntity
  8
AM_4
100
AcDbLine
 10
1.182991458137411
 20
1.536544848730685
 30
0.0
 11
1.192745529690401
 21
1.546298920283676
 31
0.0
  0
LINE
  5
1D5
330
191
100
AcDbEntity
  8
AM_4
100
AcDbLine
 10
1.546298920283676
 20
1.192745529690402
 30
0.0
 11
1.536544848730685
 21
1.182991458137411
 31
0.0
  0
LINE
  5
1D6
330
191
100
AcDbEntity
  8
AM_4
100
AcDbLine
 10
1.536544848730685
 20
-1.182991458137411
 30
0.0
 11
1.546298920283675
 21
-1.192745529690402
 31
0.0
  0
LINE
  5
1D7
330
191
100
AcDbEntity
  8
AM_4
100
AcDbLine
 10
-1.182991458137411
 20
-1.536544848730685
 30
0.0
 11
-1.192745529690402
 21
-1.546298920283675
 31
0.0
  0
LINE
  5
1D8
330
191
100
AcDbEntity
  8
AM_4
100
AcDbLine
 10
-1.546298920283676
 20
-1.192745529690401
 30
0.0
 11
-1.536544848730685
 21
-1.18299145813741
 31
0.0
  0
CIRCLE
  5
1D9
330
191
100
AcDbEntity
  8
AM_4
100
AcDbCircle
 10
0.0
 20
0.0
 30
0.0
 40
1.982963931814131
  0
ARC
  5
1DA
330
191
100
AcDbEntity
  8
AM_4
100
AcDbCircle
 10
-0.0000000000000124
 20
0.0000000000000107
 30
0.0
 40
1.952865138576384
100
AcDbArc
 50
307.6449808014888
 51
322.3550191985112
  0
ARC
  5
1DB
330
191
100
AcDbEntity
  8
AM_4
100
AcDbCircle
 10
0.0
 20
-0.0000000000000009
 30
0.0
 40
1.952865138576368
100
AcDbArc
 50
217.6449808014887
 51
232.3550191985113
  0
ARC
  5
1DC
330
191
100
AcDbEntity
  8
AM_4
100
AcDbCircle
 10
0.0000000000000122
 20
-0.0000000000000104
 30
0.0
 40
1.952865138576384
100
AcDbArc
 50
127.6449808014888
 51
142.3550191985113
  0
ARC
  5
1DD
330
191
100
AcDbEntity
  8
AM_4
100
AcDbCircle
 10
-0.0000000000000195
 20
-0.0000000000000202
 30
0.0
 40
1.952865138576396
100
AcDbArc
 50
37.64498080148883
 51
52.35501919851119
  0
ARC
  5
1DE
330
191
100
AcDbEntity
  8
AM_4
100
AcDbCircle
 10
0.0000000000000001
 20
0.0
 30
0.0
 40
1.9391851026106
100
AcDbArc
 50
232.40719535899
 51
307.5928046410099
  0
ARC
  5
1DF
330
191
100
AcDbEntity
  8
AM_4
100
AcDbCircle
 10
0.0
 20
0.0000000000000003
 30
0.0
 40
1.9391851026106
100
AcDbArc
 50
322.40719535899
 51
37.59280464100994
  0
ARC
  5
1E0
330
191
100
AcDbEntity
  8
AM_4
100
AcDbCircle
 10
-0.0000000000000004
 20
-0.0000000000000002
 30
0.0
 40
1.939185102610599
100
AcDbArc
 50
142.40719535899
 51
217.59280464101
  0
LINE
  5
1E1
330
191
100
AcDbEntity
  8
AM_4
100
AcDbLine
 10
-1.117745982929604
 20
1.25106173404533
 30
0.0
 11
-1.25106173404533
 21
1.117745982929604
 31
0.0
  0
LINE
  5
1E2
330
191
100
AcDbEntity
  8
AM_4
100
AcDbLine
 10
-1.251061734045329
 20
-1.117745982929605
 30
0.0
 11
-1.117745982929603
 21
-1.251061734045331
 31
0.0
  0
LINE
  5
1E3
330
191
100
AcDbEntity
  8
AM_4
100
AcDbLine
 10
1.117745982929604
 20
-1.25106173404533
 30
0.0
 11
1.251061734045331
 21
-1.117745982929603
 31
0.0
  0
LINE
  5
1E4
330
191
100
AcDbEntity
  8
AM_4
100
AcDbLine
 10
1.25106173404533
 20
1.117745982929604
 30
0.0
 11
1.117745982929604
 21
1.25106173404533
 31
0.0
  0
ARC
  5
1E5
330
191
100
AcDbEntity
  8
AM_4
100
AcDbCircle
 10
-0.0000000000000001
 20
-0.0000000000000007
 30
0.0
 40
1.9391851026106
100
AcDbArc
 50
52.40719535899007
 51
127.5928046410099
  0
ARC
  5
1E6
330
191
100
AcDbEntity
  8
AM_4
100
AcDbCircle
 10
-0.0000000000000025
 20
-0.0000000000000011
 30
0.0
 40
1.25
100
AcDbArc
 50
118.2391704772667
 51
106.7608295227331
  0
LINE
  5
1E7
330
191
100
AcDbEntity
  8
AM_4
100
AcDbLine
 10
-0.3604715679262205
 20
1.19689608935647
 30
0.0
 11
-0.3857685577379689
 21
1.257968425247207
 31
0.0
  0
LINE
  5
1E8
330
191
100
AcDbEntity
  8
AM_4
100
AcDbLine
 10
-0.6167384408657909
 20
1.162297567155935
 30
0.0
 11
-0.5914414510540424
 21
1.101225231265198
 31
0.0
  0
ARC
  5
1E9
330
191
100
AcDbEntity
  8
AM_4
100
AcDbCircle
 10
-0.0000000000000004
 20
-0.0000000000000003
 30
0.0
 40
1.315789473684211
100
AcDbArc
 50
117.9513198124178
 51
107.0486801875822
  0
ARC
  5
1EA
330
191
100
AcDbEntity
  8
AM_5
100
AcDbCircle
 10
0.0
 20
1.663194444444444
 30
0.0
 40
0.095
100
AcDbArc
 50
165.0000000000001
 51
105.0
  0
ARC
  5
1EB
330
191
100
AcDbEntity
  8
AM_5
100
AcDbCircle
 10
0.0
 20
-1.663194444444444
 30
0.0
 40
0.095
100
AcDbArc
 50
165.0000000000001
 51
105.0
  0
ARC
  5
1EC
330
191
100
AcDbEntity
  8
AM_5
100
AcDbCircle
 10
0.0000000000000001
 20
1.663194444444445
 30
0.0
 40
0.0949999999999999
100
AcDbArc
 50
105.0000000000001
 51
14.99999999999985
  0
ARC
  5
1ED
330
191
100
AcDbEntity
  8
AM_5
100
AcDbCircle
 10
0.0000000000000001
 20
-1.663194444444444
 30
0.0
 40
0.0949999999999999
100
AcDbArc
 50
105.0000000000001
 51
14.99999999999985
  0
ENDBLK
  5
194
330
191
100
AcDbEntity
  8
0
100
AcDbBlockEnd
  0
BLOCK
  5
1F0
330
1EE
100
AcDbEntity
  8
0
100
AcDbBlockBegin
  2
7_069384H_0_in_069384_0
 70
     2
 10
0.0
 20
0.0
 30
0.0
  3
7_069384H_0_in_069384_0
  1

  0
ATTDEF
  5
1F2
330
1EE
100
AcDbEntity
  8
AM_6
100
AcDbText
 10
10.053125
 20
2.9375
 30
0.0
 40
0.5
  1
WSTU-IP -Housing -Inch
100
AcDbAttributeDefinition
  3

  2
NN
 70
     8
280
     0
  0
ATTDEF
  5
1F3
330
1EE
100
AcDbEntity
  8
AM_6
100
AcDbText
 10
10.053125
 20
2.4375
 30
0.0
 40
0.5
  1
Imperial Wide Slot Take-Up Bearings
100
AcDbAttributeDefinition
  3

  2
NT
 70
     8
280
     0
  0
ATTDEF
  5
1F4
330
1EE
100
AcDbEntity
  8
AM_6
100
AcDbText
 10
10.053125
 20
1.9375
 30
0.0
 40
0.5
  1
069384H
100
AcDbAttributeDefinition
  3

  2
NB
 70
     8
280
     0
  0
ATTDEF
  5
1F5
330
1EE
100
AcDbEntity
  8
AM_6
100
AcDbText
 10
10.053125
 20
1.4375
 30
0.0
 40
0.5
  1
$PN.H
100
AcDbAttributeDefinition
  3

  2
NBSYN
 70
     8
280
     0
  0
ATTDEF
  5
1F6
330
1EE
100
AcDbEntity
  8
AM_6
100
AcDbText
 10
10.053125
 20
0.9375000000000004
 30
0.0
 40
0.5
  1
069384
100
AcDbAttributeDefinition
  3

  2
LINA
 70
     8
280
     0
  0
ATTDEF
  5
1F7
330
1EE
100
AcDbEntity
  8
AM_6
100
AcDbText
 10
10.053125
 20
0.4375000000000004
 30
0.0
 40
0.5
  1
2-1/2
100
AcDbAttributeDefinition
  3

  2
SS
 70
     8
280
     0
  0
ATTDEF
  5
1F8
330
1EE
100
AcDbEntity
  8
AM_6
100
AcDbText
 10
10.053125
 20
-0.0624999999999996
 30
0.0
 40
0.5
  1
069384
100
AcDbAttributeDefinition
  3

  2
PN
 70
     8
280
     0
  0
ATTDEF
  5
1F9
330
1EE
100
AcDbEntity
  8
AM_6
100
AcDbText
 10
10.053125
 20
-0.5624999999999996
 30
0.0
 40
0.5
  1
WSTU-IP-208RE
100
AcDbAttributeDefinition
  3

  2
DESCRIPTION
 70
     8
280
     0
  0
ATTDEF
  5
1FA
330
1EE
100
AcDbEntity
  8
AM_6
100
AcDbText
 10
10.053125
 20
-1.0625
 30
0.0
 40
0.5
  1
Expansion
100
AcDbAttributeDefinition
  3

  2
EF
 70
     8
280
     0
  0
ATTDEF
  5
1FB
330
1EE
100
AcDbEntity
  8
AM_6
100
AcDbText
 10
10.053125
 20
-1.5625
 30
0.0
 40
0.5
  1
Contact Seal
100
AcDbAttributeDefinition
  3

  2
ST
 70
     8
280
     0
  0
ATTDEF
  5
1FC
330
1EE
100
AcDbEntity
  8
AM_6
100
AcDbText
 10
10.053125
 20
-2.0625
 30
0.0
 40
0.5
  1
3-27/64
100
AcDbAttributeDefinition
  3

  2
A
 70
     8
280
     0
  0
ATTDEF
  5
1FD
330
1EE
100
AcDbEntity
  8
AM_6
100
AcDbText
 10
10.053125
 20
-2.5625
 30
0.0
 40
0.5
  1
7-11/16
100
AcDbAttributeDefinition
  3

  2
B
 70
     8
280
     0
  0
ATTDEF
  5
1FE
330
1EE
100
AcDbEntity
  8
AM_6
100
AcDbText
 10
10.053125
 20
-3.0625
 30
0.0
 40
0.5
  1
1-1/16
100
AcDbAttributeDefinition
  3

  2
C
 70
     8
280
     0
  0
ATTDEF
  5
1FF
330
1EE
100
AcDbEntity
  8
AM_6
100
AcDbText
 10
10.053125
 20
-3.5625
 30
0.0
 40
0.5
  1
4-3/8
100
AcDbAttributeDefinition
  3

  2
D
 70
     8
280
     0
  0
ATTDEF
  5
200
330
1EE
100
AcDbEntity
  8
AM_6
100
AcDbText
 10
10.053125
 20
-4.0625
 30
0.0
 40
0.5
  1
5
100
AcDbAttributeDefinition
  3

  2
E
 70
     8
280
     0
  0
ATTDEF
  5
201
330
1EE
100
AcDbEntity
  8
AM_6
100
AcDbText
 10
10.053125
 20
-4.5625
 30
0.0
 40
0.5
  1
1-3/8
100
AcDbAttributeDefinition
  3

  2
F
 70
     8
280
     0
  0
ATTDEF
  5
202
330
1EE
100
AcDbEntity
  8
AM_6
100
AcDbText
 10
10.053125
 20
-5.0625
 30
0.0
 40
0.5
  1
1-1/16
100
AcDbAttributeDefinition
  3

  2
G
 70
     8
280
     0
  0
ATTDEF
  5
203
330
1EE
100
AcDbEntity
  8
AM_6
100
AcDbText
 10
10.053125
 20
-5.5625
 30
0.0
 40
0.5
  1
1-1/4
100
AcDbAttributeDefinition
  3

  2
H
 70
     8
280
     0
  0
ATTDEF
  5
204
330
1EE
100
AcDbEntity
  8
AM_6
100
AcDbText
 10
10.053125
 20
-6.0625
 30
0.0
 40
0.5
  1
4-1/4
100
AcDbAttributeDefinition
  3

  2
J
 70
     8
280
     0
  0
ATTDEF
  5
205
330
1EE
100
AcDbEntity
  8
AM_6
100
AcDbText
 10
10.053125
 20
-6.5625
 30
0.0
 40
0.5
  1
2-1/2
100
AcDbAttributeDefinition
  3

  2
K
 70
     8
280
     0
  0
ATTDEF
  5
206
330
1EE
100
AcDbEntity
  8
AM_6
100
AcDbText
 10
10.053125
 20
-7.0625
 30
0.0
 40
0.5
  1
3-7/8
100
AcDbAttributeDefinition
  3

  2
L
 70
     8
280
     0
  0
ATTDEF
  5
207
330
1EE
100
AcDbEntity
  8
AM_6
100
AcDbText
 10
10.053125
 20
-7.5625
 30
0.0
 40
0.5
  1
5-1/8
100
AcDbAttributeDefinition
  3

  2
M
 70
     8
280
     0
  0
ATTDEF
  5
208
330
1EE
100
AcDbEntity
  8
AM_6
100
AcDbText
 10
10.053125
 20
-8.0625
 30
0.0
 40
0.5
  1
5-7/8
100
AcDbAttributeDefinition
  3

  2
N
 70
     8
280
     0
  0
ATTDEF
  5
209
330
1EE
100
AcDbEntity
  8
AM_6
100
AcDbText
 10
10.053125
 20
-8.5625
 30
0.0
 40
0.5
  1
3-7/16
100
AcDbAttributeDefinition
  3

  2
R
 70
     8
280
     0
  0
ATTDEF
  5
20A
330
1EE
100
AcDbEntity
  8
AM_6
100
AcDbText
 10
10.053125
 20
-9.0625
 30
0.0
 40
0.5
  1
2-7/32
100
AcDbAttributeDefinition
  3

  2
S
 70
     8
280
     0
  0
ATTDEF
  5
20B
330
1EE
100
AcDbEntity
  8
AM_6
100
AcDbText
 10
10.053125
 20
-9.5625
 30
0.0
 40
0.5
  1
2-7/16
100
AcDbAttributeDefinition
  3

  2
T
 70
     8
280
     0
  0
ATTDEF
  5
20C
330
1EE
100
AcDbEntity
  8
AM_6
100
AcDbText
 10
10.053125
 20
-10.0625
 30
0.0
 40
0.5
  1
1/4
100
AcDbAttributeDefinition
  3

  2
X
 70
     8
280
     0
  0
ATTDEF
  5
20D
330
1EE
100
AcDbEntity
  8
AM_6
100
AcDbText
 10
10.053125
 20
-10.5625
 30
0.0
 40
0.5
  1
0.025
100
AcDbAttributeDefinition
  3

  2
Y
 70
     8
280
     0
  0
ATTDEF
  5
20E
330
1EE
100
AcDbEntity
  8
AM_6
100
AcDbText
 10
10.053125
 20
-11.0625
 30
0.0
 40
0.5
  1
2-15/16
100
AcDbAttributeDefinition
  3

  2
Z
 70
     8
280
     0
  0
ATTDEF
  5
20F
330
1EE
100
AcDbEntity
  8
AM_6
100
AcDbText
 10
10.053125
 20
-11.5625
 30
0.0
 40
0.5
  1
baldor
100
AcDbAttributeDefinition
  3

  2
COMPANY
 70
     8
280
     0
  0
LINE
  5
210
330
1EE
100
AcDbEntity
  8
AM_9
100
AcDbLine
 10
2.1875
 20
-2.5625
 30
0.0
 11
-2.1875
 21
-2.5625
 31
0.0
  0
LINE
  5
211
330
1EE
100
AcDbEntity
  8
AM_9
100
AcDbLine
 10
2.1875
 20
2.5625
 30
0.0
 11
-2.1875
 21
2.5625
 31
0.0
  0
LINE
  5
212
330
1EE
100
AcDbEntity
  8
AM_9
100
AcDbLine
 10
5.0
 20
0.6875
 30
0.0
 11
3.9375
 21
0.6875
 31
0.0
  0
LINE
  5
213
330
1EE
100
AcDbEntity
  8
AM_9
100
AcDbLine
 10
3.9375
 20
-0.6875
 30
0.0
 11
5.0
 21
-0.6875
 31
0.0
  0
LINE
  5
214
330
1EE
100
AcDbEntity
  8
AM_7
100
AcDbLine
 10
-2.6775
 20
0.0
 30
0.0
 11
2.6775
 21
0.0
 31
0.0
  0
LINE
  5
215
330
1EE
100
AcDbEntity
  8
AM_7
100
AcDbLine
 10
0.0
 20
-2.6775
 30
0.0
 11
0.0
 21
2.6775
 31
0.0
  0
LINE
  5
216
330
1EE
100
AcDbEntity
  8
AM_7
100
AcDbLine
 10
-3.105776167844186
 20
-1.254815023382863
 30
0.0
 11
0.3058223033634355
 21
0.1235602310041433
 31
0.0
  0
LINE
  5
217
330
1EE
100
AcDbEntity
  8
AM_7
100
AcDbLine
 10
3.884374999999999
 20
0.0
 30
0.0
 11
5.053125
 21
0.0
 31
0.0
  0
LINE
  5
218
330
1EE
100
AcDbEntity
  8
AM_4
100
AcDbLine
 10
-2.434682357238555
 20
-1.41508942097357
 30
0.0
 11
-2.734367631967809
 21
-0.6733423373287443
 31
0.0
  0
ARC
  5
219
330
1EE
100
AcDbEntity
  8
AM_4
100
AcDbCircle
 10
-2.641649246514606
 20
-0.6358816779785491
 30
0.0
 40
0.1000000000000003
100
AcDbArc
 50
112.0
 51
202.0
  0
ARC
  5
21A
330
1EE
100
AcDbEntity
  8
AM_4
100
AcDbCircle
 10
-2.341963971781877
 20
-1.377628761631979
 30
0.0
 40
0.0999999999999992
100
AcDbArc
 50
201.9999999999997
 51
292.0000000000005
  0
LINE
  5
21B
330
1EE
100
AcDbEntity
  8
AM_4
100
AcDbLine
 10
-2.304503312440285
 20
-1.470347147088658
 30
0.0
 11
-2.679109905856198
 21
-0.5431632925218699
 31
0.0
  0
LINE
  5
21C
330
1EE
100
AcDbEntity
  8
AM_4
100
AcDbLine
 10
-2.635859292857295
 20
-0.5256889105868664
 30
0.0
 11
-2.679109905856198
 21
-0.5431632925218699
 31
0.0
  0
LINE
  5
21D
330
1EE
100
AcDbEntity
  8
AM_4
100
AcDbLine
 10
-2.304503312440285
 20
-1.470347147088658
 30
0.0
 11
-2.260998707202617
 21
-1.452770145628034
 31
0.0
  0
LINE
  5
21E
330
1EE
100
AcDbEntity
  8
AM_4
100
AcDbLine
 10
2.6875
 20
1.135416666666667
 30
0.0
 11
2.6875
 21
-1.135416666666667
 31
0.0
  0
ARC
  5
21F
330
1EE
100
AcDbEntity
  8
AM_4
100
AcDbCircle
 10
2.802083333333334
 20
1.135416666666667
 30
0.0
 40
0.1145833333333335
100
AcDbArc
 50
90.0
 51
180.0
  0
LINE
  5
220
330
1EE
100
AcDbEntity
  8
AM_4
100
AcDbLine
 10
3.822916666666667
 20
1.25
 30
0.0
 11
2.802083333333334
 21
1.25
 31
0.0
  0
ARC
  5
221
330
1EE
100
AcDbEntity
  8
AM_4
100
AcDbCircle
 10
3.822916666666666
 20
1.135416666666666
 30
0.0
 40
0.1145833333333335
100
AcDbArc
 50
0.0
 51
90.0
  0
LINE
  5
222
330
1EE
100
AcDbEntity
  8
AM_4
100
AcDbLine
 10
5.0
 20
-2.125
 30
0.0
 11
2.1875
 21
-2.125
 31
0.0
  0
LINE
  5
223
330
1EE
100
AcDbEntity
  8
AM_4
100
AcDbLine
 10
5.0
 20
1.9875
 30
0.0
 11
2.1875
 21
1.9875
 31
0.0
  0
LINE
  5
224
330
1EE
100
AcDbEntity
  8
AM_4
100
AcDbLine
 10
5.0
 20
2.125
 30
0.0
 11
2.1875
 21
2.125
 31
0.0
  0
LINE
  5
225
330
1EE
100
AcDbEntity
  8
AM_4
100
AcDbLine
 10
2.802083333333334
 20
-1.25
 30
0.0
 11
3.822916666666667
 21
-1.25
 31
0.0
  0
ARC
  5
226
330
1EE
100
AcDbEntity
  8
AM_4
100
AcDbCircle
 10
3.822916666666666
 20
-1.135416666666665
 30
0.0
 40
0.1145833333333348
100
AcDbArc
 50
270.0
 51
0.0
  0
ARC
  5
227
330
1EE
100
AcDbEntity
  8
AM_4
100
AcDbCircle
 10
2.802083333333335
 20
-1.135416666666666
 30
0.0
 40
0.1145833333333344
100
AcDbArc
 50
180.0
 51
270.0
  0
LINE
  5
228
330
1EE
100
AcDbEntity
  8
AM_4
100
AcDbLine
 10
5.0
 20
-1.9875
 30
0.0
 11
2.1875
 21
-1.9875
 31
0.0
  0
LINE
  5
229
330
1EE
100
AcDbEntity
  8
AM_4
100
AcDbLine
 10
-2.1875
 20
2.8
 30
0.0
 11
-2.1875
 21
1.559715823017553
 31
0.0
  0
LINE
  5
22A
330
1EE
100
AcDbEntity
  8
AM_4
100
AcDbLine
 10
2.1875
 20
1.559715823017553
 30
0.0
 11
2.1875
 21
2.8
 31
0.0
  0
ARC
  5
22B
330
1EE
100
AcDbEntity
  8
AM_4
100
AcDbCircle
 10
2.05
 20
2.8
 30
0.0
 40
0.1375000000000002
100
AcDbArc
 50
0.0
 51
90.0
  0
LINE
  5
22C
330
1EE
100
AcDbEntity
  8
AM_4
100
AcDbLine
 10
2.049999999999999
 20
2.9375
 30
0.0
 11
-2.05
 21
2.9375
 31
0.0
  0
ARC
  5
22D
330
1EE
100
AcDbEntity
  8
AM_4
100
AcDbCircle
 10
-2.049999999999998
 20
2.799999999999998
 30
0.0
 40
0.137500000000002
100
AcDbArc
 50
90.0
 51
180.0
  0
ARC
  5
22E
330
1EE
100
AcDbEntity
  8
AM_4
100
AcDbCircle
 10
2.05
 20
-2.8
 30
0.0
 40
0.1374999999999997
100
AcDbArc
 50
270.0
 51
0.0
  0
LINE
  5
22F
330
1EE
100
AcDbEntity
  8
AM_4
100
AcDbLine
 10
-2.1875
 20
-1.559715823017553
 30
0.0
 11
-2.1875
 21
-2.8
 31
0.0
  0
ARC
  5
230
330
1EE
100
AcDbEntity
  8
AM_4
100
AcDbCircle
 10
-2.05
 20
-2.8
 30
0.0
 40
0.1375000000000002
100
AcDbArc
 50
180.0
 51
270.0
  0
LINE
  5
231
330
1EE
100
AcDbEntity
  8
AM_4
100
AcDbLine
 10
-2.049999999999999
 20
-2.9375
 30
0.0
 11
2.05
 21
-2.9375
 31
0.0
  0
LINE
  5
232
330
1EE
100
AcDbEntity
  8
AM_4
100
AcDbLine
 10
2.1875
 20
-2.8
 30
0.0
 11
2.1875
 21
-1.559715823017553
 31
0.0
  0
CIRCLE
  5
233
330
1EE
100
AcDbEntity
  8
AM_4
100
AcDbCircle
 10
0.0
 20
0.0
 30
0.0
 40
2.36205
  0
CIRCLE
  5
234
330
1EE
100
AcDbEntity
  8
AM_4
100
AcDbCircle
 10
0.0
 20
0.0
 30
0.0
 40
2.55
  0
LINE
  5
235
330
1EE
100
AcDbEntity
  8
AM_4
100
AcDbLine
 10
5.0
 20
2.125
 30
0.0
 11
5.0
 21
-2.125
 31
0.0
  0
LINE
  5
236
330
1EE
100
AcDbEntity
  8
AM_4
100
AcDbLine
 10
3.9375
 20
1.25
 30
0.0
 11
3.9375
 21
-1.25
 31
0.0
  0
LINE
  5
237
330
1EE
100
AcDbEntity
  8
AM_4
100
AcDbLine
 10
3.9375
 20
-1.25
 30
0.0
 11
5.0
 21
-1.25
 31
0.0
  0
LINE
  5
238
330
1EE
100
AcDbEntity
  8
AM_4
100
AcDbLine
 10
5.0
 20
1.25
 30
0.0
 11
3.9375
 21
1.25
 31
0.0
  0
CIRCLE
  5
239
330
1EE
100
AcDbEntity
  8
AM_4
100
AcDbCircle
 10
0.0
 20
-0.0000000000000008
 30
0.0
 40
2.6875
  0
ENDBLK
  5
1F1
330
1EE
100
AcDbEntity
  8
0
100
AcDbBlockEnd
  0
ENDSEC
  0
SECTION
  2
ENTITIES
  0
INSERT
  5
6F
330
1F
100
AcDbEntity
  8
0
100
AcDbBlockReference
  2
1_069384_0
 10
0.0
 20
0.0
 30
0.0
  0
POINT
  5
23B
330
1F
100
AcDbEntity
  8
ConnectionPoints
100
AcDbPoint
 10
0.0
 20
-1.663194444444444
 30
1.767416666666667
  0
POINT
  5
23C
330
1F
100
AcDbEntity
  8
ConnectionPoints
100
AcDbPoint
 10
0.0
 20
1.663194444444444
 30
1.767416666666667
  0
POINT
  5
23D
330
1F
100
AcDbEntity
  8
ConnectionPoints
100
AcDbPoint
 10
0.0
 20
0.0
 30
1.697416666666667
  0
POINT
  5
23E
330
1F
100
AcDbEntity
  8
ConnectionPoints
100
AcDbPoint
 10
0.0
 20
0.0
 30
1.96875
  0
POINT
  5
23F
330
1F
100
AcDbEntity
  8
ConnectionPoints
100
AcDbPoint
 10
0.0
 20
0.0
 30
1.896416666666667
  0
POINT
  5
240
330
1F
100
AcDbEntity
  8
ConnectionPoints
100
AcDbPoint
 10
0.0
 20
1.663194444444444
 30
1.697416666666667
  0
POINT
  5
241
330
1F
100
AcDbEntity
  8
ConnectionPoints
100
AcDbPoint
 10
0.0
 20
1.663194444444444
 30
1.86775
  0
POINT
  5
242
330
1F
100
AcDbEntity
  8
ConnectionPoints
100
AcDbPoint
 10
0.0
 20
-1.663194444444444
 30
1.697416666666667
  0
POINT
  5
243
330
1F
100
AcDbEntity
  8
ConnectionPoints
100
AcDbPoint
 10
0.0
 20
-1.663194444444444
 30
1.86775
  0
POINT
  5
244
330
1F
100
AcDbEntity
  8
ConnectionPoints
100
AcDbPoint
 10
0.0
 20
0.0
 30
1.697416666666667
  0
POINT
  5
245
330
1F
100
AcDbEntity
  8
ConnectionPoints
100
AcDbPoint
 10
-2.58452499460492
 20
-1.044215879146855
 30
0.0
  0
POINT
  5
246
330
1F
100
AcDbEntity
  8
ConnectionPoints
100
AcDbPoint
 10
0.0
 20
0.0
 30
1.96875
  0
POINT
  5
247
330
1F
100
AcDbEntity
  8
ConnectionPoints
100
AcDbPoint
 10
0.0
 20
0.0
 30
2.21875
  0
ENDSEC
  0
SECTION
  2
OBJECTS
  0
DICTIONARY
  5
C
330
0
100
AcDbDictionary
281
     1
  3
ACAD_DETAILVIEWSTYLE
350
24F
  3
ACAD_GROUP
350
D
  3
ACAD_LAYOUT
350
1A
  3
ACAD_MATERIAL
350
43
  3
ACAD_MLEADERSTYLE
350
6B
  3
ACAD_MLINESTYLE
350
17
  3
ACAD_PLOTSETTINGS
350
19
  3
ACAD_PLOTSTYLENAME
350
E
  3
ACAD_SCALELIST
350
47
  3
ACAD_SECTIONVIEWSTYLE
350
250
  3
ACAD_TABLESTYLE
350
69
  3
ACAD_VISUALSTYLE
350
2A
  3
ACDB_RECOMPOSE_DATA
350
24C
  3
AcDbVariableDictionary
350
248
  0
SUN
  5
6D
330
29
100
AcDbSun
 90
        1
290
     0
 63
     7
421
 16777215
 40
1.0
291
     1
 91
  2455826
 92
 54000000
292
     0
 70
     2
 71
   256
280
     1
  0
DICTIONARY
  5
24F
102
{ACAD_REACTORS
330
C
102
}
330
C
100
AcDbDictionary
281
     1
  0
DICTIONARY
  5
D
102
{ACAD_REACTORS
330
C
102
}
330
C
100
AcDbDictionary
281
     1
  0
DICTIONARY
  5
1A
102
{ACAD_REACTORS
330
C
102
}
330
C
100
AcDbDictionary
281
     1
  3
Layout1
350
1E
  3
Layout2
350
26
  3
Model
350
22
  0
DICTIONARY
  5
43
102
{ACAD_REACTORS
330
C
102
}
330
C
100
AcDbDictionary
281
     1
  3
ByBlock
350
45
  3
ByLayer
350
44
  3
Global
350
46
  0
DICTIONARY
  5
6B
102
{ACAD_REACTORS
330
C
102
}
330
C
100
AcDbDictionary
281
     1
  3
Standard
350
6C
  0
DICTIONARY
  5
17
102
{ACAD_REACTORS
330
C
102
}
330
C
100
AcDbDictionary
281
     1
  3
Standard
350
18
  0
DICTIONARY
  5
19
102
{ACAD_REACTORS
330
C
102
}
330
C
100
AcDbDictionary
281
     1
  0
ACDBDICTIONARYWDFLT
  5
E
102
{ACAD_REACTORS
330
C
102
}
330
C
100
AcDbDictionary
281
     1
  3
Normal
350
F
100
AcDbDictionaryWithDefault
340
F
  0
DICTIONARY
  5
47
102
{ACAD_REACTORS
330
C
102
}
330
C
100
AcDbDictionary
281
     1
  3
A0
350
48
  3
A1
350
49
  3
A2
350
4A
  3
A3
350
4B
  3
A4
350
4C
  3
A5
350
4D
  3
A6
350
4E
  3
A7
350
4F
  3
A8
350
50
  3
A9
350
51
  3
B0
350
52
  3
B1
350
53
  3
B2
350
54
  3
B3
350
55
  3
B4
350
56
  3
B5
350
57
  3
B6
350
58
  3
B7
350
59
  3
B8
350
5A
  3
B9
350
5B
  3
C0
350
5C
  3
C1
350
5D
  3
C2
350
5E
  3
C3
350
5F
  3
C4
350
60
  3
C5
350
61
  3
C6
350
62
  3
C7
350
63
  3
C8
350
64
  3
C9
350
65
  3
D0
350
66
  3
D1
350
67
  3
D2
350
68
  0
DICTIONARY
  5
250
102
{ACAD_REACTORS
330
C
102
}
330
C
100
AcDbDictionary
281
     1
  0
DICTIONARY
  5
69
102
{ACAD_REACTORS
330
C
102
}
330
C
100
AcDbDictionary
281
     1
  3
Standard
350
6A
  0
DICTIONARY
  5
2A
102
{ACAD_REACTORS
330
C
102
}
330
C
100
AcDbDictionary
281
     1
  3
2dWireframe
350
2F
  3
Basic
350
32
  3
Brighten
350
36
  3
ColorChange
350
3A
  3
Conceptual
350
34
  3
Dim
350
35
  3
EdgeColorOff
350
3D
  3
Facepattern
350
39
  3
Flat
350
2B
  3
FlatWithEdges
350
2C
  3
Gouraud
350
2D
  3
GouraudWithEdges
350
2E
  3
Hidden
350
31
  3
JitterOff
350
3B
  3
Linepattern
350
38
  3
OverhangOff
350
3C
  3
Realistic
350
33
  3
Shaded
350
42
  3
Shaded with edges
350
41
  3
Shades of Gray
350
3E
  3
Sketchy
350
3F
  3
Thicken
350
37
  3
Wireframe
350
30
  3
X-Ray
350
40
  0
XRECORD
  5
24C
102
{ACAD_REACTORS
330
C
102
}
330
C
100
AcDbXrecord
280
     1
 90
        1
330
6A
  0
DICTIONARY
  5
248
102
{ACAD_REACTORS
330
C
102
}
330
C
100
AcDbDictionary
281
     1
  3
CANNOSCALE
350
249
  3
CMLEADERSTYLE
350
24E
  3
CTABLESTYLE
350
24D
  0
LAYOUT
  5
1E
102
{ACAD_REACTORS
330
1A
102
}
330
1A
100
AcDbPlotSettings
  1

  2
none_device
  4

  6

 40
0.0
 41
0.0
 42
0.0
 43
0.0
 44
0.0
 45
0.0
 46
0.0
 47
0.0
 48
0.0
 49
0.0
140
0.0
141
0.0
142
1.0
143
1.0
 70
   688
 72
     0
 73
     0
 74
     5
  7

 75
    16
 76
     0
 77
     2
 78
   300
147
1.0
148
0.0
149
0.0
100
AcDbLayout
  1
Layout1
 70
     1
 71
     1
 10
0.0
 20
0.0
 11
12.0
 21
9.0
 12
0.0
 22
0.0
 32
0.0
 14
1.000000000000000E+20
 24
1.000000000000000E+20
 34
1.000000000000000E+20
 15
-1.000000000000000E+20
 25
-1.000000000000000E+20
 35
-1.000000000000000E+20
146
0.0
 13
0.0
 23
0.0
 33
0.0
 16
1.0
 26
0.0
 36
0.0
 17
0.0
 27
1.0
 37
0.0
 76
     0
330
1B
  0
LAYOUT
  5
26
102
{ACAD_REACTORS
330
1A
102
}
330
1A
100
AcDbPlotSettings
  1

  2
none_device
  4

  6

 40
0.0
 41
0.0
 42
0.0
 43
0.0
 44
0.0
 45
0.0
 46
0.0
 47
0.0
 48
0.0
 49
0.0
140
0.0
141
0.0
142
1.0
143
1.0
 70
   688
 72
     0
 73
     0
 74
     5
  7

 75
    16
 76
     0
 77
     2
 78
   300
147
1.0
148
0.0
149
0.0
100
AcDbLayout
  1
Layout2
 70
     1
 71
     2
 10
0.0
 20
0.0
 11
0.0
 21
0.0
 12
0.0
 22
0.0
 32
0.0
 14
0.0
 24
0.0
 34
0.0
 15
0.0
 25
0.0
 35
0.0
146
0.0
 13
0.0
 23
0.0
 33
0.0
 16
1.0
 26
0.0
 36
0.0
 17
0.0
 27
1.0
 37
0.0
 76
     0
330
23
  0
LAYOUT
  5
22
102
{ACAD_REACTORS
330
1A
102
}
330
1A
100
AcDbPlotSettings
  1

  2
none_device
  4
Letter_(8.50_x_11.00_Inches)
  6

 40
6.35
 41
6.35
 42
6.35000508
 43
6.35000508
 44
215.9
 45
279.4
 46
0.0
 47
0.0
 48
0.0
 49
0.0
140
0.0
141
0.0
142
1.0
143
1.0
 70
  1712
 72
     0
 73
     0
 74
     0
  7

 75
     0
 76
     0
 77
     2
 78
   300
147
1.0
148
0.0
149
0.0
100
AcDbLayout
  1
Model
 70
     1
 71
     0
 10
0.0
 20
0.0
 11
12.0
 21
9.0
 12
0.0
 22
0.0
 32
0.0
 14
1.000000000000000E+20
 24
1.000000000000000E+20
 34
1.000000000000000E+20
 15
-1.000000000000000E+20
 25
-1.000000000000000E+20
 35
-1.000000000000000E+20
146
0.0
 13
0.0
 23
0.0
 33
0.0
 16
1.0
 26
0.0
 36
0.0
 17
0.0
 27
1.0
 37
0.0
 76
     0
330
1F
331
29
  0
MATERIAL
  5
45
102
{ACAD_REACTORS
330
43
102
}
330
43
100
AcDbMaterial
  1
ByBlock
 72
     1
 94
      127
  0
MATERIAL
  5
44
102
{ACAD_REACTORS
330
43
102
}
330
43
100
AcDbMaterial
  1
ByLayer
 72
     1
 94
      127
  0
MATERIAL
  5
46
102
{ACAD_REACTORS
330
43
102
}
330
43
100
AcDbMaterial
  1
Global
 72
     1
 94
      127
  0
MLEADERSTYLE
  5
6C
102
{ACAD_REACTORS
330
6B
102
}
330
6B
100
AcDbMLeaderStyle
179
     2
170
     2
171
     1
172
     0
 90
        2
 40
0.0
 41
0.0
173
     1
 91
-1056964608
340
14
 92
       -2
290
     1
 42
0.09
291
     1
 43
0.36
  3
Standard
341
0
 44
0.18
300

342
11
174
     1
178
     6
175
     1
176
     0
 93
-1056964608
 45
0.18
292
     0
297
     0
 46
0.18
343
0
 94
-1056964608
 47
1.0
 49
1.0
140
1.0
293
     1
141
0.0
294
     1
177
     0
142
1.0
295
     0
296
     0
143
0.125
271
     0
272
     9
273
     9
298
     0
  0
MLINESTYLE
  5
18
102
{ACAD_REACTORS
330
17
102
}
330
17
100
AcDbMlineStyle
  2
Standard
 70
     0
  3

 62
   256
 51
90.0
 52
90.0
 71
     2
 49
0.5
 62
   256
  6
BYLAYER
 49
-0.5
 62
   256
  6
BYLAYER
  0
ACDBPLACEHOLDER
  5
F
102
{ACAD_REACTORS
330
E
102
}
330
E
  0
SCALE
  5
48
102
{ACAD_REACTORS
330
47
102
}
330
47
100
AcDbScale
 70
     0
300
1:1
140
1.0
141
1.0
290
     1
  0
SCALE
  5
49
102
{ACAD_REACTORS
330
47
102
}
330
47
100
AcDbScale
 70
     0
300
1:2
140
1.0
141
2.0
290
     0
  0
SCALE
  5
4A
102
{ACAD_REACTORS
330
47
102
}
330
47
100
AcDbScale
 70
     0
300
1:4
140
1.0
141
4.0
290
     0
  0
SCALE
  5
4B
102
{ACAD_REACTORS
330
47
102
}
330
47
100
AcDbScale
 70
     0
300
1:5
140
1.0
141
5.0
290
     0
  0
SCALE
  5
4C
102
{ACAD_REACTORS
330
47
102
}
330
47
100
AcDbScale
 70
     0
300
1:8
140
1.0
141
8.0
290
     0
  0
SCALE
  5
4D
102
{ACAD_REACTORS
330
47
102
}
330
47
100
AcDbScale
 70
     0
300
1:10
140
1.0
141
10.0
290
     0
  0
SCALE
  5
4E
102
{ACAD_REACTORS
330
47
102
}
330
47
100
AcDbScale
 70
     0
300
1:16
140
1.0
141
16.0
290
     0
  0
SCALE
  5
4F
102
{ACAD_REACTORS
330
47
102
}
330
47
100
AcDbScale
 70
     0
300
1:20
140
1.0
141
20.0
290
     0
  0
SCALE
  5
50
102
{ACAD_REACTORS
330
47
102
}
330
47
100
AcDbScale
 70
     0
300
1:30
140
1.0
141
30.0
290
     0
  0
SCALE
  5
51
102
{ACAD_REACTORS
330
47
102
}
330
47
100
AcDbScale
 70
     0
300
1:40
140
1.0
141
40.0
290
     0
  0
SCALE
  5
52
102
{ACAD_REACTORS
330
47
102
}
330
47
100
AcDbScale
 70
     0
300
1:50
140
1.0
141
50.0
290
     0
  0
SCALE
  5
53
102
{ACAD_REACTORS
330
47
102
}
330
47
100
AcDbScale
 70
     0
300
1:100
140
1.0
141
100.0
290
     0
  0
SCALE
  5
54
102
{ACAD_REACTORS
330
47
102
}
330
47
100
AcDbScale
 70
     0
300
2:1
140
2.0
141
1.0
290
     0
  0
SCALE
  5
55
102
{ACAD_REACTORS
330
47
102
}
330
47
100
AcDbScale
 70
     0
300
4:1
140
4.0
141
1.0
290
     0
  0
SCALE
  5
56
102
{ACAD_REACTORS
330
47
102
}
330
47
100
AcDbScale
 70
     0
300
8:1
140
8.0
141
1.0
290
     0
  0
SCALE
  5
57
102
{ACAD_REACTORS
330
47
102
}
330
47
100
AcDbScale
 70
     0
300
10:1
140
10.0
141
1.0
290
     0
  0
SCALE
  5
58
102
{ACAD_REACTORS
330
47
102
}
330
47
100
AcDbScale
 70
     0
300
100:1
140
100.0
141
1.0
290
     0
  0
SCALE
  5
59
102
{ACAD_REACTORS
330
47
102
}
330
47
100
AcDbScale
 70
     0
300
1/128" = 1'-0"
140
0.0078125
141
12.0
290
     0
  0
SCALE
  5
5A
102
{ACAD_REACTORS
330
47
102
}
330
47
100
AcDbScale
 70
     0
300
1/64" = 1'-0"
140
0.015625
141
12.0
290
     0
  0
SCALE
  5
5B
102
{ACAD_REACTORS
330
47
102
}
330
47
100
AcDbScale
 70
     0
300
1/32" = 1'-0"
140
0.03125
141
12.0
290
     0
  0
SCALE
  5
5C
102
{ACAD_REACTORS
330
47
102
}
330
47
100
AcDbScale
 70
     0
300
1/16" = 1'-0"
140
0.0625
141
12.0
290
     0
  0
SCALE
  5
5D
102
{ACAD_REACTORS
330
47
102
}
330
47
100
AcDbScale
 70
     0
300
3/32" = 1'-0"
140
0.09375
141
12.0
290
     0
  0
SCALE
  5
5E
102
{ACAD_REACTORS
330
47
102
}
330
47
100
AcDbScale
 70
     0
300
1/8" = 1'-0"
140
0.125
141
12.0
290
     0
  0
SCALE
  5
5F
102
{ACAD_REACTORS
330
47
102
}
330
47
100
AcDbScale
 70
     0
300
3/16" = 1'-0"
140
0.1875
141
12.0
290
     0
  0
SCALE
  5
60
102
{ACAD_REACTORS
330
47
102
}
330
47
100
AcDbScale
 70
     0
300
1/4" = 1'-0"
140
0.25
141
12.0
290
     0
  0
SCALE
  5
61
102
{ACAD_REACTORS
330
47
102
}
330
47
100
AcDbScale
 70
     0
300
3/8" = 1'-0"
140
0.375
141
12.0
290
     0
  0
SCALE
  5
62
102
{ACAD_REACTORS
330
47
102
}
330
47
100
AcDbScale
 70
     0
300
1/2" = 1'-0"
140
0.5
141
12.0
290
     0
  0
SCALE
  5
63
102
{ACAD_REACTORS
330
47
102
}
330
47
100
AcDbScale
 70
     0
300
3/4" = 1'-0"
140
0.75
141
12.0
290
     0
  0
SCALE
  5
64
102
{ACAD_REACTORS
330
47
102
}
330
47
100
AcDbScale
 70
     0
300
1" = 1'-0"
140
1.0
141
12.0
290
     0
  0
SCALE
  5
65
102
{ACAD_REACTORS
330
47
102
}
330
47
100
AcDbScale
 70
     0
300
1-1/2" = 1'-0"
140
1.5
141
12.0
290
     0
  0
SCALE
  5
66
102
{ACAD_REACTORS
330
47
102
}
330
47
100
AcDbScale
 70
     0
300
3" = 1'-0"
140
3.0
141
12.0
290
     0
  0
SCALE
  5
67
102
{ACAD_REACTORS
330
47
102
}
330
47
100
AcDbScale
 70
     0
300
6" = 1'-0"
140
6.0
141
12.0
290
     0
  0
SCALE
  5
68
102
{ACAD_REACTORS
330
47
102
}
330
47
100
AcDbScale
 70
     0
300
1'-0" = 1'-0"
140
12.0
141
12.0
290
     0
  0
TABLESTYLE
  5
6A
102
{ACAD_REACTORS
330
69
102
}
102
{ACAD_XDICTIONARY
360
24A
102
}
330
69
100
AcDbTableStyle
  3
Standard
 70
     0
 71
     0
 40
0.06
 41
0.06
280
     0
281
     0
  7
Standard
140
0.18
170
     2
 62
     0
 63
   257
283
     0
 90
        4
 91
        0
  1

274
    -2
284
     1
 64
     0
275
    -2
285
     1
 65
     0
276
    -2
286
     1
 66
     0
277
    -2
287
     1
 67
     0
278
    -2
288
     1
 68
     0
279
    -2
289
     1
 69
     0
  7
Standard
140
0.25
170
     5
 62
     0
 63
   257
283
     0
 90
        4
 91
        0
  1

274
    -2
284
     1
 64
     0
275
    -2
285
     1
 65
     0
276
    -2
286
     1
 66
     0
277
    -2
287
     1
 67
     0
278
    -2
288
     1
 68
     0
279
    -2
289
     1
 69
     0
  7
Standard
140
0.18
170
     5
 62
     0
 63
   257
283
     0
 90
        4
 91
        0
  1

274
    -2
284
     1
 64
     0
275
    -2
285
     1
 65
     0
276
    -2
286
     1
 66
     0
277
    -2
287
     1
 67
     0
278
    -2
288
     1
 68
     0
279
    -2
289
     1
 69
     0
  0
VISUALSTYLE
  5
2F
102
{ACAD_REACTORS
330
2A
102
}
330
2A
100
AcDbVisualStyle
  2
2dWireframe
 70
     4
177
     3
291
     0
 70
    58
 90
        0
176
     1
 90
        2
176
     1
 90
        0
176
     1
 90
        0
176
     1
 40
0.6
176
     1
 40
30.0
176
     1
 62
     7
420
 16777215
176
     1
 90
        1
176
     1
 90
        4
176
     1
 62
     7
176
     1
 62
   257
176
     1
 90
        1
176
     1
 90
        1
176
     1
 40
1.0
176
     1
 90
        0
176
     1
 62
   257
176
     1
 40
1.0
176
     1
 90
        1
176
     1
 90
        6
176
     1
 90
        2
176
     1
 62
     7
176
     1
 90
        5
176
     1
 90
        0
176
     1
 90
        0
176
     1
290
     0
176
     1
 90
        1
176
     1
 40
0.0
176
     1
 90
        0
176
     1
290
     1
176
     1
290
     1
176
     1
290
     0
176
     1
290
     0
176
     1
290
     0
176
     1
290
     0
176
     1
290
     0
176
     1
290
     0
176
     1
290
     0
176
     1
 90
       50
176
     1
 40
0.0
176
     1
 40
1.0
176
     1
 90
        0
176
     1
 62
    18
420
        0
176
     1
 90
       50
176
     1
 90
        3
176
     1
 62
     5
420
      255
176
     1
290
     0
176
     1
 90
       50
176
     1
 90
       50
176
     1
 90
       50
176
     1
290
     0
176
     1
 90
       50
176
     1
 62
   256
176
     0
 40
1.0
176
     0
 90
        2
176
     1
  1
strokes_ogs.tif
176
     1
290
     0
176
     1
 40
1.0
176
     1
 40
1.0
176
     1
  0
VISUALSTYLE
  5
32
102
{ACAD_REACTORS
330
2A
102
}
330
2A
100
AcDbVisualStyle
  2
Basic
 70
     7
177
     3
291
     1
 70
    58
 90
        1
176
     1
 90
        0
176
     1
 90
        1
176
     1
 90
        0
176
     1
 40
0.6
176
     1
 40
30.0
176
     1
 62
     7
420
 16777215
176
     1
 90
        0
176
     1
 90
        4
176
     1
 62
     7
176
     1
 62
   257
176
     1
 90
        1
176
     1
 90
        1
176
     1
 40
1.0
176
     1
 90
        8
176
     1
 62
     7
176
     1
 40
1.0
176
     1
 90
        1
176
     1
 90
        6
176
     1
 90
        2
176
     1
 62
     7
176
     1
 90
        5
176
     1
 90
        0
176
     1
 90
        0
176
     1
290
     0
176
     1
 90
        1
176
     1
 40
0.0
176
     1
 90
        0
176
     1
290
     0
176
     1
290
     1
176
     1
290
     1
176
     1
290
     0
176
     1
290
     0
176
     1
290
     0
176
     1
290
     0
176
     1
290
     0
176
     1
290
     0
176
     1
 90
       50
176
     1
 40
0.0
176
     1
 40
1.0
176
     1
 90
        0
176
     1
 62
    18
420
        0
176
     1
 90
       50
176
     1
 90
        3
176
     1
 62
     5
420
      255
176
     1
290
     0
176
     1
 90
       50
176
     1
 90
       50
176
     1
 90
       50
176
     1
290
     0
176
     1
 90
       50
176
     1
 62
   256
176
     0
 40
1.0
176
     0
 90
        2
176
     1
  1
strokes_ogs.tif
176
     1
290
     0
176
     1
 40
1.0
176
     1
 40
1.0
176
     1
  0
VISUALSTYLE
  5
36
102
{ACAD_REACTORS
330
2A
102
}
330
2A
100
AcDbVisualStyle
  2
Brighten
 70
    12
177
     3
291
     1
 70
    58
 90
        2
176
     1
 90
        2
176
     1
 90
        0
176
     1
 90
        0
176
     1
 40
0.6
176
     1
 40
30.0
176
     1
 62
     7
420
 16777215
176
     1
 90
        1
176
     1
 90
        4
176
     1
 62
     7
176
     1
 62
   257
176
     1
 90
        1
176
     1
 90
        1
176
     1
 40
1.0
176
     1
 90
        8
176
     1
 62
     7
176
     1
 40
1.0
176
     1
 90
        1
176
     1
 90
        6
176
     1
 90
        2
176
     1
 62
     7
176
     1
 90
        5
176
     1
 90
        0
176
     1
 90
        0
176
     1
290
     0
176
     1
 90
        1
176
     1
 40
50.0
176
     1
 90
        0
176
     1
290
     0
176
     1
290
     1
176
     1
290
     1
176
     1
290
     0
176
     1
290
     0
176
     1
290
     0
176
     1
290
     0
176
     1
290
     0
176
     1
290
     0
176
     1
 90
       50
176
     1
 40
0.0
176
     1
 40
1.0
176
     1
 90
        0
176
     1
 62
    18
420
        0
176
     1
 90
       50
176
     1
 90
        3
176
     1
 62
     5
420
      255
176
     1
290
     0
176
     1
 90
       50
176
     1
 90
       50
176
     1
 90
       50
176
     1
290
     0
176
     1
 90
       50
176
     1
 62
   256
176
     0
 40
1.0
176
     0
 90
        2
176
     1
  1
strokes_ogs.tif
176
     1
290
     0
176
     1
 40
1.0
176
     1
 40
1.0
176
     1
  0
VISUALSTYLE
  5
3A
102
{ACAD_REACTORS
330
2A
102
}
330
2A
100
AcDbVisualStyle
  2
ColorChange
 70
    16
177
     3
291
     1
 70
    58
 90
        2
176
     1
 90
        2
176
     1
 90
        3
176
     1
 90
        0
176
     1
 40
0.6
176
     1
 40
30.0
176
     1
 62
     8
420
  8421504
176
     1
 90
        1
176
     1
 90
        4
176
     1
 62
     7
176
     1
 62
   257
176
     1
 90
        1
176
     1
 90
        1
176
     1
 40
1.0
176
     1
 90
        8
176
     1
 62
     8
420
  8421504
176
     1
 40
1.0
176
     1
 90
        1
176
     1
 90
        6
176
     1
 90
        2
176
     1
 62
     7
176
     1
 90
        5
176
     1
 90
        0
176
     1
 90
        0
176
     1
290
     0
176
     1
 90
        1
176
     1
 40
0.0
176
     1
 90
        0
176
     1
290
     0
176
     1
290
     1
176
     1
290
     1
176
     1
290
     0
176
     1
290
     0
176
     1
290
     0
176
     1
290
     0
176
     1
290
     0
176
     1
290
     0
176
     1
 90
       50
176
     1
 40
0.0
176
     1
 40
1.0
176
     1
 90
        0
176
     1
 62
    18
420
        0
176
     1
 90
       50
176
     1
 90
        3
176
     1
 62
     5
420
      255
176
     1
290
     0
176
     1
 90
       50
176
     1
 90
       50
176
     1
 90
       50
176
     1
290
     0
176
     1
 90
       50
176
     1
 62
   256
176
     0
 40
1.0
176
     0
 90
        2
176
     1
  1
strokes_ogs.tif
176
     1
290
     0
176
     1
 40
1.0
176
     1
 40
1.0
176
     1
  0
VISUALSTYLE
  5
34
102
{ACAD_REACTORS
330
2A
102
}
330
2A
100
AcDbVisualStyle
  2
Conceptual
 70
     9
177
     3
291
     0
 70
    58
 90
        3
176
     1
 90
        2
176
     1
 90
        0
176
     1
 90
        0
176
     1
 40
0.6
176
     1
 40
30.0
176
     1
 62
     7
420
 16777215
176
     1
 90
        2
176
     1
 90
        2
176
     1
 62
     7
176
     1
 62
   257
176
     1
 90
        1
176
     1
 90
        1
176
     1
 40
179.0
176
     1
 90
        8
176
     1
 62
     7
176
     1
 40
1.0
176
     1
 90
        1
176
     1
 90
        6
176
     1
 90
        2
176
     1
 62
     7
176
     1
 90
        3
176
     1
 90
        0
176
     1
 90
        0
176
     1
290
     0
176
     1
 90
        1
176
     1
 40
0.0
176
     1
 90
        0
176
     1
290
     0
176
     1
290
     1
176
     1
290
     1
176
     1
290
     0
176
     1
290
     0
176
     1
290
     0
176
     1
290
     0
176
     1
290
     0
176
     1
290
     0
176
     1
 90
       50
176
     1
 40
0.0
176
     1
 40
1.0
176
     1
 90
        0
176
     1
 62
    18
420
        0
176
     1
 90
       50
176
     1
 90
        3
176
     1
 62
     5
420
      255
176
     1
290
     0
176
     1
 90
       50
176
     1
 90
       50
176
     1
 90
       50
176
     1
290
     0
176
     1
 90
       50
176
     1
 62
   256
176
     0
 40
1.0
176
     0
 90
        2
176
     1
  1
strokes_ogs.tif
176
     1
290
     0
176
     1
 40
1.0
176
     1
 40
1.0
176
     1
  0
VISUALSTYLE
  5
35
102
{ACAD_REACTORS
330
2A
102
}
330
2A
100
AcDbVisualStyle
  2
Dim
 70
    11
177
     3
291
     1
 70
    58
 90
        2
176
     1
 90
        2
176
     1
 90
        0
176
     1
 90
        0
176
     1
 40
0.6
176
     1
 40
30.0
176
     1
 62
     7
420
 16777215
176
     1
 90
        1
176
     1
 90
        4
176
     1
 62
     7
176
     1
 62
   257
176
     1
 90
        1
176
     1
 90
        1
176
     1
 40
1.0
176
     1
 90
        8
176
     1
 62
     7
176
     1
 40
1.0
176
     1
 90
        1
176
     1
 90
        6
176
     1
 90
        2
176
     1
 62
     7
176
     1
 90
        5
176
     1
 90
        0
176
     1
 90
        0
176
     1
290
     0
176
     1
 90
        1
176
     1
 40
-50.0
176
     1
 90
        0
176
     1
290
     0
176
     1
290
     1
176
     1
290
     1
176
     1
290
     0
176
     1
290
     0
176
     1
290
     0
176
     1
290
     0
176
     1
290
     0
176
     1
290
     0
176
     1
 90
       50
176
     1
 40
0.0
176
     1
 40
1.0
176
     1
 90
        0
176
     1
 62
    18
420
        0
176
     1
 90
       50
176
     1
 90
        3
176
     1
 62
     5
420
      255
176
     1
290
     0
176
     1
 90
       50
176
     1
 90
       50
176
     1
 90
       50
176
     1
290
     0
176
     1
 90
       50
176
     1
 62
   256
176
     0
 40
1.0
176
     0
 90
        2
176
     1
  1
strokes_ogs.tif
176
     1
290
     0
176
     1
 40
1.0
176
     1
 40
1.0
176
     1
  0
VISUALSTYLE
  5
3D
102
{ACAD_REACTORS
330
2A
102
}
330
2A
100
AcDbVisualStyle
  2
EdgeColorOff
 70
    22
177
     3
291
     1
 70
    58
 90
        2
176
     0
 90
        2
176
     0
 90
        0
176
     0
 90
        0
176
     0
 40
0.6
176
     0
 40
30.0
176
     0
 62
     7
420
 16777215
176
     0
 90
        1
176
     0
 90
        4
176
     0
 62
     7
176
     0
 62
   257
176
     0
 90
        1
176
     0
 90
        1
176
     0
 40
1.0
176
     0
 90
        8
176
     2
 62
     7
176
     0
 40
1.0
176
     0
 90
        1
176
     0
 90
        6
176
     0
 90
        2
176
     0
 62
     7
176
     0
 90
        5
176
     0
 90
        0
176
     0
 90
        0
176
     0
290
     0
176
     0
 90
        1
176
     0
 40
0.0
176
     0
 90
        0
176
     0
290
     0
176
     0
290
     1
176
     0
290
     1
176
     0
290
     0
176
     0
290
     0
176
     0
290
     0
176
     0
290
     0
176
     0
290
     0
176
     0
290
     0
176
     0
 90
       50
176
     0
 40
0.0
176
     0
 40
1.0
176
     0
 90
        0
176
     0
 62
    18
420
        0
176
     0
 90
       50
176
     0
 90
        3
176
     0
 62
     5
420
      255
176
     0
290
     0
176
     0
 90
       50
176
     0
 90
       50
176
     0
 90
       50
176
     0
290
     0
176
     0
 90
       50
176
     0
 62
   256
176
     0
 40
1.0
176
     0
 90
        2
176
     0
  1
strokes_ogs.tif
176
     0
290
     0
176
     0
 40
1.0
176
     0
 40
1.0
176
     0
  0
VISUALSTYLE
  5
39
102
{ACAD_REACTORS
330
2A
102
}
330
2A
100
AcDbVisualStyle
  2
Facepattern
 70
    15
177
     3
291
     1
 70
    58
 90
        2
176
     1
 90
        2
176
     1
 90
        0
176
     1
 90
        0
176
     1
 40
0.6
176
     1
 40
30.0
176
     1
 62
     7
420
 16777215
176
     1
 90
        1
176
     1
 90
        4
176
     1
 62
     7
176
     1
 62
   257
176
     1
 90
        1
176
     1
 90
        1
176
     1
 40
1.0
176
     1
 90
        8
176
     1
 62
     7
176
     1
 40
1.0
176
     1
 90
        1
176
     1
 90
        6
176
     1
 90
        2
176
     1
 62
     7
176
     1
 90
        5
176
     1
 90
        0
176
     1
 90
        0
176
     1
290
     0
176
     1
 90
        1
176
     1
 40
0.0
176
     1
 90
        0
176
     1
290
     0
176
     1
290
     1
176
     1
290
     1
176
     1
290
     0
176
     1
290
     0
176
     1
290
     0
176
     1
290
     0
176
     1
290
     0
176
     1
290
     0
176
     1
 90
       50
176
     1
 40
0.0
176
     1
 40
1.0
176
     1
 90
        0
176
     1
 62
    18
420
        0
176
     1
 90
       50
176
     1
 90
        3
176
     1
 62
     5
420
      255
176
     1
290
     0
176
     1
 90
       50
176
     1
 90
       50
176
     1
 90
       50
176
     1
290
     0
176
     1
 90
       50
176
     1
 62
   256
176
     0
 40
1.0
176
     0
 90
        2
176
     1
  1
strokes_ogs.tif
176
     1
290
     0
176
     1
 40
1.0
176
     1
 40
1.0
176
     1
  0
VISUALSTYLE
  5
2B
102
{ACAD_REACTORS
330
2A
102
}
330
2A
100
AcDbVisualStyle
  2
Flat
 70
     0
177
     3
291
     1
 70
    58
 90
        2
176
     1
 90
        1
176
     1
 90
        1
176
     1
 90
        2
176
     1
 40
0.6
176
     1
 40
30.0
176
     1
 62
     7
420
 16777215
176
     1
 90
        0
176
     1
 90
        0
176
     1
 62
     7
176
     1
 62
   257
176
     1
 90
        1
176
     1
 90
        1
176
     1
 40
1.0
176
     1
 90
        8
176
     1
 62
     7
176
     1
 40
1.0
176
     1
 90
        1
176
     1
 90
        6
176
     1
 90
        2
176
     1
 62
     7
176
     1
 90
        5
176
     1
 90
        0
176
     1
 90
        0
176
     1
290
     0
176
     1
 90
       13
176
     1
 40
0.0
176
     1
 90
        0
176
     1
290
     0
176
     1
290
     1
176
     1
290
     1
176
     1
290
     0
176
     1
290
     0
176
     1
290
     0
176
     1
290
     0
176
     1
290
     0
176
     1
290
     0
176
     1
 90
       50
176
     1
 40
0.0
176
     1
 40
1.0
176
     1
 90
        0
176
     1
 62
    18
420
        0
176
     1
 90
       50
176
     1
 90
        3
176
     1
 62
     5
420
      255
176
     1
290
     0
176
     1
 90
       50
176
     1
 90
       50
176
     1
 90
       50
176
     1
290
     0
176
     1
 90
       50
176
     1
 62
   256
176
     0
 40
1.0
176
     0
 90
        2
176
     1
  1
strokes_ogs.tif
176
     1
290
     0
176
     1
 40
1.0
176
     1
 40
1.0
176
     1
  0
VISUALSTYLE
  5
2C
102
{ACAD_REACTORS
330
2A
102
}
330
2A
100
AcDbVisualStyle
  2
FlatWithEdges
 70
     1
177
     3
291
     1
 70
    58
 90
        2
176
     1
 90
        1
176
     1
 90
        1
176
     1
 90
        2
176
     1
 40
0.6
176
     1
 40
30.0
176
     1
 62
     7
420
 16777215
176
     1
 90
        1
176
     1
 90
        0
176
     1
 62
     7
176
     1
 62
   257
176
     1
 90
        1
176
     1
 90
        1
176
     1
 40
1.0
176
     1
 90
        0
176
     1
 62
   257
176
     1
 40
1.0
176
     1
 90
        1
176
     1
 90
        6
176
     1
 90
        2
176
     1
 62
     7
176
     1
 90
        5
176
     1
 90
        0
176
     1
 90
        0
176
     1
290
     0
176
     1
 90
       13
176
     1
 40
0.0
176
     1
 90
        0
176
     1
290
     0
176
     1
290
     1
176
     1
290
     1
176
     1
290
     0
176
     1
290
     0
176
     1
290
     0
176
     1
290
     0
176
     1
290
     0
176
     1
290
     0
176
     1
 90
       50
176
     1
 40
0.0
176
     1
 40
1.0
176
     1
 90
        0
176
     1
 62
    18
420
        0
176
     1
 90
       50
176
     1
 90
        3
176
     1
 62
     5
420
      255
176
     1
290
     0
176
     1
 90
       50
176
     1
 90
       50
176
     1
 90
       50
176
     1
290
     0
176
     1
 90
       50
176
     1
 62
   256
176
     0
 40
1.0
176
     0
 90
        2
176
     1
  1
strokes_ogs.tif
176
     1
290
     0
176
     1
 40
1.0
176
     1
 40
1.0
176
     1
  0
VISUALSTYLE
  5
2D
102
{ACAD_REACTORS
330
2A
102
}
330
2A
100
AcDbVisualStyle
  2
Gouraud
 70
     2
177
     3
291
     1
 70
    58
 90
        2
176
     1
 90
        2
176
     1
 90
        1
176
     1
 90
        2
176
     1
 40
0.6
176
     1
 40
30.0
176
     1
 62
     7
420
 16777215
176
     1
 90
        0
176
     1
 90
        0
176
     1
 62
     7
176
     1
 62
   257
176
     1
 90
        1
176
     1
 90
        1
176
     1
 40
1.0
176
     1
 90
        0
176
     1
 62
     7
176
     1
 40
1.0
176
     1
 90
        1
176
     1
 90
        6
176
     1
 90
        2
176
     1
 62
     7
176
     1
 90
        5
176
     1
 90
        0
176
     1
 90
        0
176
     1
290
     0
176
     1
 90
       13
176
     1
 40
0.0
176
     1
 90
        0
176
     1
290
     0
176
     1
290
     1
176
     1
290
     1
176
     1
290
     0
176
     1
290
     0
176
     1
290
     0
176
     1
290
     0
176
     1
290
     0
176
     1
290
     0
176
     1
 90
       50
176
     1
 40
0.0
176
     1
 40
1.0
176
     1
 90
        0
176
     1
 62
    18
420
        0
176
     1
 90
       50
176
     1
 90
        3
176
     1
 62
     5
420
      255
176
     1
290
     0
176
     1
 90
       50
176
     1
 90
       50
176
     1
 90
       50
176
     1
290
     0
176
     1
 90
       50
176
     1
 62
   256
176
     0
 40
1.0
176
     0
 90
        2
176
     1
  1
strokes_ogs.tif
176
     1
290
     0
176
     1
 40
1.0
176
     1
 40
1.0
176
     1
  0
VISUALSTYLE
  5
2E
102
{ACAD_REACTORS
330
2A
102
}
330
2A
100
AcDbVisualStyle
  2
GouraudWithEdges
 70
     3
177
     3
291
     1
 70
    58
 90
        2
176
     1
 90
        2
176
     1
 90
        1
176
     1
 90
        2
176
     1
 40
0.6
176
     1
 40
30.0
176
     1
 62
     7
420
 16777215
176
     1
 90
        1
176
     1
 90
        0
176
     1
 62
     7
176
     1
 62
   257
176
     1
 90
        1
176
     1
 90
        1
176
     1
 40
1.0
176
     1
 90
        0
176
     1
 62
   257
176
     1
 40
1.0
176
     1
 90
        1
176
     1
 90
        6
176
     1
 90
        2
176
     1
 62
     7
176
     1
 90
        5
176
     1
 90
        0
176
     1
 90
        0
176
     1
290
     0
176
     1
 90
       13
176
     1
 40
0.0
176
     1
 90
        0
176
     1
290
     0
176
     1
290
     1
176
     1
290
     1
176
     1
290
     0
176
     1
290
     0
176
     1
290
     0
176
     1
290
     0
176
     1
290
     0
176
     1
290
     0
176
     1
 90
       50
176
     1
 40
0.0
176
     1
 40
1.0
176
     1
 90
        0
176
     1
 62
    18
420
        0
176
     1
 90
       50
176
     1
 90
        3
176
     1
 62
     5
420
      255
176
     1
290
     0
176
     1
 90
       50
176
     1
 90
       50
176
     1
 90
       50
176
     1
290
     0
176
     1
 90
       50
176
     1
 62
   256
176
     0
 40
1.0
176
     0
 90
        2
176
     1
  1
strokes_ogs.tif
176
     1
290
     0
176
     1
 40
1.0
176
     1
 40
1.0
176
     1
  0
VISUALSTYLE
  5
31
102
{ACAD_REACTORS
330
2A
102
}
330
2A
100
AcDbVisualStyle
  2
Hidden
 70
     6
177
     3
291
     0
 70
    58
 90
        1
176
     1
 90
        2
176
     1
 90
        2
176
     1
 90
        0
176
     1
 40
0.6
176
     1
 40
30.0
176
     1
 62
     7
420
 16777215
176
     1
 90
        2
176
     1
 90
        2
176
     1
 62
     7
176
     1
 62
   257
176
     1
 90
        2
176
     1
 90
        1
176
     1
 40
40.0
176
     1
 90
        0
176
     1
 62
   257
176
     1
 40
1.0
176
     1
 90
        1
176
     1
 90
        6
176
     1
 90
        2
176
     1
 62
     7
176
     1
 90
        3
176
     1
 90
        0
176
     1
 90
        0
176
     1
290
     0
176
     1
 90
        1
176
     1
 40
0.0
176
     1
 90
        0
176
     1
290
     0
176
     1
290
     1
176
     1
290
     1
176
     1
290
     0
176
     1
290
     0
176
     1
290
     0
176
     1
290
     0
176
     1
290
     0
176
     1
290
     0
176
     1
 90
       50
176
     1
 40
0.0
176
     1
 40
1.0
176
     1
 90
        0
176
     1
 62
    18
420
        0
176
     1
 90
       50
176
     1
 90
        3
176
     1
 62
     5
420
      255
176
     1
290
     0
176
     1
 90
       50
176
     1
 90
       50
176
     1
 90
       50
176
     1
290
     0
176
     1
 90
       50
176
     1
 62
   256
176
     0
 40
1.0
176
     0
 90
        2
176
     1
  1
strokes_ogs.tif
176
     1
290
     0
176
     1
 40
1.0
176
     1
 40
1.0
176
     1
  0
VISUALSTYLE
  5
3B
102
{ACAD_REACTORS
330
2A
102
}
330
2A
100
AcDbVisualStyle
  2
JitterOff
 70
    20
177
     3
291
     1
 70
    58
 90
        2
176
     0
 90
        2
176
     0
 90
        0
176
     0
 90
        0
176
     0
 40
0.6
176
     0
 40
30.0
176
     0
 62
     7
420
 16777215
176
     0
 90
        1
176
     0
 90
        4
176
     0
 62
     7
176
     0
 62
   257
176
     0
 90
        1
176
     0
 90
        1
176
     0
 40
1.0
176
     0
 90
       10
176
     2
 62
     7
176
     0
 40
1.0
176
     0
 90
        1
176
     0
 90
        6
176
     0
 90
        2
176
     0
 62
     7
176
     0
 90
        5
176
     0
 90
        0
176
     0
 90
        0
176
     0
290
     0
176
     0
 90
        1
176
     0
 40
0.0
176
     0
 90
        0
176
     0
290
     0
176
     0
290
     1
176
     0
290
     1
176
     0
290
     0
176
     0
290
     0
176
     0
290
     0
176
     0
290
     0
176
     0
290
     0
176
     0
290
     0
176
     0
 90
       50
176
     0
 40
0.0
176
     0
 40
1.0
176
     0
 90
        0
176
     0
 62
    18
420
        0
176
     0
 90
       50
176
     0
 90
        3
176
     0
 62
     5
420
      255
176
     0
290
     0
176
     0
 90
       50
176
     0
 90
       50
176
     0
 90
       50
176
     0
290
     0
176
     0
 90
       50
176
     0
 62
   256
176
     0
 40
1.0
176
     0
 90
        2
176
     0
  1
strokes_ogs.tif
176
     0
290
     0
176
     0
 40
1.0
176
     0
 40
1.0
176
     0
  0
VISUALSTYLE
  5
38
102
{ACAD_REACTORS
330
2A
102
}
330
2A
100
AcDbVisualStyle
  2
Linepattern
 70
    14
177
     3
291
     1
 70
    58
 90
        2
176
     1
 90
        2
176
     1
 90
        0
176
     1
 90
        0
176
     1
 40
0.6
176
     1
 40
30.0
176
     1
 62
     7
420
 16777215
176
     1
 90
        1
176
     1
 90
        4
176
     1
 62
     7
176
     1
 62
   257
176
     1
 90
        7
176
     1
 90
        7
176
     1
 40
1.0
176
     1
 90
        8
176
     1
 62
     7
176
     1
 40
1.0
176
     1
 90
        1
176
     1
 90
        6
176
     1
 90
        2
176
     1
 62
     7
176
     1
 90
        5
176
     1
 90
        0
176
     1
 90
        0
176
     1
290
     0
176
     1
 90
        1
176
     1
 40
0.0
176
     1
 90
        0
176
     1
290
     0
176
     1
290
     1
176
     1
290
     1
176
     1
290
     0
176
     1
290
     0
176
     1
290
     0
176
     1
290
     0
176
     1
290
     0
176
     1
290
     0
176
     1
 90
       50
176
     1
 40
0.0
176
     1
 40
1.0
176
     1
 90
        0
176
     1
 62
    18
420
        0
176
     1
 90
       50
176
     1
 90
        3
176
     1
 62
     5
420
      255
176
     1
290
     0
176
     1
 90
       50
176
     1
 90
       50
176
     1
 90
       50
176
     1
290
     0
176
     1
 90
       50
176
     1
 62
   256
176
     0
 40
1.0
176
     0
 90
        2
176
     1
  1
strokes_ogs.tif
176
     1
290
     0
176
     1
 40
1.0
176
     1
 40
1.0
176
     1
  0
VISUALSTYLE
  5
3C
102
{ACAD_REACTORS
330
2A
102
}
330
2A
100
AcDbVisualStyle
  2
OverhangOff
 70
    21
177
     3
291
     1
 70
    58
 90
        2
176
     0
 90
        2
176
     0
 90
        0
176
     0
 90
        0
176
     0
 40
0.6
176
     0
 40
30.0
176
     0
 62
     7
420
 16777215
176
     0
 90
        1
176
     0
 90
        4
176
     0
 62
     7
176
     0
 62
   257
176
     0
 90
        1
176
     0
 90
        1
176
     0
 40
1.0
176
     0
 90
        9
176
     2
 62
     7
176
     0
 40
1.0
176
     0
 90
        1
176
     0
 90
        6
176
     0
 90
        2
176
     0
 62
     7
176
     0
 90
        5
176
     0
 90
        0
176
     0
 90
        0
176
     0
290
     0
176
     0
 90
        1
176
     0
 40
0.0
176
     0
 90
        0
176
     0
290
     0
176
     0
290
     1
176
     0
290
     1
176
     0
290
     0
176
     0
290
     0
176
     0
290
     0
176
     0
290
     0
176
     0
290
     0
176
     0
290
     0
176
     0
 90
       50
176
     0
 40
0.0
176
     0
 40
1.0
176
     0
 90
        0
176
     0
 62
    18
420
        0
176
     0
 90
       50
176
     0
 90
        3
176
     0
 62
     5
420
      255
176
     0
290
     0
176
     0
 90
       50
176
     0
 90
       50
176
     0
 90
       50
176
     0
290
     0
176
     0
 90
       50
176
     0
 62
   256
176
     0
 40
1.0
176
     0
 90
        2
176
     0
  1
strokes_ogs.tif
176
     0
290
     0
176
     0
 40
1.0
176
     0
 40
1.0
176
     0
  0
VISUALSTYLE
  5
33
102
{ACAD_REACTORS
330
2A
102
}
330
2A
100
AcDbVisualStyle
  2
Realistic
 70
     8
177
     3
291
     0
 70
    58
 90
        2
176
     1
 90
        3
176
     1
 90
        0
176
     1
 90
        2
176
     1
 40
0.6
176
     1
 40
30.0
176
     1
 62
     7
420
 16777215
176
     1
 90
        0
176
     1
 90
        0
176
     1
 62
     7
176
     1
 62
   257
176
     1
 90
        1
176
     1
 90
        1
176
     1
 40
1.0
176
     1
 90
        8
176
     1
 62
   257
176
     1
 40
1.0
176
     1
 90
        1
176
     1
 90
        6
176
     1
 90
        2
176
     1
 62
     7
176
     1
 90
        3
176
     1
 90
        0
176
     1
 90
        0
176
     1
290
     0
176
     1
 90
       13
176
     1
 40
0.0
176
     1
 90
        0
176
     1
290
     0
176
     1
290
     1
176
     1
290
     1
176
     1
290
     0
176
     1
290
     0
176
     1
290
     0
176
     1
290
     0
176
     1
290
     0
176
     1
290
     0
176
     1
 90
       50
176
     1
 40
0.0
176
     1
 40
1.0
176
     1
 90
        0
176
     1
 62
    18
420
        0
176
     1
 90
       50
176
     1
 90
        3
176
     1
 62
     5
420
      255
176
     1
290
     0
176
     1
 90
       50
176
     1
 90
       50
176
     1
 90
       50
176
     1
290
     0
176
     1
 90
       50
176
     1
 62
   256
176
     0
 40
1.0
176
     0
 90
        2
176
     1
  1
strokes_ogs.tif
176
     1
290
     0
176
     1
 40
1.0
176
     1
 40
1.0
176
     1
  0
VISUALSTYLE
  5
42
102
{ACAD_REACTORS
330
2A
102
}
330
2A
100
AcDbVisualStyle
  2
Shaded
 70
    27
177
     3
291
     0
 70
    58
 90
        2
176
     1
 90
        2
176
     1
 90
        1
176
     1
 90
        2
176
     1
 40
0.6
176
     1
 40
30.0
176
     1
 62
     7
420
 16777215
176
     1
 90
        0
176
     1
 90
        4
176
     1
 62
     7
176
     1
 62
   257
176
     1
 90
        1
176
     1
 90
        1
176
     1
 40
1.0
176
     1
 90
        8
176
     1
 62
   257
176
     1
 40
1.0
176
     1
 90
        1
176
     1
 90
        6
176
     1
 90
        2
176
     1
 62
     8
420
  7895160
176
     1
 90
        3
176
     1
 90
        0
176
     1
 90
        0
176
     1
290
     0
176
     1
 90
        5
176
     1
 40
0.0
176
     1
 90
        0
176
     1
290
     0
176
     1
290
     1
176
     1
290
     1
176
     1
290
     0
176
     1
290
     0
176
     1
290
     0
176
     1
290
     0
176
     1
290
     0
176
     1
290
     0
176
     1
 90
       50
176
     1
 40
0.0
176
     1
 40
1.0
176
     1
 90
        0
176
     1
 62
    18
420
        0
176
     1
 90
       50
176
     1
 90
        3
176
     1
 62
     5
420
      255
176
     1
290
     0
176
     1
 90
       50
176
     1
 90
       50
176
     1
 90
       50
176
     1
290
     0
176
     1
 90
       50
176
     1
 62
   256
176
     0
 40
1.0
176
     0
 90
        2
176
     1
  1
strokes_ogs.tif
176
     1
290
     0
176
     1
 40
1.0
176
     1
 40
1.0
176
     1
  0
VISUALSTYLE
  5
41
102
{ACAD_REACTORS
330
2A
102
}
330
2A
100
AcDbVisualStyle
  2
Shaded with edges
 70
    26
177
     3
291
     0
 70
    58
 90
        2
176
     1
 90
        2
176
     1
 90
        1
176
     1
 90
        2
176
     1
 40
0.6
176
     1
 40
30.0
176
     1
 62
     7
420
 16777215
176
     1
 90
        1
176
     1
 90
       10
176
     1
 62
     7
176
     1
 62
   257
176
     1
 90
        2
176
     1
 90
        1
176
     1
 40
1.0
176
     1
 90
        8
176
     1
 62
   257
176
     1
 40
1.0
176
     1
 90
        1
176
     1
 90
        6
176
     1
 90
        2
176
     1
 62
     7
176
     1
 90
        3
176
     1
 90
        0
176
     1
 90
        0
176
     1
290
     0
176
     1
 90
        5
176
     1
 40
0.0
176
     1
 90
        0
176
     1
290
     0
176
     1
290
     1
176
     1
290
     1
176
     1
290
     0
176
     1
290
     0
176
     1
290
     0
176
     1
290
     0
176
     1
290
     0
176
     1
290
     0
176
     1
 90
       50
176
     1
 40
0.0
176
     1
 40
1.0
176
     1
 90
        0
176
     1
 62
    18
420
        0
176
     1
 90
       50
176
     1
 90
        3
176
     1
 62
     5
420
      255
176
     1
290
     0
176
     1
 90
       50
176
     1
 90
       50
176
     1
 90
       50
176
     1
290
     0
176
     1
 90
       50
176
     1
 62
   256
176
     0
 40
1.0
176
     0
 90
        2
176
     1
  1
strokes_ogs.tif
176
     1
290
     0
176
     1
 40
1.0
176
     1
 40
1.0
176
     1
  0
VISUALSTYLE
  5
3E
102
{ACAD_REACTORS
330
2A
102
}
330
2A
100
AcDbVisualStyle
  2
Shades of Gray
 70
    23
177
     3
291
     0
 70
    58
 90
        2
176
     1
 90
        2
176
     1
 90
        3
176
     1
 90
        0
176
     1
 40
0.6
176
     1
 40
30.0
176
     1
 62
     7
420
 16777215
176
     1
 90
        2
176
     1
 90
        2
176
     1
 62
     7
176
     1
 62
     7
176
     1
 90
        1
176
     1
 90
        1
176
     1
 40
40.0
176
     1
 90
        8
176
     1
 62
     7
176
     1
 40
1.0
176
     1
 90
        1
176
     1
 90
        6
176
     1
 90
        2
176
     1
 62
     7
176
     1
 90
        3
176
     1
 90
        0
176
     1
 90
        0
176
     1
290
     0
176
     1
 90
        1
176
     1
 40
0.0
176
     1
 90
        0
176
     1
290
     0
176
     1
290
     1
176
     1
290
     1
176
     1
290
     0
176
     1
290
     0
176
     1
290
     0
176
     1
290
     0
176
     1
290
     0
176
     1
290
     0
176
     1
 90
       50
176
     1
 40
0.0
176
     1
 40
1.0
176
     1
 90
        0
176
     1
 62
    18
420
        0
176
     1
 90
       50
176
     1
 90
        3
176
     1
 62
     5
420
      255
176
     1
290
     0
176
     1
 90
       50
176
     1
 90
       50
176
     1
 90
       50
176
     1
290
     0
176
     1
 90
       50
176
     1
 62
   256
176
     0
 40
1.0
176
     0
 90
        2
176
     1
  1
strokes_ogs.tif
176
     1
290
     0
176
     1
 40
1.0
176
     1
 40
1.0
176
     1
  0
VISUALSTYLE
  5
3F
102
{ACAD_REACTORS
330
2A
102
}
330
2A
100
AcDbVisualStyle
  2
Sketchy
 70
    24
177
     3
291
     0
 70
    58
 90
        1
176
     1
 90
        2
176
     1
 90
        2
176
     1
 90
        0
176
     1
 40
0.6
176
     1
 40
30.0
176
     1
 62
     7
420
 16777215
176
     1
 90
        2
176
     1
 90
        2
176
     1
 62
     7
176
     1
 62
     7
176
     1
 90
        1
176
     1
 90
        1
176
     1
 40
40.0
176
     1
 90
       11
176
     1
 62
     7
176
     1
 40
1.0
176
     1
 90
        1
176
     1
 90
        6
176
     1
 90
        2
176
     1
 62
     7
176
     1
 90
        6
176
     1
 90
        0
176
     1
 90
        0
176
     1
290
     0
176
     1
 90
        1
176
     1
 40
0.0
176
     1
 90
        0
176
     1
290
     0
176
     1
290
     1
176
     1
290
     1
176
     1
290
     0
176
     1
290
     0
176
     1
290
     0
176
     1
290
     0
176
     1
290
     0
176
     1
290
     0
176
     1
 90
       50
176
     1
 40
0.0
176
     1
 40
1.0
176
     1
 90
        0
176
     1
 62
    18
420
        0
176
     1
 90
       50
176
     1
 90
        3
176
     1
 62
     5
420
      255
176
     1
290
     0
176
     1
 90
       50
176
     1
 90
       50
176
     1
 90
       50
176
     1
290
     0
176
     1
 90
       50
176
     1
 62
   256
176
     0
 40
1.0
176
     0
 90
        2
176
     1
  1
strokes_ogs.tif
176
     1
290
     0
176
     1
 40
1.0
176
     1
 40
1.0
176
     1
  0
VISUALSTYLE
  5
37
102
{ACAD_REACTORS
330
2A
102
}
330
2A
100
AcDbVisualStyle
  2
Thicken
 70
    13
177
     3
291
     1
 70
    58
 90
        2
176
     1
 90
        2
176
     1
 90
        0
176
     1
 90
        0
176
     1
 40
0.6
176
     1
 40
30.0
176
     1
 62
     7
420
 16777215
176
     1
 90
        1
176
     1
 90
        4
176
     1
 62
     7
176
     1
 62
   257
176
     1
 90
        1
176
     1
 90
        1
176
     1
 40
1.0
176
     1
 90
       12
176
     1
 62
     7
176
     1
 40
1.0
176
     1
 90
        1
176
     1
 90
        6
176
     1
 90
        2
176
     1
 62
     7
176
     1
 90
        5
176
     1
 90
        0
176
     1
 90
        0
176
     1
290
     0
176
     1
 90
        1
176
     1
 40
0.0
176
     1
 90
        0
176
     1
290
     0
176
     1
290
     1
176
     1
290
     1
176
     1
290
     0
176
     1
290
     0
176
     1
290
     0
176
     1
290
     0
176
     1
290
     0
176
     1
290
     0
176
     1
 90
       50
176
     1
 40
0.0
176
     1
 40
1.0
176
     1
 90
        0
176
     1
 62
    18
420
        0
176
     1
 90
       50
176
     1
 90
        3
176
     1
 62
     5
420
      255
176
     1
290
     0
176
     1
 90
       50
176
     1
 90
       50
176
     1
 90
       50
176
     1
290
     0
176
     1
 90
       50
176
     1
 62
   256
176
     0
 40
1.0
176
     0
 90
        2
176
     1
  1
strokes_ogs.tif
176
     1
290
     0
176
     1
 40
1.0
176
     1
 40
1.0
176
     1
  0
VISUALSTYLE
  5
30
102
{ACAD_REACTORS
330
2A
102
}
330
2A
100
AcDbVisualStyle
  2
Wireframe
 70
     5
177
     3
291
     0
 70
    58
 90
        0
176
     1
 90
        2
176
     1
 90
        0
176
     1
 90
        0
176
     1
 40
0.6
176
     1
 40
30.0
176
     1
 62
     7
420
 16777215
176
     1
 90
        1
176
     1
 90
        4
176
     1
 62
     7
176
     1
 62
   257
176
     1
 90
        1
176
     1
 90
        1
176
     1
 40
1.0
176
     1
 90
        0
176
     1
 62
   257
176
     1
 40
1.0
176
     1
 90
        1
176
     1
 90
        6
176
     1
 90
        2
176
     1
 62
     7
176
     1
 90
        3
176
     1
 90
        0
176
     1
 90
        0
176
     1
290
     0
176
     1
 90
        1
176
     1
 40
0.0
176
     1
 90
        0
176
     1
290
     0
176
     1
290
     1
176
     1
290
     1
176
     1
290
     0
176
     1
290
     0
176
     1
290
     0
176
     1
290
     0
176
     1
290
     0
176
     1
290
     0
176
     1
 90
       50
176
     1
 40
0.0
176
     1
 40
1.0
176
     1
 90
        0
176
     1
 62
    18
420
        0
176
     1
 90
       50
176
     1
 90
        3
176
     1
 62
     5
420
      255
176
     1
290
     0
176
     1
 90
       50
176
     1
 90
       50
176
     1
 90
       50
176
     1
290
     0
176
     1
 90
       50
176
     1
 62
   256
176
     0
 40
1.0
176
     0
 90
        2
176
     1
  1
strokes_ogs.tif
176
     1
290
     0
176
     1
 40
1.0
176
     1
 40
1.0
176
     1
  0
VISUALSTYLE
  5
40
102
{ACAD_REACTORS
330
2A
102
}
330
2A
100
AcDbVisualStyle
  2
X-Ray
 70
    25
177
     3
291
     0
 70
    58
 90
        2
176
     1
 90
        2
176
     1
 90
        1
176
     1
 90
        1
176
     1
 40
0.5
176
     1
 40
30.0
176
     1
 62
     7
420
 16777215
176
     1
 90
        1
176
     1
 90
        0
176
     1
 62
     7
176
     1
 62
   257
176
     1
 90
        1
176
     1
 90
        1
176
     1
 40
1.0
176
     1
 90
        8
176
     1
 62
     7
176
     1
 40
1.0
176
     1
 90
        1
176
     1
 90
        6
176
     1
 90
        2
176
     1
 62
     7
176
     1
 90
        3
176
     1
 90
        0
176
     1
 90
        0
176
     1
290
     0
176
     1
 90
       13
176
     1
 40
0.0
176
     1
 90
        0
176
     1
290
     0
176
     1
290
     1
176
     1
290
     1
176
     1
290
     0
176
     1
290
     0
176
     1
290
     0
176
     1
290
     0
176
     1
290
     0
176
     1
290
     0
176
     1
 90
       50
176
     1
 40
0.0
176
     1
 40
1.0
176
     1
 90
        0
176
     1
 62
    18
420
        0
176
     1
 90
       50
176
     1
 90
        3
176
     1
 62
     5
420
      255
176
     1
290
     0
176
     1
 90
       50
176
     1
 90
       50
176
     1
 90
       50
176
     1
290
     0
176
     1
 90
       50
176
     1
 62
   256
176
     0
 40
1.0
176
     0
 90
        2
176
     1
  1
strokes_ogs.tif
176
     1
290
     0
176
     1
 40
1.0
176
     1
 40
1.0
176
     1
  0
DICTIONARYVAR
  5
249
102
{ACAD_REACTORS
330
248
102
}
330
248
100
DictionaryVariables
280
     0
  1
1:1
  0
DICTIONARYVAR
  5
24E
102
{ACAD_REACTORS
330
248
102
}
330
248
100
DictionaryVariables
280
     0
  1
Standard
  0
DICTIONARYVAR
  5
24D
102
{ACAD_REACTORS
330
248
102
}
330
248
100
DictionaryVariables
280
     0
  1
Standard
  0
DICTIONARY
  5
24A
330
6A
100
AcDbDictionary
280
     1
281
     1
  3
ACAD_ROUNDTRIP_2008_TABLESTYLE_CELLSTYLEMAP
360
24B
  0
CELLSTYLEMAP
  5
24B
102
{ACAD_REACTORS
330
24A
102
}
330
24A
100
AcDbCellStyleMap
 90
        3
300
CELLSTYLE
  1
TABLEFORMAT_BEGIN
 90
        5
170
     1
 91
        0
 92
    32768
 62
   257
 93
        1
300
CONTENTFORMAT
  1
CONTENTFORMAT_BEGIN
 90
        0
 91
        0
 92
        4
 93
        0
300

 40
0.0
140
1.0
 94
        5
 62
     0
340
11
144
0.25
309
CONTENTFORMAT_END
171
     1
301
MARGIN
  1
CELLMARGIN_BEGIN
 40
0.06
 40
0.06
 40
0.06
 40
0.06
 40
0.06
 40
0.06
309
CELLMARGIN_END
 94
        6
 95
        1
302
GRIDFORMAT
  1
GRIDFORMAT_BEGIN
 90
        0
 91
        1
 62
     0
 92
       -2
340
14
 93
        0
 40
0.045
309
GRIDFORMAT_END
 95
        2
302
GRIDFORMAT
  1
GRIDFORMAT_BEGIN
 90
        0
 91
        1
 62
     0
 92
       -2
340
14
 93
        0
 40
0.045
309
GRIDFORMAT_END
 95
        4
302
GRIDFORMAT
  1
GRIDFORMAT_BEGIN
 90
        0
 91
        1
 62
     0
 92
       -2
340
14
 93
        0
 40
0.045
309
GRIDFORMAT_END
 95
        8
302
GRIDFORMAT
  1
GRIDFORMAT_BEGIN
 90
        0
 91
        1
 62
     0
 92
       -2
340
14
 93
        0
 40
0.045
309
GRIDFORMAT_END
 95
       16
302
GRIDFORMAT
  1
GRIDFORMAT_BEGIN
 90
        0
 91
        1
 62
     0
 92
       -2
340
14
 93
        0
 40
0.045
309
GRIDFORMAT_END
 95
       32
302
GRIDFORMAT
  1
GRIDFORMAT_BEGIN
 90
        0
 91
        1
 62
     0
 92
       -2
340
14
 93
        0
 40
0.045
309
GRIDFORMAT_END
309
TABLEFORMAT_END
  1
CELLSTYLE_BEGIN
 90
        1
 91
        1
300
_TITLE
309
CELLSTYLE_END
300
CELLSTYLE
  1
TABLEFORMAT_BEGIN
 90
        5
170
     1
 91
        0
 92
        0
 62
   257
 93
        1
300
CONTENTFORMAT
  1
CONTENTFORMAT_BEGIN
 90
        0
 91
        0
 92
        4
 93
        0
300

 40
0.0
140
1.0
 94
        5
 62
     0
340
11
144
0.18
309
CONTENTFORMAT_END
171
     1
301
MARGIN
  1
CELLMARGIN_BEGIN
 40
0.06
 40
0.06
 40
0.06
 40
0.06
 40
0.06
 40
0.06
309
CELLMARGIN_END
 94
        6
 95
        1
302
GRIDFORMAT
  1
GRIDFORMAT_BEGIN
 90
        0
 91
        1
 62
     0
 92
       -2
340
14
 93
        0
 40
0.045
309
GRIDFORMAT_END
 95
        2
302
GRIDFORMAT
  1
GRIDFORMAT_BEGIN
 90
        0
 91
        1
 62
     0
 92
       -2
340
14
 93
        0
 40
0.045
309
GRIDFORMAT_END
 95
        4
302
GRIDFORMAT
  1
GRIDFORMAT_BEGIN
 90
        0
 91
        1
 62
     0
 92
       -2
340
14
 93
        0
 40
0.045
309
GRIDFORMAT_END
 95
        8
302
GRIDFORMAT
  1
GRIDFORMAT_BEGIN
 90
        0
 91
        1
 62
     0
 92
       -2
340
14
 93
        0
 40
0.045
309
GRIDFORMAT_END
 95
       16
302
GRIDFORMAT
  1
GRIDFORMAT_BEGIN
 90
        0
 91
        1
 62
     0
 92
       -2
340
14
 93
        0
 40
0.045
309
GRIDFORMAT_END
 95
       32
302
GRIDFORMAT
  1
GRIDFORMAT_BEGIN
 90
        0
 91
        1
 62
     0
 92
       -2
340
14
 93
        0
 40
0.045
309
GRIDFORMAT_END
309
TABLEFORMAT_END
  1
CELLSTYLE_BEGIN
 90
        2
 91
        1
300
_HEADER
309
CELLSTYLE_END
300
CELLSTYLE
  1
TABLEFORMAT_BEGIN
 90
        5
170
     1
 91
        0
 92
        0
 62
   257
 93
        1
300
CONTENTFORMAT
  1
CONTENTFORMAT_BEGIN
 90
        0
 91
        0
 92
        4
 93
        0
300

 40
0.0
140
1.0
 94
        2
 62
     0
340
11
144
0.18
309
CONTENTFORMAT_END
171
     1
301
MARGIN
  1
CELLMARGIN_BEGIN
 40
0.06
 40
0.06
 40
0.06
 40
0.06
 40
0.06
 40
0.06
309
CELLMARGIN_END
 94
        6
 95
        1
302
GRIDFORMAT
  1
GRIDFORMAT_BEGIN
 90
        0
 91
        1
 62
     0
 92
       -2
340
14
 93
        0
 40
0.045
309
GRIDFORMAT_END
 95
        2
302
GRIDFORMAT
  1
GRIDFORMAT_BEGIN
 90
        0
 91
        1
 62
     0
 92
       -2
340
14
 93
        0
 40
0.045
309
GRIDFORMAT_END
 95
        4
302
GRIDFORMAT
  1
GRIDFORMAT_BEGIN
 90
        0
 91
        1
 62
     0
 92
       -2
340
14
 93
        0
 40
0.045
309
GRIDFORMAT_END
 95
        8
302
GRIDFORMAT
  1
GRIDFORMAT_BEGIN
 90
        0
 91
        1
 62
     0
 92
       -2
340
14
 93
        0
 40
0.045
309
GRIDFORMAT_END
 95
       16
302
GRIDFORMAT
  1
GRIDFORMAT_BEGIN
 90
        0
 91
        1
 62
     0
 92
       -2
340
14
 93
        0
 40
0.045
309
GRIDFORMAT_END
 95
       32
302
GRIDFORMAT
  1
GRIDFORMAT_BEGIN
 90
        0
 91
        1
 62
     0
 92
       -2
340
14
 93
        0
 40
0.045
309
GRIDFORMAT_END
309
TABLEFORMAT_END
  1
CELLSTYLE_BEGIN
 90
        3
 91
        2
300
_DATA
309
CELLSTYLE_END
  0
ENDSEC
  0
EOF