0
SECTION
  2
HEADER
  9
$ACADVER
  1
AC1027
  9
$ACADMAINTVER
 70
     8
  9
$DWGCODEPAGE
  3
ANSI_1252
  9
$REQUIREDVERSIONS
160
                 0
  9
$COMMENTS
  1
File was created by Cadenas
  9
$CUSTOMPROPERTYTAG
  1
NN
  9
$CUSTOMPROPERTY
  1
Imperial - IP Wide Slot Take-Up
  9
$CUSTOMPROPERTYTAG
  1
NT
  9
$CUSTOMPROPERTY
  1
Imperial Wide Slot Take-Up Bearings
  9
$CUSTOMPROPERTYTAG
  1
NB
  9
$CUSTOMPROPERTY
  1
069381
  9
$CUSTOMPROPERTYTAG
  1
NBSYN
  9
$CUSTOMPROPERTY
  1
$PN.
  9
$CUSTOMPROPERTYTAG
  1
LINA
  9
$CUSTOMPROPERTY
  1
069381
  9
$CUSTOMPROPERTYTAG
  1
SS
  9
$CUSTOMPROPERTY
  1
2-1/4
  9
$CUSTOMPROPERTYTAG
  1
PN
  9
$CUSTOMPROPERTY
  1
069381
  9
$CUSTOMPROPERTYTAG
  1
DESCRIPTION
  9
$CUSTOMPROPERTY
  1
WSTU-IP-204RE
  9
$CUSTOMPROPERTYTAG
  1
EF
  9
$CUSTOMPROPERTY
  1
Expansion
  9
$CUSTOMPROPERTYTAG
  1
ST
  9
$CUSTOMPROPERTY
  1
Contact Seal
  9
$CUSTOMPROPERTYTAG
  1
A
  9
$CUSTOMPROPERTY
  1
3-1/32
  9
$CUSTOMPROPERTYTAG
  1
B
  9
$CUSTOMPROPERTY
  1
7-1/16
  9
$CUSTOMPROPERTYTAG
  1
C
  9
$CUSTOMPROPERTY
  1
13/16
  9
$CUSTOMPROPERTYTAG
  1
D
  9
$CUSTOMPROPERTY
  1
3-5/8
  9
$CUSTOMPROPERTYTAG
  1
E
  9
$CUSTOMPROPERTY
  1
4-5/8
  9
$CUSTOMPROPERTYTAG
  1
F
  9
$CUSTOMPROPERTY
  1
1-3/8
  9
$CUSTOMPROPERTYTAG
  1
G
  9
$CUSTOMPROPERTY
  1
15/16
  9
$CUSTOMPROPERTYTAG
  1
H
  9
$CUSTOMPROPERTY
  1
1-1/4
  9
$CUSTOMPROPERTYTAG
  1
J
  9
$CUSTOMPROPERTY
  1
3-7/8
  9
$CUSTOMPROPERTYTAG
  1
K
  9
$CUSTOMPROPERTY
  1
2-1/4
  9
$CUSTOMPROPERTYTAG
  1
L
  9
$CUSTOMPROPERTY
  1
3-1/2
  9
$CUSTOMPROPERTYTAG
  1
M
  9
$CUSTOMPROPERTY
  1
4-1/2
  9
$CUSTOMPROPERTYTAG
  1
N
  9
$CUSTOMPROPERTY
  1
5-1/4
  9
$CUSTOMPROPERTYTAG
  1
R
  9
$CUSTOMPROPERTY
  1
3-3/16
  9
$CUSTOMPROPERTYTAG
  1
S
  9
$CUSTOMPROPERTY
  1
2-7/64
  9
$CUSTOMPROPERTYTAG
  1
T
  9
$CUSTOMPROPERTY
  1
2-7/32
  9
$CUSTOMPROPERTYTAG
  1
X
  9
$CUSTOMPROPERTY
  1
1/4
  9
$CUSTOMPROPERTYTAG
  1
Y
  9
$CUSTOMPROPERTY
  1
0.025
  9
$CUSTOMPROPERTYTAG
  1
Z
  9
$CUSTOMPROPERTY
  1
2-19/32
  9
$CUSTOMPROPERTYTAG
  1
COMPANY
  9
$CUSTOMPROPERTY
  1
baldor
  9
$INSBASE
 10
0.0
 20
0.0
 30
0.0
  9
$EXTMIN
 10
1.000000000000000E+20
 20
1.000000000000000E+20
 30
1.000000000000000E+20
  9
$EXTMAX
 10
-1.000000000000000E+20
 20
-1.000000000000000E+20
 30
-1.000000000000000E+20
  9
$LIMMIN
 10
0.0
 20
0.0
  9
$LIMMAX
 10
12.0
 20
9.0
  9
$ORTHOMODE
 70
     0
  9
$REGENMODE
 70
     1
  9
$FILLMODE
 70
     1
  9
$QTEXTMODE
 70
     0
  9
$MIRRTEXT
 70
     1
  9
$LTSCALE
 40
1.0
  9
$ATTMODE
 70
     1
  9
$TEXTSIZE
 40
0.2
  9
$TRACEWID
 40
0.05
  9
$TEXTSTYLE
  7
Standard
  9
$CLAYER
  8
0
  9
$CELTYPE
  6
ByLayer
  9
$CECOLOR
 62
   256
  9
$CELTSCALE
 40
1.0
  9
$DISPSILH
 70
     0
  9
$DIMSCALE
 40
1.0
  9
$DIMASZ
 40
0.18
  9
$DIMEXO
 40
0.0625
  9
$DIMDLI
 40
0.38
  9
$DIMRND
 40
0.0
  9
$DIMDLE
 40
0.0
  9
$DIMEXE
 40
0.18
  9
$DIMTP
 40
0.0
  9
$DIMTM
 40
0.0
  9
$DIMTXT
 40
0.18
  9
$DIMCEN
 40
0.09
  9
$DIMTSZ
 40
0.0
  9
$DIMTOL
 70
     0
  9
$DIMLIM
 70
     0
  9
$DIMTIH
 70
     1
  9
$DIMTOH
 70
     1
  9
$DIMSE1
 70
     0
  9
$DIMSE2
 70
     0
  9
$DIMTAD
 70
     0
  9
$DIMZIN
 70
     0
  9
$DIMBLK
  1

  9
$DIMASO
 70
     1
  9
$DIMSHO
 70
     1
  9
$DIMPOST
  1

  9
$DIMAPOST
  1

  9
$DIMALT
 70
     0
  9
$DIMALTD
 70
     2
  9
$DIMALTF
 40
25.4
  9
$DIMLFAC
 40
1.0
  9
$DIMTOFL
 70
     0
  9
$DIMTVP
 40
0.0
  9
$DIMTIX
 70
     0
  9
$DIMSOXD
 70
     0
  9
$DIMSAH
 70
     0
  9
$DIMBLK1
  1

  9
$DIMBLK2
  1

  9
$DIMSTYLE
  2
Standard
  9
$DIMCLRD
 70
     0
  9
$DIMCLRE
 70
     0
  9
$DIMCLRT
 70
     0
  9
$DIMTFAC
 40
1.0
  9
$DIMGAP
 40
0.09
  9
$DIMJUST
 70
     0
  9
$DIMSD1
 70
     0
  9
$DIMSD2
 70
     0
  9
$DIMTOLJ
 70
     1
  9
$DIMTZIN
 70
     0
  9
$DIMALTZ
 70
     0
  9
$DIMALTTZ
 70
     0
  9
$DIMUPT
 70
     0
  9
$DIMDEC
 70
     4
  9
$DIMTDEC
 70
     4
  9
$DIMALTU
 70
     2
  9
$DIMALTTD
 70
     2
  9
$DIMTXSTY
  7
Standard
  9
$DIMAUNIT
 70
     0
  9
$DIMADEC
 70
     0
  9
$DIMALTRND
 40
0.0
  9
$DIMAZIN
 70
     0
  9
$DIMDSEP
 70
    46
  9
$DIMATFIT
 70
     3
  9
$DIMFRAC
 70
     0
  9
$DIMLDRBLK
  1

  9
$DIMLUNIT
 70
     2
  9
$DIMLWD
 70
    -2
  9
$DIMLWE
 70
    -2
  9
$DIMTMOVE
 70
     0
  9
$DIMFXL
 40
1.0
  9
$DIMFXLON
 70
     0
  9
$DIMJOGANG
 40
0.7853981633974483
  9
$DIMTFILL
 70
     0
  9
$DIMTFILLCLR
 70
     0
  9
$DIMARCSYM
 70
     0
  9
$DIMLTYPE
  6

  9
$DIMLTEX1
  6

  9
$DIMLTEX2
  6

  9
$DIMTXTDIRECTION
 70
     0
  9
$LUNITS
 70
     2
  9
$LUPREC
 70
     4
  9
$SKETCHINC
 40
0.1
  9
$FILLETRAD
 40
0.5
  9
$AUNITS
 70
     0
  9
$AUPREC
 70
     0
  9
$MENU
  1
.
  9
$ELEVATION
 40
0.0
  9
$PELEVATION
 40
0.0
  9
$THICKNESS
 40
0.0
  9
$LIMCHECK
 70
     0
  9
$CHAMFERA
 40
0.0
  9
$CHAMFERB
 40
0.0
  9
$CHAMFERC
 40
0.0
  9
$CHAMFERD
 40
0.0
  9
$SKPOLY
 70
     0
  9
$TDCREATE
 40
2458168.988042488
  9
$TDUCREATE
 40
2458168.946375822
  9
$TDUPDATE
 40
2458168.988042662
  9
$TDUUPDATE
 40
2458168.946375995
  9
$TDINDWG
 40
0.0000000116
  9
$TDUSRTIMER
 40
0.0000000116
  9
$USRTIMER
 70
     1
  9
$ANGBASE
 50
0.0
  9
$ANGDIR
 70
     0
  9
$PDMODE
 70
     0
  9
$PDSIZE
 40
0.0
  9
$PLINEWID
 40
0.0
  9
$SPLFRAME
 70
     0
  9
$SPLINETYPE
 70
     6
  9
$SPLINESEGS
 70
     8
  9
$HANDSEED
  5
251
  9
$SURFTAB1
 70
     6
  9
$SURFTAB2
 70
     6
  9
$SURFTYPE
 70
     6
  9
$SURFU
 70
     6
  9
$SURFV
 70
     6
  9
$UCSBASE
  2

  9
$UCSNAME
  2

  9
$UCSORG
 10
0.0
 20
0.0
 30
0.0
  9
$UCSXDIR
 10
1.0
 20
0.0
 30
0.0
  9
$UCSYDIR
 10
0.0
 20
1.0
 30
0.0
  9
$UCSORTHOREF
  2

  9
$UCSORTHOVIEW
 70
     0
  9
$UCSORGTOP
 10
0.0
 20
0.0
 30
0.0
  9
$UCSORGBOTTOM
 10
0.0
 20
0.0
 30
0.0
  9
$UCSORGLEFT
 10
0.0
 20
0.0
 30
0.0
  9
$UCSORGRIGHT
 10
0.0
 20
0.0
 30
0.0
  9
$UCSORGFRONT
 10
0.0
 20
0.0
 30
0.0
  9
$UCSORGBACK
 10
0.0
 20
0.0
 30
0.0
  9
$PUCSBASE
  2

  9
$PUCSNAME
  2

  9
$PUCSORG
 10
0.0
 20
0.0
 30
0.0
  9
$PUCSXDIR
 10
1.0
 20
0.0
 30
0.0
  9
$PUCSYDIR
 10
0.0
 20
1.0
 30
0.0
  9
$PUCSORTHOREF
  2

  9
$PUCSORTHOVIEW
 70
     0
  9
$PUCSORGTOP
 10
0.0
 20
0.0
 30
0.0
  9
$PUCSORGBOTTOM
 10
0.0
 20
0.0
 30
0.0
  9
$PUCSORGLEFT
 10
0.0
 20
0.0
 30
0.0
  9
$PUCSORGRIGHT
 10
0.0
 20
0.0
 30
0.0
  9
$PUCSORGFRONT
 10
0.0
 20
0.0
 30
0.0
  9
$PUCSORGBACK
 10
0.0
 20
0.0
 30
0.0
  9
$USERI1
 70
     0
  9
$USERI2
 70
     0
  9
$USERI3
 70
     0
  9
$USERI4
 70
     0
  9
$USERI5
 70
     0
  9
$USERR1
 40
0.0
  9
$USERR2
 40
0.0
  9
$USERR3
 40
0.0
  9
$USERR4
 40
0.0
  9
$USERR5
 40
0.0
  9
$WORLDVIEW
 70
     1
  9
$SHADEDGE
 70
     3
  9
$SHADEDIF
 70
    70
  9
$TILEMODE
 70
     1
  9
$MAXACTVP
 70
    64
  9
$PINSBASE
 10
0.0
 20
0.0
 30
0.0
  9
$PLIMCHECK
 70
     0
  9
$PEXTMIN
 10
1.000000000000000E+20
 20
1.000000000000000E+20
 30
1.000000000000000E+20
  9
$PEXTMAX
 10
-1.000000000000000E+20
 20
-1.000000000000000E+20
 30
-1.000000000000000E+20
  9
$PLIMMIN
 10
0.0
 20
0.0
  9
$PLIMMAX
 10
12.0
 20
9.0
  9
$UNITMODE
 70
     0
  9
$VISRETAIN
 70
     1
  9
$PLINEGEN
 70
     0
  9
$PSLTSCALE
 70
     1
  9
$TREEDEPTH
 70
  3020
  9
$CMLSTYLE
  2
Standard
  9
$CMLJUST
 70
     0
  9
$CMLSCALE
 40
1.0
  9
$PROXYGRAPHICS
 70
     1
  9
$MEASUREMENT
 70
     0
  9
$CELWEIGHT
370
    -1
  9
$ENDCAPS
280
     0
  9
$JOINSTYLE
280
     0
  9
$LWDISPLAY
290
     0
  9
$INSUNITS
 70
     1
  9
$HYPERLINKBASE
  1

  9
$STYLESHEET
  1

  9
$XEDIT
290
     1
  9
$CEPSNTYPE
380
     0
  9
$PSTYLEMODE
290
     1
  9
$FINGERPRINTGUID
  2
{BA2F7263-1A1E-4499-9A15-7058076EC318}
  9
$VERSIONGUID
  2
{FAEB1C32-E019-11D5-929B-00C0DF256EC4}
  9
$EXTNAMES
290
     1
  9
$PSVPSCALE
 40
0.0
  9
$OLESTARTUP
290
     0
  9
$SORTENTS
280
   127
  9
$INDEXCTL
280
     0
  9
$HIDETEXT
280
     1
  9
$XCLIPFRAME
280
     2
  9
$HALOGAP
280
     0
  9
$OBSCOLOR
 70
   257
  9
$OBSLTYPE
280
     0
  9
$INTERSECTIONDISPLAY
280
     0
  9
$INTERSECTIONCOLOR
 70
   257
  9
$DIMASSOC
280
     2
  9
$PROJECTNAME
  1

  9
$CAMERADISPLAY
290
     0
  9
$LENSLENGTH
 40
50.0
  9
$CAMERAHEIGHT
 40
0.0
  9
$STEPSPERSEC
 40
2.0
  9
$STEPSIZE
 40
6.0
  9
$3DDWFPREC
 40
2.0
  9
$PSOLWIDTH
 40
0.25
  9
$PSOLHEIGHT
 40
4.0
  9
$LOFTANG1
 40
1.570796326794897
  9
$LOFTANG2
 40
1.570796326794897
  9
$LOFTMAG1
 40
0.0
  9
$LOFTMAG2
 40
0.0
  9
$LOFTPARAM
 70
     7
  9
$LOFTNORMALS
280
     1
  9
$LATITUDE
 40
37.795
  9
$LONGITUDE
 40
-122.394
  9
$NORTHDIRECTION
 40
0.0
  9
$TIMEZONE
 70
 -8000
  9
$LIGHTGLYPHDISPLAY
280
     1
  9
$TILEMODELIGHTSYNCH
280
     1
  9
$CMATERIAL
347
44
  9
$SOLIDHIST
280
     0
  9
$SHOWHIST
280
     1
  9
$DWFFRAME
280
     2
  9
$DGNFRAME
280
     2
  9
$REALWORLDSCALE
290
     1
  9
$INTERFERECOLOR
 62
   256
  9
$CSHADOW
280
     0
  9
$SHADOWPLANELOCATION
 40
0.0
  0
ENDSEC
  0
SECTION
  2
CLASSES
  0
CLASS
  1
ACDBDICTIONARYWDFLT
  2
AcDbDictionaryWithDefault
  3
ObjectDBX Classes
 90
        0
 91
        4
280
     0
281
     0
  0
CLASS
  1
VISUALSTYLE
  2
AcDbVisualStyle
  3
ObjectDBX Classes
 90
     4095
 91
        4
280
     0
281
     0
  0
CLASS
  1
MATERIAL
  2
AcDbMaterial
  3
ObjectDBX Classes
 90
     1153
 91
        4
280
     0
281
     0
  0
CLASS
  1
SCALE
  2
AcDbScale
  3
ObjectDBX Classes
 90
     1153
 91
        4
280
     0
281
     0
  0
CLASS
  1
TABLESTYLE
  2
AcDbTableStyle
  3
ObjectDBX Classes
 90
     4095
 91
        4
280
     0
281
     0
  0
CLASS
  1
MLEADERSTYLE
  2
AcDbMLeaderStyle
  3
ACDB_MLEADERSTYLE_CLASS
 90
     4095
 91
        4
280
     0
281
     0
  0
CLASS
  1
SUN
  2
AcDbSun
  3
SCENEOE
 90
     1153
 91
        4
280
     0
281
     0
  0
CLASS
  1
DICTIONARYVAR
  2
AcDbDictionaryVar
  3
ObjectDBX Classes
 90
        0
 91
        4
280
     0
281
     0
  0
CLASS
  1
CELLSTYLEMAP
  2
AcDbCellStyleMap
  3
ObjectDBX Classes
 90
     1152
 91
        4
280
     0
281
     0
  0
ENDSEC
  0
SECTION
  2
TABLES
  0
TABLE
  2
VPORT
  5
8
330
0
100
AcDbSymbolTable
 70
     1
  0
VPORT
  5
29
330
8
100
AcDbSymbolTableRecord
100
AcDbViewportTableRecord
  2
*Active
 70
     0
 10
0.0
 20
0.0
 11
1.0
 21
1.0
 12
0.864281751311518
 22
0.0
 13
0.0
 23
0.0
 14
0.5
 24
0.5
 15
0.5
 25
0.5
 16
0.0
 26
0.0
 36
1.0
 17
0.0
 27
0.0
 37
0.0
 40
5.355
 41
1.450511713786089
 42
50.0
 43
0.0
 44
0.0
 50
0.0
 51
0.0
 71
     0
 72
   100
 73
     1
 74
     3
 75
     0
 76
     0
 77
     0
 78
     0
281
     0
 65
     1
110
0.0
120
0.0
130
0.0
111
1.0
121
0.0
131
0.0
112
0.0
122
1.0
132
0.0
 79
     0
146
0.0
348
2F
 60
     3
 61
     5
292
     1
282
     1
141
0.0
142
0.0
 63
   250
361
6D
  0
ENDTAB
  0
TABLE
  2
LTYPE
  5
5
330
0
100
AcDbSymbolTable
 70
     3
  0
LTYPE
  5
14
330
5
100
AcDbSymbolTableRecord
100
AcDbLinetypeTableRecord
  2
ByBlock
 70
     0
  3

 72
    65
 73
     0
 40
0.0
  0
LTYPE
  5
15
330
5
100
AcDbSymbolTableRecord
100
AcDbLinetypeTableRecord
  2
ByLayer
 70
     0
  3

 72
    65
 73
     0
 40
0.0
  0
LTYPE
  5
16
330
5
100
AcDbSymbolTableRecord
100
AcDbLinetypeTableRecord
  2
Continuous
 70
     0
  3
Solid line
 72
    65
 73
     0
 40
0.0
  0
LTYPE
  5
A2
330
5
100
AcDbSymbolTableRecord
100
AcDbLinetypeTableRecord
  2
Dashed
 70
     0
  3

 72
    65
 73
     2
 40
2.0
 49
1.0
 74
     0
 49
-1.0
 74
     0
  0
LTYPE
  5
C8
330
5
100
AcDbSymbolTableRecord
100
AcDbLinetypeTableRecord
  2
Center
 70
     0
  3

 72
    65
 73
     4
 40
1.5
 49
0.45
 74
     0
 49
-0.5
 74
     0
 49
0.05
 74
     0
 49
-0.5
 74
     0
  0
ENDTAB
  0
TABLE
  2
LAYER
  5
2
330
0
100
AcDbSymbolTable
 70
     7
  0
LAYER
  5
10
330
2
100
AcDbSymbolTableRecord
100
AcDbLayerTableRecord
  2
0
 70
     0
 62
     7
  6
Continuous
370
    -3
390
F
347
46
348
0
  0
LAYER
  5
72
330
2
100
AcDbSymbolTableRecord
100
AcDbLayerTableRecord
  2
AM_6
 70
     0
 62
    -2
  6
Continuous
370
    35
390
F
347
46
348
0
  0
LAYER
  5
A3
330
2
100
AcDbSymbolTableRecord
100
AcDbLayerTableRecord
  2
AM_9
 70
     0
 62
     6
  6
Dashed
370
    25
390
F
347
46
348
0
  0
LAYER
  5
C1
330
2
100
AcDbSymbolTableRecord
100
AcDbLayerTableRecord
  2
AM_5
 70
     0
 62
     3
  6
Continuous
370
    25
390
F
347
46
348
0
  0
LAYER
  5
C9
330
2
100
AcDbSymbolTableRecord
100
AcDbLayerTableRecord
  2
AM_7
 70
     0
 62
     7
  6
Center
370
    25
390
F
347
46
348
0
  0
LAYER
  5
CC
330
2
100
AcDbSymbolTableRecord
100
AcDbLayerTableRecord
  2
AM_4
 70
     0
 62
     7
  6
Continuous
370
    50
390
F
347
46
348
0
  0
LAYER
  5
23A
330
2
100
AcDbSymbolTableRecord
100
AcDbLayerTableRecord
  2
ConnectionPoints
 70
     0
 62
     7
  6
Continuous
370
    50
390
F
347
46
348
0
  0
ENDTAB
  0
TABLE
  2
STYLE
  5
3
330
0
100
AcDbSymbolTable
 70
     1
  0
STYLE
  5
11
330
3
100
AcDbSymbolTableRecord
100
AcDbTextStyleTableRecord
  2
Standard
 70
     0
 40
0.0
 41
1.0
 50
0.0
 71
     0
 42
0.2
  3
txt
  4

  0
ENDTAB
  0
TABLE
  2
VIEW
  5
6
330
0
100
AcDbSymbolTable
 70
     0
  0
ENDTAB
  0
TABLE
  2
UCS
  5
7
330
0
100
AcDbSymbolTable
 70
     0
  0
ENDTAB
  0
TABLE
  2
APPID
  5
9
330
0
100
AcDbSymbolTable
 70
     1
  0
APPID
  5
12
330
9
100
AcDbSymbolTableRecord
100
AcDbRegAppTableRecord
  2
ACAD
 70
     0
  0
ENDTAB
  0
TABLE
  2
DIMSTYLE
  5
A
330
0
100
AcDbSymbolTable
 70
     1
100
AcDbDimStyleTable
  0
DIMSTYLE
105
27
330
A
100
AcDbSymbolTableRecord
100
AcDbDimStyleTableRecord
  2
Standard
 70
     0
178
     0
340
11
  0
ENDTAB
  0
TABLE
  2
BLOCK_RECORD
  5
1
330
0
100
AcDbSymbolTable
 70
     8
  0
BLOCK_RECORD
  5
1F
330
1
100
AcDbSymbolTableRecord
100
AcDbBlockTableRecord
  2
*Model_Space
340
22
 70
     0
280
     1
281
     0
  0
BLOCK_RECORD
  5
1B
330
1
100
AcDbSymbolTableRecord
100
AcDbBlockTableRecord
  2
*Paper_Space
340
1E
 70
     0
280
     1
281
     0
  0
BLOCK_RECORD
  5
23
330
1
100
AcDbSymbolTableRecord
100
AcDbBlockTableRecord
  2
*Paper_Space0
340
26
 70
     0
280
     1
281
     0
  0
BLOCK_RECORD
  5
6E
330
1
100
AcDbSymbolTableRecord
100
AcDbBlockTableRecord
  2
1_069381_0
340
0
102
{BLKREFS
331
6F
102
}
 70
     0
280
     1
281
     0
  0
BLOCK_RECORD
  5
91
330
1
100
AcDbSymbolTableRecord
100
AcDbBlockTableRecord
  2
2_405016_Inch_0_in_069381_0
340
0
102
{BLKREFS
331
92
102
}
 70
     0
280
     1
281
     0
  0
BLOCK_RECORD
  5
10D
330
1
100
AcDbSymbolTableRecord
100
AcDbBlockTableRecord
  2
3_ASME_B18_3_10_1_0_in_069381_0
340
0
102
{BLKREFS
331
10E
102
}
 70
     0
280
     1
281
     0
  0
BLOCK_RECORD
  5
129
330
1
100
AcDbSymbolTableRecord
100
AcDbBlockTableRecord
  2
4_ASME_B18_3_10_2_0_in_069381_0
340
0
102
{BLKREFS
331
12A
102
}
 70
     0
280
     1
281
     0
  0
BLOCK_RECORD
  5
146
330
1
100
AcDbSymbolTableRecord
100
AcDbBlockTableRecord
  2
5_070893LW_0_in_069381_0
340
0
102
{BLKREFS
331
147
102
}
 70
     0
280
     1
281
     0
  0
BLOCK_RECORD
  5
191
330
1
100
AcDbSymbolTableRecord
100
AcDbBlockTableRecord
  2
6_070893I_0_in_069381_0
340
0
102
{BLKREFS
331
192
102
}
 70
     0
280
     1
281
     0
  0
BLOCK_RECORD
  5
1EB
330
1
100
AcDbSymbolTableRecord
100
AcDbBlockTableRecord
  2
7_069381H_0_in_069381_0
340
0
102
{BLKREFS
331
1EC
102
}
 70
     0
280
     1
281
     0
  0
ENDTAB
  0
ENDSEC
  0
SECTION
  2
BLOCKS
  0
BLOCK
  5
20
330
1F
100
AcDbEntity
  8
0
100
AcDbBlockBegin
  2
*Model_Space
 70
     0
 10
0.0
 20
0.0
 30
0.0
  3
*Model_Space
  1

  0
ENDBLK
  5
21
330
1F
100
AcDbEntity
  8
0
100
AcDbBlockEnd
  0
BLOCK
  5
1C
330
1B
100
AcDbEntity
 67
     1
  8
0
100
AcDbBlockBegin
  2
*Paper_Space
 70
     0
 10
0.0
 20
0.0
 30
0.0
  3
*Paper_Space
  1

  0
ENDBLK
  5
1D
330
1B
100
AcDbEntity
 67
     1
  8
0
100
AcDbBlockEnd
  0
BLOCK
  5
24
330
23
100
AcDbEntity
  8
0
100
AcDbBlockBegin
  2
*Paper_Space0
 70
     0
 10
0.0
 20
0.0
 30
0.0
  3
*Paper_Space0
  1

  0
ENDBLK
  5
25
330
23
100
AcDbEntity
  8
0
100
AcDbBlockEnd
  0
BLOCK
  5
70
330
6E
100
AcDbEntity
  8
0
100
AcDbBlockBegin
  2
1_069381_0
 70
     2
 10
0.0
 20
0.0
 30
0.0
  3
1_069381_0
  1

  0
ATTDEF
  5
73
330
6E
100
AcDbEntity
  8
AM_6
100
AcDbText
 10
9.671875
 20
2.625
 30
0.0
 40
0.5
  1
Imperial - IP Wide Slot Take-Up
100
AcDbAttributeDefinition
  3

  2
NN
 70
     8
280
     0
  0
ATTDEF
  5
74
330
6E
100
AcDbEntity
  8
AM_6
100
AcDbText
 10
9.671875
 20
2.125
 30
0.0
 40
0.5
  1
Imperial Wide Slot Take-Up Bearings
100
AcDbAttributeDefinition
  3

  2
NT
 70
     8
280
     0
  0
ATTDEF
  5
75
330
6E
100
AcDbEntity
  8
AM_6
100
AcDbText
 10
9.671875
 20
1.625
 30
0.0
 40
0.5
  1
069381
100
AcDbAttributeDefinition
  3

  2
NB
 70
     8
280
     0
  0
ATTDEF
  5
76
330
6E
100
AcDbEntity
  8
AM_6
100
AcDbText
 10
9.671875
 20
1.125
 30
0.0
 40
0.5
  1
$PN.
100
AcDbAttributeDefinition
  3

  2
NBSYN
 70
     8
280
     0
  0
ATTDEF
  5
77
330
6E
100
AcDbEntity
  8
AM_6
100
AcDbText
 10
9.671875
 20
0.625
 30
0.0
 40
0.5
  1
069381
100
AcDbAttributeDefinition
  3

  2
LINA
 70
     8
280
     0
  0
ATTDEF
  5
78
330
6E
100
AcDbEntity
  8
AM_6
100
AcDbText
 10
9.671875
 20
0.125
 30
0.0
 40
0.5
  1
2-1/4
100
AcDbAttributeDefinition
  3

  2
SS
 70
     8
280
     0
  0
ATTDEF
  5
79
330
6E
100
AcDbEntity
  8
AM_6
100
AcDbText
 10
9.671875
 20
-0.375
 30
0.0
 40
0.5
  1
069381
100
AcDbAttributeDefinition
  3

  2
PN
 70
     8
280
     0
  0
ATTDEF
  5
7A
330
6E
100
AcDbEntity
  8
AM_6
100
AcDbText
 10
9.671875
 20
-0.875
 30
0.0
 40
0.5
  1
WSTU-IP-204RE
100
AcDbAttributeDefinition
  3

  2
DESCRIPTION
 70
     8
280
     0
  0
ATTDEF
  5
7B
330
6E
100
AcDbEntity
  8
AM_6
100
AcDbText
 10
9.671875
 20
-1.375
 30
0.0
 40
0.5
  1
Expansion
100
AcDbAttributeDefinition
  3

  2
EF
 70
     8
280
     0
  0
ATTDEF
  5
7C
330
6E
100
AcDbEntity
  8
AM_6
100
AcDbText
 10
9.671875
 20
-1.875
 30
0.0
 40
0.5
  1
Contact Seal
100
AcDbAttributeDefinition
  3

  2
ST
 70
     8
280
     0
  0
ATTDEF
  5
7D
330
6E
100
AcDbEntity
  8
AM_6
100
AcDbText
 10
9.671875
 20
-2.375
 30
0.0
 40
0.5
  1
3-1/32
100
AcDbAttributeDefinition
  3

  2
A
 70
     8
280
     0
  0
ATTDEF
  5
7E
330
6E
100
AcDbEntity
  8
AM_6
100
AcDbText
 10
9.671875
 20
-2.875
 30
0.0
 40
0.5
  1
7-1/16
100
AcDbAttributeDefinition
  3

  2
B
 70
     8
280
     0
  0
ATTDEF
  5
7F
330
6E
100
AcDbEntity
  8
AM_6
100
AcDbText
 10
9.671875
 20
-3.375
 30
0.0
 40
0.5
  1
13/16
100
AcDbAttributeDefinition
  3

  2
C
 70
     8
280
     0
  0
ATTDEF
  5
80
330
6E
100
AcDbEntity
  8
AM_6
100
AcDbText
 10
9.671875
 20
-3.875
 30
0.0
 40
0.5
  1
3-5/8
100
AcDbAttributeDefinition
  3

  2
D
 70
     8
280
     0
  0
ATTDEF
  5
81
330
6E
100
AcDbEntity
  8
AM_6
100
AcDbText
 10
9.671875
 20
-4.375
 30
0.0
 40
0.5
  1
4-5/8
100
AcDbAttributeDefinition
  3

  2
E
 70
     8
280
     0
  0
ATTDEF
  5
82
330
6E
100
AcDbEntity
  8
AM_6
100
AcDbText
 10
9.671875
 20
-4.875
 30
0.0
 40
0.5
  1
1-3/8
100
AcDbAttributeDefinition
  3

  2
F
 70
     8
280
     0
  0
ATTDEF
  5
83
330
6E
100
AcDbEntity
  8
AM_6
100
AcDbText
 10
9.671875
 20
-5.375
 30
0.0
 40
0.5
  1
15/16
100
AcDbAttributeDefinition
  3

  2
G
 70
     8
280
     0
  0
ATTDEF
  5
84
330
6E
100
AcDbEntity
  8
AM_6
100
AcDbText
 10
9.671875
 20
-5.875
 30
0.0
 40
0.5
  1
1-1/4
100
AcDbAttributeDefinition
  3

  2
H
 70
     8
280
     0
  0
ATTDEF
  5
85
330
6E
100
AcDbEntity
  8
AM_6
100
AcDbText
 10
9.671875
 20
-6.375
 30
0.0
 40
0.5
  1
3-7/8
100
AcDbAttributeDefinition
  3

  2
J
 70
     8
280
     0
  0
ATTDEF
  5
86
330
6E
100
AcDbEntity
  8
AM_6
100
AcDbText
 10
9.671875
 20
-6.875
 30
0.0
 40
0.5
  1
2-1/4
100
AcDbAttributeDefinition
  3

  2
K
 70
     8
280
     0
  0
ATTDEF
  5
87
330
6E
100
AcDbEntity
  8
AM_6
100
AcDbText
 10
9.671875
 20
-7.375
 30
0.0
 40
0.5
  1
3-1/2
100
AcDbAttributeDefinition
  3

  2
L
 70
     8
280
     0
  0
ATTDEF
  5
88
330
6E
100
AcDbEntity
  8
AM_6
100
AcDbText
 10
9.671875
 20
-7.875
 30
0.0
 40
0.5
  1
4-1/2
100
AcDbAttributeDefinition
  3

  2
M
 70
     8
280
     0
  0
ATTDEF
  5
89
330
6E
100
AcDbEntity
  8
AM_6
100
AcDbText
 10
9.671875
 20
-8.375
 30
0.0
 40
0.5
  1
5-1/4
100
AcDbAttributeDefinition
  3

  2
N
 70
     8
280
     0
  0
ATTDEF
  5
8A
330
6E
100
AcDbEntity
  8
AM_6
100
AcDbText
 10
9.671875
 20
-8.875
 30
0.0
 40
0.5
  1
3-3/16
100
AcDbAttributeDefinition
  3

  2
R
 70
     8
280
     0
  0
ATTDEF
  5
8B
330
6E
100
AcDbEntity
  8
AM_6
100
AcDbText
 10
9.671875
 20
-9.375
 30
0.0
 40
0.5
  1
2-7/64
100
AcDbAttributeDefinition
  3

  2
S
 70
     8
280
     0
  0
ATTDEF
  5
8C
330
6E
100
AcDbEntity
  8
AM_6
100
AcDbText
 10
9.671875
 20
-9.875
 30
0.0
 40
0.5
  1
2-7/32
100
AcDbAttributeDefinition
  3

  2
T
 70
     8
280
     0
  0
ATTDEF
  5
8D
330
6E
100
AcDbEntity
  8
AM_6
100
AcDbText
 10
9.671875
 20
-10.375
 30
0.0
 40
0.5
  1
1/4
100
AcDbAttributeDefinition
  3

  2
X
 70
     8
280
     0
  0
ATTDEF
  5
8E
330
6E
100
AcDbEntity
  8
AM_6
100
AcDbText
 10
9.671875
 20
-10.875
 30
0.0
 40
0.5
  1
0.025
100
AcDbAttributeDefinition
  3

  2
Y
 70
     8
280
     0
  0
ATTDEF
  5
8F
330
6E
100
AcDbEntity
  8
AM_6
100
AcDbText
 10
9.671875
 20
-11.375
 30
0.0
 40
0.5
  1
2-19/32
100
AcDbAttributeDefinition
  3

  2
Z
 70
     8
280
     0
  0
ATTDEF
  5
90
330
6E
100
AcDbEntity
  8
AM_6
100
AcDbText
 10
9.671875
 20
-11.875
 30
0.0
 40
0.5
  1
baldor
100
AcDbAttributeDefinition
  3

  2
COMPANY
 70
     8
280
     0
  0
INSERT
  5
92
330
6E
100
AcDbEntity
  8
0
100
AcDbBlockReference
  2
2_405016_Inch_0_in_069381_0
 10
0.0
 20
0.0
 30
0.0
  0
INSERT
  5
10E
330
6E
100
AcDbEntity
  8
0
100
AcDbBlockReference
  2
3_ASME_B18_3_10_1_0_in_069381_0
 10
0.0
 20
0.0
 30
0.0
  0
INSERT
  5
12A
330
6E
100
AcDbEntity
  8
0
100
AcDbBlockReference
  2
4_ASME_B18_3_10_2_0_in_069381_0
 10
0.0
 20
0.0
 30
0.0
  0
INSERT
  5
147
330
6E
100
AcDbEntity
  8
0
100
AcDbBlockReference
  2
5_070893LW_0_in_069381_0
 10
0.0
 20
0.0
 30
0.0
  0
INSERT
  5
192
330
6E
100
AcDbEntity
  8
0
100
AcDbBlockReference
  2
6_070893I_0_in_069381_0
 10
0.0
 20
0.0
 30
0.0
  0
INSERT
  5
1EC
330
6E
100
AcDbEntity
  8
0
100
AcDbBlockReference
  2
7_069381H_0_in_069381_0
 10
0.0
 20
0.0
 30
0.0
  0
ENDBLK
  5
71
330
6E
100
AcDbEntity
  8
0
100
AcDbBlockEnd
  0
BLOCK
  5
93
330
91
100
AcDbEntity
  8
0
100
AcDbBlockBegin
  2
2_405016_Inch_0_in_069381_0
 70
     2
 10
0.0
 20
0.0
 30
0.0
  3
2_405016_Inch_0_in_069381_0
  1

  0
ATTDEF
  5
95
330
91
100
AcDbEntity
  8
AM_6
100
AcDbText
 10
2.910652734853052
 20
-0.7056013621745273
 30
0.0
 40
0.5
  1
405016 -Inch
100
AcDbAttributeDefinition
  3

  2
NN
 70
     8
280
     0
  0
ATTDEF
  5
96
330
91
100
AcDbEntity
  8
AM_6
100
AcDbText
 10
2.910652734853052
 20
-1.205601362174527
 30
0.0
 40
0.5
  1
Grease Fitting
100
AcDbAttributeDefinition
  3

  2
NT
 70
     8
280
     0
  0
ATTDEF
  5
97
330
91
100
AcDbEntity
  8
AM_6
100
AcDbText
 10
2.910652734853052
 20
-1.705601362174527
 30
0.0
 40
0.5
  1
405016-Inch
100
AcDbAttributeDefinition
  3

  2
NB
 70
     8
280
     0
  0
ATTDEF
  5
98
330
91
100
AcDbEntity
  8
AM_6
100
AcDbText
 10
2.910652734853052
 20
-2.205601362174527
 30
0.0
 40
0.5
  1
$MN.-Inch
100
AcDbAttributeDefinition
  3

  2
NBSYN
 70
     8
280
     0
  0
ATTDEF
  5
99
330
91
100
AcDbEntity
  8
AM_6
100
AcDbText
 10
2.910652734853052
 20
-2.705601362174527
 30
0.0
 40
0.5
  1
405016
100
AcDbAttributeDefinition
  3

  2
LINA
 70
     8
280
     0
  0
ATTDEF
  5
9A
330
91
100
AcDbEntity
  8
AM_6
100
AcDbText
 10
2.910652734853052
 20
-3.205601362174527
 30
0.0
 40
0.5
  1
405016
100
AcDbAttributeDefinition
  3

  2
MN
 70
     8
280
     0
  0
ATTDEF
  5
9B
330
91
100
AcDbEntity
  8
AM_6
100
AcDbText
 10
2.910652734853052
 20
-3.705601362174527
 30
0.0
 40
0.5
  1
7/16 HEX
100
AcDbAttributeDefinition
  3

  2
H
 70
     8
280
     0
  0
ATTDEF
  5
9C
330
91
100
AcDbEntity
  8
AM_6
100
AcDbText
 10
2.910652734853052
 20
-4.205601362174527
 30
0.0
 40
0.5
  1
0.383
100
AcDbAttributeDefinition
  3

  2
NDR
 70
     8
280
     0
  0
ATTDEF
  5
9D
330
91
100
AcDbEntity
  8
AM_6
100
AcDbText
 10
2.910652734853052
 20
-4.705601362174527
 30
0.0
 40
0.5
  1
0.337
100
AcDbAttributeDefinition
  3

  2
KDR
 70
     8
280
     0
  0
ATTDEF
  5
9E
330
91
100
AcDbEntity
  8
AM_6
100
AcDbText
 10
2.910652734853052
 20
-5.205601362174527
 30
0.0
 40
0.5
  1
0.1575
100
AcDbAttributeDefinition
  3

  2
BZE
 70
     8
280
     0
  0
ATTDEF
  5
9F
330
91
100
AcDbEntity
  8
AM_6
100
AcDbText
 10
2.910652734853052
 20
-5.705601362174527
 30
0.0
 40
0.5
  1
0.4375
100
AcDbAttributeDefinition
  3

  2
HEX
 70
     8
280
     0
  0
ATTDEF
  5
A0
330
91
100
AcDbEntity
  8
AM_6
100
AcDbText
 10
2.910652734853052
 20
-6.205601362174527
 30
0.0
 40
0.5
  1
0.281250
100
AcDbAttributeDefinition
  3

  2
HEX2
 70
     8
280
     0
  0
ATTDEF
  5
A1
330
91
100
AcDbEntity
  8
AM_6
100
AcDbText
 10
2.910652734853052
 20
-6.705601362174527
 30
0.0
 40
0.5
  1
baldor
100
AcDbAttributeDefinition
  3

  2
COMPANY
 70
     8
280
     0
  0
LINE
  5
A4
330
91
100
AcDbEntity
  8
AM_9
100
AcDbLine
 10
-2.089347265146948
 20
-1.018511034985619
 30
0.0
 11
-2.210467860406529
 21
-0.7187270419806734
 31
0.0
  0
LINE
  5
A5
330
91
100
AcDbEntity
  8
AM_9
100
AcDbLine
 10
-2.210467860406529
 20
-0.7187270419806734
 30
0.0
 11
-2.241390024230883
 21
-0.7056013621745273
 31
0.0
  0
LINE
  5
A6
330
91
100
AcDbEntity
  8
AM_9
100
AcDbLine
 10
-2.102472944953094
 20
-1.049433198809973
 30
0.0
 11
-2.089347265146948
 21
-1.018511034985619
 31
0.0
  0
ARC
  5
A7
330
91
100
AcDbEntity
  8
AM_9
100
AcDbCircle
 10
-2.654063783691114
 20
-1.072311373650508
 30
0.0
 40
0.2000000000048928
100
AcDbArc
 50
157.868877154456
 51
245.9497516568473
  0
LINE
  5
A8
330
91
100
AcDbEntity
  8
AM_9
100
AcDbLine
 10
-2.102472944953094
 20
-1.049433198809973
 30
0.0
 11
-2.241390024230883
 21
-0.7056013621745273
 31
0.0
  0
LINE
  5
A9
330
91
100
AcDbEntity
  8
AM_9
100
AcDbLine
 10
-2.241390024230883
 20
-0.7056013621745273
 30
0.0
 11
-2.424470401876736
 21
-0.7729981067987797
 31
0.0
  0
LINE
  5
AA
330
91
100
AcDbEntity
  8
AM_9
100
AcDbLine
 10
-2.280987660049711
 20
-1.128130354786974
 30
0.0
 11
-2.102472944953094
 21
-1.049433198809973
 31
0.0
  0
LINE
  5
AB
330
91
100
AcDbEntity
  8
AM_9
100
AcDbLine
 10
-2.822789688187234
 20
-1.228047172109334
 30
0.0
 11
-2.83491078747093
 21
-1.232944414105899
 31
0.0
  0
LINE
  5
AC
330
91
100
AcDbEntity
  8
AM_9
100
AcDbLine
 10
-2.883618218122858
 20
-1.077491277353031
 30
0.0
 11
-2.895739317406554
 21
-1.082388519349596
 31
0.0
  0
LWPOLYLINE
  5
AD
330
91
100
AcDbEntity
  8
AM_9
100
AcDbPolyline
 90
        7
 70
     0
 43
0.0
 10
-2.883618218122858
 20
-1.077491277353031
 10
-2.870494955686583
 20
-1.103504165002986
 10
-2.858055954059647
 20
-1.130353222120897
 10
-2.846369184002607
 20
-1.158452264410641
 10
-2.835782985429811
 20
-1.187234699170808
 10
-2.829035842753139
 20
-1.207615033668451
 10
-2.822789688187234
 20
-1.228047172109334
  0
LINE
  5
AE
330
91
100
AcDbEntity
  8
AM_9
100
AcDbLine
 10
-2.613029425856978
 20
-1.173874973282328
 30
0.0
 11
-2.695470133289828
 21
-0.9698270621289403
 31
0.0
  0
ELLIPSE
  5
AF
330
91
100
AcDbEntity
  8
AM_9
100
AcDbEllipse
 10
-2.729666809217264
 20
-1.102856978715546
 30
0.0
 11
-0.05267905219911253
 21
0.1303852295484544
 31
0.0
210
0.0
220
0.0
230
1.0
 40
0.90630778703665
 41
5.859216366485143
 42
9.84874690146383
  0
LWPOLYLINE
  5
B0
330
91
100
AcDbEntity
  8
AM_9
100
AcDbPolyline
 90
        6
 70
     0
 43
0.0
 10
-2.822789688187234
 20
-1.228047172109334
 10
-2.793861499089379
 20
-1.232056176331778
 10
-2.765329805848737
 20
-1.236509220393587
 10
-2.73706795794398
 20
-1.241552759978283
 10
-2.709788848805053
 20
-1.247120293098049
 10
-2.673986398686882
 20
-1.255492848725297
  0
LWPOLYLINE
  5
B1
330
91
100
AcDbEntity
  8
AM_9
100
AcDbPolyline
 90
        7
 70
     0
 43
0.0
 10
-2.79564345855813
 20
-0.9543810592126918
 10
-2.808993598371356
 20
-0.975298038089084
 10
-2.823492589689208
 20
-0.9969549622793783
 10
-2.839527823960653
 20
-1.019697905241489
 10
-2.856845574695988
 20
-1.043073754191426
 10
-2.870036852120902
 20
-1.060243459850614
 10
-2.883618218122858
 20
-1.077491277353031
  0
LWPOLYLINE
  5
B2
330
91
100
AcDbEntity
  8
AM_9
100
AcDbPolyline
 90
        5
 70
     0
 43
0.0
 10
-2.620672026114378
 20
-1.154958873859323
 10
-2.630721088037208
 20
-1.169213065604052
 10
-2.643341505084221
 20
-1.181726421774633
 10
-2.657475640439842
 20
-1.191451946248558
 10
-2.66875091735063
 20
-1.196884181829315
  0
LWPOLYLINE
  5
B3
330
91
100
AcDbEntity
  8
AM_9
100
AcDbPolyline
 90
       13
 70
     0
 43
0.0
 10
-2.620672026114378
 20
-1.154958873859323
 10
-2.613539547930151
 20
-1.139809359260436
 10
-2.609217508442459
 20
-1.124202225304415
 10
-2.607359146726667
 20
-1.10753199255683
 10
-2.608115095749511
 20
-1.089806262823844
 10
-2.611643231847615
 20
-1.071666531042054
 10
-2.617657031946488
 20
-1.054451899812958
 10
-2.626299575899048
 20
-1.037816751556131
 10
-2.636777838675904
 20
-1.023287847218797
 10
-2.649522763056483
 20
-1.010336072048568
 10
-2.663733942918651
 20
-0.9999885105281668
 10
-2.679892297733197
 20
-0.9921400041487412
 10
-2.68745554128048
 20
-0.9896638734467733
  0
LINE
  5
B4
330
91
100
AcDbEntity
  8
AM_9
100
AcDbLine
 10
-2.751153887324745
 20
-0.9928995000930029
 30
0.0
 11
-2.770873534493014
 21
-1.0008667547132
 31
0.0
  0
LINE
  5
B5
330
91
100
AcDbEntity
  8
AM_9
100
AcDbLine
 10
-2.688460083941514
 20
-1.204847202717892
 30
0.0
 11
-2.668740513171429
 21
-1.196879978964566
 31
0.0
  0
LWPOLYLINE
  5
B6
330
91
100
AcDbEntity
  8
AM_9
100
AcDbPolyline
 90
       21
 70
     0
 43
0.0
 10
-2.66875091735063
 20
-1.196884181829315
 10
-2.673526435919039
 20
-1.19866718459693
 10
-2.690161092764439
 20
-1.202769217947156
 10
-2.707847129254549
 20
-1.203868190205302
 10
-2.725092511176368
 20
-1.201871208907208
 10
-2.742401599366153
 20
-1.196718817777275
 10
-2.758291855772271
 20
-1.18885704011024
 10
-2.773250140102148
 20
-1.178050120128614
 10
-2.785989812361496
 20
-1.165236148155105
 10
-2.796911239585734
 20
-1.150023350524712
 10
-2.805081724194394
 20
-1.133721650483903
 10
-2.810757886280558
 20
-1.115835631327939
 10
-2.813462038040739
 20
-1.097880968879052
 10
-2.813278207853713
 20
-1.079328694117482
 10
-2.810220621895059
 20
-1.061722951569112
 10
-2.804202920823494
 20
-1.044568534567475
 10
-2.795714266996849
 20
-1.029274662771993
 10
-2.784521007763101
 20
-1.01543054973351
 10
-2.77153129242272
 20
-1.004170391335089
 10
-2.756394481197561
 20
-0.9952006287194473
 10
-2.751162120884774
 20
-0.9929028270936658
  0
LWPOLYLINE
  5
B7
330
91
100
AcDbEntity
  8
AM_9
100
AcDbPolyline
 90
        5
 70
     0
 43
0.0
 10
-2.751162120884774
 20
-0.9929028270936658
 10
-2.740350536917354
 20
-0.9892633033873487
 10
-2.722962266705323
 20
-0.9862050547816374
 10
-2.705406658980935
 20
-0.9863098048883745
 10
-2.687455541280464
 20
-0.9896638734467833
  0
ELLIPSE
  5
B8
330
91
100
AcDbEntity
  8
AM_9
100
AcDbEllipse
 10
-2.729666809217266
 20
-1.102856978715545
 30
0.0
 11
-0.05267905219911335
 21
0.1303852295484567
 31
0.0
210
0.0
220
0.0
230
1.0
 40
0.906307787036651
 41
3.764821264091953
 42
4.571432719802694
  0
ELLIPSE
  5
B9
330
91
100
AcDbEntity
  8
AM_9
100
AcDbEllipse
 10
-2.729666809217266
 20
-1.10285697871555
 30
0.0
 11
-0.05267905219913205
 21
0.1303852295484513
 31
0.0
210
0.0
220
0.0
230
1.0
 40
0.9063077870366876
 41
4.853345240966597
 42
5.659956696677304
  0
LWPOLYLINE
  5
BA
330
91
100
AcDbEntity
  8
AM_9
100
AcDbPolyline
 90
        5
 70
     0
 43
0.0
 10
-2.83491078747093
 20
-1.232944414105899
 10
-2.85195814070183
 20
-1.197154890820534
 10
-2.867869199197963
 20
-1.160223373695906
 10
-2.88255686918141
 20
-1.121617573228548
 10
-2.895739317406554
 20
-1.082388519349596
  0
LWPOLYLINE
  5
BB
330
91
100
AcDbEntity
  8
AM_9
100
AcDbPolyline
 90
        4
 70
     0
 43
0.0
 10
-2.733841784945542
 20
-1.253262952989779
 10
-2.762501223242291
 20
-1.248234425621694
 10
-2.799458064273345
 20
-1.240893820580025
 10
-2.83491078747093
 20
-1.232944414105899
  0
LWPOLYLINE
  5
BC
330
91
100
AcDbEntity
  8
AM_9
100
AcDbPolyline
 90
        4
 70
     0
 43
0.0
 10
-2.895739317406554
 20
-1.082388519349596
 10
-2.876633427211572
 20
-1.053339551452719
 10
-2.855814364425513
 20
-1.023253415363198
 10
-2.837138608535327
 20
-0.9975477114846828
  0
ELLIPSE
  5
BD
330
91
100
AcDbEntity
  8
AM_9
100
AcDbEllipse
 10
-2.749259050663816
 20
-1.110772758082848
 30
0.0
 11
-0.05267905219911249
 21
0.1303852295484546
 31
0.0
210
0.0
220
0.0
230
1.0
 40
0.9063077870366489
 41
0.2516247729874266
 42
2.910521898151456
  0
LWPOLYLINE
  5
BE
330
91
100
AcDbEntity
  8
AM_9
100
AcDbPolyline
 90
       17
 70
     0
 43
0.0
 10
-2.690225979884606
 20
-1.124512905007383
 10
-2.689774469983084
 20
-1.13179513784083
 10
-2.690666992866142
 20
-1.149819924607421
 10
-2.694349796407763
 20
-1.16674501146725
 10
-2.700584704354221
 20
-1.182061120893864
 10
-2.709103464062955
 20
-1.195387581459555
 10
-2.719693731634269
 20
-1.206461881312552
 10
-2.732278230156385
 20
-1.215061446580869
 10
-2.746874986172453
 20
-1.220845035417518
 10
-2.76322717669817
 20
-1.223256992640267
 10
-2.778375504471258
 20
-1.222228560334035
 10
-2.795024033527748
 20
-1.2176764200791
 10
-2.810908834318057
 20
-1.20981208285795
 10
-2.825541511977874
 20
-1.198960533043969
 10
-2.838471061878946
 20
-1.185488038791341
 10
-2.849261429894824
 20
-1.169850398764745
 10
-2.85688133851373
 20
-1.154254984858593
  0
LWPOLYLINE
  5
BF
330
91
100
AcDbEntity
  8
AM_9
100
AcDbPolyline
 90
       17
 70
     0
 43
0.0
 10
-2.85688133851373
 20
-1.154254984858593
 10
-2.85970503731468
 20
-1.146534967821337
 10
-2.864202061391409
 20
-1.128147990188801
 10
-2.86574600272864
 20
-1.109670563229655
 10
-2.864370022283131
 20
-1.091790564599796
 10
-2.860238773820533
 20
-1.075104208425006
 10
-2.853600620931471
 20
-1.060100310524049
 10
-2.844720863131839
 20
-1.04713746029816
 10
-2.833793464367945
 20
-1.036463641581409
 10
-2.820870659945675
 20
-1.028308681737224
 10
-2.805943270781898
 20
-1.023050179511129
 10
-2.789419398928656
 20
-1.021261193976583
 10
-2.774270902379893
 20
-1.022845193313629
 10
-2.757722254006743
 20
-1.027970278055454
 10
-2.742015697869047
 20
-1.036356184199453
 10
-2.727636031757259
 20
-1.047673035857253
 10
-2.716293873071998
 20
-1.059937440514554
  0
ELLIPSE
  5
C0
330
91
100
AcDbEntity
  8
AM_9
100
AcDbEllipse
 10
-2.803861622214316
 20
-1.13283362898729
 30
0.0
 11
0.04989531183857375
 21
-0.1234952303787614
 31
0.0
210
0.0
220
0.0
230
1.0
 40
0.9063077870366515
 41
0.0
 42
6.283185307179586
  0
LINE
  5
C2
330
91
100
AcDbEntity
  8
AM_5
100
AcDbLine
 10
-2.251031922984461
 20
-1.089788759794132
 30
0.0
 11
-2.089347265146948
 21
-1.018511034985619
 31
0.0
  0
LINE
  5
C3
330
91
100
AcDbEntity
  8
AM_5
100
AcDbLine
 10
-2.280987660049711
 20
-1.128130354786974
 30
0.0
 11
-2.251031922984461
 21
-1.089788759794132
 31
0.0
  0
LINE
  5
C4
330
91
100
AcDbEntity
  8
AM_5
100
AcDbLine
 10
-2.242411764934564
 20
-1.111124399657805
 30
0.0
 11
-2.384907896108594
 21
-0.7584340987262791
 31
0.0
  0
LINE
  5
C5
330
91
100
AcDbEntity
  8
AM_5
100
AcDbLine
 10
-2.376287738058696
 20
-0.7797697385899517
 30
0.0
 11
-2.210467860406529
 21
-0.7187270419806736
 31
0.0
  0
LINE
  5
C6
330
91
100
AcDbEntity
  8
AM_5
100
AcDbLine
 10
-2.424470401876736
 20
-0.7729981067987797
 30
0.0
 11
-2.376287738058696
 21
-0.7797697385899517
 31
0.0
  0
ELLIPSE
  5
C7
330
91
100
AcDbEntity
  8
AM_9
100
AcDbEllipse
 10
-2.729666809217264
 20
-1.102856978715547
 30
0.0
 11
-0.04120672527575133
 21
0.1019902240023456
 31
0.0
210
0.0
220
0.0
230
1.0
 40
0.9063077870366447
 41
0.0
 42
6.283185307179586
  0
LINE
  5
CA
330
91
100
AcDbEntity
  8
AM_7
100
AcDbLine
 10
-2.86406378369743
 20
-1.072311373653047
 30
0.0
 11
-2.444063783697428
 21
-1.072311373653047
 31
0.0
  0
LINE
  5
CB
330
91
100
AcDbEntity
  8
AM_7
100
AcDbLine
 10
-2.654063783697429
 20
-1.282311373653048
 30
0.0
 11
-2.654063783697429
 21
-0.8623113736530459
 31
0.0
  0
LINE
  5
CD
330
91
100
AcDbEntity
  8
AM_4
100
AcDbLine
 10
-2.435938462748201
 20
-1.220112498431571
 30
0.0
 11
-2.414854165341919
 21
-1.248092306122082
 31
0.0
  0
LINE
  5
CE
330
91
100
AcDbEntity
  8
AM_4
100
AcDbLine
 10
-2.435938462748201
 20
-1.220112498431571
 30
0.0
 11
-2.599828847367663
 21
-0.8144695620586013
 31
0.0
  0
LINE
  5
CF
330
91
100
AcDbEntity
  8
AM_4
100
AcDbLine
 10
-2.604098480697194
 20
-0.7796961891024742
 30
0.0
 11
-2.599828847367663
 21
-0.8144695620586013
 31
0.0
  0
LINE
  5
D0
330
91
100
AcDbEntity
  8
AM_4
100
AcDbLine
 10
-2.338950443961992
 20
-1.217425212046107
 30
0.0
 11
-2.343220077291523
 21
-1.18265183908998
 31
0.0
  0
LINE
  5
D1
330
91
100
AcDbEntity
  8
AM_4
100
AcDbLine
 10
-2.343220077291523
 20
-1.18265183908998
 30
0.0
 11
-2.507110461910984
 21
-0.7770089027170102
 31
0.0
  0
LINE
  5
D2
330
91
100
AcDbEntity
  8
AM_4
100
AcDbLine
 10
-2.507110461910984
 20
-0.7770089027170102
 30
0.0
 11
-2.528194759317266
 21
-0.7490290950264986
 31
0.0
  0
ARC
  5
D3
330
91
100
AcDbEntity
  8
AM_4
100
AcDbCircle
 10
-2.654063783697429
 20
-1.072311373653047
 30
0.0
 40
0.2000000000000006
100
AcDbArc
 50
245.949751658203
 51
291.9999999999998
  0
ARC
  5
D4
330
91
100
AcDbEntity
  8
AM_4
100
AcDbCircle
 10
-2.654063783697427
 20
-1.072311373653051
 30
0.0
 40
0.2000000000000027
100
AcDbArc
 50
112.0000000000002
 51
157.8688771531
  0
LINE
  5
D5
330
91
100
AcDbEntity
  8
AM_4
100
AcDbLine
 10
-2.427650349646405
 20
-0.7651274598795194
 30
0.0
 11
-2.500086588284436
 21
-0.7943935999901375
 31
0.0
  0
LINE
  5
D6
330
91
100
AcDbEntity
  8
AM_4
100
AcDbLine
 10
-2.350243950918071
 20
-1.165267141816853
 30
0.0
 11
-2.277807712280041
 21
-1.136001001706234
 31
0.0
  0
LINE
  5
D7
330
91
100
AcDbEntity
  8
AM_4
100
AcDbLine
 10
-2.695470133289828
 20
-0.9698270621289403
 30
0.0
 11
-2.728985102380611
 21
-0.8868746027396907
 31
0.0
  0
LINE
  5
D8
330
91
100
AcDbEntity
  8
AM_4
100
AcDbLine
 10
-2.592804973741115
 20
-0.8318542593317286
 30
0.0
 11
-2.728985102380611
 21
-0.8868746027396907
 31
0.0
  0
LINE
  5
D9
330
91
100
AcDbEntity
  8
AM_4
100
AcDbLine
 10
-2.579142465014247
 20
-1.257748144566406
 30
0.0
 11
-2.44296233637475
 21
-1.202727801158444
 31
0.0
  0
LINE
  5
DA
330
91
100
AcDbEntity
  8
AM_4
100
AcDbLine
 10
-2.579142465014247
 20
-1.257748144566406
 30
0.0
 11
-2.613029425856978
 21
-1.173874973282328
 31
0.0
  0
LWPOLYLINE
  5
DB
330
91
100
AcDbEntity
  8
AM_4
100
AcDbPolyline
 90
        4
 70
     0
 43
0.0
 10
-2.414854165341919
 20
-1.248092306122082
 10
-2.432797377702753
 20
-1.221441461666845
 10
-2.440398465365147
 20
-1.207433052005727
 10
-2.446917036799704
 20
-1.192939574127439
  0
LINE
  5
DC
330
91
100
AcDbEntity
  8
AM_4
100
AcDbLine
 10
-2.414854165341919
 20
-1.248092306122082
 30
0.0
 11
-2.338950443961992
 21
-1.217425212046107
 31
0.0
  0
LWPOLYLINE
  5
DD
330
91
100
AcDbEntity
  8
AM_4
100
AcDbPolyline
 90
        4
 70
     0
 43
0.0
 10
-2.354198651343026
 20
-1.155478914785848
 10
-2.348847950945719
 20
-1.170343834733542
 10
-2.344589985655035
 20
-1.185650248322202
 10
-2.338950443961992
 20
-1.217425212046107
  0
LWPOLYLINE
  5
DE
330
91
100
AcDbEntity
  8
AM_4
100
AcDbPolyline
 90
        4
 70
     0
 43
0.0
 10
-2.38626152280081
 20
-1.100326182791205
 10
-2.368318310439977
 20
-1.126977027246442
 10
-2.360717222777583
 20
-1.14098543690756
 10
-2.354198651343026
 20
-1.155478914785848
  0
LWPOLYLINE
  5
DF
330
91
100
AcDbEntity
  8
AM_4
100
AcDbPolyline
 90
        4
 70
     0
 43
0.0
 10
-2.446917036799704
 20
-1.192939574127439
 10
-2.452267737197011
 20
-1.178074654179745
 10
-2.456525702487694
 20
-1.162768240591085
 10
-2.462165244180738
 20
-1.13099327686718
  0
LINE
  5
E0
330
91
100
AcDbEntity
  8
AM_4
100
AcDbLine
 10
-2.604098480697194
 20
-0.7796961891024742
 30
0.0
 11
-2.528194759317266
 21
-0.7490290950264986
 31
0.0
  0
LWPOLYLINE
  5
E1
330
91
100
AcDbEntity
  8
AM_4
100
AcDbPolyline
 90
        4
 70
     0
 43
0.0
 10
-2.58885027331616
 20
-0.841642486362733
 10
-2.594200973713467
 20
-0.8267775664150391
 10
-2.59845893900415
 20
-0.8114711528263785
 10
-2.604098480697194
 20
-0.7796961891024742
  0
LWPOLYLINE
  5
E2
330
91
100
AcDbEntity
  8
AM_4
100
AcDbPolyline
 90
        4
 70
     0
 43
0.0
 10
-2.556787401858375
 20
-0.8967952183573762
 10
-2.574730614219209
 20
-0.870144373902139
 10
-2.582331701881603
 20
-0.8561359642410209
 10
-2.58885027331616
 20
-0.841642486362733
  0
LWPOLYLINE
  5
E3
330
91
100
AcDbEntity
  8
AM_4
100
AcDbPolyline
 90
        4
 70
     0
 43
0.0
 10
-2.496131887859481
 20
-0.8041818270211418
 10
-2.490781187462175
 20
-0.8190467469688357
 10
-2.486523222171491
 20
-0.8343531605574963
 10
-2.480883680478448
 20
-0.8661281242814008
  0
LWPOLYLINE
  5
E4
330
91
100
AcDbEntity
  8
AM_4
100
AcDbPolyline
 90
        4
 70
     0
 43
0.0
 10
-2.528194759317266
 20
-0.7490290950264986
 10
-2.510251546956432
 20
-0.7756799394817359
 10
-2.502650459294038
 20
-0.7896883491428539
 10
-2.496131887859481
 20
-0.8041818270211418
  0
LINE
  5
E5
330
91
100
AcDbEntity
  8
AM_4
100
AcDbLine
 10
-2.556787401858375
 20
-0.8967952183573762
 30
0.0
 11
-2.480883680478448
 21
-0.8661281242814008
 31
0.0
  0
LWPOLYLINE
  5
E6
330
91
100
AcDbEntity
  8
AM_4
100
AcDbPolyline
 90
        4
 70
     0
 43
0.0
 10
-2.517883655057932
 20
-1.017291030245086
 10
-2.534700205862791
 20
-0.9718844746428472
 10
-2.549062231116627
 20
-0.9254862263460124
 10
-2.556787401858375
 20
-0.8967952183573762
  0
LWPOLYLINE
  5
E7
330
91
100
AcDbEntity
  8
AM_4
100
AcDbPolyline
 90
        4
 70
     0
 43
0.0
 10
-2.462165244180738
 20
-1.13099327686718
 10
-2.491883045413766
 20
-1.075199302289993
 10
-2.505416323980603
 20
-1.046508204909333
 10
-2.517883655057932
 20
-1.017291030245086
  0
LINE
  5
E8
330
91
100
AcDbEntity
  8
AM_4
100
AcDbLine
 10
-2.462165244180738
 20
-1.13099327686718
 30
0.0
 11
-2.38626152280081
 21
-1.100326182791205
 31
0.0
  0
LWPOLYLINE
  5
E9
330
91
100
AcDbEntity
  8
AM_4
100
AcDbPolyline
 90
        4
 70
     0
 43
0.0
 10
-2.425165269601254
 20
-0.979830370903495
 10
-2.413900684349094
 20
-1.009332669508052
 10
-2.403728834203559
 20
-1.039276461753575
 10
-2.38626152280081
 20
-1.100326182791205
  0
LWPOLYLINE
  5
EA
330
91
100
AcDbEntity
  8
AM_4
100
AcDbPolyline
 90
        4
 70
     0
 43
0.0
 10
-2.480883680478448
 20
-0.8661281242814008
 10
-2.466510254401187
 20
-0.8921330627584415
 10
-2.444671593079529
 20
-0.9353567277782536
 10
-2.425165269601254
 20
-0.979830370903495
  0
LINE
  5
EB
330
91
100
AcDbEntity
  8
AM_4
100
AcDbLine
 10
-2.686498994682052
 20
-1.260548265660626
 30
0.0
 11
-2.733841784945542
 21
-1.253262952989779
 31
0.0
  0
LINE
  5
EC
330
91
100
AcDbEntity
  8
AM_4
100
AcDbLine
 10
-2.837138608535327
 20
-0.9975477114846828
 30
0.0
 11
-2.8081560545533
 21
-0.9594364761480205
 31
0.0
  0
LWPOLYLINE
  5
ED
330
91
100
AcDbEntity
  8
AM_4
100
AcDbPolyline
 90
        3
 70
     0
 43
0.0
 10
-2.673986398686882
 20
-1.255492848725297
 10
-2.653095640411721
 20
-1.228808320662409
 10
-2.633039212924265
 20
-1.202057587194572
  0
LINE
  5
EE
330
91
100
AcDbEntity
  8
AM_4
100
AcDbLine
 10
-2.633039212924265
 20
-1.202057587194572
 30
0.0
 11
-2.617920924701677
 21
-1.180863636073948
 31
0.0
  0
LWPOLYLINE
  5
EF
330
91
100
AcDbEntity
  8
AM_4
100
AcDbPolyline
 90
        4
 70
     0
 43
0.0
 10
-2.617920924701677
 20
-1.180863636073948
 10
-2.606264289254508
 20
-1.16377551143399
 10
-2.595866763779907
 20
-1.147931453370857
 10
-2.586009997541657
 20
-1.132381967343385
  0
LWPOLYLINE
  5
F0
330
91
100
AcDbEntity
  8
AM_4
100
AcDbPolyline
 90
        3
 70
     0
 43
0.0
 10
-2.652631454370818
 20
-1.209973366561874
 10
-2.670088753452451
 20
-1.235497178691774
 10
-2.686498994682052
 20
-1.260548265660626
  0
LINE
  5
F1
330
91
100
AcDbEntity
  8
AM_4
100
AcDbLine
 10
-2.673986398686882
 20
-1.255492848725297
 30
0.0
 11
-2.686498994682052
 21
-1.260548265660626
 31
0.0
  0
LWPOLYLINE
  5
F2
330
91
100
AcDbEntity
  8
AM_4
100
AcDbPolyline
 90
        3
 70
     0
 43
0.0
 10
-2.64683852747728
 20
-0.9818260725870827
 10
-2.674258794304339
 20
-0.9752954622366322
 10
-2.703471524446697
 20
-0.9691184713431706
  0
LINE
  5
F3
330
91
100
AcDbEntity
  8
AM_4
100
AcDbLine
 10
-2.703471524446697
 20
-0.9691184713431706
 30
0.0
 11
-2.729069266427236
 21
-0.964374864236506
 31
0.0
  0
LWPOLYLINE
  5
F4
330
91
100
AcDbEntity
  8
AM_4
100
AcDbPolyline
 90
        4
 70
     0
 43
0.0
 10
-2.729069266427236
 20
-0.964374864236506
 10
-2.751760090520647
 20
-0.9606382503684792
 10
-2.773526825044248
 20
-0.9573979137080373
 10
-2.79564345855813
 20
-0.9543810592126918
  0
LINE
  5
F5
330
91
100
AcDbEntity
  8
AM_4
100
AcDbLine
 10
-2.79564345855813
 20
-0.9543810592126918
 30
0.0
 11
-2.8081560545533
 21
-0.9594364761480205
 31
0.0
  0
LWPOLYLINE
  5
F6
330
91
100
AcDbEntity
  8
AM_4
100
AcDbPolyline
 90
        3
 70
     0
 43
0.0
 10
-2.8081560545533
 20
-0.9594364761480205
 10
-2.779110140962784
 20
-0.966022378677778
 10
-2.748661507873788
 20
-0.9722906436038081
  0
LWPOLYLINE
  5
F7
330
91
100
AcDbEntity
  8
AM_4
100
AcDbPolyline
 90
        3
 70
     0
 43
0.0
 10
-2.598917013142599
 20
-1.13759674014343
 10
-2.618560603305728
 20
-1.163213296117991
 10
-2.63751316614823
 20
-1.188779415441251
  0
LWPOLYLINE
  5
F8
330
91
100
AcDbEntity
  8
AM_4
100
AcDbPolyline
 90
        3
 70
     0
 43
0.0
 10
-2.72306376589325
 20
-0.9770342507104723
 10
-2.691832928636368
 20
-0.982233890249127
 10
-2.659745543078223
 20
-0.987040845387127
  0
LWPOLYLINE
  5
F9
330
91
100
AcDbEntity
  8
AM_4
100
AcDbPolyline
 90
        3
 70
     0
 43
0.0
 10
-2.586009997541657
 20
-1.132381967343385
 10
-2.595034923822145
 20
-1.103218346619997
 10
-2.605268772017751
 20
-1.073904872984361
  0
LINE
  5
FA
330
91
100
AcDbEntity
  8
AM_4
100
AcDbLine
 10
-2.605268772017751
 20
-1.073904872984361
 30
0.0
 11
-2.620070527387062
 21
-1.037269242862284
 31
0.0
  0
LWPOLYLINE
  5
FB
330
91
100
AcDbEntity
  8
AM_4
100
AcDbPolyline
 90
        4
 70
     0
 43
0.0
 10
-2.620070527387062
 20
-1.037269242862284
 10
-2.627189340546801
 20
-1.021468042491684
 10
-2.63679853065495
 20
-1.001479673332149
 10
-2.64683852747728
 20
-0.9818260725870827
  0
LINE
  5
FC
330
91
100
AcDbEntity
  8
AM_4
100
AcDbLine
 10
-2.64683852747728
 20
-0.9818260725870827
 30
0.0
 11
-2.659745543078223
 21
-0.987040845387127
 31
0.0
  0
LWPOLYLINE
  5
FD
330
91
100
AcDbEntity
  8
AM_4
100
AcDbPolyline
 90
        3
 70
     0
 43
0.0
 10
-2.659745543078223
 20
-0.987040845387127
 10
-2.650163456719646
 20
-1.016101283932122
 10
-2.639662768833618
 20
-1.045185022229591
  0
LWPOLYLINE
  5
FE
330
91
100
AcDbEntity
  8
AM_4
100
AcDbPolyline
 90
        3
 70
     0
 43
0.0
 10
-2.624861013464304
 20
-1.081820652351663
 10
-2.612266779776465
 20
-1.109917225041831
 10
-2.598917013142599
 20
-1.13759674014343
  0
LINE
  5
FF
330
91
100
AcDbEntity
  8
AM_4
100
AcDbLine
 10
-2.586009997541657
 20
-1.132381967343385
 30
0.0
 11
-2.598917013142599
 21
-1.13759674014343
 31
0.0
  0
LINE
  5
100
330
91
100
AcDbEntity
  8
AM_4
100
AcDbLine
 10
-2.748661507873788
 20
-0.9722906436038081
 30
0.0
 11
-2.72306376589325
 21
-0.9770342507104723
 31
0.0
  0
ELLIPSE
  5
101
330
91
100
AcDbEntity
  8
AM_4
100
AcDbEllipse
 10
-2.749259050663816
 20
-1.110772758082848
 30
0.0
 11
-0.05267905219910896
 21
0.1303852295484552
 31
0.0
210
0.0
220
0.0
230
1.0
 40
0.9063077870366482
 41
2.910521898151484
 42
3.565561594284269
  0
ELLIPSE
  5
102
330
91
100
AcDbEntity
  8
AM_4
100
AcDbEllipse
 10
-2.749259050663817
 20
-1.110772758082847
 30
0.0
 11
-0.05267905219910985
 21
0.130385229548454
 31
0.0
210
0.0
220
0.0
230
1.0
 40
0.9063077870366489
 41
5.859216366485153
 42
6.53481008016703
  0
LINE
  5
103
330
91
100
AcDbEntity
  8
AM_4
100
AcDbLine
 10
-2.63751316614823
 20
-1.188779415441251
 30
0.0
 11
-2.652631454370818
 21
-1.209973366561874
 31
0.0
  0
ELLIPSE
  5
104
330
91
100
AcDbEntity
  8
AM_4
100
AcDbEllipse
 10
-2.749259050663816
 20
-1.110772758082848
 30
0.0
 11
-0.05267905219911297
 21
0.1303852295484535
 31
0.0
210
0.0
220
0.0
230
1.0
 40
0.906307787036652
 41
3.764821264091934
 42
4.571432719802701
  0
LWPOLYLINE
  5
105
330
91
100
AcDbEntity
  8
AM_4
100
AcDbPolyline
 90
        3
 70
     0
 43
0.0
 10
-2.639662768833618
 20
-1.045185022229591
 10
-2.632703381923093
 20
-1.06356889262659
 10
-2.624861013464304
 20
-1.081820652351663
  0
ELLIPSE
  5
106
330
91
100
AcDbEntity
  8
AM_4
100
AcDbEllipse
 10
-2.749259050663817
 20
-1.110772758082847
 30
0.0
 11
-0.05267905219911474
 21
0.1303852295484538
 31
0.0
210
0.0
220
0.0
230
1.0
 40
0.9063077870366439
 41
4.853345240966656
 42
5.65995669667742
  0
LWPOLYLINE
  5
107
330
91
100
AcDbEntity
  8
AM_4
100
AcDbPolyline
 90
        4
 70
     0
 43
0.0
 10
-2.937382362485631
 20
-1.086834885700614
 10
-2.941010324770231
 20
-1.10201221765489
 10
-2.943288553209473
 20
-1.124612382611462
 10
-2.943188038447244
 20
-1.134310855174679
  0
LWPOLYLINE
  5
108
330
91
100
AcDbEntity
  8
AM_4
100
AcDbPolyline
 90
       32
 70
     0
 43
0.0
 10
-2.870109309213535
 20
-1.257436183395008
 10
-2.863195385404976
 20
-1.261230287439775
 10
-2.842470076208587
 20
-1.26976461173007
 10
-2.820898351577001
 20
-1.274632784242362
 10
-2.799091204911993
 20
-1.275709724424607
 10
-2.777659735020405
 20
-1.27298870324626
 10
-2.757189002573926
 20
-1.26657468904814
 10
-2.738219049981398
 20
-1.25666958093976
 10
-2.721240786768967
 20
-1.243560567868131
 10
-2.706683205428098
 20
-1.227604456272499
 10
-2.694910562034435
 20
-1.209214187190385
 10
-2.686225821412758
 20
-1.188859128010163
 10
-2.680863150825737
 20
-1.167062717240005
 10
-2.678977169481204
 20
-1.144394833266299
 10
-2.680633309567012
 20
-1.121457764784623
 10
-2.685802503644409
 20
-1.098868113304938
 10
-2.694360790113554
 20
-1.077238017324085
 10
-2.706092447859711
 20
-1.057157935986732
 10
-2.72069200347415
 20
-1.039184338758991
 10
-2.737773325110825
 20
-1.023818539138968
 10
-2.756874916967562
 20
-1.011495035130536
 10
-2.777469053189357
 20
-1.002565114846304
 10
-2.798976453542714
 20
-0.9972801662786552
 10
-2.820787860645876
 20
-0.9957783910593111
 10
-2.842290816346393
 20
-0.9980795672852227
 10
-2.862896246873604
 20
-1.004090539659777
 10
-2.882058463495278
 20
-1.013619362780029
 10
-2.899281268965228
 20
-1.026388141692259
 10
-2.914127631918054
 20
-1.042046478380254
 10
-2.926226686387474
 20
-1.06018778378357
 10
-2.935268364181042
 20
-1.080348920397948
 10
-2.937382362485631
 20
-1.086834885700614
  0
LWPOLYLINE
  5
109
330
91
100
AcDbEntity
  8
AM_4
100
AcDbPolyline
 90
        6
 70
     0
 43
0.0
 10
-2.932218940067465
 20
-1.184693351677822
 10
-2.92677721777789
 20
-1.196659376047257
 10
-2.914717553355609
 20
-1.216515368743159
 10
-2.899821001957084
 20
-1.234222129936466
 10
-2.882490466540853
 20
-1.249269139757358
 10
-2.870109309213535
 20
-1.257436183395008
  0
ELLIPSE
  5
10A
330
91
100
AcDbEntity
  8
AM_4
100
AcDbEllipse
 10
-2.815290467638879
 20
-1.137451182269829
 30
0.0
 11
-0.05212596656866265
 21
0.1290162945757189
 31
0.0
210
0.0
220
0.0
230
1.0
 40
0.90630778703664
 41
1.197396459789086
 42
1.570796326794897
  0
ELLIPSE
  5
10B
330
91
100
AcDbEntity
  8
AM_4
100
AcDbEllipse
 10
-2.815290467638876
 20
-1.13745118226983
 30
0.0
 11
-0.05212596656866311
 21
0.1290162945757198
 31
0.0
210
0.0
220
0.0
230
1.0
 40
0.9063077870366542
 41
1.570796326794897
 42
7.480581766968665
  0
ELLIPSE
  5
10C
330
91
100
AcDbEntity
  8
AM_4
100
AcDbEllipse
 10
-2.845261033751926
 20
-1.149560076982627
 30
0.0
 11
0.03876527951952143
 21
-0.0959474337077755
 31
0.0
210
0.0
220
0.0
230
1.0
 40
0.9063077870366482
 41
0.0
 42
6.283185307179586
  0
ENDBLK
  5
94
330
91
100
AcDbEntity
  8
0
100
AcDbBlockEnd
  0
BLOCK
  5
10F
330
10D
100
AcDbEntity
  8
0
100
AcDbBlockBegin
  2
3_ASME_B18_3_10_1_0_in_069381_0
 70
     2
 10
0.0
 20
0.0
 30
0.0
  3
3_ASME_B18_3_10_1_0_in_069381_0
  1

  0
ATTDEF
  5
111
330
10D
100
AcDbEntity
  8
AM_6
100
AcDbText
 10
5.189525
 20
-1.3195
 30
0.0
 40
0.5
  1
ANSI/ASME B18.3-1998
100
AcDbAttributeDefinition
  3

  2
NN
 70
     8
280
     0
  0
ATTDEF
  5
112
330
10D
100
AcDbEntity
  8
AM_6
100
AcDbText
 10
5.189525
 20
-1.8195
 30
0.0
 40
0.5
  1
Socket Button Head Cap Screws
100
AcDbAttributeDefinition
  3

  2
NT
 70
     8
280
     0
  0
ATTDEF
  5
113
330
10D
100
AcDbEntity
  8
AM_6
100
AcDbText
 10
5.189525
 20
-2.3195
 30
0.0
 40
0.5
  1
ASME B18.3-10
100
AcDbAttributeDefinition
  3

  2
NB
 70
     8
280
     0
  0
ATTDEF
  5
114
330
10D
100
AcDbEntity
  8
AM_6
100
AcDbText
 10
5.189525
 20
-2.8195
 30
0.0
 40
0.5
  1
ASME B18.3-$NS.
100
AcDbAttributeDefinition
  3

  2
NBSYN
 70
     8
280
     0
  0
ATTDEF
  5
115
330
10D
100
AcDbEntity
  8
AM_6
100
AcDbText
 10
5.189525
 20
-3.3195
 30
0.0
 40
0.5
  1
ASME B18.3-10
100
AcDbAttributeDefinition
  3

  2
LINA
 70
     8
280
     0
  0
ATTDEF
  5
116
330
10D
100
AcDbEntity
  8
AM_6
100
AcDbText
 10
5.189525
 20
-3.8195
 30
0.0
 40
0.5
  1
10
100
AcDbAttributeDefinition
  3

  2
NS
 70
     8
280
     0
  0
ATTDEF
  5
117
330
10D
100
AcDbEntity
  8
AM_6
100
AcDbText
 10
5.189525
 20
-4.3195
 30
0.0
 40
0.5
  1
0.361
100
AcDbAttributeDefinition
  3

  2
A
 70
     8
280
     0
  0
ATTDEF
  5
118
330
10D
100
AcDbEntity
  8
AM_6
100
AcDbText
 10
5.189525
 20
-4.8195
 30
0.0
 40
0.5
  1
0.101
100
AcDbAttributeDefinition
  3

  2
H
 70
     8
280
     0
  0
ATTDEF
  5
119
330
10D
100
AcDbEntity
  8
AM_6
100
AcDbText
 10
5.189525
 20
-5.3195
 30
0.0
 40
0.5
  1
0.800
100
AcDbAttributeDefinition
  3

  2
L
 70
     8
280
     0
  0
ATTDEF
  5
11A
330
10D
100
AcDbEntity
  8
AM_6
100
AcDbText
 10
5.189525
 20
-5.8195
 30
0.0
 40
0.5
  1
0.020
100
AcDbAttributeDefinition
  3

  2
S
 70
     8
280
     0
  0
ATTDEF
  5
11B
330
10D
100
AcDbEntity
  8
AM_6
100
AcDbText
 10
5.189525
 20
-6.3195
 30
0.0
 40
0.5
  1
0.125000
100
AcDbAttributeDefinition
  3

  2
J
 70
     8
280
     0
  0
ATTDEF
  5
11C
330
10D
100
AcDbEntity
  8
AM_6
100
AcDbText
 10
5.189525
 20
-6.8195
 30
0.0
 40
0.5
  1
baldor
100
AcDbAttributeDefinition
  3

  2
COMPANY
 70
     8
280
     0
  0
ARC
  5
11D
330
10D
100
AcDbEntity
  8
AM_5
100
AcDbCircle
 10
0.0000000000000001
 20
-1.5
 30
0.0
 40
0.0702000000000001
100
AcDbArc
 50
75.00000000000006
 51
15.00000000000019
  0
LINE
  5
11E
330
10D
100
AcDbEntity
  8
AM_7
100
AcDbLine
 10
-0.1895249999999999
 20
-1.5
 30
0.0
 11
0.1895249999999999
 21
-1.5
 31
0.0
  0
LINE
  5
11F
330
10D
100
AcDbEntity
  8
AM_4
100
AcDbLine
 10
-0.0625
 20
-1.463915608175648
 30
0.0
 11
0.0
 21
-1.427831216351297
 31
0.0
  0
LINE
  5
120
330
10D
100
AcDbEntity
  8
AM_4
100
AcDbLine
 10
0.0
 20
-1.427831216351297
 30
0.0
 11
0.0625
 21
-1.463915608175648
 31
0.0
  0
LINE
  5
121
330
10D
100
AcDbEntity
  8
AM_4
100
AcDbLine
 10
0.0625
 20
-1.463915608175648
 30
0.0
 11
0.0625
 21
-1.536084391824351
 31
0.0
  0
LINE
  5
122
330
10D
100
AcDbEntity
  8
AM_4
100
AcDbLine
 10
0.0625
 20
-1.536084391824351
 30
0.0
 11
0.0
 21
-1.572168783648703
 31
0.0
  0
LINE
  5
123
330
10D
100
AcDbEntity
  8
AM_4
100
AcDbLine
 10
0.0
 20
-1.572168783648703
 30
0.0
 11
-0.0625
 21
-1.536084391824351
 31
0.0
  0
LINE
  5
124
330
10D
100
AcDbEntity
  8
AM_4
100
AcDbLine
 10
-0.0625
 20
-1.536084391824351
 30
0.0
 11
-0.0625
 21
-1.463915608175648
 31
0.0
  0
CIRCLE
  5
125
330
10D
100
AcDbEntity
  8
AM_4
100
AcDbCircle
 10
0.0
 20
-1.5
 30
0.0
 40
0.0995
  0
ARC
  5
126
330
10D
100
AcDbEntity
  8
AM_5
100
AcDbCircle
 10
0.0
 20
-1.5
 30
0.0
 40
0.0702
100
AcDbArc
 50
344.9999999999998
 51
284.9999999999999
  0
CIRCLE
  5
127
330
10D
100
AcDbEntity
  8
AM_4
100
AcDbCircle
 10
0.0
 20
-1.5
 30
0.0
 40
0.1804999999999999
  0
CIRCLE
  5
128
330
10D
100
AcDbEntity
  8
AM_5
100
AcDbCircle
 10
0.0
 20
-1.5
 30
0.0
 40
0.0764
  0
ENDBLK
  5
110
330
10D
100
AcDbEntity
  8
0
100
AcDbBlockEnd
  0
BLOCK
  5
12B
330
129
100
AcDbEntity
  8
0
100
AcDbBlockBegin
  2
4_ASME_B18_3_10_2_0_in_069381_0
 70
     2
 10
0.0
 20
0.0
 30
0.0
  3
4_ASME_B18_3_10_2_0_in_069381_0
  1

  0
ATTDEF
  5
12D
330
129
100
AcDbEntity
  8
AM_6
100
AcDbText
 10
5.189525
 20
1.6805
 30
0.0
 40
0.5
  1
ANSI/ASME B18.3-1998
100
AcDbAttributeDefinition
  3

  2
NN
 70
     8
280
     0
  0
ATTDEF
  5
12E
330
129
100
AcDbEntity
  8
AM_6
100
AcDbText
 10
5.189525
 20
1.1805
 30
0.0
 40
0.5
  1
Socket Button Head Cap Screws
100
AcDbAttributeDefinition
  3

  2
NT
 70
     8
280
     0
  0
ATTDEF
  5
12F
330
129
100
AcDbEntity
  8
AM_6
100
AcDbText
 10
5.189525
 20
0.6804999999999997
 30
0.0
 40
0.5
  1
ASME B18.3-10
100
AcDbAttributeDefinition
  3

  2
NB
 70
     8
280
     0
  0
ATTDEF
  5
130
330
129
100
AcDbEntity
  8
AM_6
100
AcDbText
 10
5.189525
 20
0.1804999999999997
 30
0.0
 40
0.5
  1
ASME B18.3-$NS.
100
AcDbAttributeDefinition
  3

  2
NBSYN
 70
     8
280
     0
  0
ATTDEF
  5
131
330
129
100
AcDbEntity
  8
AM_6
100
AcDbText
 10
5.189525
 20
-0.3195000000000003
 30
0.0
 40
0.5
  1
ASME B18.3-10
100
AcDbAttributeDefinition
  3

  2
LINA
 70
     8
280
     0
  0
ATTDEF
  5
132
330
129
100
AcDbEntity
  8
AM_6
100
AcDbText
 10
5.189525
 20
-0.8195000000000003
 30
0.0
 40
0.5
  1
10
100
AcDbAttributeDefinition
  3

  2
NS
 70
     8
280
     0
  0
ATTDEF
  5
133
330
129
100
AcDbEntity
  8
AM_6
100
AcDbText
 10
5.189525
 20
-1.3195
 30
0.0
 40
0.5
  1
0.361
100
AcDbAttributeDefinition
  3

  2
A
 70
     8
280
     0
  0
ATTDEF
  5
134
330
129
100
AcDbEntity
  8
AM_6
100
AcDbText
 10
5.189525
 20
-1.8195
 30
0.0
 40
0.5
  1
0.101
100
AcDbAttributeDefinition
  3

  2
H
 70
     8
280
     0
  0
ATTDEF
  5
135
330
129
100
AcDbEntity
  8
AM_6
100
AcDbText
 10
5.189525
 20
-2.319500000000001
 30
0.0
 40
0.5
  1
0.800
100
AcDbAttributeDefinition
  3

  2
L
 70
     8
280
     0
  0
ATTDEF
  5
136
330
129
100
AcDbEntity
  8
AM_6
100
AcDbText
 10
5.189525
 20
-2.819500000000001
 30
0.0
 40
0.5
  1
0.020
100
AcDbAttributeDefinition
  3

  2
S
 70
     8
280
     0
  0
ATTDEF
  5
137
330
129
100
AcDbEntity
  8
AM_6
100
AcDbText
 10
5.189525
 20
-3.319500000000001
 30
0.0
 40
0.5
  1
0.125000
100
AcDbAttributeDefinition
  3

  2
J
 70
     8
280
     0
  0
ATTDEF
  5
138
330
129
100
AcDbEntity
  8
AM_6
100
AcDbText
 10
5.189525
 20
-3.819500000000001
 30
0.0
 40
0.5
  1
baldor
100
AcDbAttributeDefinition
  3

  2
COMPANY
 70
     8
280
     0
  0
ARC
  5
139
330
129
100
AcDbEntity
  8
AM_5
100
AcDbCircle
 10
-0.0000000000000001
 20
1.5
 30
0.0
 40
0.0702000000000003
100
AcDbArc
 50
75.0000000000001
 51
15.00000000000019
  0
LINE
  5
13A
330
129
100
AcDbEntity
  8
AM_7
100
AcDbLine
 10
-0.1895249999999999
 20
1.5
 30
0.0
 11
0.1895249999999999
 21
1.5
 31
0.0
  0
LINE
  5
13B
330
129
100
AcDbEntity
  8
AM_4
100
AcDbLine
 10
0.0
 20
1.427831216351297
 30
0.0
 11
-0.0625
 21
1.463915608175648
 31
0.0
  0
CIRCLE
  5
13C
330
129
100
AcDbEntity
  8
AM_4
100
AcDbCircle
 10
0.0
 20
1.5
 30
0.0
 40
0.0995
  0
LINE
  5
13D
330
129
100
AcDbEntity
  8
AM_4
100
AcDbLine
 10
-0.0625
 20
1.463915608175648
 30
0.0
 11
-0.0625
 21
1.536084391824351
 31
0.0
  0
LINE
  5
13E
330
129
100
AcDbEntity
  8
AM_4
100
AcDbLine
 10
-0.0625
 20
1.536084391824351
 30
0.0
 11
0.0
 21
1.572168783648703
 31
0.0
  0
LINE
  5
13F
330
129
100
AcDbEntity
  8
AM_4
100
AcDbLine
 10
0.0
 20
1.572168783648703
 30
0.0
 11
0.0625
 21
1.536084391824351
 31
0.0
  0
LINE
  5
140
330
129
100
AcDbEntity
  8
AM_4
100
AcDbLine
 10
0.0625
 20
1.536084391824351
 30
0.0
 11
0.0625
 21
1.463915608175648
 31
0.0
  0
LINE
  5
141
330
129
100
AcDbEntity
  8
AM_4
100
AcDbLine
 10
0.0625
 20
1.463915608175648
 30
0.0
 11
0.0
 21
1.427831216351297
 31
0.0
  0
ARC
  5
142
330
129
100
AcDbEntity
  8
AM_5
100
AcDbCircle
 10
0.0000000000000001
 20
1.5
 30
0.0
 40
0.0763999999999999
100
AcDbArc
 50
75.00000000000006
 51
14.9999999999999
  0
ARC
  5
143
330
129
100
AcDbEntity
  8
AM_5
100
AcDbCircle
 10
-0.0000000000000001
 20
1.5
 30
0.0
 40
0.0764
100
AcDbArc
 50
14.99999999999987
 51
195.0000000000001
  0
ARC
  5
144
330
129
100
AcDbEntity
  8
AM_5
100
AcDbCircle
 10
0.0
 20
1.5
 30
0.0
 40
0.0702
100
AcDbArc
 50
344.9999999999998
 51
284.9999999999999
  0
CIRCLE
  5
145
330
129
100
AcDbEntity
  8
AM_4
100
AcDbCircle
 10
0.0
 20
1.5
 30
0.0
 40
0.1804999999999999
  0
ENDBLK
  5
12C
330
129
100
AcDbEntity
  8
0
100
AcDbBlockEnd
  0
BLOCK
  5
148
330
146
100
AcDbEntity
  8
0
100
AcDbBlockBegin
  2
5_070893LW_0_in_069381_0
 70
     2
 10
0.0
 20
0.0
 30
0.0
  3
5_070893LW_0_in_069381_0
  1

  0
ATTDEF
  5
14A
330
146
100
AcDbEntity
  8
AM_6
100
AcDbText
 10
6.75
 20
1.75
 30
0.0
 40
0.5
  1
Imperial Insert Lockwasher -Inch
100
AcDbAttributeDefinition
  3

  2
NN
 70
     8
280
     0
  0
ATTDEF
  5
14B
330
146
100
AcDbEntity
  8
AM_6
100
AcDbText
 10
6.75
 20
1.25
 30
0.0
 40
0.5
  1
Imperial Bearings
100
AcDbAttributeDefinition
  3

  2
NT
 70
     8
280
     0
  0
ATTDEF
  5
14C
330
146
100
AcDbEntity
  8
AM_6
100
AcDbText
 10
6.75
 20
0.75
 30
0.0
 40
0.5
  1
070893LW
100
AcDbAttributeDefinition
  3

  2
NB
 70
     8
280
     0
  0
ATTDEF
  5
14D
330
146
100
AcDbEntity
  8
AM_6
100
AcDbText
 10
6.75
 20
0.25
 30
0.0
 40
0.5
  1
$PN.LW
100
AcDbAttributeDefinition
  3

  2
NBSYN
 70
     8
280
     0
  0
ATTDEF
  5
14E
330
146
100
AcDbEntity
  8
AM_6
100
AcDbText
 10
6.75
 20
-0.25
 30
0.0
 40
0.5
  1
070893
100
AcDbAttributeDefinition
  3

  2
LINA
 70
     8
280
     0
  0
ATTDEF
  5
14F
330
146
100
AcDbEntity
  8
AM_6
100
AcDbText
 10
6.75
 20
-0.75
 30
0.0
 40
0.5
  1
2-1/4
100
AcDbAttributeDefinition
  3

  2
SS
 70
     8
280
     0
  0
ATTDEF
  5
150
330
146
100
AcDbEntity
  8
AM_6
100
AcDbText
 10
6.75
 20
-1.25
 30
0.0
 40
0.5
  1
2.250000
100
AcDbAttributeDefinition
  3

  2
SS1
 70
     8
280
     0
  0
ATTDEF
  5
151
330
146
100
AcDbEntity
  8
AM_6
100
AcDbText
 10
6.75
 20
-1.75
 30
0.0
 40
0.5
  1
070893
100
AcDbAttributeDefinition
  3

  2
PN
 70
     8
280
     0
  0
ATTDEF
  5
152
330
146
100
AcDbEntity
  8
AM_6
100
AcDbText
 10
6.75
 20
-2.25
 30
0.0
 40
0.5
  1
INS-IP-204R
100
AcDbAttributeDefinition
  3

  2
DESCRIPTION
 70
     8
280
     0
  0
ATTDEF
  5
153
330
146
100
AcDbEntity
  8
AM_6
100
AcDbText
 10
6.75
 20
-2.75
 30
0.0
 40
0.5
  1
3.9370
100
AcDbAttributeDefinition
  3

  2
A
 70
     8
280
     0
  0
ATTDEF
  5
154
330
146
100
AcDbEntity
  8
AM_6
100
AcDbText
 10
6.75
 20
-3.25
 30
0.0
 40
0.5
  1
1-3/64
100
AcDbAttributeDefinition
  3

  2
B
 70
     8
280
     0
  0
ATTDEF
  5
155
330
146
100
AcDbEntity
  8
AM_6
100
AcDbText
 10
6.75
 20
-3.75
 30
0.0
 40
0.5
  1
3-1/32
100
AcDbAttributeDefinition
  3

  2
C
 70
     8
280
     0
  0
ATTDEF
  5
156
330
146
100
AcDbEntity
  8
AM_6
100
AcDbText
 10
6.75
 20
-4.25
 30
0.0
 40
0.5
  1
1.050
100
AcDbAttributeDefinition
  3

  2
D
 70
     8
280
     0
  0
ATTDEF
  5
157
330
146
100
AcDbEntity
  8
AM_6
100
AcDbText
 10
6.75
 20
-4.75
 30
0.0
 40
0.5
  1
3-1/2
100
AcDbAttributeDefinition
  3

  2
E
 70
     8
280
     0
  0
ATTDEF
  5
158
330
146
100
AcDbEntity
  8
AM_6
100
AcDbText
 10
6.75
 20
-5.25
 30
0.0
 40
0.5
  1
0.1900
100
AcDbAttributeDefinition
  3

  2
NDM
 70
     8
280
     0
  0
ATTDEF
  5
159
330
146
100
AcDbEntity
  8
AM_6
100
AcDbText
 10
6.75
 20
-5.75
 30
0.0
 40
0.5
  1
0.1450
100
AcDbAttributeDefinition
  3

  2
KDM
 70
     8
280
     0
  0
ATTDEF
  5
15A
330
146
100
AcDbEntity
  8
AM_6
100
AcDbText
 10
6.75
 20
-6.25
 30
0.0
 40
0.5
  1
2.92
100
AcDbAttributeDefinition
  3

  2
AL
 70
     8
280
     0
  0
ATTDEF
  5
15B
330
146
100
AcDbEntity
  8
AM_6
100
AcDbText
 10
6.75
 20
-6.75
 30
0.0
 40
0.5
  1
0.50
100
AcDbAttributeDefinition
  3

  2
BL
 70
     8
280
     0
  0
ATTDEF
  5
15C
330
146
100
AcDbEntity
  8
AM_6
100
AcDbText
 10
6.75
 20
-7.25
 30
0.0
 40
0.5
  1
0.07
100
AcDbAttributeDefinition
  3

  2
CL
 70
     8
280
     0
  0
ATTDEF
  5
15D
330
146
100
AcDbEntity
  8
AM_6
100
AcDbText
 10
6.75
 20
-7.75
 30
0.0
 40
0.5
  1
0.44
100
AcDbAttributeDefinition
  3

  2
DL
 70
     8
280
     0
  0
ATTDEF
  5
15E
330
146
100
AcDbEntity
  8
AM_6
100
AcDbText
 10
6.75
 20
-8.25
 30
0.0
 40
0.5
  1
baldor
100
AcDbAttributeDefinition
  3

  2
COMPANY
 70
     8
280
     0
  0
ARC
  5
15F
330
146
100
AcDbEntity
  8
AM_9
100
AcDbCircle
 10
0.0000000000000074
 20
-0.0000000000000213
 30
0.0
 40
1.184210526315812
100
AcDbArc
 50
106.4408245728696
 51
118.5591754271302
  0
LINE
  5
160
330
146
100
AcDbEntity
  8
AM_9
100
AcDbLine
 10
0.0949999999999998
 20
1.5
 30
0.0
 11
0.0949999999999997
 21
1.346522802996666
 31
0.0
  0
LINE
  5
161
330
146
100
AcDbEntity
  8
AM_9
100
AcDbLine
 10
-0.0950000000000002
 20
1.346522802996667
 30
0.0
 11
-0.0950000000000002
 21
1.5
 31
0.0
  0
LINE
  5
162
330
146
100
AcDbEntity
  8
AM_9
100
AcDbLine
 10
-0.0949999999999993
 20
-1.5
 30
0.0
 11
-0.0949999999999992
 21
-1.346522802996666
 31
0.0
  0
LINE
  5
163
330
146
100
AcDbEntity
  8
AM_9
100
AcDbLine
 10
0.0950000000000006
 20
-1.346522802996667
 30
0.0
 11
0.0950000000000008
 21
-1.5
 31
0.0
  0
LINE
  5
164
330
146
100
AcDbEntity
  8
AM_7
100
AcDbLine
 10
-1.160443916002941
 20
1.060693903426992
 30
0.0
 11
-0.9609438908510431
 21
1.060693903426992
 31
0.0
  0
LINE
  5
165
330
146
100
AcDbEntity
  8
AM_7
100
AcDbLine
 10
-1.060693903426992
 20
0.9609438908510429
 30
0.0
 11
-1.060693903426992
 21
1.160443916002941
 31
0.0
  0
LINE
  5
166
330
146
100
AcDbEntity
  8
AM_7
100
AcDbLine
 10
-1.50004770375291
 20
-0.0997500125759499
 30
0.0
 11
-1.50004770375291
 21
0.0997500125759479
 31
0.0
  0
LINE
  5
167
330
146
100
AcDbEntity
  8
AM_7
100
AcDbLine
 10
-1.160443916002941
 20
-1.060693903426993
 30
0.0
 11
-0.9609438908510427
 21
-1.060693903426993
 31
0.0
  0
LINE
  5
168
330
146
100
AcDbEntity
  8
AM_7
100
AcDbLine
 10
-1.060693903426992
 20
-1.160443916002942
 30
0.0
 11
-1.060693903426992
 21
-0.9609438908510443
 31
0.0
  0
LINE
  5
169
330
146
100
AcDbEntity
  8
AM_7
100
AcDbLine
 10
0.9609438908510431
 20
1.060693903426992
 30
0.0
 11
1.160443916002941
 21
1.060693903426992
 31
0.0
  0
LINE
  5
16A
330
146
100
AcDbEntity
  8
AM_7
100
AcDbLine
 10
1.060693903426992
 20
0.9609438908510436
 30
0.0
 11
1.060693903426992
 21
1.160443916002941
 31
0.0
  0
LINE
  5
16B
330
146
100
AcDbEntity
  8
AM_7
100
AcDbLine
 10
0.9609438908510441
 20
-1.060693903426992
 30
0.0
 11
1.160443916002942
 21
-1.060693903426992
 31
0.0
  0
LINE
  5
16C
330
146
100
AcDbEntity
  8
AM_7
100
AcDbLine
 10
1.060693903426993
 20
-1.160443916002941
 30
0.0
 11
1.060693903426993
 21
-0.960943890851043
 31
0.0
  0
LINE
  5
16D
330
146
100
AcDbEntity
  8
AM_7
100
AcDbLine
 10
1.50004770375291
 20
-0.0997500125759484
 30
0.0
 11
1.50004770375291
 21
0.0997500125759494
 31
0.0
  0
LINE
  5
16E
330
146
100
AcDbEntity
  8
AM_4
100
AcDbLine
 10
0.0949999999999997
 20
1.346522802996666
 30
0.0
 11
0.0949999999999998
 21
1.212500261685452
 31
0.0
  0
ARC
  5
16F
330
146
100
AcDbEntity
  8
AM_4
100
AcDbCircle
 10
-1.50004770375291
 20
-0.0000000000000009
 30
0.0
 40
0.095000011977094
100
AcDbArc
 50
89.97122922653745
 51
270.0287707734628
  0
ARC
  5
170
330
146
100
AcDbEntity
  8
AM_4
100
AcDbCircle
 10
-0.0000000000000021
 20
-0.0000000000000047
 30
0.0
 40
1.216216216216211
100
AcDbArc
 50
229.4800005720169
 51
265.5199994279831
  0
ARC
  5
171
330
146
100
AcDbEntity
  8
AM_4
100
AcDbCircle
 10
0.0000000000000001
 20
-0.0000000000000002
 30
0.0
 40
1.216216216216216
100
AcDbArc
 50
49.480000572017
 51
85.51999942798297
  0
ARC
  5
172
330
146
100
AcDbEntity
  8
AM_4
100
AcDbCircle
 10
-0.0000000000000067
 20
-0.000000000000003
 30
0.0
 40
1.216216216216223
100
AcDbArc
 50
4.480000572017279
 51
40.51999942798287
  0
LINE
  5
173
330
146
100
AcDbEntity
  8
AM_4
100
AcDbLine
 10
1.127835315992543
 20
0.9934850275670993
 30
0.0
 11
0.9245423014409684
 21
0.7901920130155248
 31
0.0
  0
LINE
  5
174
330
146
100
AcDbEntity
  8
AM_4
100
AcDbLine
 10
-0.0950000000000006
 20
1.212500261685452
 30
0.0
 11
-0.0950000000000002
 21
1.346522802996667
 31
0.0
  0
LINE
  5
175
330
146
100
AcDbEntity
  8
AM_4
100
AcDbLine
 10
-0.0949999999999992
 20
-1.346522802996666
 30
0.0
 11
-0.0949999999999993
 21
-1.212500261685452
 31
0.0
  0
ARC
  5
176
330
146
100
AcDbEntity
  8
AM_4
100
AcDbCircle
 10
-0.0000000000000042
 20
0.0000000000000202
 30
0.0
 40
1.216216216216196
100
AcDbArc
 50
94.48000057201695
 51
106.6008501316068
  0
LINE
  5
177
330
146
100
AcDbEntity
  8
AM_4
100
AcDbLine
 10
-0.3351610878026547
 20
1.135791184971982
 30
0.0
 11
-0.3474761188090756
 21
1.165522299848729
 31
0.0
  0
ARC
  5
178
330
146
100
AcDbEntity
  8
AM_4
100
AcDbCircle
 10
-0.0000000000000083
 20
0.0000000000000209
 30
0.0
 40
1.124999999999978
100
AcDbArc
 50
106.1206297915571
 51
118.879370208443
  0
LINE
  5
179
330
146
100
AcDbEntity
  8
AM_4
100
AcDbLine
 10
-0.5784460019368972
 20
1.069851441757457
 30
0.0
 11
-0.5661309709304763
 21
1.04012032688071
 31
0.0
  0
LINE
  5
17A
330
146
100
AcDbEntity
  8
AM_4
100
AcDbLine
 10
0.7901920130155253
 20
0.924542301440968
 30
0.0
 11
0.9934850275670989
 21
1.127835315992543
 31
0.0
  0
ARC
  5
17B
330
146
100
AcDbEntity
  8
AM_4
100
AcDbCircle
 10
1.060693903426992
 20
1.060693903426992
 30
0.0
 40
0.0950000119770942
100
AcDbArc
 50
314.9712292265371
 51
135.028770773463
  0
LINE
  5
17C
330
146
100
AcDbEntity
  8
AM_4
100
AcDbLine
 10
1.212500261685452
 20
0.0950000000000012
 30
0.0
 11
1.5
 21
0.0950000000000005
 31
0.0
  0
ARC
  5
17D
330
146
100
AcDbEntity
  8
AM_4
100
AcDbCircle
 10
1.50004770375291
 20
0.0000000000000005
 30
0.0
 40
0.0950000119770942
100
AcDbArc
 50
269.9712292265376
 51
90.02877077346241
  0
LINE
  5
17E
330
146
100
AcDbEntity
  8
AM_4
100
AcDbLine
 10
1.5
 20
-0.0949999999999995
 30
0.0
 11
1.212500261685452
 21
-0.0949999999999997
 31
0.0
  0
ARC
  5
17F
330
146
100
AcDbEntity
  8
AM_4
100
AcDbCircle
 10
0.0000000000000027
 20
-0.0000000000000009
 30
0.0
 40
1.216216216216214
100
AcDbArc
 50
319.480000572017
 51
355.519999427983
  0
LINE
  5
180
330
146
100
AcDbEntity
  8
AM_4
100
AcDbLine
 10
0.9245423014409687
 20
-0.7901920130155246
 30
0.0
 11
1.127835315992544
 21
-0.9934850275670987
 31
0.0
  0
ARC
  5
181
330
146
100
AcDbEntity
  8
AM_4
100
AcDbCircle
 10
1.060693903426993
 20
-1.060693903426992
 30
0.0
 40
0.0950000119770941
100
AcDbArc
 50
224.9712292265342
 51
45.02877077346296
  0
LINE
  5
182
330
146
100
AcDbEntity
  8
AM_4
100
AcDbLine
 10
0.9934850275670963
 20
-1.127835315992539
 30
0.0
 11
0.7901920130155249
 21
-0.9245423014409682
 31
0.0
  0
ARC
  5
183
330
146
100
AcDbEntity
  8
AM_4
100
AcDbCircle
 10
-0.0000000000000035
 20
0.0000000000000082
 30
0.0
 40
1.216216216216224
100
AcDbArc
 50
274.4800005720173
 51
310.5199994279829
  0
LINE
  5
184
330
146
100
AcDbEntity
  8
AM_4
100
AcDbLine
 10
0.0950000000000016
 20
-1.212500261685452
 30
0.0
 11
0.0950000000000006
 21
-1.346522802996667
 31
0.0
  0
LINE
  5
185
330
146
100
AcDbEntity
  8
AM_4
100
AcDbLine
 10
-0.7901920130155256
 20
-0.924542301440968
 30
0.0
 11
-0.9934850275670983
 21
-1.127835315992544
 31
0.0
  0
ARC
  5
186
330
146
100
AcDbEntity
  8
AM_4
100
AcDbCircle
 10
-1.060693903426992
 20
-1.060693903426993
 30
0.0
 40
0.0950000119770943
100
AcDbArc
 50
134.9712292265372
 51
315.0287707734631
  0
LINE
  5
187
330
146
100
AcDbEntity
  8
AM_4
100
AcDbLine
 10
-1.127835315992543
 20
-0.9934850275671001
 30
0.0
 11
-0.9245423014409685
 21
-0.7901920130155251
 31
0.0
  0
ARC
  5
188
330
146
100
AcDbEntity
  8
AM_4
100
AcDbCircle
 10
0.0000000000000016
 20
0.0000000000000007
 30
0.0
 40
1.216216216216218
100
AcDbArc
 50
184.4800005720171
 51
220.519999427983
  0
LINE
  5
189
330
146
100
AcDbEntity
  8
AM_4
100
AcDbLine
 10
-1.212500261685452
 20
-0.0950000000000006
 30
0.0
 11
-1.5
 21
-0.0950000000000009
 31
0.0
  0
LINE
  5
18A
330
146
100
AcDbEntity
  8
AM_4
100
AcDbLine
 10
-1.5
 20
0.0949999999999988
 30
0.0
 11
-1.212500261685452
 21
0.0949999999999994
 31
0.0
  0
ARC
  5
18B
330
146
100
AcDbEntity
  8
AM_4
100
AcDbCircle
 10
0.0000000000000013
 20
-0.0000000000000009
 30
0.0
 40
1.216216216216218
100
AcDbArc
 50
139.4800005720171
 51
175.5199994279829
  0
LINE
  5
18C
330
146
100
AcDbEntity
  8
AM_4
100
AcDbLine
 10
-0.9245423014409687
 20
0.7901920130155244
 30
0.0
 11
-1.127835315992543
 21
0.993485027567099
 31
0.0
  0
ARC
  5
18D
330
146
100
AcDbEntity
  8
AM_4
100
AcDbCircle
 10
-1.060693903426992
 20
1.060693903426992
 30
0.0
 40
0.0950000119770941
100
AcDbArc
 50
44.97122922653449
 51
225.028770773463
  0
LINE
  5
18E
330
146
100
AcDbEntity
  8
AM_4
100
AcDbLine
 10
-0.9934850275670962
 20
1.12783531599254
 30
0.0
 11
-0.7901920130155246
 21
0.9245423014409685
 31
0.0
  0
ARC
  5
18F
330
146
100
AcDbEntity
  8
AM_4
100
AcDbCircle
 10
-0.0000000000000178
 20
0.000000000000028
 30
0.0
 40
1.216216216216183
100
AcDbArc
 50
118.3991498683932
 51
130.5199994279832
  0
CIRCLE
  5
190
330
146
100
AcDbEntity
  8
AM_4
100
AcDbCircle
 10
0.0
 20
0.0
 30
0.0
 40
1.75
  0
ENDBLK
  5
149
330
146
100
AcDbEntity
  8
0
100
AcDbBlockEnd
  0
BLOCK
  5
193
330
191
100
AcDbEntity
  8
0
100
AcDbBlockBegin
  2
6_070893I_0_in_069381_0
 70
     2
 10
0.0
 20
0.0
 30
0.0
  3
6_070893I_0_in_069381_0
  1

  0
ATTDEF
  5
195
330
191
100
AcDbEntity
  8
AM_6
100
AcDbText
 10
6.918499999999998
 20
1.918499999999998
 30
0.0
 40
0.5
  1
Imperial Insert -Inch
100
AcDbAttributeDefinition
  3

  2
NN
 70
     8
280
     0
  0
ATTDEF
  5
196
330
191
100
AcDbEntity
  8
AM_6
100
AcDbText
 10
6.918499999999998
 20
1.418499999999998
 30
0.0
 40
0.5
  1
Imperial Bearings
100
AcDbAttributeDefinition
  3

  2
NT
 70
     8
280
     0
  0
ATTDEF
  5
197
330
191
100
AcDbEntity
  8
AM_6
100
AcDbText
 10
6.918499999999998
 20
0.9184999999999983
 30
0.0
 40
0.5
  1
070893I
100
AcDbAttributeDefinition
  3

  2
NB
 70
     8
280
     0
  0
ATTDEF
  5
198
330
191
100
AcDbEntity
  8
AM_6
100
AcDbText
 10
6.918499999999998
 20
0.4184999999999983
 30
0.0
 40
0.5
  1
$PN.I
100
AcDbAttributeDefinition
  3

  2
NBSYN
 70
     8
280
     0
  0
ATTDEF
  5
199
330
191
100
AcDbEntity
  8
AM_6
100
AcDbText
 10
6.918499999999998
 20
-0.0815000000000017
 30
0.0
 40
0.5
  1
070893
100
AcDbAttributeDefinition
  3

  2
LINA
 70
     8
280
     0
  0
ATTDEF
  5
19A
330
191
100
AcDbEntity
  8
AM_6
100
AcDbText
 10
6.918499999999998
 20
-0.5815000000000017
 30
0.0
 40
0.5
  1
2-1/4
100
AcDbAttributeDefinition
  3

  2
SS
 70
     8
280
     0
  0
ATTDEF
  5
19B
330
191
100
AcDbEntity
  8
AM_6
100
AcDbText
 10
6.918499999999998
 20
-1.081500000000002
 30
0.0
 40
0.5
  1
2.250000
100
AcDbAttributeDefinition
  3

  2
SS1
 70
     8
280
     0
  0
ATTDEF
  5
19C
330
191
100
AcDbEntity
  8
AM_6
100
AcDbText
 10
6.918499999999998
 20
-1.581500000000002
 30
0.0
 40
0.5
  1
070893
100
AcDbAttributeDefinition
  3

  2
PN
 70
     8
280
     0
  0
ATTDEF
  5
19D
330
191
100
AcDbEntity
  8
AM_6
100
AcDbText
 10
6.918499999999998
 20
-2.081500000000002
 30
0.0
 40
0.5
  1
INS-IP-204R
100
AcDbAttributeDefinition
  3

  2
DESCRIPTION
 70
     8
280
     0
  0
ATTDEF
  5
19E
330
191
100
AcDbEntity
  8
AM_6
100
AcDbText
 10
6.918499999999998
 20
-2.581500000000002
 30
0.0
 40
0.5
  1
Contact Seal
100
AcDbAttributeDefinition
  3

  2
ST
 70
     8
280
     0
  0
ATTDEF
  5
19F
330
191
100
AcDbEntity
  8
AM_6
100
AcDbText
 10
6.918499999999998
 20
-3.081500000000002
 30
0.0
 40
0.5
  1
3.9370
100
AcDbAttributeDefinition
  3

  2
A
 70
     8
280
     0
  0
ATTDEF
  5
1A0
330
191
100
AcDbEntity
  8
AM_6
100
AcDbText
 10
6.918499999999998
 20
-3.581500000000002
 30
0.0
 40
0.5
  1
1-3/64
100
AcDbAttributeDefinition
  3

  2
B
 70
     8
280
     0
  0
ATTDEF
  5
1A1
330
191
100
AcDbEntity
  8
AM_6
100
AcDbText
 10
6.918499999999998
 20
-4.081500000000002
 30
0.0
 40
0.5
  1
3-1/32
100
AcDbAttributeDefinition
  3

  2
C
 70
     8
280
     0
  0
ATTDEF
  5
1A2
330
191
100
AcDbEntity
  8
AM_6
100
AcDbText
 10
6.918499999999998
 20
-4.581500000000002
 30
0.0
 40
0.5
  1
1.050
100
AcDbAttributeDefinition
  3

  2
D
 70
     8
280
     0
  0
ATTDEF
  5
1A3
330
191
100
AcDbEntity
  8
AM_6
100
AcDbText
 10
6.918499999999998
 20
-5.081500000000002
 30
0.0
 40
0.5
  1
3-1/2
100
AcDbAttributeDefinition
  3

  2
E
 70
     8
280
     0
  0
ATTDEF
  5
1A4
330
191
100
AcDbEntity
  8
AM_6
100
AcDbText
 10
6.918499999999998
 20
-5.581500000000002
 30
0.0
 40
0.5
  1
0.1900
100
AcDbAttributeDefinition
  3

  2
NDM
 70
     8
280
     0
  0
ATTDEF
  5
1A5
330
191
100
AcDbEntity
  8
AM_6
100
AcDbText
 10
6.918499999999998
 20
-6.081500000000002
 30
0.0
 40
0.5
  1
0.101
100
AcDbAttributeDefinition
  3

  2
H
 70
     8
280
     0
  0
ATTDEF
  5
1A6
330
191
100
AcDbEntity
  8
AM_6
100
AcDbText
 10
6.918499999999998
 20
-6.581500000000002
 30
0.0
 40
0.5
  1
0.1450
100
AcDbAttributeDefinition
  3

  2
KDM
 70
     8
280
     0
  0
ATTDEF
  5
1A7
330
191
100
AcDbEntity
  8
AM_6
100
AcDbText
 10
6.918499999999998
 20
-7.081500000000002
 30
0.0
 40
0.5
  1
2.92
100
AcDbAttributeDefinition
  3

  2
AL
 70
     8
280
     0
  0
ATTDEF
  5
1A8
330
191
100
AcDbEntity
  8
AM_6
100
AcDbText
 10
6.918499999999998
 20
-7.581500000000002
 30
0.0
 40
0.5
  1
0.50
100
AcDbAttributeDefinition
  3

  2
BL
 70
     8
280
     0
  0
ATTDEF
  5
1A9
330
191
100
AcDbEntity
  8
AM_6
100
AcDbText
 10
6.918499999999998
 20
-8.081500000000002
 30
0.0
 40
0.5
  1
0.07
100
AcDbAttributeDefinition
  3

  2
CL
 70
     8
280
     0
  0
ATTDEF
  5
1AA
330
191
100
AcDbEntity
  8
AM_6
100
AcDbText
 10
6.918499999999998
 20
-8.581500000000002
 30
0.0
 40
0.5
  1
0.44
100
AcDbAttributeDefinition
  3

  2
DL
 70
     8
280
     0
  0
ATTDEF
  5
1AB
330
191
100
AcDbEntity
  8
AM_6
100
AcDbText
 10
6.918499999999998
 20
-9.081500000000002
 30
0.0
 40
0.5
  1
0.8000
100
AcDbAttributeDefinition
  3

  2
LL
 70
     8
280
     0
  0
ATTDEF
  5
1AC
330
191
100
AcDbEntity
  8
AM_6
100
AcDbText
 10
6.918499999999998
 20
-9.581500000000002
 30
0.0
 40
0.5
  1
0.025
100
AcDbAttributeDefinition
  3

  2
Y
 70
     8
280
     0
  0
ATTDEF
  5
1AD
330
191
100
AcDbEntity
  8
AM_6
100
AcDbText
 10
6.918499999999998
 20
-10.0815
 30
0.0
 40
0.5
  1
0.025000
100
AcDbAttributeDefinition
  3

  2
Y1
 70
     8
280
     0
  0
ATTDEF
  5
1AE
330
191
100
AcDbEntity
  8
AM_6
100
AcDbText
 10
6.918499999999998
 20
-10.5815
 30
0.0
 40
0.5
  1
2-19/32
100
AcDbAttributeDefinition
  3

  2
Z
 70
     8
280
     0
  0
ATTDEF
  5
1AF
330
191
100
AcDbEntity
  8
AM_6
100
AcDbText
 10
6.918499999999998
 20
-11.0815
 30
0.0
 40
0.5
  1
2.593750
100
AcDbAttributeDefinition
  3

  2
Z1
 70
     8
280
     0
  0
ATTDEF
  5
1B0
330
191
100
AcDbEntity
  8
AM_6
100
AcDbText
 10
6.918499999999998
 20
-11.5815
 30
0.0
 40
0.5
  1
baldor
100
AcDbAttributeDefinition
  3

  2
COMPANY
 70
     8
280
     0
  0
CIRCLE
  5
1B1
330
191
100
AcDbEntity
  8
AM_9
100
AcDbCircle
 10
0.0
 20
0.0
 30
0.0
 40
1.296875
  0
CIRCLE
  5
1B2
330
191
100
AcDbEntity
  8
AM_9
100
AcDbCircle
 10
0.0
 20
0.0
 30
0.0
 40
1.407719017094017
  0
CIRCLE
  5
1B3
330
191
100
AcDbEntity
  8
AM_9
100
AcDbCircle
 10
0.0
 20
0.0
 30
0.0
 40
1.589882260469459
  0
CIRCLE
  5
1B4
330
191
100
AcDbEntity
  8
AM_9
100
AcDbCircle
 10
0.0
 20
0.0
 30
0.0
 40
1.440972222222222
  0
CIRCLE
  5
1B5
330
191
100
AcDbEntity
  8
AM_9
100
AcDbCircle
 10
0.0
 20
0.0
 30
0.0
 40
1.676484800847903
  0
CIRCLE
  5
1B6
330
191
100
AcDbEntity
  8
AM_9
100
AcDbCircle
 10
0.0
 20
0.0
 30
0.0
 40
1.7685
  0
CIRCLE
  5
1B7
330
191
100
AcDbEntity
  8
AM_9
100
AcDbCircle
 10
0.0
 20
0.0
 30
0.0
 40
1.91615625
  0
CIRCLE
  5
1B8
330
191
100
AcDbEntity
  8
AM_9
100
AcDbCircle
 10
0.0
 20
-1.5
 30
0.0
 40
0.0724499999999999
  0
LINE
  5
1B9
330
191
100
AcDbEntity
  8
AM_9
100
AcDbLine
 10
1.049172059486351
 20
-1.402725450079624
 30
0.0
 11
0.8555992052357224
 21
-1.209152595828996
 31
0.0
  0
LINE
  5
1BA
330
191
100
AcDbEntity
  8
AM_9
100
AcDbLine
 10
-0.8555992052357225
 20
-1.209152595828996
 30
0.0
 11
-1.049172059486351
 21
-1.402725450079624
 31
0.0
  0
LINE
  5
1BB
330
191
100
AcDbEntity
  8
AM_9
100
AcDbLine
 10
1.402725450079625
 20
1.04917205948635
 30
0.0
 11
1.209152595828997
 21
0.8555992052357221
 31
0.0
  0
LINE
  5
1BC
330
191
100
AcDbEntity
  8
AM_9
100
AcDbLine
 10
1.209152595828996
 20
-0.8555992052357224
 30
0.0
 11
1.402725450079624
 21
-1.049172059486351
 31
0.0
  0
CIRCLE
  5
1BD
330
191
100
AcDbEntity
  8
AM_9
100
AcDbCircle
 10
0.0
 20
1.5
 30
0.0
 40
0.0724499999999999
  0
LINE
  5
1BE
330
191
100
AcDbEntity
  8
AM_9
100
AcDbLine
 10
-1.209152595828996
 20
0.8555992052357225
 30
0.0
 11
-1.402725450079624
 21
1.049172059486351
 31
0.0
  0
LINE
  5
1BF
330
191
100
AcDbEntity
  8
AM_9
100
AcDbLine
 10
-1.402725450079624
 20
-1.049172059486351
 30
0.0
 11
-1.209152595828996
 21
-0.8555992052357226
 31
0.0
  0
LINE
  5
1C0
330
191
100
AcDbEntity
  8
AM_9
100
AcDbLine
 10
0.8555992052357232
 20
1.209152595828995
 30
0.0
 11
1.049172059486351
 21
1.402725450079624
 31
0.0
  0
LINE
  5
1C1
330
191
100
AcDbEntity
  8
AM_9
100
AcDbLine
 10
-1.049172059486351
 20
1.402725450079624
 30
0.0
 11
-0.8555992052357224
 21
1.209152595828996
 31
0.0
  0
LINE
  5
1C2
330
191
100
AcDbEntity
  8
AM_9
100
AcDbLine
 10
-1.099551044745081
 20
0.9652007563196371
 30
0.0
 11
-1.209152595828996
 21
0.8555992052357225
 31
0.0
  0
LINE
  5
1C3
330
191
100
AcDbEntity
  8
AM_9
100
AcDbLine
 10
-0.8555992052357224
 20
1.209152595828996
 30
0.0
 11
-0.9652007563196374
 21
1.099551044745081
 31
0.0
  0
ARC
  5
1C4
330
191
100
AcDbEntity
  8
AM_9
100
AcDbCircle
 10
0.0000000000000022
 20
-0.0000000000000002
 30
0.0
 40
1.701715561259649
100
AcDbArc
 50
143.447931657164
 51
216.552068342836
  0
LINE
  5
1C5
330
191
100
AcDbEntity
  8
AM_9
100
AcDbLine
 10
-0.9652007563196365
 20
-1.099551044745082
 30
0.0
 11
-0.8555992052357225
 21
-1.209152595828996
 31
0.0
  0
LINE
  5
1C6
330
191
100
AcDbEntity
  8
AM_9
100
AcDbLine
 10
-1.209152595828996
 20
-0.8555992052357226
 30
0.0
 11
-1.09955104474508
 21
-0.9652007563196376
 31
0.0
  0
ARC
  5
1C7
330
191
100
AcDbEntity
  8
AM_9
100
AcDbCircle
 10
0.0
 20
0.0000000000000022
 30
0.0
 40
1.701715561259649
100
AcDbArc
 50
233.447931657164
 51
306.552068342836
  0
LINE
  5
1C8
330
191
100
AcDbEntity
  8
AM_9
100
AcDbLine
 10
1.099551044745082
 20
-0.9652007563196369
 30
0.0
 11
1.209152595828996
 21
-0.8555992052357224
 31
0.0
  0
LINE
  5
1C9
330
191
100
AcDbEntity
  8
AM_9
100
AcDbLine
 10
0.8555992052357224
 20
-1.209152595828996
 30
0.0
 11
0.9652007563196376
 21
-1.099551044745081
 31
0.0
  0
ARC
  5
1CA
330
191
100
AcDbEntity
  8
AM_9
100
AcDbCircle
 10
-0.0000000000000013
 20
0.0
 30
0.0
 40
1.701715561259648
100
AcDbArc
 50
323.447931657164
 51
36.55206834283601
  0
LINE
  5
1CB
330
191
100
AcDbEntity
  8
AM_9
100
AcDbLine
 10
0.9652007563196371
 20
1.099551044745082
 30
0.0
 11
0.8555992052357232
 21
1.209152595828995
 31
0.0
  0
LINE
  5
1CC
330
191
100
AcDbEntity
  8
AM_9
100
AcDbLine
 10
1.209152595828997
 20
0.8555992052357221
 30
0.0
 11
1.099551044745081
 21
0.9652007563196375
 31
0.0
  0
ARC
  5
1CD
330
191
100
AcDbEntity
  8
AM_9
100
AcDbCircle
 10
-0.0000000000000005
 20
0.0000000000000004
 30
0.0
 40
1.187335092348284
100
AcDbArc
 50
106.4568292430074
 51
118.5431707569926
  0
ARC
  5
1CE
330
191
100
AcDbEntity
  8
AM_9
100
AcDbCircle
 10
0.0000000000000002
 20
-0.0000000000000027
 30
0.0
 40
1.701715561259649
100
AcDbArc
 50
53.44793165716397
 51
126.552068342836
  0
CIRCLE
  5
1CF
330
191
100
AcDbEntity
  8
AM_4
100
AcDbCircle
 10
0.0
 20
0.0
 30
0.0
 40
1.918499999999998
  0
LINE
  5
1D0
330
191
100
AcDbEntity
  8
AM_4
100
AcDbLine
 10
-1.058944566254844
 20
1.412497956848118
 30
0.0
 11
-1.049172059486351
 21
1.402725450079624
 31
0.0
  0
LINE
  5
1D1
330
191
100
AcDbEntity
  8
AM_4
100
AcDbLine
 10
1.058944566254844
 20
-1.412497956848118
 30
0.0
 11
1.049172059486351
 21
-1.402725450079624
 31
0.0
  0
LINE
  5
1D2
330
191
100
AcDbEntity
  8
AM_4
100
AcDbLine
 10
-1.402725450079624
 20
1.049172059486351
 30
0.0
 11
-1.412497956848117
 21
1.058944566254844
 31
0.0
  0
LINE
  5
1D3
330
191
100
AcDbEntity
  8
AM_4
100
AcDbLine
 10
1.049172059486351
 20
1.402725450079624
 30
0.0
 11
1.058944566254845
 21
1.412497956848117
 31
0.0
  0
LINE
  5
1D4
330
191
100
AcDbEntity
  8
AM_4
100
AcDbLine
 10
1.412497956848118
 20
1.058944566254843
 30
0.0
 11
1.402725450079625
 21
1.04917205948635
 31
0.0
  0
LINE
  5
1D5
330
191
100
AcDbEntity
  8
AM_4
100
AcDbLine
 10
1.402725450079624
 20
-1.049172059486351
 30
0.0
 11
1.412497956848117
 21
-1.058944566254844
 31
0.0
  0
LINE
  5
1D6
330
191
100
AcDbEntity
  8
AM_4
100
AcDbLine
 10
-1.049172059486351
 20
-1.402725450079624
 30
0.0
 11
-1.058944566254844
 21
-1.412497956848117
 31
0.0
  0
LINE
  5
1D7
330
191
100
AcDbEntity
  8
AM_4
100
AcDbLine
 10
-1.412497956848118
 20
-1.058944566254844
 30
0.0
 11
-1.402725450079624
 21
-1.049172059486351
 31
0.0
  0
CIRCLE
  5
1D8
330
191
100
AcDbEntity
  8
AM_4
100
AcDbCircle
 10
0.0
 20
0.0
 30
0.0
 40
1.792352345749211
  0
ARC
  5
1D9
330
191
100
AcDbEntity
  8
AM_4
100
AcDbCircle
 10
0.0000000000000095
 20
-0.0000000000000111
 30
0.0
 40
1.765365138576356
100
AcDbArc
 50
306.858761484337
 51
323.141238515663
  0
ARC
  5
1DA
330
191
100
AcDbEntity
  8
AM_4
100
AcDbCircle
 10
0.0000000000000104
 20
0.0000000000000127
 30
0.0
 40
1.765365138576386
100
AcDbArc
 50
216.8587614843372
 51
233.1412385156629
  0
ARC
  5
1DB
330
191
100
AcDbEntity
  8
AM_4
100
AcDbCircle
 10
-0.0000000000000218
 20
0.0000000000000233
 30
0.0
 40
1.765365138576338
100
AcDbArc
 50
126.858761484337
 51
143.1412385156631
  0
ARC
  5
1DC
330
191
100
AcDbEntity
  8
AM_4
100
AcDbCircle
 10
-0.000000000000004
 20
-0.0000000000000027
 30
0.0
 40
1.765365138576374
100
AcDbArc
 50
36.85876148433707
 51
53.14123851566281
  0
ARC
  5
1DD
330
191
100
AcDbEntity
  8
AM_4
100
AcDbCircle
 10
0.0000000000000001
 20
0.0
 30
0.0
 40
1.751685102610602
100
AcDbArc
 50
233.2052551926139
 51
306.7947448073861
  0
ARC
  5
1DE
330
191
100
AcDbEntity
  8
AM_4
100
AcDbCircle
 10
-0.0000000000000002
 20
0.0000000000000001
 30
0.0
 40
1.751685102610602
100
AcDbArc
 50
323.2052551926139
 51
36.794744807386
  0
ARC
  5
1DF
330
191
100
AcDbEntity
  8
AM_4
100
AcDbCircle
 10
-0.0000000000000007
 20
0.0000000000000001
 30
0.0
 40
1.751685102610601
100
AcDbArc
 50
143.205255192614
 51
216.7947448073861
  0
LINE
  5
1E0
330
191
100
AcDbEntity
  8
AM_4
100
AcDbLine
 10
-0.9652007563196374
 20
1.099551044745081
 30
0.0
 11
-1.099551044745081
 21
0.9652007563196371
 31
0.0
  0
LINE
  5
1E1
330
191
100
AcDbEntity
  8
AM_4
100
AcDbLine
 10
-1.09955104474508
 20
-0.9652007563196376
 30
0.0
 11
-0.9652007563196365
 21
-1.099551044745082
 31
0.0
  0
LINE
  5
1E2
330
191
100
AcDbEntity
  8
AM_4
100
AcDbLine
 10
0.9652007563196376
 20
-1.099551044745081
 30
0.0
 11
1.099551044745082
 21
-0.9652007563196369
 31
0.0
  0
LINE
  5
1E3
330
191
100
AcDbEntity
  8
AM_4
100
AcDbLine
 10
1.099551044745081
 20
0.9652007563196375
 30
0.0
 11
0.9652007563196371
 21
1.099551044745082
 31
0.0
  0
ARC
  5
1E4
330
191
100
AcDbEntity
  8
AM_4
100
AcDbCircle
 10
-0.0000000000000001
 20
0.0000000000000004
 30
0.0
 40
1.751685102610602
100
AcDbArc
 50
53.20525519261393
 51
126.794744807386
  0
ARC
  5
1E5
330
191
100
AcDbEntity
  8
AM_4
100
AcDbCircle
 10
0.0
 20
0.0000000000000001
 30
0.0
 40
1.184210526315789
100
AcDbArc
 50
118.5591754271304
 51
106.4408245728696
  0
ARC
  5
1E6
330
191
100
AcDbEntity
  8
AM_4
100
AcDbCircle
 10
-0.0000000000000003
 20
-0.0000000000000001
 30
0.0
 40
1.125
100
AcDbArc
 50
118.8793702084428
 51
106.1206297915572
  0
LINE
  5
1E7
330
191
100
AcDbEntity
  8
AM_4
100
AcDbLine
 10
-0.3123681427517311
 20
1.080764147903618
 30
0.0
 11
-0.3351610878026546
 21
1.135791184971982
 31
0.0
  0
LINE
  5
1E8
330
191
100
AcDbEntity
  8
AM_4
100
AcDbLine
 10
-0.5661309709304762
 20
1.04012032688071
 30
0.0
 11
-0.5433380258795528
 21
0.9850932898123459
 31
0.0
  0
CIRCLE
  5
1E9
330
191
100
AcDbEntity
  8
AM_5
100
AcDbCircle
 10
0.0
 20
1.5
 30
0.0
 40
0.0950000000000001
  0
CIRCLE
  5
1EA
330
191
100
AcDbEntity
  8
AM_5
100
AcDbCircle
 10
0.0
 20
-1.5
 30
0.0
 40
0.0950000000000001
  0
ENDBLK
  5
194
330
191
100
AcDbEntity
  8
0
100
AcDbBlockEnd
  0
BLOCK
  5
1ED
330
1EB
100
AcDbEntity
  8
0
100
AcDbBlockBegin
  2
7_069381H_0_in_069381_0
 70
     2
 10
0.0
 20
0.0
 30
0.0
  3
7_069381H_0_in_069381_0
  1

  0
ATTDEF
  5
1EF
330
1EB
100
AcDbEntity
  8
AM_6
100
AcDbText
 10
9.671875
 20
2.625
 30
0.0
 40
0.5
  1
WSTU-IP -Housing -Inch
100
AcDbAttributeDefinition
  3

  2
NN
 70
     8
280
     0
  0
ATTDEF
  5
1F0
330
1EB
100
AcDbEntity
  8
AM_6
100
AcDbText
 10
9.671875
 20
2.125
 30
0.0
 40
0.5
  1
Imperial Wide Slot Take-Up Bearings
100
AcDbAttributeDefinition
  3

  2
NT
 70
     8
280
     0
  0
ATTDEF
  5
1F1
330
1EB
100
AcDbEntity
  8
AM_6
100
AcDbText
 10
9.671875
 20
1.625
 30
0.0
 40
0.5
  1
069381H
100
AcDbAttributeDefinition
  3

  2
NB
 70
     8
280
     0
  0
ATTDEF
  5
1F2
330
1EB
100
AcDbEntity
  8
AM_6
100
AcDbText
 10
9.671875
 20
1.125
 30
0.0
 40
0.5
  1
$PN.H
100
AcDbAttributeDefinition
  3

  2
NBSYN
 70
     8
280
     0
  0
ATTDEF
  5
1F3
330
1EB
100
AcDbEntity
  8
AM_6
100
AcDbText
 10
9.671875
 20
0.625
 30
0.0
 40
0.5
  1
069381
100
AcDbAttributeDefinition
  3

  2
LINA
 70
     8
280
     0
  0
ATTDEF
  5
1F4
330
1EB
100
AcDbEntity
  8
AM_6
100
AcDbText
 10
9.671875
 20
0.125
 30
0.0
 40
0.5
  1
2-1/4
100
AcDbAttributeDefinition
  3

  2
SS
 70
     8
280
     0
  0
ATTDEF
  5
1F5
330
1EB
100
AcDbEntity
  8
AM_6
100
AcDbText
 10
9.671875
 20
-0.375
 30
0.0
 40
0.5
  1
069381
100
AcDbAttributeDefinition
  3

  2
PN
 70
     8
280
     0
  0
ATTDEF
  5
1F6
330
1EB
100
AcDbEntity
  8
AM_6
100
AcDbText
 10
9.671875
 20
-0.875
 30
0.0
 40
0.5
  1
WSTU-IP-204RE
100
AcDbAttributeDefinition
  3

  2
DESCRIPTION
 70
     8
280
     0
  0
ATTDEF
  5
1F7
330
1EB
100
AcDbEntity
  8
AM_6
100
AcDbText
 10
9.671875
 20
-1.375
 30
0.0
 40
0.5
  1
Expansion
100
AcDbAttributeDefinition
  3

  2
EF
 70
     8
280
     0
  0
ATTDEF
  5
1F8
330
1EB
100
AcDbEntity
  8
AM_6
100
AcDbText
 10
9.671875
 20
-1.875
 30
0.0
 40
0.5
  1
Contact Seal
100
AcDbAttributeDefinition
  3

  2
ST
 70
     8
280
     0
  0
ATTDEF
  5
1F9
330
1EB
100
AcDbEntity
  8
AM_6
100
AcDbText
 10
9.671875
 20
-2.375
 30
0.0
 40
0.5
  1
3-1/32
100
AcDbAttributeDefinition
  3

  2
A
 70
     8
280
     0
  0
ATTDEF
  5
1FA
330
1EB
100
AcDbEntity
  8
AM_6
100
AcDbText
 10
9.671875
 20
-2.875
 30
0.0
 40
0.5
  1
7-1/16
100
AcDbAttributeDefinition
  3

  2
B
 70
     8
280
     0
  0
ATTDEF
  5
1FB
330
1EB
100
AcDbEntity
  8
AM_6
100
AcDbText
 10
9.671875
 20
-3.375
 30
0.0
 40
0.5
  1
13/16
100
AcDbAttributeDefinition
  3

  2
C
 70
     8
280
     0
  0
ATTDEF
  5
1FC
330
1EB
100
AcDbEntity
  8
AM_6
100
AcDbText
 10
9.671875
 20
-3.875
 30
0.0
 40
0.5
  1
3-5/8
100
AcDbAttributeDefinition
  3

  2
D
 70
     8
280
     0
  0
ATTDEF
  5
1FD
330
1EB
100
AcDbEntity
  8
AM_6
100
AcDbText
 10
9.671875
 20
-4.375
 30
0.0
 40
0.5
  1
4-5/8
100
AcDbAttributeDefinition
  3

  2
E
 70
     8
280
     0
  0
ATTDEF
  5
1FE
330
1EB
100
AcDbEntity
  8
AM_6
100
AcDbText
 10
9.671875
 20
-4.875
 30
0.0
 40
0.5
  1
1-3/8
100
AcDbAttributeDefinition
  3

  2
F
 70
     8
280
     0
  0
ATTDEF
  5
1FF
330
1EB
100
AcDbEntity
  8
AM_6
100
AcDbText
 10
9.671875
 20
-5.375
 30
0.0
 40
0.5
  1
15/16
100
AcDbAttributeDefinition
  3

  2
G
 70
     8
280
     0
  0
ATTDEF
  5
200
330
1EB
100
AcDbEntity
  8
AM_6
100
AcDbText
 10
9.671875
 20
-5.875
 30
0.0
 40
0.5
  1
1-1/4
100
AcDbAttributeDefinition
  3

  2
H
 70
     8
280
     0
  0
ATTDEF
  5
201
330
1EB
100
AcDbEntity
  8
AM_6
100
AcDbText
 10
9.671875
 20
-6.375
 30
0.0
 40
0.5
  1
3-7/8
100
AcDbAttributeDefinition
  3

  2
J
 70
     8
280
     0
  0
ATTDEF
  5
202
330
1EB
100
AcDbEntity
  8
AM_6
100
AcDbText
 10
9.671875
 20
-6.875
 30
0.0
 40
0.5
  1
2-1/4
100
AcDbAttributeDefinition
  3

  2
K
 70
     8
280
     0
  0
ATTDEF
  5
203
330
1EB
100
AcDbEntity
  8
AM_6
100
AcDbText
 10
9.671875
 20
-7.375
 30
0.0
 40
0.5
  1
3-1/2
100
AcDbAttributeDefinition
  3

  2
L
 70
     8
280
     0
  0
ATTDEF
  5
204
330
1EB
100
AcDbEntity
  8
AM_6
100
AcDbText
 10
9.671875
 20
-7.875
 30
0.0
 40
0.5
  1
4-1/2
100
AcDbAttributeDefinition
  3

  2
M
 70
     8
280
     0
  0
ATTDEF
  5
205
330
1EB
100
AcDbEntity
  8
AM_6
100
AcDbText
 10
9.671875
 20
-8.375
 30
0.0
 40
0.5
  1
5-1/4
100
AcDbAttributeDefinition
  3

  2
N
 70
     8
280
     0
  0
ATTDEF
  5
206
330
1EB
100
AcDbEntity
  8
AM_6
100
AcDbText
 10
9.671875
 20
-8.875
 30
0.0
 40
0.5
  1
3-3/16
100
AcDbAttributeDefinition
  3

  2
R
 70
     8
280
     0
  0
ATTDEF
  5
207
330
1EB
100
AcDbEntity
  8
AM_6
100
AcDbText
 10
9.671875
 20
-9.375
 30
0.0
 40
0.5
  1
2-7/64
100
AcDbAttributeDefinition
  3

  2
S
 70
     8
280
     0
  0
ATTDEF
  5
208
330
1EB
100
AcDbEntity
  8
AM_6
100
AcDbText
 10
9.671875
 20
-9.875
 30
0.0
 40
0.5
  1
2-7/32
100
AcDbAttributeDefinition
  3

  2
T
 70
     8
280
     0
  0
ATTDEF
  5
209
330
1EB
100
AcDbEntity
  8
AM_6
100
AcDbText
 10
9.671875
 20
-10.375
 30
0.0
 40
0.5
  1
1/4
100
AcDbAttributeDefinition
  3

  2
X
 70
     8
280
     0
  0
ATTDEF
  5
20A
330
1EB
100
AcDbEntity
  8
AM_6
100
AcDbText
 10
9.671875
 20
-10.875
 30
0.0
 40
0.5
  1
0.025
100
AcDbAttributeDefinition
  3

  2
Y
 70
     8
280
     0
  0
ATTDEF
  5
20B
330
1EB
100
AcDbEntity
  8
AM_6
100
AcDbText
 10
9.671875
 20
-11.375
 30
0.0
 40
0.5
  1
2-19/32
100
AcDbAttributeDefinition
  3

  2
Z
 70
     8
280
     0
  0
ATTDEF
  5
20C
330
1EB
100
AcDbEntity
  8
AM_6
100
AcDbText
 10
9.671875
 20
-11.875
 30
0.0
 40
0.5
  1
baldor
100
AcDbAttributeDefinition
  3

  2
COMPANY
 70
     8
280
     0
  0
LINE
  5
20D
330
1EB
100
AcDbEntity
  8
AM_9
100
AcDbLine
 10
1.8125
 20
2.25
 30
0.0
 11
-1.8125
 21
2.25
 31
0.0
  0
LINE
  5
20E
330
1EB
100
AcDbEntity
  8
AM_9
100
AcDbLine
 10
1.8125
 20
-2.25
 30
0.0
 11
-1.8125
 21
-2.25
 31
0.0
  0
LINE
  5
20F
330
1EB
100
AcDbEntity
  8
AM_9
100
AcDbLine
 10
4.625
 20
0.6875
 30
0.0
 11
3.6875
 21
0.6875
 31
0.0
  0
LINE
  5
210
330
1EB
100
AcDbEntity
  8
AM_9
100
AcDbLine
 10
3.6875
 20
-0.6875
 30
0.0
 11
4.625
 21
-0.6875
 31
0.0
  0
LINE
  5
211
330
1EB
100
AcDbEntity
  8
AM_7
100
AcDbLine
 10
-2.415
 20
0.0
 30
0.0
 11
2.415
 21
0.0
 31
0.0
  0
LINE
  5
212
330
1EB
100
AcDbEntity
  8
AM_7
100
AcDbLine
 10
0.0
 20
-2.415
 30
0.0
 11
0.0
 21
2.415
 31
0.0
  0
LINE
  5
213
330
1EB
100
AcDbEntity
  8
AM_7
100
AcDbLine
 10
-2.873980204202489
 20
-1.161163375028885
 30
0.0
 11
0.2942325051813507
 21
0.1188776485864442
 31
0.0
  0
LINE
  5
214
330
1EB
100
AcDbEntity
  8
AM_7
100
AcDbLine
 10
3.640625
 20
0.0
 30
0.0
 11
4.671875
 21
0.0
 31
0.0
  0
LINE
  5
215
330
1EB
100
AcDbEntity
  8
AM_4
100
AcDbLine
 10
-2.202886393596858
 20
-1.321437772619592
 30
0.0
 11
-2.502571668096878
 21
-0.5796906895421374
 31
0.0
  0
ARC
  5
216
330
1EB
100
AcDbEntity
  8
AM_4
100
AcDbCircle
 10
-2.409853282872909
 20
-0.5422300296245707
 30
0.0
 40
0.1000000000000002
100
AcDbArc
 50
112.0000000000006
 51
201.9999999999998
  0
ARC
  5
217
330
1EB
100
AcDbEntity
  8
AM_4
100
AcDbCircle
 10
-2.11016800814018
 20
-1.283977113278001
 30
0.0
 40
0.0999999999999993
100
AcDbArc
 50
201.9999999999998
 51
292.0
  0
LINE
  5
218
330
1EB
100
AcDbEntity
  8
AM_4
100
AcDbLine
 10
-2.072707348798589
 20
-1.376695498734679
 30
0.0
 11
-2.447313942214501
 21
-0.4495116441678922
 31
0.0
  0
LINE
  5
219
330
1EB
100
AcDbEntity
  8
AM_4
100
AcDbLine
 10
-2.399521012303639
 20
-0.4302020470744025
 30
0.0
 11
-2.447313942214501
 21
-0.4495116441678922
 31
0.0
  0
LINE
  5
21A
330
1EB
100
AcDbEntity
  8
AM_4
100
AcDbLine
 10
-2.072707348798589
 20
-1.376695498734679
 30
0.0
 11
-2.024648475542193
 21
-1.357278453555008
 31
0.0
  0
LINE
  5
21B
330
1EB
100
AcDbEntity
  8
AM_4
100
AcDbLine
 10
3.572916666666667
 20
1.125
 30
0.0
 11
2.552083333333334
 21
1.125
 31
0.0
  0
ARC
  5
21C
330
1EB
100
AcDbEntity
  8
AM_4
100
AcDbCircle
 10
3.572916666666668
 20
1.010416666666668
 30
0.0
 40
0.1145833333333317
100
AcDbArc
 50
0.0
 51
90.0
  0
ARC
  5
21D
330
1EB
100
AcDbEntity
  8
AM_4
100
AcDbCircle
 10
2.552083333333335
 20
1.010416666666665
 30
0.0
 40
0.1145833333333346
100
AcDbArc
 50
90.0
 51
180.0
  0
LINE
  5
21E
330
1EB
100
AcDbEntity
  8
AM_4
100
AcDbLine
 10
2.4375
 20
1.010416666666666
 30
0.0
 11
2.4375
 21
-1.010416666666667
 31
0.0
  0
LINE
  5
21F
330
1EB
100
AcDbEntity
  8
AM_4
100
AcDbLine
 10
4.625
 20
1.8
 30
0.0
 11
1.8125
 21
1.8
 31
0.0
  0
LINE
  5
220
330
1EB
100
AcDbEntity
  8
AM_4
100
AcDbLine
 10
4.625
 20
1.9375
 30
0.0
 11
1.8125
 21
1.9375
 31
0.0
  0
LINE
  5
221
330
1EB
100
AcDbEntity
  8
AM_4
100
AcDbLine
 10
4.625
 20
-1.9375
 30
0.0
 11
1.8125
 21
-1.9375
 31
0.0
  0
ARC
  5
222
330
1EB
100
AcDbEntity
  8
AM_4
100
AcDbCircle
 10
3.572916666666667
 20
-1.010416666666667
 30
0.0
 40
0.1145833333333328
100
AcDbArc
 50
270.0
 51
0.0
  0
LINE
  5
223
330
1EB
100
AcDbEntity
  8
AM_4
100
AcDbLine
 10
2.552083333333333
 20
-1.125
 30
0.0
 11
3.572916666666667
 21
-1.125
 31
0.0
  0
ARC
  5
224
330
1EB
100
AcDbEntity
  8
AM_4
100
AcDbCircle
 10
2.552083333333333
 20
-1.010416666666667
 30
0.0
 40
0.1145833333333335
100
AcDbArc
 50
180.0
 51
270.0
  0
LINE
  5
225
330
1EB
100
AcDbEntity
  8
AM_4
100
AcDbLine
 10
4.625
 20
-1.8
 30
0.0
 11
1.8125
 21
-1.8
 31
0.0
  0
ARC
  5
226
330
1EB
100
AcDbEntity
  8
AM_4
100
AcDbCircle
 10
1.674999999999999
 20
2.487499999999999
 30
0.0
 40
0.1375000000000008
100
AcDbArc
 50
0.0
 51
90.0
  0
ARC
  5
227
330
1EB
100
AcDbEntity
  8
AM_4
100
AcDbCircle
 10
-1.675000000000001
 20
2.487500000000001
 30
0.0
 40
0.1374999999999988
100
AcDbArc
 50
90.0
 51
180.0
  0
LINE
  5
228
330
1EB
100
AcDbEntity
  8
AM_4
100
AcDbLine
 10
1.674999999999999
 20
2.625
 30
0.0
 11
-1.674999999999999
 21
2.625
 31
0.0
  0
LINE
  5
229
330
1EB
100
AcDbEntity
  8
AM_4
100
AcDbLine
 10
-1.8125
 20
2.4875
 30
0.0
 11
-1.8125
 21
1.625924357342983
 31
0.0
  0
LINE
  5
22A
330
1EB
100
AcDbEntity
  8
AM_4
100
AcDbLine
 10
1.8125
 20
1.625924357342983
 30
0.0
 11
1.8125
 21
2.4875
 31
0.0
  0
ARC
  5
22B
330
1EB
100
AcDbEntity
  8
AM_4
100
AcDbCircle
 10
1.674999999999999
 20
-2.487499999999999
 30
0.0
 40
0.1375000000000011
100
AcDbArc
 50
270.0
 51
0.0
  0
LINE
  5
22C
330
1EB
100
AcDbEntity
  8
AM_4
100
AcDbLine
 10
-1.8125
 20
-1.625924357342983
 30
0.0
 11
-1.8125
 21
-2.487499999999999
 31
0.0
  0
ARC
  5
22D
330
1EB
100
AcDbEntity
  8
AM_4
100
AcDbCircle
 10
-1.674999999999998
 20
-2.487499999999999
 30
0.0
 40
0.1375000000000015
100
AcDbArc
 50
180.0
 51
270.0
  0
LINE
  5
22E
330
1EB
100
AcDbEntity
  8
AM_4
100
AcDbLine
 10
-1.674999999999999
 20
-2.625
 30
0.0
 11
1.674999999999999
 21
-2.625
 31
0.0
  0
LINE
  5
22F
330
1EB
100
AcDbEntity
  8
AM_4
100
AcDbLine
 10
1.8125
 20
-2.487499999999999
 30
0.0
 11
1.8125
 21
-1.625924357342983
 31
0.0
  0
CIRCLE
  5
230
330
1EB
100
AcDbEntity
  8
AM_4
100
AcDbCircle
 10
0.0
 20
0.0
 30
0.0
 40
1.9685
  0
CIRCLE
  5
231
330
1EB
100
AcDbEntity
  8
AM_4
100
AcDbCircle
 10
0.0
 20
0.0
 30
0.0
 40
2.299999999999999
  0
ARC
  5
232
330
1EB
100
AcDbEntity
  8
AM_4
100
AcDbCircle
 10
-0.0000000000000013
 20
-0.0000000000000001
 30
0.0
 40
2.437500000000001
100
AcDbArc
 50
318.0381111716486
 51
41.96188882835148
  0
ARC
  5
233
330
1EB
100
AcDbEntity
  8
AM_4
100
AcDbCircle
 10
0.0
 20
0.0000000000000004
 30
0.0
 40
2.434909909175531
100
AcDbArc
 50
41.8940646830117
 51
138.1059353169883
  0
ARC
  5
234
330
1EB
100
AcDbEntity
  8
AM_4
100
AcDbCircle
 10
0.0000000000000013
 20
0.0000000000000001
 30
0.0
 40
2.437500000000001
100
AcDbArc
 50
138.0381111716485
 51
221.9618888283515
  0
ARC
  5
235
330
1EB
100
AcDbEntity
  8
AM_4
100
AcDbCircle
 10
0.0
 20
-0.0000000000000004
 30
0.0
 40
2.434909909175531
100
AcDbArc
 50
221.8940646830117
 51
318.1059353169883
  0
LINE
  5
236
330
1EB
100
AcDbEntity
  8
AM_4
100
AcDbLine
 10
4.625
 20
1.9375
 30
0.0
 11
4.625
 21
-1.9375
 31
0.0
  0
LINE
  5
237
330
1EB
100
AcDbEntity
  8
AM_4
100
AcDbLine
 10
3.6875
 20
1.125
 30
0.0
 11
3.6875
 21
-1.125
 31
0.0
  0
LINE
  5
238
330
1EB
100
AcDbEntity
  8
AM_4
100
AcDbLine
 10
3.6875
 20
-1.125
 30
0.0
 11
4.625
 21
-1.125
 31
0.0
  0
LINE
  5
239
330
1EB
100
AcDbEntity
  8
AM_4
100
AcDbLine
 10
4.625
 20
1.125
 30
0.0
 11
3.6875
 21
1.125
 31
0.0
  0
ENDBLK
  5
1EE
330
1EB
100
AcDbEntity
  8
0
100
AcDbBlockEnd
  0
ENDSEC
  0
SECTION
  2
ENTITIES
  0
INSERT
  5
6F
330
1F
100
AcDbEntity
  8
0
100
AcDbBlockReference
  2
1_069381_0
 10
0.0
 20
0.0
 30
0.0
  0
POINT
  5
23B
330
1F
100
AcDbEntity
  8
ConnectionPoints
100
AcDbPoint
 10
0.0
 20
-1.5
 30
1.684375
  0
POINT
  5
23C
330
1F
100
AcDbEntity
  8
ConnectionPoints
100
AcDbPoint
 10
0.0
 20
1.5
 30
1.684375
  0
POINT
  5
23D
330
1F
100
AcDbEntity
  8
ConnectionPoints
100
AcDbPoint
 10
0.0
 20
0.0
 30
1.614375
  0
POINT
  5
23E
330
1F
100
AcDbEntity
  8
ConnectionPoints
100
AcDbPoint
 10
0.0
 20
0.0
 30
1.859375
  0
POINT
  5
23F
330
1F
100
AcDbEntity
  8
ConnectionPoints
100
AcDbPoint
 10
0.0
 20
0.0
 30
1.813375
  0
POINT
  5
240
330
1F
100
AcDbEntity
  8
ConnectionPoints
100
AcDbPoint
 10
0.0
 20
1.5
 30
1.614375
  0
POINT
  5
241
330
1F
100
AcDbEntity
  8
ConnectionPoints
100
AcDbPoint
 10
0.0
 20
1.5
 30
1.758375
  0
POINT
  5
242
330
1F
100
AcDbEntity
  8
ConnectionPoints
100
AcDbPoint
 10
0.0
 20
-1.5
 30
1.614375
  0
POINT
  5
243
330
1F
100
AcDbEntity
  8
ConnectionPoints
100
AcDbPoint
 10
0.0
 20
-1.5
 30
1.758375
  0
POINT
  5
244
330
1F
100
AcDbEntity
  8
ConnectionPoints
100
AcDbPoint
 10
0.0
 20
0.0
 30
1.614375
  0
POINT
  5
245
330
1F
100
AcDbEntity
  8
ConnectionPoints
100
AcDbPoint
 10
-2.352729030963223
 20
-0.9505642307928769
 30
0.0
  0
POINT
  5
246
330
1F
100
AcDbEntity
  8
ConnectionPoints
100
AcDbPoint
 10
0.0
 20
0.0
 30
1.859375
  0
POINT
  5
247
330
1F
100
AcDbEntity
  8
ConnectionPoints
100
AcDbPoint
 10
0.0
 20
0.0
 30
2.109375
  0
ENDSEC
  0
SECTION
  2
OBJECTS
  0
DICTIONARY
  5
C
330
0
100
AcDbDictionary
281
     1
  3
ACAD_DETAILVIEWSTYLE
350
24F
  3
ACAD_GROUP
350
D
  3
ACAD_LAYOUT
350
1A
  3
ACAD_MATERIAL
350
43
  3
ACAD_MLEADERSTYLE
350
6B
  3
ACAD_MLINESTYLE
350
17
  3
ACAD_PLOTSETTINGS
350
19
  3
ACAD_PLOTSTYLENAME
350
E
  3
ACAD_SCALELIST
350
47
  3
ACAD_SECTIONVIEWSTYLE
350
250
  3
ACAD_TABLESTYLE
350
69
  3
ACAD_VISUALSTYLE
350
2A
  3
ACDB_RECOMPOSE_DATA
350
24C
  3
AcDbVariableDictionary
350
248
  0
SUN
  5
6D
330
29
100
AcDbSun
 90
        1
290
     0
 63
     7
421
 16777215
 40
1.0
291
     1
 91
  2455826
 92
 54000000
292
     0
 70
     2
 71
   256
280
     1
  0
DICTIONARY
  5
24F
102
{ACAD_REACTORS
330
C
102
}
330
C
100
AcDbDictionary
281
     1
  0
DICTIONARY
  5
D
102
{ACAD_REACTORS
330
C
102
}
330
C
100
AcDbDictionary
281
     1
  0
DICTIONARY
  5
1A
102
{ACAD_REACTORS
330
C
102
}
330
C
100
AcDbDictionary
281
     1
  3
Layout1
350
1E
  3
Layout2
350
26
  3
Model
350
22
  0
DICTIONARY
  5
43
102
{ACAD_REACTORS
330
C
102
}
330
C
100
AcDbDictionary
281
     1
  3
ByBlock
350
45
  3
ByLayer
350
44
  3
Global
350
46
  0
DICTIONARY
  5
6B
102
{ACAD_REACTORS
330
C
102
}
330
C
100
AcDbDictionary
281
     1
  3
Standard
350
6C
  0
DICTIONARY
  5
17
102
{ACAD_REACTORS
330
C
102
}
330
C
100
AcDbDictionary
281
     1
  3
Standard
350
18
  0
DICTIONARY
  5
19
102
{ACAD_REACTORS
330
C
102
}
330
C
100
AcDbDictionary
281
     1
  0
ACDBDICTIONARYWDFLT
  5
E
102
{ACAD_REACTORS
330
C
102
}
330
C
100
AcDbDictionary
281
     1
  3
Normal
350
F
100
AcDbDictionaryWithDefault
340
F
  0
DICTIONARY
  5
47
102
{ACAD_REACTORS
330
C
102
}
330
C
100
AcDbDictionary
281
     1
  3
A0
350
48
  3
A1
350
49
  3
A2
350
4A
  3
A3
350
4B
  3
A4
350
4C
  3
A5
350
4D
  3
A6
350
4E
  3
A7
350
4F
  3
A8
350
50
  3
A9
350
51
  3
B0
350
52
  3
B1
350
53
  3
B2
350
54
  3
B3
350
55
  3
B4
350
56
  3
B5
350
57
  3
B6
350
58
  3
B7
350
59
  3
B8
350
5A
  3
B9
350
5B
  3
C0
350
5C
  3
C1
350
5D
  3
C2
350
5E
  3
C3
350
5F
  3
C4
350
60
  3
C5
350
61
  3
C6
350
62
  3
C7
350
63
  3
C8
350
64
  3
C9
350
65
  3
D0
350
66
  3
D1
350
67
  3
D2
350
68
  0
DICTIONARY
  5
250
102
{ACAD_REACTORS
330
C
102
}
330
C
100
AcDbDictionary
281
     1
  0
DICTIONARY
  5
69
102
{ACAD_REACTORS
330
C
102
}
330
C
100
AcDbDictionary
281
     1
  3
Standard
350
6A
  0
DICTIONARY
  5
2A
102
{ACAD_REACTORS
330
C
102
}
330
C
100
AcDbDictionary
281
     1
  3
2dWireframe
350
2F
  3
Basic
350
32
  3
Brighten
350
36
  3
ColorChange
350
3A
  3
Conceptual
350
34
  3
Dim
350
35
  3
EdgeColorOff
350
3D
  3
Facepattern
350
39
  3
Flat
350
2B
  3
FlatWithEdges
350
2C
  3
Gouraud
350
2D
  3
GouraudWithEdges
350
2E
  3
Hidden
350
31
  3
JitterOff
350
3B
  3
Linepattern
350
38
  3
OverhangOff
350
3C
  3
Realistic
350
33
  3
Shaded
350
42
  3
Shaded with edges
350
41
  3
Shades of Gray
350
3E
  3
Sketchy
350
3F
  3
Thicken
350
37
  3
Wireframe
350
30
  3
X-Ray
350
40
  0
XRECORD
  5
24C
102
{ACAD_REACTORS
330
C
102
}
330
C
100
AcDbXrecord
280
     1
 90
        1
330
6A
  0
DICTIONARY
  5
248
102
{ACAD_REACTORS
330
C
102
}
330
C
100
AcDbDictionary
281
     1
  3
CANNOSCALE
350
249
  3
CMLEADERSTYLE
350
24E
  3
CTABLESTYLE
350
24D
  0
LAYOUT
  5
1E
102
{ACAD_REACTORS
330
1A
102
}
330
1A
100
AcDbPlotSettings
  1

  2
none_device
  4

  6

 40
0.0
 41
0.0
 42
0.0
 43
0.0
 44
0.0
 45
0.0
 46
0.0
 47
0.0
 48
0.0
 49
0.0
140
0.0
141
0.0
142
1.0
143
1.0
 70
   688
 72
     0
 73
     0
 74
     5
  7

 75
    16
 76
     0
 77
     2
 78
   300
147
1.0
148
0.0
149
0.0
100
AcDbLayout
  1
Layout1
 70
     1
 71
     1
 10
0.0
 20
0.0
 11
12.0
 21
9.0
 12
0.0
 22
0.0
 32
0.0
 14
1.000000000000000E+20
 24
1.000000000000000E+20
 34
1.000000000000000E+20
 15
-1.000000000000000E+20
 25
-1.000000000000000E+20
 35
-1.000000000000000E+20
146
0.0
 13
0.0
 23
0.0
 33
0.0
 16
1.0
 26
0.0
 36
0.0
 17
0.0
 27
1.0
 37
0.0
 76
     0
330
1B
  0
LAYOUT
  5
26
102
{ACAD_REACTORS
330
1A
102
}
330
1A
100
AcDbPlotSettings
  1

  2
none_device
  4

  6

 40
0.0
 41
0.0
 42
0.0
 43
0.0
 44
0.0
 45
0.0
 46
0.0
 47
0.0
 48
0.0
 49
0.0
140
0.0
141
0.0
142
1.0
143
1.0
 70
   688
 72
     0
 73
     0
 74
     5
  7

 75
    16
 76
     0
 77
     2
 78
   300
147
1.0
148
0.0
149
0.0
100
AcDbLayout
  1
Layout2
 70
     1
 71
     2
 10
0.0
 20
0.0
 11
0.0
 21
0.0
 12
0.0
 22
0.0
 32
0.0
 14
0.0
 24
0.0
 34
0.0
 15
0.0
 25
0.0
 35
0.0
146
0.0
 13
0.0
 23
0.0
 33
0.0
 16
1.0
 26
0.0
 36
0.0
 17
0.0
 27
1.0
 37
0.0
 76
     0
330
23
  0
LAYOUT
  5
22
102
{ACAD_REACTORS
330
1A
102
}
330
1A
100
AcDbPlotSettings
  1

  2
none_device
  4
Letter_(8.50_x_11.00_Inches)
  6

 40
6.35
 41
6.35
 42
6.35000508
 43
6.35000508
 44
215.9
 45
279.4
 46
0.0
 47
0.0
 48
0.0
 49
0.0
140
0.0
141
0.0
142
1.0
143
1.0
 70
  1712
 72
     0
 73
     0
 74
     0
  7

 75
     0
 76
     0
 77
     2
 78
   300
147
1.0
148
0.0
149
0.0
100
AcDbLayout
  1
Model
 70
     1
 71
     0
 10
0.0
 20
0.0
 11
12.0
 21
9.0
 12
0.0
 22
0.0
 32
0.0
 14
1.000000000000000E+20
 24
1.000000000000000E+20
 34
1.000000000000000E+20
 15
-1.000000000000000E+20
 25
-1.000000000000000E+20
 35
-1.000000000000000E+20
146
0.0
 13
0.0
 23
0.0
 33
0.0
 16
1.0
 26
0.0
 36
0.0
 17
0.0
 27
1.0
 37
0.0
 76
     0
330
1F
331
29
  0
MATERIAL
  5
45
102
{ACAD_REACTORS
330
43
102
}
330
43
100
AcDbMaterial
  1
ByBlock
 72
     1
 94
      127
  0
MATERIAL
  5
44
102
{ACAD_REACTORS
330
43
102
}
330
43
100
AcDbMaterial
  1
ByLayer
 72
     1
 94
      127
  0
MATERIAL
  5
46
102
{ACAD_REACTORS
330
43
102
}
330
43
100
AcDbMaterial
  1
Global
 72
     1
 94
      127
  0
MLEADERSTYLE
  5
6C
102
{ACAD_REACTORS
330
6B
102
}
330
6B
100
AcDbMLeaderStyle
179
     2
170
     2
171
     1
172
     0
 90
        2
 40
0.0
 41
0.0
173
     1
 91
-1056964608
340
14
 92
       -2
290
     1
 42
0.09
291
     1
 43
0.36
  3
Standard
341
0
 44
0.18
300

342
11
174
     1
178
     6
175
     1
176
     0
 93
-1056964608
 45
0.18
292
     0
297
     0
 46
0.18
343
0
 94
-1056964608
 47
1.0
 49
1.0
140
1.0
293
     1
141
0.0
294
     1
177
     0
142
1.0
295
     0
296
     0
143
0.125
271
     0
272
     9
273
     9
298
     0
  0
MLINESTYLE
  5
18
102
{ACAD_REACTORS
330
17
102
}
330
17
100
AcDbMlineStyle
  2
Standard
 70
     0
  3

 62
   256
 51
90.0
 52
90.0
 71
     2
 49
0.5
 62
   256
  6
BYLAYER
 49
-0.5
 62
   256
  6
BYLAYER
  0
ACDBPLACEHOLDER
  5
F
102
{ACAD_REACTORS
330
E
102
}
330
E
  0
SCALE
  5
48
102
{ACAD_REACTORS
330
47
102
}
330
47
100
AcDbScale
 70
     0
300
1:1
140
1.0
141
1.0
290
     1
  0
SCALE
  5
49
102
{ACAD_REACTORS
330
47
102
}
330
47
100
AcDbScale
 70
     0
300
1:2
140
1.0
141
2.0
290
     0
  0
SCALE
  5
4A
102
{ACAD_REACTORS
330
47
102
}
330
47
100
AcDbScale
 70
     0
300
1:4
140
1.0
141
4.0
290
     0
  0
SCALE
  5
4B
102
{ACAD_REACTORS
330
47
102
}
330
47
100
AcDbScale
 70
     0
300
1:5
140
1.0
141
5.0
290
     0
  0
SCALE
  5
4C
102
{ACAD_REACTORS
330
47
102
}
330
47
100
AcDbScale
 70
     0
300
1:8
140
1.0
141
8.0
290
     0
  0
SCALE
  5
4D
102
{ACAD_REACTORS
330
47
102
}
330
47
100
AcDbScale
 70
     0
300
1:10
140
1.0
141
10.0
290
     0
  0
SCALE
  5
4E
102
{ACAD_REACTORS
330
47
102
}
330
47
100
AcDbScale
 70
     0
300
1:16
140
1.0
141
16.0
290
     0
  0
SCALE
  5
4F
102
{ACAD_REACTORS
330
47
102
}
330
47
100
AcDbScale
 70
     0
300
1:20
140
1.0
141
20.0
290
     0
  0
SCALE
  5
50
102
{ACAD_REACTORS
330
47
102
}
330
47
100
AcDbScale
 70
     0
300
1:30
140
1.0
141
30.0
290
     0
  0
SCALE
  5
51
102
{ACAD_REACTORS
330
47
102
}
330
47
100
AcDbScale
 70
     0
300
1:40
140
1.0
141
40.0
290
     0
  0
SCALE
  5
52
102
{ACAD_REACTORS
330
47
102
}
330
47
100
AcDbScale
 70
     0
300
1:50
140
1.0
141
50.0
290
     0
  0
SCALE
  5
53
102
{ACAD_REACTORS
330
47
102
}
330
47
100
AcDbScale
 70
     0
300
1:100
140
1.0
141
100.0
290
     0
  0
SCALE
  5
54
102
{ACAD_REACTORS
330
47
102
}
330
47
100
AcDbScale
 70
     0
300
2:1
140
2.0
141
1.0
290
     0
  0
SCALE
  5
55
102
{ACAD_REACTORS
330
47
102
}
330
47
100
AcDbScale
 70
     0
300
4:1
140
4.0
141
1.0
290
     0
  0
SCALE
  5
56
102
{ACAD_REACTORS
330
47
102
}
330
47
100
AcDbScale
 70
     0
300
8:1
140
8.0
141
1.0
290
     0
  0
SCALE
  5
57
102
{ACAD_REACTORS
330
47
102
}
330
47
100
AcDbScale
 70
     0
300
10:1
140
10.0
141
1.0
290
     0
  0
SCALE
  5
58
102
{ACAD_REACTORS
330
47
102
}
330
47
100
AcDbScale
 70
     0
300
100:1
140
100.0
141
1.0
290
     0
  0
SCALE
  5
59
102
{ACAD_REACTORS
330
47
102
}
330
47
100
AcDbScale
 70
     0
300
1/128" = 1'-0"
140
0.0078125
141
12.0
290
     0
  0
SCALE
  5
5A
102
{ACAD_REACTORS
330
47
102
}
330
47
100
AcDbScale
 70
     0
300
1/64" = 1'-0"
140
0.015625
141
12.0
290
     0
  0
SCALE
  5
5B
102
{ACAD_REACTORS
330
47
102
}
330
47
100
AcDbScale
 70
     0
300
1/32" = 1'-0"
140
0.03125
141
12.0
290
     0
  0
SCALE
  5
5C
102
{ACAD_REACTORS
330
47
102
}
330
47
100
AcDbScale
 70
     0
300
1/16" = 1'-0"
140
0.0625
141
12.0
290
     0
  0
SCALE
  5
5D
102
{ACAD_REACTORS
330
47
102
}
330
47
100
AcDbScale
 70
     0
300
3/32" = 1'-0"
140
0.09375
141
12.0
290
     0
  0
SCALE
  5
5E
102
{ACAD_REACTORS
330
47
102
}
330
47
100
AcDbScale
 70
     0
300
1/8" = 1'-0"
140
0.125
141
12.0
290
     0
  0
SCALE
  5
5F
102
{ACAD_REACTORS
330
47
102
}
330
47
100
AcDbScale
 70
     0
300
3/16" = 1'-0"
140
0.1875
141
12.0
290
     0
  0
SCALE
  5
60
102
{ACAD_REACTORS
330
47
102
}
330
47
100
AcDbScale
 70
     0
300
1/4" = 1'-0"
140
0.25
141
12.0
290
     0
  0
SCALE
  5
61
102
{ACAD_REACTORS
330
47
102
}
330
47
100
AcDbScale
 70
     0
300
3/8" = 1'-0"
140
0.375
141
12.0
290
     0
  0
SCALE
  5
62
102
{ACAD_REACTORS
330
47
102
}
330
47
100
AcDbScale
 70
     0
300
1/2" = 1'-0"
140
0.5
141
12.0
290
     0
  0
SCALE
  5
63
102
{ACAD_REACTORS
330
47
102
}
330
47
100
AcDbScale
 70
     0
300
3/4" = 1'-0"
140
0.75
141
12.0
290
     0
  0
SCALE
  5
64
102
{ACAD_REACTORS
330
47
102
}
330
47
100
AcDbScale
 70
     0
300
1" = 1'-0"
140
1.0
141
12.0
290
     0
  0
SCALE
  5
65
102
{ACAD_REACTORS
330
47
102
}
330
47
100
AcDbScale
 70
     0
300
1-1/2" = 1'-0"
140
1.5
141
12.0
290
     0
  0
SCALE
  5
66
102
{ACAD_REACTORS
330
47
102
}
330
47
100
AcDbScale
 70
     0
300
3" = 1'-0"
140
3.0
141
12.0
290
     0
  0
SCALE
  5
67
102
{ACAD_REACTORS
330
47
102
}
330
47
100
AcDbScale
 70
     0
300
6" = 1'-0"
140
6.0
141
12.0
290
     0
  0
SCALE
  5
68
102
{ACAD_REACTORS
330
47
102
}
330
47
100
AcDbScale
 70
     0
300
1'-0" = 1'-0"
140
12.0
141
12.0
290
     0
  0
TABLESTYLE
  5
6A
102
{ACAD_REACTORS
330
69
102
}
102
{ACAD_XDICTIONARY
360
24A
102
}
330
69
100
AcDbTableStyle
  3
Standard
 70
     0
 71
     0
 40
0.06
 41
0.06
280
     0
281
     0
  7
Standard
140
0.18
170
     2
 62
     0
 63
   257
283
     0
 90
        4
 91
        0
  1

274
    -2
284
     1
 64
     0
275
    -2
285
     1
 65
     0
276
    -2
286
     1
 66
     0
277
    -2
287
     1
 67
     0
278
    -2
288
     1
 68
     0
279
    -2
289
     1
 69
     0
  7
Standard
140
0.25
170
     5
 62
     0
 63
   257
283
     0
 90
        4
 91
        0
  1

274
    -2
284
     1
 64
     0
275
    -2
285
     1
 65
     0
276
    -2
286
     1
 66
     0
277
    -2
287
     1
 67
     0
278
    -2
288
     1
 68
     0
279
    -2
289
     1
 69
     0
  7
Standard
140
0.18
170
     5
 62
     0
 63
   257
283
     0
 90
        4
 91
        0
  1

274
    -2
284
     1
 64
     0
275
    -2
285
     1
 65
     0
276
    -2
286
     1
 66
     0
277
    -2
287
     1
 67
     0
278
    -2
288
     1
 68
     0
279
    -2
289
     1
 69
     0
  0
VISUALSTYLE
  5
2F
102
{ACAD_REACTORS
330
2A
102
}
330
2A
100
AcDbVisualStyle
  2
2dWireframe
 70
     4
177
     3
291
     0
 70
    58
 90
        0
176
     1
 90
        2
176
     1
 90
        0
176
     1
 90
        0
176
     1
 40
0.6
176
     1
 40
30.0
176
     1
 62
     7
420
 16777215
176
     1
 90
        1
176
     1
 90
        4
176
     1
 62
     7
176
     1
 62
   257
176
     1
 90
        1
176
     1
 90
        1
176
     1
 40
1.0
176
     1
 90
        0
176
     1
 62
   257
176
     1
 40
1.0
176
     1
 90
        1
176
     1
 90
        6
176
     1
 90
        2
176
     1
 62
     7
176
     1
 90
        5
176
     1
 90
        0
176
     1
 90
        0
176
     1
290
     0
176
     1
 90
        1
176
     1
 40
0.0
176
     1
 90
        0
176
     1
290
     1
176
     1
290
     1
176
     1
290
     0
176
     1
290
     0
176
     1
290
     0
176
     1
290
     0
176
     1
290
     0
176
     1
290
     0
176
     1
290
     0
176
     1
 90
       50
176
     1
 40
0.0
176
     1
 40
1.0
176
     1
 90
        0
176
     1
 62
    18
420
        0
176
     1
 90
       50
176
     1
 90
        3
176
     1
 62
     5
420
      255
176
     1
290
     0
176
     1
 90
       50
176
     1
 90
       50
176
     1
 90
       50
176
     1
290
     0
176
     1
 90
       50
176
     1
 62
   256
176
     0
 40
1.0
176
     0
 90
        2
176
     1
  1
strokes_ogs.tif
176
     1
290
     0
176
     1
 40
1.0
176
     1
 40
1.0
176
     1
  0
VISUALSTYLE
  5
32
102
{ACAD_REACTORS
330
2A
102
}
330
2A
100
AcDbVisualStyle
  2
Basic
 70
     7
177
     3
291
     1
 70
    58
 90
        1
176
     1
 90
        0
176
     1
 90
        1
176
     1
 90
        0
176
     1
 40
0.6
176
     1
 40
30.0
176
     1
 62
     7
420
 16777215
176
     1
 90
        0
176
     1
 90
        4
176
     1
 62
     7
176
     1
 62
   257
176
     1
 90
        1
176
     1
 90
        1
176
     1
 40
1.0
176
     1
 90
        8
176
     1
 62
     7
176
     1
 40
1.0
176
     1
 90
        1
176
     1
 90
        6
176
     1
 90
        2
176
     1
 62
     7
176
     1
 90
        5
176
     1
 90
        0
176
     1
 90
        0
176
     1
290
     0
176
     1
 90
        1
176
     1
 40
0.0
176
     1
 90
        0
176
     1
290
     0
176
     1
290
     1
176
     1
290
     1
176
     1
290
     0
176
     1
290
     0
176
     1
290
     0
176
     1
290
     0
176
     1
290
     0
176
     1
290
     0
176
     1
 90
       50
176
     1
 40
0.0
176
     1
 40
1.0
176
     1
 90
        0
176
     1
 62
    18
420
        0
176
     1
 90
       50
176
     1
 90
        3
176
     1
 62
     5
420
      255
176
     1
290
     0
176
     1
 90
       50
176
     1
 90
       50
176
     1
 90
       50
176
     1
290
     0
176
     1
 90
       50
176
     1
 62
   256
176
     0
 40
1.0
176
     0
 90
        2
176
     1
  1
strokes_ogs.tif
176
     1
290
     0
176
     1
 40
1.0
176
     1
 40
1.0
176
     1
  0
VISUALSTYLE
  5
36
102
{ACAD_REACTORS
330
2A
102
}
330
2A
100
AcDbVisualStyle
  2
Brighten
 70
    12
177
     3
291
     1
 70
    58
 90
        2
176
     1
 90
        2
176
     1
 90
        0
176
     1
 90
        0
176
     1
 40
0.6
176
     1
 40
30.0
176
     1
 62
     7
420
 16777215
176
     1
 90
        1
176
     1
 90
        4
176
     1
 62
     7
176
     1
 62
   257
176
     1
 90
        1
176
     1
 90
        1
176
     1
 40
1.0
176
     1
 90
        8
176
     1
 62
     7
176
     1
 40
1.0
176
     1
 90
        1
176
     1
 90
        6
176
     1
 90
        2
176
     1
 62
     7
176
     1
 90
        5
176
     1
 90
        0
176
     1
 90
        0
176
     1
290
     0
176
     1
 90
        1
176
     1
 40
50.0
176
     1
 90
        0
176
     1
290
     0
176
     1
290
     1
176
     1
290
     1
176
     1
290
     0
176
     1
290
     0
176
     1
290
     0
176
     1
290
     0
176
     1
290
     0
176
     1
290
     0
176
     1
 90
       50
176
     1
 40
0.0
176
     1
 40
1.0
176
     1
 90
        0
176
     1
 62
    18
420
        0
176
     1
 90
       50
176
     1
 90
        3
176
     1
 62
     5
420
      255
176
     1
290
     0
176
     1
 90
       50
176
     1
 90
       50
176
     1
 90
       50
176
     1
290
     0
176
     1
 90
       50
176
     1
 62
   256
176
     0
 40
1.0
176
     0
 90
        2
176
     1
  1
strokes_ogs.tif
176
     1
290
     0
176
     1
 40
1.0
176
     1
 40
1.0
176
     1
  0
VISUALSTYLE
  5
3A
102
{ACAD_REACTORS
330
2A
102
}
330
2A
100
AcDbVisualStyle
  2
ColorChange
 70
    16
177
     3
291
     1
 70
    58
 90
        2
176
     1
 90
        2
176
     1
 90
        3
176
     1
 90
        0
176
     1
 40
0.6
176
     1
 40
30.0
176
     1
 62
     8
420
  8421504
176
     1
 90
        1
176
     1
 90
        4
176
     1
 62
     7
176
     1
 62
   257
176
     1
 90
        1
176
     1
 90
        1
176
     1
 40
1.0
176
     1
 90
        8
176
     1
 62
     8
420
  8421504
176
     1
 40
1.0
176
     1
 90
        1
176
     1
 90
        6
176
     1
 90
        2
176
     1
 62
     7
176
     1
 90
        5
176
     1
 90
        0
176
     1
 90
        0
176
     1
290
     0
176
     1
 90
        1
176
     1
 40
0.0
176
     1
 90
        0
176
     1
290
     0
176
     1
290
     1
176
     1
290
     1
176
     1
290
     0
176
     1
290
     0
176
     1
290
     0
176
     1
290
     0
176
     1
290
     0
176
     1
290
     0
176
     1
 90
       50
176
     1
 40
0.0
176
     1
 40
1.0
176
     1
 90
        0
176
     1
 62
    18
420
        0
176
     1
 90
       50
176
     1
 90
        3
176
     1
 62
     5
420
      255
176
     1
290
     0
176
     1
 90
       50
176
     1
 90
       50
176
     1
 90
       50
176
     1
290
     0
176
     1
 90
       50
176
     1
 62
   256
176
     0
 40
1.0
176
     0
 90
        2
176
     1
  1
strokes_ogs.tif
176
     1
290
     0
176
     1
 40
1.0
176
     1
 40
1.0
176
     1
  0
VISUALSTYLE
  5
34
102
{ACAD_REACTORS
330
2A
102
}
330
2A
100
AcDbVisualStyle
  2
Conceptual
 70
     9
177
     3
291
     0
 70
    58
 90
        3
176
     1
 90
        2
176
     1
 90
        0
176
     1
 90
        0
176
     1
 40
0.6
176
     1
 40
30.0
176
     1
 62
     7
420
 16777215
176
     1
 90
        2
176
     1
 90
        2
176
     1
 62
     7
176
     1
 62
   257
176
     1
 90
        1
176
     1
 90
        1
176
     1
 40
179.0
176
     1
 90
        8
176
     1
 62
     7
176
     1
 40
1.0
176
     1
 90
        1
176
     1
 90
        6
176
     1
 90
        2
176
     1
 62
     7
176
     1
 90
        3
176
     1
 90
        0
176
     1
 90
        0
176
     1
290
     0
176
     1
 90
        1
176
     1
 40
0.0
176
     1
 90
        0
176
     1
290
     0
176
     1
290
     1
176
     1
290
     1
176
     1
290
     0
176
     1
290
     0
176
     1
290
     0
176
     1
290
     0
176
     1
290
     0
176
     1
290
     0
176
     1
 90
       50
176
     1
 40
0.0
176
     1
 40
1.0
176
     1
 90
        0
176
     1
 62
    18
420
        0
176
     1
 90
       50
176
     1
 90
        3
176
     1
 62
     5
420
      255
176
     1
290
     0
176
     1
 90
       50
176
     1
 90
       50
176
     1
 90
       50
176
     1
290
     0
176
     1
 90
       50
176
     1
 62
   256
176
     0
 40
1.0
176
     0
 90
        2
176
     1
  1
strokes_ogs.tif
176
     1
290
     0
176
     1
 40
1.0
176
     1
 40
1.0
176
     1
  0
VISUALSTYLE
  5
35
102
{ACAD_REACTORS
330
2A
102
}
330
2A
100
AcDbVisualStyle
  2
Dim
 70
    11
177
     3
291
     1
 70
    58
 90
        2
176
     1
 90
        2
176
     1
 90
        0
176
     1
 90
        0
176
     1
 40
0.6
176
     1
 40
30.0
176
     1
 62
     7
420
 16777215
176
     1
 90
        1
176
     1
 90
        4
176
     1
 62
     7
176
     1
 62
   257
176
     1
 90
        1
176
     1
 90
        1
176
     1
 40
1.0
176
     1
 90
        8
176
     1
 62
     7
176
     1
 40
1.0
176
     1
 90
        1
176
     1
 90
        6
176
     1
 90
        2
176
     1
 62
     7
176
     1
 90
        5
176
     1
 90
        0
176
     1
 90
        0
176
     1
290
     0
176
     1
 90
        1
176
     1
 40
-50.0
176
     1
 90
        0
176
     1
290
     0
176
     1
290
     1
176
     1
290
     1
176
     1
290
     0
176
     1
290
     0
176
     1
290
     0
176
     1
290
     0
176
     1
290
     0
176
     1
290
     0
176
     1
 90
       50
176
     1
 40
0.0
176
     1
 40
1.0
176
     1
 90
        0
176
     1
 62
    18
420
        0
176
     1
 90
       50
176
     1
 90
        3
176
     1
 62
     5
420
      255
176
     1
290
     0
176
     1
 90
       50
176
     1
 90
       50
176
     1
 90
       50
176
     1
290
     0
176
     1
 90
       50
176
     1
 62
   256
176
     0
 40
1.0
176
     0
 90
        2
176
     1
  1
strokes_ogs.tif
176
     1
290
     0
176
     1
 40
1.0
176
     1
 40
1.0
176
     1
  0
VISUALSTYLE
  5
3D
102
{ACAD_REACTORS
330
2A
102
}
330
2A
100
AcDbVisualStyle
  2
EdgeColorOff
 70
    22
177
     3
291
     1
 70
    58
 90
        2
176
     0
 90
        2
176
     0
 90
        0
176
     0
 90
        0
176
     0
 40
0.6
176
     0
 40
30.0
176
     0
 62
     7
420
 16777215
176
     0
 90
        1
176
     0
 90
        4
176
     0
 62
     7
176
     0
 62
   257
176
     0
 90
        1
176
     0
 90
        1
176
     0
 40
1.0
176
     0
 90
        8
176
     2
 62
     7
176
     0
 40
1.0
176
     0
 90
        1
176
     0
 90
        6
176
     0
 90
        2
176
     0
 62
     7
176
     0
 90
        5
176
     0
 90
        0
176
     0
 90
        0
176
     0
290
     0
176
     0
 90
        1
176
     0
 40
0.0
176
     0
 90
        0
176
     0
290
     0
176
     0
290
     1
176
     0
290
     1
176
     0
290
     0
176
     0
290
     0
176
     0
290
     0
176
     0
290
     0
176
     0
290
     0
176
     0
290
     0
176
     0
 90
       50
176
     0
 40
0.0
176
     0
 40
1.0
176
     0
 90
        0
176
     0
 62
    18
420
        0
176
     0
 90
       50
176
     0
 90
        3
176
     0
 62
     5
420
      255
176
     0
290
     0
176
     0
 90
       50
176
     0
 90
       50
176
     0
 90
       50
176
     0
290
     0
176
     0
 90
       50
176
     0
 62
   256
176
     0
 40
1.0
176
     0
 90
        2
176
     0
  1
strokes_ogs.tif
176
     0
290
     0
176
     0
 40
1.0
176
     0
 40
1.0
176
     0
  0
VISUALSTYLE
  5
39
102
{ACAD_REACTORS
330
2A
102
}
330
2A
100
AcDbVisualStyle
  2
Facepattern
 70
    15
177
     3
291
     1
 70
    58
 90
        2
176
     1
 90
        2
176
     1
 90
        0
176
     1
 90
        0
176
     1
 40
0.6
176
     1
 40
30.0
176
     1
 62
     7
420
 16777215
176
     1
 90
        1
176
     1
 90
        4
176
     1
 62
     7
176
     1
 62
   257
176
     1
 90
        1
176
     1
 90
        1
176
     1
 40
1.0
176
     1
 90
        8
176
     1
 62
     7
176
     1
 40
1.0
176
     1
 90
        1
176
     1
 90
        6
176
     1
 90
        2
176
     1
 62
     7
176
     1
 90
        5
176
     1
 90
        0
176
     1
 90
        0
176
     1
290
     0
176
     1
 90
        1
176
     1
 40
0.0
176
     1
 90
        0
176
     1
290
     0
176
     1
290
     1
176
     1
290
     1
176
     1
290
     0
176
     1
290
     0
176
     1
290
     0
176
     1
290
     0
176
     1
290
     0
176
     1
290
     0
176
     1
 90
       50
176
     1
 40
0.0
176
     1
 40
1.0
176
     1
 90
        0
176
     1
 62
    18
420
        0
176
     1
 90
       50
176
     1
 90
        3
176
     1
 62
     5
420
      255
176
     1
290
     0
176
     1
 90
       50
176
     1
 90
       50
176
     1
 90
       50
176
     1
290
     0
176
     1
 90
       50
176
     1
 62
   256
176
     0
 40
1.0
176
     0
 90
        2
176
     1
  1
strokes_ogs.tif
176
     1
290
     0
176
     1
 40
1.0
176
     1
 40
1.0
176
     1
  0
VISUALSTYLE
  5
2B
102
{ACAD_REACTORS
330
2A
102
}
330
2A
100
AcDbVisualStyle
  2
Flat
 70
     0
177
     3
291
     1
 70
    58
 90
        2
176
     1
 90
        1
176
     1
 90
        1
176
     1
 90
        2
176
     1
 40
0.6
176
     1
 40
30.0
176
     1
 62
     7
420
 16777215
176
     1
 90
        0
176
     1
 90
        0
176
     1
 62
     7
176
     1
 62
   257
176
     1
 90
        1
176
     1
 90
        1
176
     1
 40
1.0
176
     1
 90
        8
176
     1
 62
     7
176
     1
 40
1.0
176
     1
 90
        1
176
     1
 90
        6
176
     1
 90
        2
176
     1
 62
     7
176
     1
 90
        5
176
     1
 90
        0
176
     1
 90
        0
176
     1
290
     0
176
     1
 90
       13
176
     1
 40
0.0
176
     1
 90
        0
176
     1
290
     0
176
     1
290
     1
176
     1
290
     1
176
     1
290
     0
176
     1
290
     0
176
     1
290
     0
176
     1
290
     0
176
     1
290
     0
176
     1
290
     0
176
     1
 90
       50
176
     1
 40
0.0
176
     1
 40
1.0
176
     1
 90
        0
176
     1
 62
    18
420
        0
176
     1
 90
       50
176
     1
 90
        3
176
     1
 62
     5
420
      255
176
     1
290
     0
176
     1
 90
       50
176
     1
 90
       50
176
     1
 90
       50
176
     1
290
     0
176
     1
 90
       50
176
     1
 62
   256
176
     0
 40
1.0
176
     0
 90
        2
176
     1
  1
strokes_ogs.tif
176
     1
290
     0
176
     1
 40
1.0
176
     1
 40
1.0
176
     1
  0
VISUALSTYLE
  5
2C
102
{ACAD_REACTORS
330
2A
102
}
330
2A
100
AcDbVisualStyle
  2
FlatWithEdges
 70
     1
177
     3
291
     1
 70
    58
 90
        2
176
     1
 90
        1
176
     1
 90
        1
176
     1
 90
        2
176
     1
 40
0.6
176
     1
 40
30.0
176
     1
 62
     7
420
 16777215
176
     1
 90
        1
176
     1
 90
        0
176
     1
 62
     7
176
     1
 62
   257
176
     1
 90
        1
176
     1
 90
        1
176
     1
 40
1.0
176
     1
 90
        0
176
     1
 62
   257
176
     1
 40
1.0
176
     1
 90
        1
176
     1
 90
        6
176
     1
 90
        2
176
     1
 62
     7
176
     1
 90
        5
176
     1
 90
        0
176
     1
 90
        0
176
     1
290
     0
176
     1
 90
       13
176
     1
 40
0.0
176
     1
 90
        0
176
     1
290
     0
176
     1
290
     1
176
     1
290
     1
176
     1
290
     0
176
     1
290
     0
176
     1
290
     0
176
     1
290
     0
176
     1
290
     0
176
     1
290
     0
176
     1
 90
       50
176
     1
 40
0.0
176
     1
 40
1.0
176
     1
 90
        0
176
     1
 62
    18
420
        0
176
     1
 90
       50
176
     1
 90
        3
176
     1
 62
     5
420
      255
176
     1
290
     0
176
     1
 90
       50
176
     1
 90
       50
176
     1
 90
       50
176
     1
290
     0
176
     1
 90
       50
176
     1
 62
   256
176
     0
 40
1.0
176
     0
 90
        2
176
     1
  1
strokes_ogs.tif
176
     1
290
     0
176
     1
 40
1.0
176
     1
 40
1.0
176
     1
  0
VISUALSTYLE
  5
2D
102
{ACAD_REACTORS
330
2A
102
}
330
2A
100
AcDbVisualStyle
  2
Gouraud
 70
     2
177
     3
291
     1
 70
    58
 90
        2
176
     1
 90
        2
176
     1
 90
        1
176
     1
 90
        2
176
     1
 40
0.6
176
     1
 40
30.0
176
     1
 62
     7
420
 16777215
176
     1
 90
        0
176
     1
 90
        0
176
     1
 62
     7
176
     1
 62
   257
176
     1
 90
        1
176
     1
 90
        1
176
     1
 40
1.0
176
     1
 90
        0
176
     1
 62
     7
176
     1
 40
1.0
176
     1
 90
        1
176
     1
 90
        6
176
     1
 90
        2
176
     1
 62
     7
176
     1
 90
        5
176
     1
 90
        0
176
     1
 90
        0
176
     1
290
     0
176
     1
 90
       13
176
     1
 40
0.0
176
     1
 90
        0
176
     1
290
     0
176
     1
290
     1
176
     1
290
     1
176
     1
290
     0
176
     1
290
     0
176
     1
290
     0
176
     1
290
     0
176
     1
290
     0
176
     1
290
     0
176
     1
 90
       50
176
     1
 40
0.0
176
     1
 40
1.0
176
     1
 90
        0
176
     1
 62
    18
420
        0
176
     1
 90
       50
176
     1
 90
        3
176
     1
 62
     5
420
      255
176
     1
290
     0
176
     1
 90
       50
176
     1
 90
       50
176
     1
 90
       50
176
     1
290
     0
176
     1
 90
       50
176
     1
 62
   256
176
     0
 40
1.0
176
     0
 90
        2
176
     1
  1
strokes_ogs.tif
176
     1
290
     0
176
     1
 40
1.0
176
     1
 40
1.0
176
     1
  0
VISUALSTYLE
  5
2E
102
{ACAD_REACTORS
330
2A
102
}
330
2A
100
AcDbVisualStyle
  2
GouraudWithEdges
 70
     3
177
     3
291
     1
 70
    58
 90
        2
176
     1
 90
        2
176
     1
 90
        1
176
     1
 90
        2
176
     1
 40
0.6
176
     1
 40
30.0
176
     1
 62
     7
420
 16777215
176
     1
 90
        1
176
     1
 90
        0
176
     1
 62
     7
176
     1
 62
   257
176
     1
 90
        1
176
     1
 90
        1
176
     1
 40
1.0
176
     1
 90
        0
176
     1
 62
   257
176
     1
 40
1.0
176
     1
 90
        1
176
     1
 90
        6
176
     1
 90
        2
176
     1
 62
     7
176
     1
 90
        5
176
     1
 90
        0
176
     1
 90
        0
176
     1
290
     0
176
     1
 90
       13
176
     1
 40
0.0
176
     1
 90
        0
176
     1
290
     0
176
     1
290
     1
176
     1
290
     1
176
     1
290
     0
176
     1
290
     0
176
     1
290
     0
176
     1
290
     0
176
     1
290
     0
176
     1
290
     0
176
     1
 90
       50
176
     1
 40
0.0
176
     1
 40
1.0
176
     1
 90
        0
176
     1
 62
    18
420
        0
176
     1
 90
       50
176
     1
 90
        3
176
     1
 62
     5
420
      255
176
     1
290
     0
176
     1
 90
       50
176
     1
 90
       50
176
     1
 90
       50
176
     1
290
     0
176
     1
 90
       50
176
     1
 62
   256
176
     0
 40
1.0
176
     0
 90
        2
176
     1
  1
strokes_ogs.tif
176
     1
290
     0
176
     1
 40
1.0
176
     1
 40
1.0
176
     1
  0
VISUALSTYLE
  5
31
102
{ACAD_REACTORS
330
2A
102
}
330
2A
100
AcDbVisualStyle
  2
Hidden
 70
     6
177
     3
291
     0
 70
    58
 90
        1
176
     1
 90
        2
176
     1
 90
        2
176
     1
 90
        0
176
     1
 40
0.6
176
     1
 40
30.0
176
     1
 62
     7
420
 16777215
176
     1
 90
        2
176
     1
 90
        2
176
     1
 62
     7
176
     1
 62
   257
176
     1
 90
        2
176
     1
 90
        1
176
     1
 40
40.0
176
     1
 90
        0
176
     1
 62
   257
176
     1
 40
1.0
176
     1
 90
        1
176
     1
 90
        6
176
     1
 90
        2
176
     1
 62
     7
176
     1
 90
        3
176
     1
 90
        0
176
     1
 90
        0
176
     1
290
     0
176
     1
 90
        1
176
     1
 40
0.0
176
     1
 90
        0
176
     1
290
     0
176
     1
290
     1
176
     1
290
     1
176
     1
290
     0
176
     1
290
     0
176
     1
290
     0
176
     1
290
     0
176
     1
290
     0
176
     1
290
     0
176
     1
 90
       50
176
     1
 40
0.0
176
     1
 40
1.0
176
     1
 90
        0
176
     1
 62
    18
420
        0
176
     1
 90
       50
176
     1
 90
        3
176
     1
 62
     5
420
      255
176
     1
290
     0
176
     1
 90
       50
176
     1
 90
       50
176
     1
 90
       50
176
     1
290
     0
176
     1
 90
       50
176
     1
 62
   256
176
     0
 40
1.0
176
     0
 90
        2
176
     1
  1
strokes_ogs.tif
176
     1
290
     0
176
     1
 40
1.0
176
     1
 40
1.0
176
     1
  0
VISUALSTYLE
  5
3B
102
{ACAD_REACTORS
330
2A
102
}
330
2A
100
AcDbVisualStyle
  2
JitterOff
 70
    20
177
     3
291
     1
 70
    58
 90
        2
176
     0
 90
        2
176
     0
 90
        0
176
     0
 90
        0
176
     0
 40
0.6
176
     0
 40
30.0
176
     0
 62
     7
420
 16777215
176
     0
 90
        1
176
     0
 90
        4
176
     0
 62
     7
176
     0
 62
   257
176
     0
 90
        1
176
     0
 90
        1
176
     0
 40
1.0
176
     0
 90
       10
176
     2
 62
     7
176
     0
 40
1.0
176
     0
 90
        1
176
     0
 90
        6
176
     0
 90
        2
176
     0
 62
     7
176
     0
 90
        5
176
     0
 90
        0
176
     0
 90
        0
176
     0
290
     0
176
     0
 90
        1
176
     0
 40
0.0
176
     0
 90
        0
176
     0
290
     0
176
     0
290
     1
176
     0
290
     1
176
     0
290
     0
176
     0
290
     0
176
     0
290
     0
176
     0
290
     0
176
     0
290
     0
176
     0
290
     0
176
     0
 90
       50
176
     0
 40
0.0
176
     0
 40
1.0
176
     0
 90
        0
176
     0
 62
    18
420
        0
176
     0
 90
       50
176
     0
 90
        3
176
     0
 62
     5
420
      255
176
     0
290
     0
176
     0
 90
       50
176
     0
 90
       50
176
     0
 90
       50
176
     0
290
     0
176
     0
 90
       50
176
     0
 62
   256
176
     0
 40
1.0
176
     0
 90
        2
176
     0
  1
strokes_ogs.tif
176
     0
290
     0
176
     0
 40
1.0
176
     0
 40
1.0
176
     0
  0
VISUALSTYLE
  5
38
102
{ACAD_REACTORS
330
2A
102
}
330
2A
100
AcDbVisualStyle
  2
Linepattern
 70
    14
177
     3
291
     1
 70
    58
 90
        2
176
     1
 90
        2
176
     1
 90
        0
176
     1
 90
        0
176
     1
 40
0.6
176
     1
 40
30.0
176
     1
 62
     7
420
 16777215
176
     1
 90
        1
176
     1
 90
        4
176
     1
 62
     7
176
     1
 62
   257
176
     1
 90
        7
176
     1
 90
        7
176
     1
 40
1.0
176
     1
 90
        8
176
     1
 62
     7
176
     1
 40
1.0
176
     1
 90
        1
176
     1
 90
        6
176
     1
 90
        2
176
     1
 62
     7
176
     1
 90
        5
176
     1
 90
        0
176
     1
 90
        0
176
     1
290
     0
176
     1
 90
        1
176
     1
 40
0.0
176
     1
 90
        0
176
     1
290
     0
176
     1
290
     1
176
     1
290
     1
176
     1
290
     0
176
     1
290
     0
176
     1
290
     0
176
     1
290
     0
176
     1
290
     0
176
     1
290
     0
176
     1
 90
       50
176
     1
 40
0.0
176
     1
 40
1.0
176
     1
 90
        0
176
     1
 62
    18
420
        0
176
     1
 90
       50
176
     1
 90
        3
176
     1
 62
     5
420
      255
176
     1
290
     0
176
     1
 90
       50
176
     1
 90
       50
176
     1
 90
       50
176
     1
290
     0
176
     1
 90
       50
176
     1
 62
   256
176
     0
 40
1.0
176
     0
 90
        2
176
     1
  1
strokes_ogs.tif
176
     1
290
     0
176
     1
 40
1.0
176
     1
 40
1.0
176
     1
  0
VISUALSTYLE
  5
3C
102
{ACAD_REACTORS
330
2A
102
}
330
2A
100
AcDbVisualStyle
  2
OverhangOff
 70
    21
177
     3
291
     1
 70
    58
 90
        2
176
     0
 90
        2
176
     0
 90
        0
176
     0
 90
        0
176
     0
 40
0.6
176
     0
 40
30.0
176
     0
 62
     7
420
 16777215
176
     0
 90
        1
176
     0
 90
        4
176
     0
 62
     7
176
     0
 62
   257
176
     0
 90
        1
176
     0
 90
        1
176
     0
 40
1.0
176
     0
 90
        9
176
     2
 62
     7
176
     0
 40
1.0
176
     0
 90
        1
176
     0
 90
        6
176
     0
 90
        2
176
     0
 62
     7
176
     0
 90
        5
176
     0
 90
        0
176
     0
 90
        0
176
     0
290
     0
176
     0
 90
        1
176
     0
 40
0.0
176
     0
 90
        0
176
     0
290
     0
176
     0
290
     1
176
     0
290
     1
176
     0
290
     0
176
     0
290
     0
176
     0
290
     0
176
     0
290
     0
176
     0
290
     0
176
     0
290
     0
176
     0
 90
       50
176
     0
 40
0.0
176
     0
 40
1.0
176
     0
 90
        0
176
     0
 62
    18
420
        0
176
     0
 90
       50
176
     0
 90
        3
176
     0
 62
     5
420
      255
176
     0
290
     0
176
     0
 90
       50
176
     0
 90
       50
176
     0
 90
       50
176
     0
290
     0
176
     0
 90
       50
176
     0
 62
   256
176
     0
 40
1.0
176
     0
 90
        2
176
     0
  1
strokes_ogs.tif
176
     0
290
     0
176
     0
 40
1.0
176
     0
 40
1.0
176
     0
  0
VISUALSTYLE
  5
33
102
{ACAD_REACTORS
330
2A
102
}
330
2A
100
AcDbVisualStyle
  2
Realistic
 70
     8
177
     3
291
     0
 70
    58
 90
        2
176
     1
 90
        3
176
     1
 90
        0
176
     1
 90
        2
176
     1
 40
0.6
176
     1
 40
30.0
176
     1
 62
     7
420
 16777215
176
     1
 90
        0
176
     1
 90
        0
176
     1
 62
     7
176
     1
 62
   257
176
     1
 90
        1
176
     1
 90
        1
176
     1
 40
1.0
176
     1
 90
        8
176
     1
 62
   257
176
     1
 40
1.0
176
     1
 90
        1
176
     1
 90
        6
176
     1
 90
        2
176
     1
 62
     7
176
     1
 90
        3
176
     1
 90
        0
176
     1
 90
        0
176
     1
290
     0
176
     1
 90
       13
176
     1
 40
0.0
176
     1
 90
        0
176
     1
290
     0
176
     1
290
     1
176
     1
290
     1
176
     1
290
     0
176
     1
290
     0
176
     1
290
     0
176
     1
290
     0
176
     1
290
     0
176
     1
290
     0
176
     1
 90
       50
176
     1
 40
0.0
176
     1
 40
1.0
176
     1
 90
        0
176
     1
 62
    18
420
        0
176
     1
 90
       50
176
     1
 90
        3
176
     1
 62
     5
420
      255
176
     1
290
     0
176
     1
 90
       50
176
     1
 90
       50
176
     1
 90
       50
176
     1
290
     0
176
     1
 90
       50
176
     1
 62
   256
176
     0
 40
1.0
176
     0
 90
        2
176
     1
  1
strokes_ogs.tif
176
     1
290
     0
176
     1
 40
1.0
176
     1
 40
1.0
176
     1
  0
VISUALSTYLE
  5
42
102
{ACAD_REACTORS
330
2A
102
}
330
2A
100
AcDbVisualStyle
  2
Shaded
 70
    27
177
     3
291
     0
 70
    58
 90
        2
176
     1
 90
        2
176
     1
 90
        1
176
     1
 90
        2
176
     1
 40
0.6
176
     1
 40
30.0
176
     1
 62
     7
420
 16777215
176
     1
 90
        0
176
     1
 90
        4
176
     1
 62
     7
176
     1
 62
   257
176
     1
 90
        1
176
     1
 90
        1
176
     1
 40
1.0
176
     1
 90
        8
176
     1
 62
   257
176
     1
 40
1.0
176
     1
 90
        1
176
     1
 90
        6
176
     1
 90
        2
176
     1
 62
     8
420
  7895160
176
     1
 90
        3
176
     1
 90
        0
176
     1
 90
        0
176
     1
290
     0
176
     1
 90
        5
176
     1
 40
0.0
176
     1
 90
        0
176
     1
290
     0
176
     1
290
     1
176
     1
290
     1
176
     1
290
     0
176
     1
290
     0
176
     1
290
     0
176
     1
290
     0
176
     1
290
     0
176
     1
290
     0
176
     1
 90
       50
176
     1
 40
0.0
176
     1
 40
1.0
176
     1
 90
        0
176
     1
 62
    18
420
        0
176
     1
 90
       50
176
     1
 90
        3
176
     1
 62
     5
420
      255
176
     1
290
     0
176
     1
 90
       50
176
     1
 90
       50
176
     1
 90
       50
176
     1
290
     0
176
     1
 90
       50
176
     1
 62
   256
176
     0
 40
1.0
176
     0
 90
        2
176
     1
  1
strokes_ogs.tif
176
     1
290
     0
176
     1
 40
1.0
176
     1
 40
1.0
176
     1
  0
VISUALSTYLE
  5
41
102
{ACAD_REACTORS
330
2A
102
}
330
2A
100
AcDbVisualStyle
  2
Shaded with edges
 70
    26
177
     3
291
     0
 70
    58
 90
        2
176
     1
 90
        2
176
     1
 90
        1
176
     1
 90
        2
176
     1
 40
0.6
176
     1
 40
30.0
176
     1
 62
     7
420
 16777215
176
     1
 90
        1
176
     1
 90
       10
176
     1
 62
     7
176
     1
 62
   257
176
     1
 90
        2
176
     1
 90
        1
176
     1
 40
1.0
176
     1
 90
        8
176
     1
 62
   257
176
     1
 40
1.0
176
     1
 90
        1
176
     1
 90
        6
176
     1
 90
        2
176
     1
 62
     7
176
     1
 90
        3
176
     1
 90
        0
176
     1
 90
        0
176
     1
290
     0
176
     1
 90
        5
176
     1
 40
0.0
176
     1
 90
        0
176
     1
290
     0
176
     1
290
     1
176
     1
290
     1
176
     1
290
     0
176
     1
290
     0
176
     1
290
     0
176
     1
290
     0
176
     1
290
     0
176
     1
290
     0
176
     1
 90
       50
176
     1
 40
0.0
176
     1
 40
1.0
176
     1
 90
        0
176
     1
 62
    18
420
        0
176
     1
 90
       50
176
     1
 90
        3
176
     1
 62
     5
420
      255
176
     1
290
     0
176
     1
 90
       50
176
     1
 90
       50
176
     1
 90
       50
176
     1
290
     0
176
     1
 90
       50
176
     1
 62
   256
176
     0
 40
1.0
176
     0
 90
        2
176
     1
  1
strokes_ogs.tif
176
     1
290
     0
176
     1
 40
1.0
176
     1
 40
1.0
176
     1
  0
VISUALSTYLE
  5
3E
102
{ACAD_REACTORS
330
2A
102
}
330
2A
100
AcDbVisualStyle
  2
Shades of Gray
 70
    23
177
     3
291
     0
 70
    58
 90
        2
176
     1
 90
        2
176
     1
 90
        3
176
     1
 90
        0
176
     1
 40
0.6
176
     1
 40
30.0
176
     1
 62
     7
420
 16777215
176
     1
 90
        2
176
     1
 90
        2
176
     1
 62
     7
176
     1
 62
     7
176
     1
 90
        1
176
     1
 90
        1
176
     1
 40
40.0
176
     1
 90
        8
176
     1
 62
     7
176
     1
 40
1.0
176
     1
 90
        1
176
     1
 90
        6
176
     1
 90
        2
176
     1
 62
     7
176
     1
 90
        3
176
     1
 90
        0
176
     1
 90
        0
176
     1
290
     0
176
     1
 90
        1
176
     1
 40
0.0
176
     1
 90
        0
176
     1
290
     0
176
     1
290
     1
176
     1
290
     1
176
     1
290
     0
176
     1
290
     0
176
     1
290
     0
176
     1
290
     0
176
     1
290
     0
176
     1
290
     0
176
     1
 90
       50
176
     1
 40
0.0
176
     1
 40
1.0
176
     1
 90
        0
176
     1
 62
    18
420
        0
176
     1
 90
       50
176
     1
 90
        3
176
     1
 62
     5
420
      255
176
     1
290
     0
176
     1
 90
       50
176
     1
 90
       50
176
     1
 90
       50
176
     1
290
     0
176
     1
 90
       50
176
     1
 62
   256
176
     0
 40
1.0
176
     0
 90
        2
176
     1
  1
strokes_ogs.tif
176
     1
290
     0
176
     1
 40
1.0
176
     1
 40
1.0
176
     1
  0
VISUALSTYLE
  5
3F
102
{ACAD_REACTORS
330
2A
102
}
330
2A
100
AcDbVisualStyle
  2
Sketchy
 70
    24
177
     3
291
     0
 70
    58
 90
        1
176
     1
 90
        2
176
     1
 90
        2
176
     1
 90
        0
176
     1
 40
0.6
176
     1
 40
30.0
176
     1
 62
     7
420
 16777215
176
     1
 90
        2
176
     1
 90
        2
176
     1
 62
     7
176
     1
 62
     7
176
     1
 90
        1
176
     1
 90
        1
176
     1
 40
40.0
176
     1
 90
       11
176
     1
 62
     7
176
     1
 40
1.0
176
     1
 90
        1
176
     1
 90
        6
176
     1
 90
        2
176
     1
 62
     7
176
     1
 90
        6
176
     1
 90
        0
176
     1
 90
        0
176
     1
290
     0
176
     1
 90
        1
176
     1
 40
0.0
176
     1
 90
        0
176
     1
290
     0
176
     1
290
     1
176
     1
290
     1
176
     1
290
     0
176
     1
290
     0
176
     1
290
     0
176
     1
290
     0
176
     1
290
     0
176
     1
290
     0
176
     1
 90
       50
176
     1
 40
0.0
176
     1
 40
1.0
176
     1
 90
        0
176
     1
 62
    18
420
        0
176
     1
 90
       50
176
     1
 90
        3
176
     1
 62
     5
420
      255
176
     1
290
     0
176
     1
 90
       50
176
     1
 90
       50
176
     1
 90
       50
176
     1
290
     0
176
     1
 90
       50
176
     1
 62
   256
176
     0
 40
1.0
176
     0
 90
        2
176
     1
  1
strokes_ogs.tif
176
     1
290
     0
176
     1
 40
1.0
176
     1
 40
1.0
176
     1
  0
VISUALSTYLE
  5
37
102
{ACAD_REACTORS
330
2A
102
}
330
2A
100
AcDbVisualStyle
  2
Thicken
 70
    13
177
     3
291
     1
 70
    58
 90
        2
176
     1
 90
        2
176
     1
 90
        0
176
     1
 90
        0
176
     1
 40
0.6
176
     1
 40
30.0
176
     1
 62
     7
420
 16777215
176
     1
 90
        1
176
     1
 90
        4
176
     1
 62
     7
176
     1
 62
   257
176
     1
 90
        1
176
     1
 90
        1
176
     1
 40
1.0
176
     1
 90
       12
176
     1
 62
     7
176
     1
 40
1.0
176
     1
 90
        1
176
     1
 90
        6
176
     1
 90
        2
176
     1
 62
     7
176
     1
 90
        5
176
     1
 90
        0
176
     1
 90
        0
176
     1
290
     0
176
     1
 90
        1
176
     1
 40
0.0
176
     1
 90
        0
176
     1
290
     0
176
     1
290
     1
176
     1
290
     1
176
     1
290
     0
176
     1
290
     0
176
     1
290
     0
176
     1
290
     0
176
     1
290
     0
176
     1
290
     0
176
     1
 90
       50
176
     1
 40
0.0
176
     1
 40
1.0
176
     1
 90
        0
176
     1
 62
    18
420
        0
176
     1
 90
       50
176
     1
 90
        3
176
     1
 62
     5
420
      255
176
     1
290
     0
176
     1
 90
       50
176
     1
 90
       50
176
     1
 90
       50
176
     1
290
     0
176
     1
 90
       50
176
     1
 62
   256
176
     0
 40
1.0
176
     0
 90
        2
176
     1
  1
strokes_ogs.tif
176
     1
290
     0
176
     1
 40
1.0
176
     1
 40
1.0
176
     1
  0
VISUALSTYLE
  5
30
102
{ACAD_REACTORS
330
2A
102
}
330
2A
100
AcDbVisualStyle
  2
Wireframe
 70
     5
177
     3
291
     0
 70
    58
 90
        0
176
     1
 90
        2
176
     1
 90
        0
176
     1
 90
        0
176
     1
 40
0.6
176
     1
 40
30.0
176
     1
 62
     7
420
 16777215
176
     1
 90
        1
176
     1
 90
        4
176
     1
 62
     7
176
     1
 62
   257
176
     1
 90
        1
176
     1
 90
        1
176
     1
 40
1.0
176
     1
 90
        0
176
     1
 62
   257
176
     1
 40
1.0
176
     1
 90
        1
176
     1
 90
        6
176
     1
 90
        2
176
     1
 62
     7
176
     1
 90
        3
176
     1
 90
        0
176
     1
 90
        0
176
     1
290
     0
176
     1
 90
        1
176
     1
 40
0.0
176
     1
 90
        0
176
     1
290
     0
176
     1
290
     1
176
     1
290
     1
176
     1
290
     0
176
     1
290
     0
176
     1
290
     0
176
     1
290
     0
176
     1
290
     0
176
     1
290
     0
176
     1
 90
       50
176
     1
 40
0.0
176
     1
 40
1.0
176
     1
 90
        0
176
     1
 62
    18
420
        0
176
     1
 90
       50
176
     1
 90
        3
176
     1
 62
     5
420
      255
176
     1
290
     0
176
     1
 90
       50
176
     1
 90
       50
176
     1
 90
       50
176
     1
290
     0
176
     1
 90
       50
176
     1
 62
   256
176
     0
 40
1.0
176
     0
 90
        2
176
     1
  1
strokes_ogs.tif
176
     1
290
     0
176
     1
 40
1.0
176
     1
 40
1.0
176
     1
  0
VISUALSTYLE
  5
40
102
{ACAD_REACTORS
330
2A
102
}
330
2A
100
AcDbVisualStyle
  2
X-Ray
 70
    25
177
     3
291
     0
 70
    58
 90
        2
176
     1
 90
        2
176
     1
 90
        1
176
     1
 90
        1
176
     1
 40
0.5
176
     1
 40
30.0
176
     1
 62
     7
420
 16777215
176
     1
 90
        1
176
     1
 90
        0
176
     1
 62
     7
176
     1
 62
   257
176
     1
 90
        1
176
     1
 90
        1
176
     1
 40
1.0
176
     1
 90
        8
176
     1
 62
     7
176
     1
 40
1.0
176
     1
 90
        1
176
     1
 90
        6
176
     1
 90
        2
176
     1
 62
     7
176
     1
 90
        3
176
     1
 90
        0
176
     1
 90
        0
176
     1
290
     0
176
     1
 90
       13
176
     1
 40
0.0
176
     1
 90
        0
176
     1
290
     0
176
     1
290
     1
176
     1
290
     1
176
     1
290
     0
176
     1
290
     0
176
     1
290
     0
176
     1
290
     0
176
     1
290
     0
176
     1
290
     0
176
     1
 90
       50
176
     1
 40
0.0
176
     1
 40
1.0
176
     1
 90
        0
176
     1
 62
    18
420
        0
176
     1
 90
       50
176
     1
 90
        3
176
     1
 62
     5
420
      255
176
     1
290
     0
176
     1
 90
       50
176
     1
 90
       50
176
     1
 90
       50
176
     1
290
     0
176
     1
 90
       50
176
     1
 62
   256
176
     0
 40
1.0
176
     0
 90
        2
176
     1
  1
strokes_ogs.tif
176
     1
290
     0
176
     1
 40
1.0
176
     1
 40
1.0
176
     1
  0
DICTIONARYVAR
  5
249
102
{ACAD_REACTORS
330
248
102
}
330
248
100
DictionaryVariables
280
     0
  1
1:1
  0
DICTIONARYVAR
  5
24E
102
{ACAD_REACTORS
330
248
102
}
330
248
100
DictionaryVariables
280
     0
  1
Standard
  0
DICTIONARYVAR
  5
24D
102
{ACAD_REACTORS
330
248
102
}
330
248
100
DictionaryVariables
280
     0
  1
Standard
  0
DICTIONARY
  5
24A
330
6A
100
AcDbDictionary
280
     1
281
     1
  3
ACAD_ROUNDTRIP_2008_TABLESTYLE_CELLSTYLEMAP
360
24B
  0
CELLSTYLEMAP
  5
24B
102
{ACAD_REACTORS
330
24A
102
}
330
24A
100
AcDbCellStyleMap
 90
        3
300
CELLSTYLE
  1
TABLEFORMAT_BEGIN
 90
        5
170
     1
 91
        0
 92
    32768
 62
   257
 93
        1
300
CONTENTFORMAT
  1
CONTENTFORMAT_BEGIN
 90
        0
 91
        0
 92
        4
 93
        0
300

 40
0.0
140
1.0
 94
        5
 62
     0
340
11
144
0.25
309
CONTENTFORMAT_END
171
     1
301
MARGIN
  1
CELLMARGIN_BEGIN
 40
0.06
 40
0.06
 40
0.06
 40
0.06
 40
0.06
 40
0.06
309
CELLMARGIN_END
 94
        6
 95
        1
302
GRIDFORMAT
  1
GRIDFORMAT_BEGIN
 90
        0
 91
        1
 62
     0
 92
       -2
340
14
 93
        0
 40
0.045
309
GRIDFORMAT_END
 95
        2
302
GRIDFORMAT
  1
GRIDFORMAT_BEGIN
 90
        0
 91
        1
 62
     0
 92
       -2
340
14
 93
        0
 40
0.045
309
GRIDFORMAT_END
 95
        4
302
GRIDFORMAT
  1
GRIDFORMAT_BEGIN
 90
        0
 91
        1
 62
     0
 92
       -2
340
14
 93
        0
 40
0.045
309
GRIDFORMAT_END
 95
        8
302
GRIDFORMAT
  1
GRIDFORMAT_BEGIN
 90
        0
 91
        1
 62
     0
 92
       -2
340
14
 93
        0
 40
0.045
309
GRIDFORMAT_END
 95
       16
302
GRIDFORMAT
  1
GRIDFORMAT_BEGIN
 90
        0
 91
        1
 62
     0
 92
       -2
340
14
 93
        0
 40
0.045
309
GRIDFORMAT_END
 95
       32
302
GRIDFORMAT
  1
GRIDFORMAT_BEGIN
 90
        0
 91
        1
 62
     0
 92
       -2
340
14
 93
        0
 40
0.045
309
GRIDFORMAT_END
309
TABLEFORMAT_END
  1
CELLSTYLE_BEGIN
 90
        1
 91
        1
300
_TITLE
309
CELLSTYLE_END
300
CELLSTYLE
  1
TABLEFORMAT_BEGIN
 90
        5
170
     1
 91
        0
 92
        0
 62
   257
 93
        1
300
CONTENTFORMAT
  1
CONTENTFORMAT_BEGIN
 90
        0
 91
        0
 92
        4
 93
        0
300

 40
0.0
140
1.0
 94
        5
 62
     0
340
11
144
0.18
309
CONTENTFORMAT_END
171
     1
301
MARGIN
  1
CELLMARGIN_BEGIN
 40
0.06
 40
0.06
 40
0.06
 40
0.06
 40
0.06
 40
0.06
309
CELLMARGIN_END
 94
        6
 95
        1
302
GRIDFORMAT
  1
GRIDFORMAT_BEGIN
 90
        0
 91
        1
 62
     0
 92
       -2
340
14
 93
        0
 40
0.045
309
GRIDFORMAT_END
 95
        2
302
GRIDFORMAT
  1
GRIDFORMAT_BEGIN
 90
        0
 91
        1
 62
     0
 92
       -2
340
14
 93
        0
 40
0.045
309
GRIDFORMAT_END
 95
        4
302
GRIDFORMAT
  1
GRIDFORMAT_BEGIN
 90
        0
 91
        1
 62
     0
 92
       -2
340
14
 93
        0
 40
0.045
309
GRIDFORMAT_END
 95
        8
302
GRIDFORMAT
  1
GRIDFORMAT_BEGIN
 90
        0
 91
        1
 62
     0
 92
       -2
340
14
 93
        0
 40
0.045
309
GRIDFORMAT_END
 95
       16
302
GRIDFORMAT
  1
GRIDFORMAT_BEGIN
 90
        0
 91
        1
 62
     0
 92
       -2
340
14
 93
        0
 40
0.045
309
GRIDFORMAT_END
 95
       32
302
GRIDFORMAT
  1
GRIDFORMAT_BEGIN
 90
        0
 91
        1
 62
     0
 92
       -2
340
14
 93
        0
 40
0.045
309
GRIDFORMAT_END
309
TABLEFORMAT_END
  1
CELLSTYLE_BEGIN
 90
        2
 91
        1
300
_HEADER
309
CELLSTYLE_END
300
CELLSTYLE
  1
TABLEFORMAT_BEGIN
 90
        5
170
     1
 91
        0
 92
        0
 62
   257
 93
        1
300
CONTENTFORMAT
  1
CONTENTFORMAT_BEGIN
 90
        0
 91
        0
 92
        4
 93
        0
300

 40
0.0
140
1.0
 94
        2
 62
     0
340
11
144
0.18
309
CONTENTFORMAT_END
171
     1
301
MARGIN
  1
CELLMARGIN_BEGIN
 40
0.06
 40
0.06
 40
0.06
 40
0.06
 40
0.06
 40
0.06
309
CELLMARGIN_END
 94
        6
 95
        1
302
GRIDFORMAT
  1
GRIDFORMAT_BEGIN
 90
        0
 91
        1
 62
     0
 92
       -2
340
14
 93
        0
 40
0.045
309
GRIDFORMAT_END
 95
        2
302
GRIDFORMAT
  1
GRIDFORMAT_BEGIN
 90
        0
 91
        1
 62
     0
 92
       -2
340
14
 93
        0
 40
0.045
309
GRIDFORMAT_END
 95
        4
302
GRIDFORMAT
  1
GRIDFORMAT_BEGIN
 90
        0
 91
        1
 62
     0
 92
       -2
340
14
 93
        0
 40
0.045
309
GRIDFORMAT_END
 95
        8
302
GRIDFORMAT
  1
GRIDFORMAT_BEGIN
 90
        0
 91
        1
 62
     0
 92
       -2
340
14
 93
        0
 40
0.045
309
GRIDFORMAT_END
 95
       16
302
GRIDFORMAT
  1
GRIDFORMAT_BEGIN
 90
        0
 91
        1
 62
     0
 92
       -2
340
14
 93
        0
 40
0.045
309
GRIDFORMAT_END
 95
       32
302
GRIDFORMAT
  1
GRIDFORMAT_BEGIN
 90
        0
 91
        1
 62
     0
 92
       -2
340
14
 93
        0
 40
0.045
309
GRIDFORMAT_END
309
TABLEFORMAT_END
  1
CELLSTYLE_BEGIN
 90
        3
 91
        2
300
_DATA
309
CELLSTYLE_END
  0
ENDSEC
  0
EOF