0
SECTION
  2
HEADER
  9
$ACADVER
  1
AC1027
  9
$ACADMAINTVER
 70
     8
  9
$DWGCODEPAGE
  3
ANSI_1252
  9
$REQUIREDVERSIONS
160
                 0
  9
$COMMENTS
  1
File was created by Cadenas
  9
$CUSTOMPROPERTYTAG
  1
NN
  9
$CUSTOMPROPERTY
  1
Imperial - IP Wide Slot Take-Up
  9
$CUSTOMPROPERTYTAG
  1
NT
  9
$CUSTOMPROPERTY
  1
Imperial Wide Slot Take-Up Bearings
  9
$CUSTOMPROPERTYTAG
  1
NB
  9
$CUSTOMPROPERTY
  1
069380
  9
$CUSTOMPROPERTYTAG
  1
NBSYN
  9
$CUSTOMPROPERTY
  1
$PN.
  9
$CUSTOMPROPERTYTAG
  1
LINA
  9
$CUSTOMPROPERTY
  1
069380
  9
$CUSTOMPROPERTYTAG
  1
SS
  9
$CUSTOMPROPERTY
  1
2-3/16
  9
$CUSTOMPROPERTYTAG
  1
PN
  9
$CUSTOMPROPERTY
  1
069380
  9
$CUSTOMPROPERTYTAG
  1
DESCRIPTION
  9
$CUSTOMPROPERTY
  1
WSTU-IP-203RE
  9
$CUSTOMPROPERTYTAG
  1
EF
  9
$CUSTOMPROPERTY
  1
Expansion
  9
$CUSTOMPROPERTYTAG
  1
ST
  9
$CUSTOMPROPERTY
  1
Contact Seal
  9
$CUSTOMPROPERTYTAG
  1
A
  9
$CUSTOMPROPERTY
  1
3-1/32
  9
$CUSTOMPROPERTYTAG
  1
B
  9
$CUSTOMPROPERTY
  1
7-1/16
  9
$CUSTOMPROPERTYTAG
  1
C
  9
$CUSTOMPROPERTY
  1
13/16
  9
$CUSTOMPROPERTYTAG
  1
D
  9
$CUSTOMPROPERTY
  1
3-5/8
  9
$CUSTOMPROPERTYTAG
  1
E
  9
$CUSTOMPROPERTY
  1
4-5/8
  9
$CUSTOMPROPERTYTAG
  1
F
  9
$CUSTOMPROPERTY
  1
1-3/8
  9
$CUSTOMPROPERTYTAG
  1
G
  9
$CUSTOMPROPERTY
  1
15/16
  9
$CUSTOMPROPERTYTAG
  1
H
  9
$CUSTOMPROPERTY
  1
1-1/4
  9
$CUSTOMPROPERTYTAG
  1
J
  9
$CUSTOMPROPERTY
  1
3-7/8
  9
$CUSTOMPROPERTYTAG
  1
K
  9
$CUSTOMPROPERTY
  1
2-1/4
  9
$CUSTOMPROPERTYTAG
  1
L
  9
$CUSTOMPROPERTY
  1
3-1/2
  9
$CUSTOMPROPERTYTAG
  1
M
  9
$CUSTOMPROPERTY
  1
4-1/2
  9
$CUSTOMPROPERTYTAG
  1
N
  9
$CUSTOMPROPERTY
  1
5-1/4
  9
$CUSTOMPROPERTYTAG
  1
R
  9
$CUSTOMPROPERTY
  1
3-3/16
  9
$CUSTOMPROPERTYTAG
  1
S
  9
$CUSTOMPROPERTY
  1
2-7/64
  9
$CUSTOMPROPERTYTAG
  1
T
  9
$CUSTOMPROPERTY
  1
2-7/32
  9
$CUSTOMPROPERTYTAG
  1
X
  9
$CUSTOMPROPERTY
  1
1/4
  9
$CUSTOMPROPERTYTAG
  1
Y
  9
$CUSTOMPROPERTY
  1
0.025
  9
$CUSTOMPROPERTYTAG
  1
Z
  9
$CUSTOMPROPERTY
  1
2-19/32
  9
$CUSTOMPROPERTYTAG
  1
COMPANY
  9
$CUSTOMPROPERTY
  1
baldor
  9
$INSBASE
 10
0.0
 20
0.0
 30
0.0
  9
$EXTMIN
 10
1.000000000000000E+20
 20
1.000000000000000E+20
 30
1.000000000000000E+20
  9
$EXTMAX
 10
-1.000000000000000E+20
 20
-1.000000000000000E+20
 30
-1.000000000000000E+20
  9
$LIMMIN
 10
0.0
 20
0.0
  9
$LIMMAX
 10
12.0
 20
9.0
  9
$ORTHOMODE
 70
     0
  9
$REGENMODE
 70
     1
  9
$FILLMODE
 70
     1
  9
$QTEXTMODE
 70
     0
  9
$MIRRTEXT
 70
     1
  9
$LTSCALE
 40
1.0
  9
$ATTMODE
 70
     1
  9
$TEXTSIZE
 40
0.2
  9
$TRACEWID
 40
0.05
  9
$TEXTSTYLE
  7
Standard
  9
$CLAYER
  8
0
  9
$CELTYPE
  6
ByLayer
  9
$CECOLOR
 62
   256
  9
$CELTSCALE
 40
1.0
  9
$DISPSILH
 70
     0
  9
$DIMSCALE
 40
1.0
  9
$DIMASZ
 40
0.18
  9
$DIMEXO
 40
0.0625
  9
$DIMDLI
 40
0.38
  9
$DIMRND
 40
0.0
  9
$DIMDLE
 40
0.0
  9
$DIMEXE
 40
0.18
  9
$DIMTP
 40
0.0
  9
$DIMTM
 40
0.0
  9
$DIMTXT
 40
0.18
  9
$DIMCEN
 40
0.09
  9
$DIMTSZ
 40
0.0
  9
$DIMTOL
 70
     0
  9
$DIMLIM
 70
     0
  9
$DIMTIH
 70
     1
  9
$DIMTOH
 70
     1
  9
$DIMSE1
 70
     0
  9
$DIMSE2
 70
     0
  9
$DIMTAD
 70
     0
  9
$DIMZIN
 70
     0
  9
$DIMBLK
  1

  9
$DIMASO
 70
     1
  9
$DIMSHO
 70
     1
  9
$DIMPOST
  1

  9
$DIMAPOST
  1

  9
$DIMALT
 70
     0
  9
$DIMALTD
 70
     2
  9
$DIMALTF
 40
25.4
  9
$DIMLFAC
 40
1.0
  9
$DIMTOFL
 70
     0
  9
$DIMTVP
 40
0.0
  9
$DIMTIX
 70
     0
  9
$DIMSOXD
 70
     0
  9
$DIMSAH
 70
     0
  9
$DIMBLK1
  1

  9
$DIMBLK2
  1

  9
$DIMSTYLE
  2
Standard
  9
$DIMCLRD
 70
     0
  9
$DIMCLRE
 70
     0
  9
$DIMCLRT
 70
     0
  9
$DIMTFAC
 40
1.0
  9
$DIMGAP
 40
0.09
  9
$DIMJUST
 70
     0
  9
$DIMSD1
 70
     0
  9
$DIMSD2
 70
     0
  9
$DIMTOLJ
 70
     1
  9
$DIMTZIN
 70
     0
  9
$DIMALTZ
 70
     0
  9
$DIMALTTZ
 70
     0
  9
$DIMUPT
 70
     0
  9
$DIMDEC
 70
     4
  9
$DIMTDEC
 70
     4
  9
$DIMALTU
 70
     2
  9
$DIMALTTD
 70
     2
  9
$DIMTXSTY
  7
Standard
  9
$DIMAUNIT
 70
     0
  9
$DIMADEC
 70
     0
  9
$DIMALTRND
 40
0.0
  9
$DIMAZIN
 70
     0
  9
$DIMDSEP
 70
    46
  9
$DIMATFIT
 70
     3
  9
$DIMFRAC
 70
     0
  9
$DIMLDRBLK
  1

  9
$DIMLUNIT
 70
     2
  9
$DIMLWD
 70
    -2
  9
$DIMLWE
 70
    -2
  9
$DIMTMOVE
 70
     0
  9
$DIMFXL
 40
1.0
  9
$DIMFXLON
 70
     0
  9
$DIMJOGANG
 40
0.7853981633974483
  9
$DIMTFILL
 70
     0
  9
$DIMTFILLCLR
 70
     0
  9
$DIMARCSYM
 70
     0
  9
$DIMLTYPE
  6

  9
$DIMLTEX1
  6

  9
$DIMLTEX2
  6

  9
$DIMTXTDIRECTION
 70
     0
  9
$LUNITS
 70
     2
  9
$LUPREC
 70
     4
  9
$SKETCHINC
 40
0.1
  9
$FILLETRAD
 40
0.5
  9
$AUNITS
 70
     0
  9
$AUPREC
 70
     0
  9
$MENU
  1
.
  9
$ELEVATION
 40
0.0
  9
$PELEVATION
 40
0.0
  9
$THICKNESS
 40
0.0
  9
$LIMCHECK
 70
     0
  9
$CHAMFERA
 40
0.0
  9
$CHAMFERB
 40
0.0
  9
$CHAMFERC
 40
0.0
  9
$CHAMFERD
 40
0.0
  9
$SKPOLY
 70
     0
  9
$TDCREATE
 40
2458168.988074838
  9
$TDUCREATE
 40
2458168.946408171
  9
$TDUPDATE
 40
2458168.988075023
  9
$TDUUPDATE
 40
2458168.946408357
  9
$TDINDWG
 40
0.0000000116
  9
$TDUSRTIMER
 40
0.0000000116
  9
$USRTIMER
 70
     1
  9
$ANGBASE
 50
0.0
  9
$ANGDIR
 70
     0
  9
$PDMODE
 70
     0
  9
$PDSIZE
 40
0.0
  9
$PLINEWID
 40
0.0
  9
$SPLFRAME
 70
     0
  9
$SPLINETYPE
 70
     6
  9
$SPLINESEGS
 70
     8
  9
$HANDSEED
  5
29D
  9
$SURFTAB1
 70
     6
  9
$SURFTAB2
 70
     6
  9
$SURFTYPE
 70
     6
  9
$SURFU
 70
     6
  9
$SURFV
 70
     6
  9
$UCSBASE
  2

  9
$UCSNAME
  2

  9
$UCSORG
 10
0.0
 20
0.0
 30
0.0
  9
$UCSXDIR
 10
1.0
 20
0.0
 30
0.0
  9
$UCSYDIR
 10
0.0
 20
1.0
 30
0.0
  9
$UCSORTHOREF
  2

  9
$UCSORTHOVIEW
 70
     0
  9
$UCSORGTOP
 10
0.0
 20
0.0
 30
0.0
  9
$UCSORGBOTTOM
 10
0.0
 20
0.0
 30
0.0
  9
$UCSORGLEFT
 10
0.0
 20
0.0
 30
0.0
  9
$UCSORGRIGHT
 10
0.0
 20
0.0
 30
0.0
  9
$UCSORGFRONT
 10
0.0
 20
0.0
 30
0.0
  9
$UCSORGBACK
 10
0.0
 20
0.0
 30
0.0
  9
$PUCSBASE
  2

  9
$PUCSNAME
  2

  9
$PUCSORG
 10
0.0
 20
0.0
 30
0.0
  9
$PUCSXDIR
 10
1.0
 20
0.0
 30
0.0
  9
$PUCSYDIR
 10
0.0
 20
1.0
 30
0.0
  9
$PUCSORTHOREF
  2

  9
$PUCSORTHOVIEW
 70
     0
  9
$PUCSORGTOP
 10
0.0
 20
0.0
 30
0.0
  9
$PUCSORGBOTTOM
 10
0.0
 20
0.0
 30
0.0
  9
$PUCSORGLEFT
 10
0.0
 20
0.0
 30
0.0
  9
$PUCSORGRIGHT
 10
0.0
 20
0.0
 30
0.0
  9
$PUCSORGFRONT
 10
0.0
 20
0.0
 30
0.0
  9
$PUCSORGBACK
 10
0.0
 20
0.0
 30
0.0
  9
$USERI1
 70
     0
  9
$USERI2
 70
     0
  9
$USERI3
 70
     0
  9
$USERI4
 70
     0
  9
$USERI5
 70
     0
  9
$USERR1
 40
0.0
  9
$USERR2
 40
0.0
  9
$USERR3
 40
0.0
  9
$USERR4
 40
0.0
  9
$USERR5
 40
0.0
  9
$WORLDVIEW
 70
     1
  9
$SHADEDGE
 70
     3
  9
$SHADEDIF
 70
    70
  9
$TILEMODE
 70
     1
  9
$MAXACTVP
 70
    64
  9
$PINSBASE
 10
0.0
 20
0.0
 30
0.0
  9
$PLIMCHECK
 70
     0
  9
$PEXTMIN
 10
1.000000000000000E+20
 20
1.000000000000000E+20
 30
1.000000000000000E+20
  9
$PEXTMAX
 10
-1.000000000000000E+20
 20
-1.000000000000000E+20
 30
-1.000000000000000E+20
  9
$PLIMMIN
 10
0.0
 20
0.0
  9
$PLIMMAX
 10
12.0
 20
9.0
  9
$UNITMODE
 70
     0
  9
$VISRETAIN
 70
     1
  9
$PLINEGEN
 70
     0
  9
$PSLTSCALE
 70
     1
  9
$TREEDEPTH
 70
  3020
  9
$CMLSTYLE
  2
Standard
  9
$CMLJUST
 70
     0
  9
$CMLSCALE
 40
1.0
  9
$PROXYGRAPHICS
 70
     1
  9
$MEASUREMENT
 70
     0
  9
$CELWEIGHT
370
    -1
  9
$ENDCAPS
280
     0
  9
$JOINSTYLE
280
     0
  9
$LWDISPLAY
290
     0
  9
$INSUNITS
 70
     1
  9
$HYPERLINKBASE
  1

  9
$STYLESHEET
  1

  9
$XEDIT
290
     1
  9
$CEPSNTYPE
380
     0
  9
$PSTYLEMODE
290
     1
  9
$FINGERPRINTGUID
  2
{38B4342F-2EEA-4DBD-80BE-380277901849}
  9
$VERSIONGUID
  2
{FAEB1C32-E019-11D5-929B-00C0DF256EC4}
  9
$EXTNAMES
290
     1
  9
$PSVPSCALE
 40
0.0
  9
$OLESTARTUP
290
     0
  9
$SORTENTS
280
   127
  9
$INDEXCTL
280
     0
  9
$HIDETEXT
280
     1
  9
$XCLIPFRAME
280
     2
  9
$HALOGAP
280
     0
  9
$OBSCOLOR
 70
   257
  9
$OBSLTYPE
280
     0
  9
$INTERSECTIONDISPLAY
280
     0
  9
$INTERSECTIONCOLOR
 70
   257
  9
$DIMASSOC
280
     2
  9
$PROJECTNAME
  1

  9
$CAMERADISPLAY
290
     0
  9
$LENSLENGTH
 40
50.0
  9
$CAMERAHEIGHT
 40
0.0
  9
$STEPSPERSEC
 40
2.0
  9
$STEPSIZE
 40
6.0
  9
$3DDWFPREC
 40
2.0
  9
$PSOLWIDTH
 40
0.25
  9
$PSOLHEIGHT
 40
4.0
  9
$LOFTANG1
 40
1.570796326794897
  9
$LOFTANG2
 40
1.570796326794897
  9
$LOFTMAG1
 40
0.0
  9
$LOFTMAG2
 40
0.0
  9
$LOFTPARAM
 70
     7
  9
$LOFTNORMALS
280
     1
  9
$LATITUDE
 40
37.795
  9
$LONGITUDE
 40
-122.394
  9
$NORTHDIRECTION
 40
0.0
  9
$TIMEZONE
 70
 -8000
  9
$LIGHTGLYPHDISPLAY
280
     1
  9
$TILEMODELIGHTSYNCH
280
     1
  9
$CMATERIAL
347
44
  9
$SOLIDHIST
280
     0
  9
$SHOWHIST
280
     1
  9
$DWFFRAME
280
     2
  9
$DGNFRAME
280
     2
  9
$REALWORLDSCALE
290
     1
  9
$INTERFERECOLOR
 62
   256
  9
$CSHADOW
280
     0
  9
$SHADOWPLANELOCATION
 40
0.0
  0
ENDSEC
  0
SECTION
  2
CLASSES
  0
CLASS
  1
ACDBDICTIONARYWDFLT
  2
AcDbDictionaryWithDefault
  3
ObjectDBX Classes
 90
        0
 91
        4
280
     0
281
     0
  0
CLASS
  1
VISUALSTYLE
  2
AcDbVisualStyle
  3
ObjectDBX Classes
 90
     4095
 91
        4
280
     0
281
     0
  0
CLASS
  1
MATERIAL
  2
AcDbMaterial
  3
ObjectDBX Classes
 90
     1153
 91
        4
280
     0
281
     0
  0
CLASS
  1
SCALE
  2
AcDbScale
  3
ObjectDBX Classes
 90
     1153
 91
        4
280
     0
281
     0
  0
CLASS
  1
TABLESTYLE
  2
AcDbTableStyle
  3
ObjectDBX Classes
 90
     4095
 91
        4
280
     0
281
     0
  0
CLASS
  1
MLEADERSTYLE
  2
AcDbMLeaderStyle
  3
ACDB_MLEADERSTYLE_CLASS
 90
     4095
 91
        4
280
     0
281
     0
  0
CLASS
  1
SUN
  2
AcDbSun
  3
SCENEOE
 90
     1153
 91
        4
280
     0
281
     0
  0
CLASS
  1
DICTIONARYVAR
  2
AcDbDictionaryVar
  3
ObjectDBX Classes
 90
        0
 91
        4
280
     0
281
     0
  0
CLASS
  1
CELLSTYLEMAP
  2
AcDbCellStyleMap
  3
ObjectDBX Classes
 90
     1152
 91
        4
280
     0
281
     0
  0
ENDSEC
  0
SECTION
  2
TABLES
  0
TABLE
  2
VPORT
  5
8
330
0
100
AcDbSymbolTable
 70
     1
  0
VPORT
  5
29
330
8
100
AcDbSymbolTableRecord
100
AcDbViewportTableRecord
  2
*Active
 70
     0
 10
0.0
 20
0.0
 11
1.0
 21
1.0
 12
-0.3599776916379227
 22
0.0
 13
0.0
 23
0.0
 14
0.5
 24
0.5
 15
0.5
 25
0.5
 16
0.0
 26
0.0
 36
1.0
 17
0.0
 27
0.0
 37
0.0
 40
5.355
 41
0.6664370698522198
 42
50.0
 43
0.0
 44
0.0
 50
0.0
 51
0.0
 71
     0
 72
   100
 73
     1
 74
     3
 75
     0
 76
     0
 77
     0
 78
     0
281
     0
 65
     1
110
0.0
120
0.0
130
0.0
111
1.0
121
0.0
131
0.0
112
0.0
122
1.0
132
0.0
 79
     0
146
0.0
348
2F
 60
     3
 61
     5
292
     1
282
     1
141
0.0
142
0.0
 63
   250
361
6D
  0
ENDTAB
  0
TABLE
  2
LTYPE
  5
5
330
0
100
AcDbSymbolTable
 70
     3
  0
LTYPE
  5
14
330
5
100
AcDbSymbolTableRecord
100
AcDbLinetypeTableRecord
  2
ByBlock
 70
     0
  3

 72
    65
 73
     0
 40
0.0
  0
LTYPE
  5
15
330
5
100
AcDbSymbolTableRecord
100
AcDbLinetypeTableRecord
  2
ByLayer
 70
     0
  3

 72
    65
 73
     0
 40
0.0
  0
LTYPE
  5
16
330
5
100
AcDbSymbolTableRecord
100
AcDbLinetypeTableRecord
  2
Continuous
 70
     0
  3
Solid line
 72
    65
 73
     0
 40
0.0
  0
LTYPE
  5
A2
330
5
100
AcDbSymbolTableRecord
100
AcDbLinetypeTableRecord
  2
Dashed
 70
     0
  3

 72
    65
 73
     2
 40
2.0
 49
1.0
 74
     0
 49
-1.0
 74
     0
  0
LTYPE
  5
1F5
330
5
100
AcDbSymbolTableRecord
100
AcDbLinetypeTableRecord
  2
Center
 70
     0
  3

 72
    65
 73
     4
 40
1.5
 49
0.45
 74
     0
 49
-0.5
 74
     0
 49
0.05
 74
     0
 49
-0.5
 74
     0
  0
ENDTAB
  0
TABLE
  2
LAYER
  5
2
330
0
100
AcDbSymbolTable
 70
     7
  0
LAYER
  5
10
330
2
100
AcDbSymbolTableRecord
100
AcDbLayerTableRecord
  2
0
 70
     0
 62
     7
  6
Continuous
370
    -3
390
F
347
46
348
0
  0
LAYER
  5
72
330
2
100
AcDbSymbolTableRecord
100
AcDbLayerTableRecord
  2
AM_6
 70
     0
 62
    -2
  6
Continuous
370
    35
390
F
347
46
348
0
  0
LAYER
  5
A3
330
2
100
AcDbSymbolTableRecord
100
AcDbLayerTableRecord
  2
AM_9
 70
     0
 62
     6
  6
Dashed
370
    25
390
F
347
46
348
0
  0
LAYER
  5
123
330
2
100
AcDbSymbolTableRecord
100
AcDbLayerTableRecord
  2
AM_5
 70
     0
 62
     3
  6
Continuous
370
    25
390
F
347
46
348
0
  0
LAYER
  5
127
330
2
100
AcDbSymbolTableRecord
100
AcDbLayerTableRecord
  2
AM_4
 70
     0
 62
     7
  6
Continuous
370
    50
390
F
347
46
348
0
  0
LAYER
  5
1F6
330
2
100
AcDbSymbolTableRecord
100
AcDbLayerTableRecord
  2
AM_7
 70
     0
 62
     7
  6
Center
370
    25
390
F
347
46
348
0
  0
LAYER
  5
286
330
2
100
AcDbSymbolTableRecord
100
AcDbLayerTableRecord
  2
ConnectionPoints
 70
     0
 62
     7
  6
Continuous
370
    50
390
F
347
46
348
0
  0
ENDTAB
  0
TABLE
  2
STYLE
  5
3
330
0
100
AcDbSymbolTable
 70
     1
  0
STYLE
  5
11
330
3
100
AcDbSymbolTableRecord
100
AcDbTextStyleTableRecord
  2
Standard
 70
     0
 40
0.0
 41
1.0
 50
0.0
 71
     0
 42
0.2
  3
txt
  4

  0
ENDTAB
  0
TABLE
  2
VIEW
  5
6
330
0
100
AcDbSymbolTable
 70
     0
  0
ENDTAB
  0
TABLE
  2
UCS
  5
7
330
0
100
AcDbSymbolTable
 70
     0
  0
ENDTAB
  0
TABLE
  2
APPID
  5
9
330
0
100
AcDbSymbolTable
 70
     1
  0
APPID
  5
12
330
9
100
AcDbSymbolTableRecord
100
AcDbRegAppTableRecord
  2
ACAD
 70
     0
  0
ENDTAB
  0
TABLE
  2
DIMSTYLE
  5
A
330
0
100
AcDbSymbolTable
 70
     1
100
AcDbDimStyleTable
  0
DIMSTYLE
105
27
330
A
100
AcDbSymbolTableRecord
100
AcDbDimStyleTableRecord
  2
Standard
 70
     0
178
     0
340
11
  0
ENDTAB
  0
TABLE
  2
BLOCK_RECORD
  5
1
330
0
100
AcDbSymbolTable
 70
     8
  0
BLOCK_RECORD
  5
1F
330
1
100
AcDbSymbolTableRecord
100
AcDbBlockTableRecord
  2
*Model_Space
340
22
 70
     0
280
     1
281
     0
  0
BLOCK_RECORD
  5
1B
330
1
100
AcDbSymbolTableRecord
100
AcDbBlockTableRecord
  2
*Paper_Space
340
1E
 70
     0
280
     1
281
     0
  0
BLOCK_RECORD
  5
23
330
1
100
AcDbSymbolTableRecord
100
AcDbBlockTableRecord
  2
*Paper_Space0
340
26
 70
     0
280
     1
281
     0
  0
BLOCK_RECORD
  5
6E
330
1
100
AcDbSymbolTableRecord
100
AcDbBlockTableRecord
  2
1_069380_2
340
0
102
{BLKREFS
331
6F
102
}
 70
     0
280
     1
281
     0
  0
BLOCK_RECORD
  5
91
330
1
100
AcDbSymbolTableRecord
100
AcDbBlockTableRecord
  2
2_405016_Inch_0_in_069380_2
340
0
102
{BLKREFS
331
92
102
}
 70
     0
280
     1
281
     0
  0
BLOCK_RECORD
  5
108
330
1
100
AcDbSymbolTableRecord
100
AcDbBlockTableRecord
  2
3_ASME_B18_3_10_1_0_in_069380_2
340
0
102
{BLKREFS
331
109
102
}
 70
     0
280
     1
281
     0
  0
BLOCK_RECORD
  5
12E
330
1
100
AcDbSymbolTableRecord
100
AcDbBlockTableRecord
  2
4_ASME_B18_3_10_2_0_in_069380_2
340
0
102
{BLKREFS
331
12F
102
}
 70
     0
280
     1
281
     0
  0
BLOCK_RECORD
  5
152
330
1
100
AcDbSymbolTableRecord
100
AcDbBlockTableRecord
  2
5_070892LW_0_in_069380_2
340
0
102
{BLKREFS
331
153
102
}
 70
     0
280
     1
281
     0
  0
BLOCK_RECORD
  5
188
330
1
100
AcDbSymbolTableRecord
100
AcDbBlockTableRecord
  2
6_070892I_0_in_069380_2
340
0
102
{BLKREFS
331
189
102
}
 70
     0
280
     1
281
     0
  0
BLOCK_RECORD
  5
218
330
1
100
AcDbSymbolTableRecord
100
AcDbBlockTableRecord
  2
7_069380H_0_in_069380_2
340
0
102
{BLKREFS
331
219
102
}
 70
     0
280
     1
281
     0
  0
ENDTAB
  0
ENDSEC
  0
SECTION
  2
BLOCKS
  0
BLOCK
  5
20
330
1F
100
AcDbEntity
  8
0
100
AcDbBlockBegin
  2
*Model_Space
 70
     0
 10
0.0
 20
0.0
 30
0.0
  3
*Model_Space
  1

  0
ENDBLK
  5
21
330
1F
100
AcDbEntity
  8
0
100
AcDbBlockEnd
  0
BLOCK
  5
1C
330
1B
100
AcDbEntity
 67
     1
  8
0
100
AcDbBlockBegin
  2
*Paper_Space
 70
     0
 10
0.0
 20
0.0
 30
0.0
  3
*Paper_Space
  1

  0
ENDBLK
  5
1D
330
1B
100
AcDbEntity
 67
     1
  8
0
100
AcDbBlockEnd
  0
BLOCK
  5
24
330
23
100
AcDbEntity
  8
0
100
AcDbBlockBegin
  2
*Paper_Space0
 70
     0
 10
0.0
 20
0.0
 30
0.0
  3
*Paper_Space0
  1

  0
ENDBLK
  5
25
330
23
100
AcDbEntity
  8
0
100
AcDbBlockEnd
  0
BLOCK
  5
70
330
6E
100
AcDbEntity
  8
0
100
AcDbBlockBegin
  2
1_069380_2
 70
     2
 10
0.0
 20
0.0
 30
0.0
  3
1_069380_2
  1

  0
ATTDEF
  5
73
330
6E
100
AcDbEntity
  8
AM_6
100
AcDbText
 10
6.389419616724153
 20
2.625
 30
0.0
 40
0.5
  1
Imperial - IP Wide Slot Take-Up
100
AcDbAttributeDefinition
  3

  2
NN
 70
     8
280
     0
  0
ATTDEF
  5
74
330
6E
100
AcDbEntity
  8
AM_6
100
AcDbText
 10
6.389419616724153
 20
2.125
 30
0.0
 40
0.5
  1
Imperial Wide Slot Take-Up Bearings
100
AcDbAttributeDefinition
  3

  2
NT
 70
     8
280
     0
  0
ATTDEF
  5
75
330
6E
100
AcDbEntity
  8
AM_6
100
AcDbText
 10
6.389419616724153
 20
1.625
 30
0.0
 40
0.5
  1
069380
100
AcDbAttributeDefinition
  3

  2
NB
 70
     8
280
     0
  0
ATTDEF
  5
76
330
6E
100
AcDbEntity
  8
AM_6
100
AcDbText
 10
6.389419616724153
 20
1.125
 30
0.0
 40
0.5
  1
$PN.
100
AcDbAttributeDefinition
  3

  2
NBSYN
 70
     8
280
     0
  0
ATTDEF
  5
77
330
6E
100
AcDbEntity
  8
AM_6
100
AcDbText
 10
6.389419616724153
 20
0.625
 30
0.0
 40
0.5
  1
069380
100
AcDbAttributeDefinition
  3

  2
LINA
 70
     8
280
     0
  0
ATTDEF
  5
78
330
6E
100
AcDbEntity
  8
AM_6
100
AcDbText
 10
6.389419616724153
 20
0.125
 30
0.0
 40
0.5
  1
2-3/16
100
AcDbAttributeDefinition
  3

  2
SS
 70
     8
280
     0
  0
ATTDEF
  5
79
330
6E
100
AcDbEntity
  8
AM_6
100
AcDbText
 10
6.389419616724153
 20
-0.375
 30
0.0
 40
0.5
  1
069380
100
AcDbAttributeDefinition
  3

  2
PN
 70
     8
280
     0
  0
ATTDEF
  5
7A
330
6E
100
AcDbEntity
  8
AM_6
100
AcDbText
 10
6.389419616724153
 20
-0.875
 30
0.0
 40
0.5
  1
WSTU-IP-203RE
100
AcDbAttributeDefinition
  3

  2
DESCRIPTION
 70
     8
280
     0
  0
ATTDEF
  5
7B
330
6E
100
AcDbEntity
  8
AM_6
100
AcDbText
 10
6.389419616724153
 20
-1.375
 30
0.0
 40
0.5
  1
Expansion
100
AcDbAttributeDefinition
  3

  2
EF
 70
     8
280
     0
  0
ATTDEF
  5
7C
330
6E
100
AcDbEntity
  8
AM_6
100
AcDbText
 10
6.389419616724153
 20
-1.875
 30
0.0
 40
0.5
  1
Contact Seal
100
AcDbAttributeDefinition
  3

  2
ST
 70
     8
280
     0
  0
ATTDEF
  5
7D
330
6E
100
AcDbEntity
  8
AM_6
100
AcDbText
 10
6.389419616724153
 20
-2.375
 30
0.0
 40
0.5
  1
3-1/32
100
AcDbAttributeDefinition
  3

  2
A
 70
     8
280
     0
  0
ATTDEF
  5
7E
330
6E
100
AcDbEntity
  8
AM_6
100
AcDbText
 10
6.389419616724153
 20
-2.875
 30
0.0
 40
0.5
  1
7-1/16
100
AcDbAttributeDefinition
  3

  2
B
 70
     8
280
     0
  0
ATTDEF
  5
7F
330
6E
100
AcDbEntity
  8
AM_6
100
AcDbText
 10
6.389419616724153
 20
-3.375
 30
0.0
 40
0.5
  1
13/16
100
AcDbAttributeDefinition
  3

  2
C
 70
     8
280
     0
  0
ATTDEF
  5
80
330
6E
100
AcDbEntity
  8
AM_6
100
AcDbText
 10
6.389419616724153
 20
-3.875
 30
0.0
 40
0.5
  1
3-5/8
100
AcDbAttributeDefinition
  3

  2
D
 70
     8
280
     0
  0
ATTDEF
  5
81
330
6E
100
AcDbEntity
  8
AM_6
100
AcDbText
 10
6.389419616724153
 20
-4.375
 30
0.0
 40
0.5
  1
4-5/8
100
AcDbAttributeDefinition
  3

  2
E
 70
     8
280
     0
  0
ATTDEF
  5
82
330
6E
100
AcDbEntity
  8
AM_6
100
AcDbText
 10
6.389419616724153
 20
-4.875
 30
0.0
 40
0.5
  1
1-3/8
100
AcDbAttributeDefinition
  3

  2
F
 70
     8
280
     0
  0
ATTDEF
  5
83
330
6E
100
AcDbEntity
  8
AM_6
100
AcDbText
 10
6.389419616724153
 20
-5.375
 30
0.0
 40
0.5
  1
15/16
100
AcDbAttributeDefinition
  3

  2
G
 70
     8
280
     0
  0
ATTDEF
  5
84
330
6E
100
AcDbEntity
  8
AM_6
100
AcDbText
 10
6.389419616724153
 20
-5.875
 30
0.0
 40
0.5
  1
1-1/4
100
AcDbAttributeDefinition
  3

  2
H
 70
     8
280
     0
  0
ATTDEF
  5
85
330
6E
100
AcDbEntity
  8
AM_6
100
AcDbText
 10
6.389419616724153
 20
-6.375
 30
0.0
 40
0.5
  1
3-7/8
100
AcDbAttributeDefinition
  3

  2
J
 70
     8
280
     0
  0
ATTDEF
  5
86
330
6E
100
AcDbEntity
  8
AM_6
100
AcDbText
 10
6.389419616724153
 20
-6.875
 30
0.0
 40
0.5
  1
2-1/4
100
AcDbAttributeDefinition
  3

  2
K
 70
     8
280
     0
  0
ATTDEF
  5
87
330
6E
100
AcDbEntity
  8
AM_6
100
AcDbText
 10
6.389419616724153
 20
-7.375
 30
0.0
 40
0.5
  1
3-1/2
100
AcDbAttributeDefinition
  3

  2
L
 70
     8
280
     0
  0
ATTDEF
  5
88
330
6E
100
AcDbEntity
  8
AM_6
100
AcDbText
 10
6.389419616724153
 20
-7.875
 30
0.0
 40
0.5
  1
4-1/2
100
AcDbAttributeDefinition
  3

  2
M
 70
     8
280
     0
  0
ATTDEF
  5
89
330
6E
100
AcDbEntity
  8
AM_6
100
AcDbText
 10
6.389419616724153
 20
-8.375
 30
0.0
 40
0.5
  1
5-1/4
100
AcDbAttributeDefinition
  3

  2
N
 70
     8
280
     0
  0
ATTDEF
  5
8A
330
6E
100
AcDbEntity
  8
AM_6
100
AcDbText
 10
6.389419616724153
 20
-8.875
 30
0.0
 40
0.5
  1
3-3/16
100
AcDbAttributeDefinition
  3

  2
R
 70
     8
280
     0
  0
ATTDEF
  5
8B
330
6E
100
AcDbEntity
  8
AM_6
100
AcDbText
 10
6.389419616724153
 20
-9.375
 30
0.0
 40
0.5
  1
2-7/64
100
AcDbAttributeDefinition
  3

  2
S
 70
     8
280
     0
  0
ATTDEF
  5
8C
330
6E
100
AcDbEntity
  8
AM_6
100
AcDbText
 10
6.389419616724153
 20
-9.875
 30
0.0
 40
0.5
  1
2-7/32
100
AcDbAttributeDefinition
  3

  2
T
 70
     8
280
     0
  0
ATTDEF
  5
8D
330
6E
100
AcDbEntity
  8
AM_6
100
AcDbText
 10
6.389419616724153
 20
-10.375
 30
0.0
 40
0.5
  1
1/4
100
AcDbAttributeDefinition
  3

  2
X
 70
     8
280
     0
  0
ATTDEF
  5
8E
330
6E
100
AcDbEntity
  8
AM_6
100
AcDbText
 10
6.389419616724153
 20
-10.875
 30
0.0
 40
0.5
  1
0.025
100
AcDbAttributeDefinition
  3

  2
Y
 70
     8
280
     0
  0
ATTDEF
  5
8F
330
6E
100
AcDbEntity
  8
AM_6
100
AcDbText
 10
6.389419616724153
 20
-11.375
 30
0.0
 40
0.5
  1
2-19/32
100
AcDbAttributeDefinition
  3

  2
Z
 70
     8
280
     0
  0
ATTDEF
  5
90
330
6E
100
AcDbEntity
  8
AM_6
100
AcDbText
 10
6.389419616724153
 20
-11.875
 30
0.0
 40
0.5
  1
baldor
100
AcDbAttributeDefinition
  3

  2
COMPANY
 70
     8
280
     0
  0
INSERT
  5
92
330
6E
100
AcDbEntity
  8
0
100
AcDbBlockReference
  2
2_405016_Inch_0_in_069380_2
 10
0.0
 20
0.0
 30
0.0
  0
INSERT
  5
109
330
6E
100
AcDbEntity
  8
0
100
AcDbBlockReference
  2
3_ASME_B18_3_10_1_0_in_069380_2
 10
0.0
 20
0.0
 30
0.0
  0
INSERT
  5
12F
330
6E
100
AcDbEntity
  8
0
100
AcDbBlockReference
  2
4_ASME_B18_3_10_2_0_in_069380_2
 10
0.0
 20
0.0
 30
0.0
  0
INSERT
  5
153
330
6E
100
AcDbEntity
  8
0
100
AcDbBlockReference
  2
5_070892LW_0_in_069380_2
 10
0.0
 20
0.0
 30
0.0
  0
INSERT
  5
189
330
6E
100
AcDbEntity
  8
0
100
AcDbBlockReference
  2
6_070892I_0_in_069380_2
 10
0.0
 20
0.0
 30
0.0
  0
INSERT
  5
219
330
6E
100
AcDbEntity
  8
0
100
AcDbBlockReference
  2
7_069380H_0_in_069380_2
 10
0.0
 20
0.0
 30
0.0
  0
ENDBLK
  5
71
330
6E
100
AcDbEntity
  8
0
100
AcDbBlockEnd
  0
BLOCK
  5
93
330
91
100
AcDbEntity
  8
0
100
AcDbBlockBegin
  2
2_405016_Inch_0_in_069380_2
 70
     2
 10
0.0
 20
0.0
 30
0.0
  3
2_405016_Inch_0_in_069380_2
  1

  0
ATTDEF
  5
95
330
91
100
AcDbEntity
  8
AM_6
100
AcDbText
 10
5.21875
 20
-0.7056013621745275
 30
0.0
 40
0.5
  1
405016 -Inch
100
AcDbAttributeDefinition
  3

  2
NN
 70
     8
280
     0
  0
ATTDEF
  5
96
330
91
100
AcDbEntity
  8
AM_6
100
AcDbText
 10
5.21875
 20
-1.205601362174527
 30
0.0
 40
0.5
  1
Grease Fitting
100
AcDbAttributeDefinition
  3

  2
NT
 70
     8
280
     0
  0
ATTDEF
  5
97
330
91
100
AcDbEntity
  8
AM_6
100
AcDbText
 10
5.21875
 20
-1.705601362174527
 30
0.0
 40
0.5
  1
405016-Inch
100
AcDbAttributeDefinition
  3

  2
NB
 70
     8
280
     0
  0
ATTDEF
  5
98
330
91
100
AcDbEntity
  8
AM_6
100
AcDbText
 10
5.21875
 20
-2.205601362174527
 30
0.0
 40
0.5
  1
$MN.-Inch
100
AcDbAttributeDefinition
  3

  2
NBSYN
 70
     8
280
     0
  0
ATTDEF
  5
99
330
91
100
AcDbEntity
  8
AM_6
100
AcDbText
 10
5.21875
 20
-2.705601362174527
 30
0.0
 40
0.5
  1
405016
100
AcDbAttributeDefinition
  3

  2
LINA
 70
     8
280
     0
  0
ATTDEF
  5
9A
330
91
100
AcDbEntity
  8
AM_6
100
AcDbText
 10
5.21875
 20
-3.205601362174527
 30
0.0
 40
0.5
  1
405016
100
AcDbAttributeDefinition
  3

  2
MN
 70
     8
280
     0
  0
ATTDEF
  5
9B
330
91
100
AcDbEntity
  8
AM_6
100
AcDbText
 10
5.21875
 20
-3.705601362174527
 30
0.0
 40
0.5
  1
7/16 HEX
100
AcDbAttributeDefinition
  3

  2
H
 70
     8
280
     0
  0
ATTDEF
  5
9C
330
91
100
AcDbEntity
  8
AM_6
100
AcDbText
 10
5.21875
 20
-4.205601362174527
 30
0.0
 40
0.5
  1
0.383
100
AcDbAttributeDefinition
  3

  2
NDR
 70
     8
280
     0
  0
ATTDEF
  5
9D
330
91
100
AcDbEntity
  8
AM_6
100
AcDbText
 10
5.21875
 20
-4.705601362174527
 30
0.0
 40
0.5
  1
0.337
100
AcDbAttributeDefinition
  3

  2
KDR
 70
     8
280
     0
  0
ATTDEF
  5
9E
330
91
100
AcDbEntity
  8
AM_6
100
AcDbText
 10
5.21875
 20
-5.205601362174527
 30
0.0
 40
0.5
  1
0.1575
100
AcDbAttributeDefinition
  3

  2
BZE
 70
     8
280
     0
  0
ATTDEF
  5
9F
330
91
100
AcDbEntity
  8
AM_6
100
AcDbText
 10
5.21875
 20
-5.705601362174527
 30
0.0
 40
0.5
  1
0.4375
100
AcDbAttributeDefinition
  3

  2
HEX
 70
     8
280
     0
  0
ATTDEF
  5
A0
330
91
100
AcDbEntity
  8
AM_6
100
AcDbText
 10
5.21875
 20
-6.205601362174527
 30
0.0
 40
0.5
  1
0.281250
100
AcDbAttributeDefinition
  3

  2
HEX2
 70
     8
280
     0
  0
ATTDEF
  5
A1
330
91
100
AcDbEntity
  8
AM_6
100
AcDbText
 10
5.21875
 20
-6.705601362174527
 30
0.0
 40
0.5
  1
baldor
100
AcDbAttributeDefinition
  3

  2
COMPANY
 70
     8
280
     0
  0
LWPOLYLINE
  5
A4
330
91
100
AcDbEntity
  8
AM_9
100
AcDbPolyline
 90
        5
 70
     0
 43
0.0
 10
-0.1791093260592888
 20
-1.232944414105899
 10
-0.1842540823997055
 20
-1.197154890820534
 10
-0.1862220679364952
 20
-1.160223373695906
 10
-0.1844124966919382
 20
-1.121617573228548
 10
-0.1791093260592888
 20
-1.082388519349596
  0
LINE
  5
A5
330
91
100
AcDbEntity
  8
AM_9
100
AcDbLine
 10
-0.1510741298357571
 20
-1.228047172109334
 30
0.0
 11
-0.1791093260592888
 21
-1.232944414105899
 31
0.0
  0
LINE
  5
A6
330
91
100
AcDbEntity
  8
AM_9
100
AcDbLine
 10
-0.1510741298357571
 20
-1.077491277353031
 30
0.0
 11
-0.1791093260592888
 21
-1.082388519349596
 31
0.0
  0
LWPOLYLINE
  5
A7
330
91
100
AcDbEntity
  8
AM_9
100
AcDbPolyline
 90
        5
 70
     0
 43
0.0
 10
-0.1791093260592888
 20
-1.082388519349596
 10
-0.198835512140694
 20
-1.053339551452719
 10
-0.2156330920108726
 20
-1.023253415363198
 10
-0.2290462109660022
 20
-0.991663523965202
 10
-0.2389369657326277
 20
-0.9594364761480205
  0
LWPOLYLINE
  5
A8
330
91
100
AcDbEntity
  8
AM_9
100
AcDbPolyline
 90
        5
 70
     0
 43
0.0
 10
-0.2389369657326277
 20
-1.260548265660626
 10
-0.2295338871417797
 20
-1.254725670235373
 10
-0.2166871171046321
 20
-1.248234425621694
 10
-0.1996402057054679
 20
-1.240893820580025
 10
-0.1791093260592888
 20
-1.232944414105899
  0
LWPOLYLINE
  5
A9
330
91
100
AcDbEntity
  8
AM_9
100
AcDbPolyline
 90
        3
 70
     0
 43
0.0
 10
-0.2813919000363601
 20
-0.9770342507104723
 10
-0.2911775952746244
 20
-0.982233890249127
 10
-0.2987675689889719
 20
-0.987040845387127
  0
LWPOLYLINE
  5
AA
330
91
100
AcDbEntity
  8
AM_9
100
AcDbPolyline
 90
        3
 70
     0
 43
0.0
 10
-0.2389369657326277
 20
-0.9594364761480205
 10
-0.2560939713202354
 20
-0.966022378677778
 10
-0.2711532636537957
 20
-0.9722906436038081
  0
LINE
  5
AB
330
91
100
AcDbEntity
  8
AM_9
100
AcDbLine
 10
-0.2099962668917054
 20
-0.9543810592126918
 30
0.0
 11
-0.2389369657326277
 21
-0.9594364761480205
 31
0.0
  0
LINE
  5
AC
330
91
100
AcDbEntity
  8
AM_9
100
AcDbLine
 10
-0.4592308244157303
 20
-1.25085428038138
 30
0.0
 11
-0.3866303050106362
 21
-1.273657042911284
 31
0.0
  0
LINE
  5
AD
330
91
100
AcDbEntity
  8
AM_9
100
AcDbLine
 10
-0.4335647160356817
 20
-1.004972051717066
 30
0.0
 11
-0.4941352239355601
 21
-1.05103738542513
 31
0.0
  0
LWPOLYLINE
  5
AE
330
91
100
AcDbEntity
  8
AM_9
100
AcDbPolyline
 90
        9
 70
     0
 43
0.0
 10
-0.368810360916444
 20
-1.01304304852498
 10
-0.3688567700449965
 20
-1.01299819981319
 10
-0.3781173304729371
 20
-1.005351211743447
 10
-0.3874498113363211
 20
-1.0000457687848
 10
-0.3968830393677967
 20
-0.9968738256195286
 10
-0.4064123965121892
 20
-0.9957583337002851
 10
-0.4167594855199586
 20
-0.9969256013327835
 10
-0.4261110863265797
 20
-1.000325457357111
 10
-0.4336221731666531
 20
-1.005015816072224
  0
LINE
  5
AF
330
91
100
AcDbEntity
  8
AM_9
100
AcDbLine
 10
-0.3672371419457849
 20
-1.014604104503643
 30
0.0
 11
-0.368810360916444
 21
-1.01304304852498
 31
0.0
  0
LWPOLYLINE
  5
B0
330
91
100
AcDbEntity
  8
AM_9
100
AcDbPolyline
 90
        9
 70
     0
 43
0.0
 10
-0.3869147971412949
 20
-1.273566736927105
 10
-0.3804425572719105
 20
-1.275156267303281
 10
-0.3709101446430141
 20
-1.275753435686454
 10
-0.3607738256242464
 20
-1.274052568964435
 10
-0.3516654030584241
 20
-1.270210028343508
 10
-0.3437116073353587
 20
-1.264610327454274
 10
-0.3367554568312633
 20
-1.25735866735617
 10
-0.3306465319357923
 20
-1.248284634430063
 10
-0.3271280416958475
 20
-1.241297551573138
  0
LWPOLYLINE
  5
B1
330
91
100
AcDbEntity
  8
AM_9
100
AcDbPolyline
 90
        6
 70
     0
 43
0.0
 10
-0.1510741298357571
 20
-1.228047172109334
 10
-0.1564222384464443
 20
-1.232056176331778
 10
-0.1639940363880806
 20
-1.236509220393587
 10
-0.1744063212866123
 20
-1.241552759978283
 10
-0.1876759562813859
 20
-1.247120293098049
 10
-0.2099962668917054
 20
-1.255492848725297
  0
LINE
  5
B2
330
91
100
AcDbEntity
  8
AM_9
100
AcDbLine
 10
-0.1420109322135968
 20
-1.145681337451169
 30
0.0
 11
-0.1419585098156051
 21
-1.151182195352125
 31
0.0
  0
LWPOLYLINE
  5
B3
330
91
100
AcDbEntity
  8
AM_9
100
AcDbPolyline
 90
        3
 70
     0
 43
0.0
 10
-0.1510741298357571
 20
-1.077491277353031
 10
-0.1458778226760521
 20
-1.103504165002986
 10
-0.1440466337568416
 20
-1.116506495557267
  0
LINE
  5
B4
330
91
100
AcDbEntity
  8
AM_9
100
AcDbLine
 10
-0.1627236688619058
 20
-1.034866467197495
 30
0.0
 11
-0.1616639617440819
 21
-1.037792794211537
 31
0.0
  0
LWPOLYLINE
  5
B5
330
91
100
AcDbEntity
  8
AM_9
100
AcDbPolyline
 90
        5
 70
     0
 43
0.0
 10
-0.2099962668917055
 20
-0.9543810592126918
 10
-0.1943573015029059
 20
-0.975298038089084
 10
-0.1805491420332304
 20
-0.9969549622793783
 10
-0.168899767719981
 20
-1.019697905241489
 10
-0.1660754483015545
 20
-1.026265586628269
  0
LWPOLYLINE
  5
B6
330
91
100
AcDbEntity
  8
AM_9
100
AcDbPolyline
 90
        3
 70
     0
 43
0.0
 10
-0.2258378743019628
 20
-0.964374864236506
 10
-0.2189176876709016
 20
-0.9606382503684792
 10
-0.2099962668917054
 20
-0.9543810592126918
  0
LWPOLYLINE
  5
B7
330
91
100
AcDbEntity
  8
AM_9
100
AcDbPolyline
 90
        3
 70
     0
 43
0.0
 10
-0.1429422520667583
 20
-1.175287070723277
 10
-0.1441228263802216
 20
-1.187234699170808
 10
-0.1510741298357571
 20
-1.228047172109334
  0
LWPOLYLINE
  5
B8
330
91
100
AcDbEntity
  8
AM_9
100
AcDbPolyline
 90
        3
 70
     0
 43
0.0
 10
-0.1419585098156051
 20
-1.151182195352125
 10
-0.1420496512545707
 20
-1.158452264410641
 10
-0.1425429659701788
 20
-1.169699921115395
  0
LINE
  5
B9
330
91
100
AcDbEntity
  8
AM_9
100
AcDbLine
 10
-0.1577193715359653
 20
-1.049982923550608
 30
0.0
 11
-0.1510741298357571
 21
-1.077491277353031
 31
0.0
  0
LWPOLYLINE
  5
BA
330
91
100
AcDbEntity
  8
AM_9
100
AcDbPolyline
 90
        3
 70
     0
 43
0.0
 10
-0.1621906923040181
 20
-1.036331119229766
 10
-0.1598729403210872
 20
-1.043073754191426
 10
-0.1577193715359653
 20
-1.049982923550608
  0
ELLIPSE
  5
BB
330
91
100
AcDbEntity
  8
AM_9
100
AcDbEllipse
 10
-0.2013892028241891
 20
-1.102856978715546
 30
0.0
 11
-0.02419822997670333
 21
0.1385273846248274
 31
0.0
210
0.0
220
0.0
230
1.0
 40
0.3918448289310614
 41
2.298273319621126
 42
6.287803854599741
  0
LWPOLYLINE
  5
BC
330
91
100
AcDbEntity
  8
AM_9
100
AcDbPolyline
 90
        3
 70
     0
 43
0.0
 10
-0.2689146070947223
 20
-0.9818260725870827
 10
-0.2512755937295761
 20
-0.9752954622366322
 10
-0.2360765106845276
 20
-0.9691184713431706
  0
LWPOLYLINE
  5
BD
330
91
100
AcDbEntity
  8
AM_9
100
AcDbPolyline
 90
        3
 70
     0
 43
0.0
 10
-0.2602304684431209
 20
-1.037269242862284
 10
-0.2616913382589204
 20
-1.021468042491684
 10
-0.2689146070947223
 20
-0.9818260725870827
  0
LINE
  5
BE
330
91
100
AcDbEntity
  8
AM_9
100
AcDbLine
 10
-0.2689146070947223
 20
-0.9818260725870827
 30
0.0
 11
-0.2987675689889719
 21
-0.987040845387127
 31
0.0
  0
LINE
  5
BF
330
91
100
AcDbEntity
  8
AM_9
100
AcDbLine
 10
-0.2987675689889719
 20
-0.987040845387127
 30
0.0
 11
-0.3055458577949632
 21
-1.045185022229591
 31
0.0
  0
LINE
  5
C0
330
91
100
AcDbEntity
  8
AM_9
100
AcDbLine
 10
-0.3055458577949632
 20
-1.081820652351663
 30
0.0
 11
-0.2987675689889719
 21
-1.13759674014343
 31
0.0
  0
LINE
  5
C1
330
91
100
AcDbEntity
  8
AM_9
100
AcDbLine
 10
-0.2711532636537957
 20
-0.9722906436038081
 30
0.0
 11
-0.2813919000363601
 21
-0.9770342507104723
 31
0.0
  0
ELLIPSE
  5
C2
330
91
100
AcDbEntity
  8
AM_9
100
AcDbEllipse
 10
-0.2467045921760206
 20
-1.110772758082848
 30
0.0
 11
-0.02419822997670277
 21
0.1385273846248261
 31
0.0
210
0.0
220
0.0
230
1.0
 40
0.3918448289310565
 41
2.298273319621106
 42
4.56794726917759
  0
ELLIPSE
  5
C3
330
91
100
AcDbEntity
  8
AM_9
100
AcDbEllipse
 10
-0.2467045921760209
 20
-1.110772758082848
 30
0.0
 11
-0.02419822997670322
 21
0.1385273846248258
 31
0.0
210
0.0
220
0.0
230
1.0
 40
0.3918448289310583
 41
4.942707627930224
 42
6.287803854599789
  0
ELLIPSE
  5
C4
330
91
100
AcDbEntity
  8
AM_9
100
AcDbEllipse
 10
-0.2467045921760172
 20
-1.110772758082844
 30
0.0
 11
-0.02419822997670431
 21
0.1385273846248352
 31
0.0
210
0.0
220
0.0
230
1.0
 40
0.3918448289310618
 41
1.570722450802585
 42
2.099013649813399
  0
LINE
  5
C5
330
91
100
AcDbEntity
  8
AM_9
100
AcDbLine
 10
-0.3055458577949632
 20
-1.045185022229591
 30
0.0
 11
-0.3055458577949632
 21
-1.081820652351663
 31
0.0
  0
ELLIPSE
  5
C6
330
91
100
AcDbEntity
  8
AM_9
100
AcDbEllipse
 10
-0.2467045921760392
 20
-1.110772758082831
 30
0.0
 11
-0.02419822997669295
 21
0.1385273846247986
 31
0.0
210
0.0
220
0.0
230
1.0
 40
0.3918448289310195
 41
0.2038782172277811
 42
1.010489672938729
  0
LWPOLYLINE
  5
C7
330
91
100
AcDbEntity
  8
AM_9
100
AcDbPolyline
 90
       13
 70
     0
 43
0.0
 10
-0.3285177615505787
 20
-1.244249996274565
 10
-0.3283111641404968
 20
-1.243901905607592
 10
-0.3267173731243899
 20
-1.241695674995478
 10
-0.3231738984141184
 20
-1.237902550457018
 10
-0.3172815286183582
 20
-1.233198915535337
 10
-0.3088274920896952
 20
-1.228486088987519
 10
-0.2981616374135759
 20
-1.224882073821102
 10
-0.2865205081052919
 20
-1.223329083646011
 10
-0.2756530981758144
 20
-1.223975496365458
 10
-0.2670083347916823
 20
-1.226071148780294
 10
-0.2610655288316921
 20
-1.22854714086521
 10
-0.2576274543468443
 20
-1.23055482839123
 10
-0.2562674068284133
 20
-1.23156466941686
  0
LWPOLYLINE
  5
C8
330
91
100
AcDbEntity
  8
AM_9
100
AcDbPolyline
 90
        4
 70
     0
 43
0.0
 10
-0.2562052408762747
 20
-1.231618306084131
 10
-0.2566086497652091
 20
-1.231223248837192
 10
-0.2583528587179219
 20
-1.229258355079213
 10
-0.2590967979588389
 20
-1.228336575578527
  0
LWPOLYLINE
  5
C9
330
91
100
AcDbEntity
  8
AM_9
100
AcDbPolyline
 90
        4
 70
     0
 43
0.0
 10
-0.298067037854192
 20
-1.003922484667646
 10
-0.2974063651391545
 20
-1.002118690297461
 10
-0.2966448408983339
 20
-1.000368801622073
 10
-0.296611555892984
 20
-1.000304646077574
  0
LWPOLYLINE
  5
CA
330
91
100
AcDbEntity
  8
AM_9
100
AcDbPolyline
 90
       13
 70
     0
 43
0.0
 10
-0.2970054998701904
 20
-1.00094577464736
 10
-0.2989626430366421
 20
-1.003523491172189
 10
-0.3029555226438457
 20
-1.007563336205811
 10
-0.3093646650591157
 20
-1.012350774492733
 10
-0.3183253446365502
 20
-1.016931467061565
 10
-0.3293182559027
 20
-1.020175452123708
 10
-0.3409469799645882
 20
-1.02125897350356
 10
-0.3514425207881584
 20
-1.020235635014129
 10
-0.3595493558830463
 20
-1.017977943695051
 10
-0.3649526192507946
 20
-1.015540129409768
 10
-0.3679331230021817
 20
-1.013700512018774
 10
-0.3689198511434463
 20
-1.012940081260911
 10
-0.368924076567288
 20
-1.012936336268008
  0
ARC
  5
CB
330
91
100
AcDbEntity
  8
AM_9
100
AcDbCircle
 10
0.0000000000000001
 20
-1.072311373653048
 30
0.0
 40
0.1999999999999999
100
AcDbArc
 50
215.7616951627938
 51
0.0
  0
LWPOLYLINE
  5
CC
330
91
100
AcDbEntity
  8
AM_9
100
AcDbPolyline
 90
        6
 70
     0
 43
0.0
 10
-0.162186873490313
 20
-1.18933870168018
 10
-0.1606047421316796
 20
-1.191451946248558
 10
-0.1538031670974778
 20
-1.19866718459693
 10
-0.1472336073736394
 20
-1.202769217947156
 10
-0.1407130262602577
 20
-1.203868190205302
 10
-0.1395613906673452
 20
-1.20372242362043
  0
LWPOLYLINE
  5
CD
330
91
100
AcDbEntity
  8
AM_9
100
AcDbPolyline
 90
        3
 70
     0
 43
0.0
 10
-0.1093750000000001
 20
-0.841642486362733
 10
-0.0546875000000001
 20
-0.8114711528263785
 10
-0.0000000000000002
 20
-0.7796961891024742
  0
LWPOLYLINE
  5
CE
330
91
100
AcDbEntity
  8
AM_9
100
AcDbPolyline
 90
        3
 70
     0
 43
0.0
 10
-0.0000000000000002
 20
-0.7796961891024742
 10
0.0544416102741494
 20
-0.8113316048911373
 10
0.1093749999999998
 20
-0.841642486362733
  0
LWPOLYLINE
  5
CF
330
91
100
AcDbEntity
  8
AM_9
100
AcDbPolyline
 90
        4
 70
     0
 43
0.0
 10
-0.179037373850178
 20
-1.154958873859323
 10
-0.1733931390117468
 20
-1.169213065604052
 10
-0.1670729780242512
 20
-1.181726421774633
 10
-0.162186873490313
 20
-1.18933870168018
  0
LINE
  5
D0
330
91
100
AcDbEntity
  8
AM_9
100
AcDbLine
 10
-0.1719571631012917
 20
-0.986050086636258
 30
0.0
 11
-0.2203175960504093
 21
-0.9944977800756819
 31
0.0
  0
LINE
  5
D1
330
91
100
AcDbEntity
  8
AM_9
100
AcDbLine
 10
-0.182460809597967
 20
-1.21121617735541
 30
0.0
 11
-0.1395503959082024
 21
-1.20372050376226
 31
0.0
  0
LWPOLYLINE
  5
D2
330
91
100
AcDbEntity
  8
AM_9
100
AcDbPolyline
 90
       20
 70
     0
 43
0.0
 10
-0.1395613906673452
 20
-1.20372242362043
 10
-0.1347930597680668
 20
-1.201871208907208
 10
-0.1293028157827818
 20
-1.196718817777275
 10
-0.1247141396218193
 20
-1.18885704011024
 10
-0.1208880884981782
 20
-1.178050120128614
 10
-0.118154598914599
 20
-1.165236148155105
 10
-0.1164278875396129
 20
-1.150023350524712
 10
-0.1158549073091555
 20
-1.133721650483903
 10
-0.1164156227038168
 20
-1.115835631327939
 10
-0.1180609686233502
 20
-1.097880968879052
 10
-0.1208367673933813
 20
-1.079328694117482
 10
-0.1245107513506024
 20
-1.061722951569112
 10
-0.1291842652280563
 20
-1.044568534567475
 10
-0.134472979061152
 20
-1.029274662771993
 10
-0.140518627090196
 20
-1.01543054973351
 10
-0.1468270783017121
 20
-1.004170391335089
 10
-0.1535654953592166
 20
-0.9952006287194473
 10
-0.1601799433259584
 20
-0.9892633033873487
 10
-0.1668493358980662
 20
-0.9862050547816374
 10
-0.1719564264904961
 20
-0.9860499586697088
  0
LWPOLYLINE
  5
D3
330
91
100
AcDbEntity
  8
AM_9
100
AcDbPolyline
 90
        3
 70
     0
 43
0.0
 10
-0.1719564264904961
 20
-0.9860499586697088
 10
-0.1731116383367607
 20
-0.9863098048883745
 10
-0.1790373738502116
 20
-0.9896638734467833
  0
LWPOLYLINE
  5
D4
330
91
100
AcDbEntity
  8
AM_9
100
AcDbPolyline
 90
        3
 70
     0
 43
0.0
 10
-0.2689146070947223
 20
-1.132381967343385
 10
-0.2634308483997529
 20
-1.103218346619997
 10
-0.2602304684431306
 20
-1.073904872984361
  0
LINE
  5
D5
330
91
100
AcDbEntity
  8
AM_9
100
AcDbLine
 10
-0.2360765106845276
 20
-0.9691184713431706
 30
0.0
 11
-0.2258378743019628
 21
-0.964374864236506
 31
0.0
  0
ELLIPSE
  5
D6
330
91
100
AcDbEntity
  8
AM_9
100
AcDbEllipse
 10
-0.2013892028241874
 20
-1.10285697871555
 30
0.0
 11
-0.02419822997670643
 21
0.1385273846248301
 31
0.0
210
0.0
220
0.0
230
1.0
 40
0.3918448289309601
 41
0.2038782172279152
 42
1.010489672938624
  0
LINE
  5
D7
330
91
100
AcDbEntity
  8
AM_9
100
AcDbLine
 10
-0.2602304684431306
 20
-1.073904872984361
 30
0.0
 11
-0.2602304684431209
 21
-1.037269242862284
 31
0.0
  0
ELLIPSE
  5
D8
330
91
100
AcDbEntity
  8
AM_9
100
AcDbEllipse
 10
-0.2013892028241874
 20
-1.102856978715545
 30
0.0
 11
-0.02419822997670317
 21
0.1385273846248284
 31
0.0
210
0.0
220
0.0
230
1.0
 40
0.391844828931057
 41
1.292402194102656
 42
2.0990136498134
  0
LWPOLYLINE
  5
D9
330
91
100
AcDbEntity
  8
AM_9
100
AcDbPolyline
 90
        3
 70
     0
 43
0.0
 10
-0.2099962668917054
 20
-1.255492848725297
 10
-0.2163479371246914
 20
-1.228808320662409
 10
-0.225837874301963
 20
-1.202057587194572
  0
LINE
  5
DA
330
91
100
AcDbEntity
  8
AM_9
100
AcDbLine
 10
-0.225837874301963
 20
-1.202057587194572
 30
0.0
 11
-0.2360765106845278
 21
-1.180863636073948
 31
0.0
  0
LWPOLYLINE
  5
DB
330
91
100
AcDbEntity
  8
AM_9
100
AcDbPolyline
 90
        3
 70
     0
 43
0.0
 10
-0.2360765106845278
 20
-1.180863636073948
 10
-0.2462091938631852
 20
-1.16377551143399
 10
-0.2689146070947223
 20
-1.132381967343385
  0
LINE
  5
DC
330
91
100
AcDbEntity
  8
AM_9
100
AcDbLine
 10
-0.2689146070947223
 20
-1.132381967343385
 30
0.0
 11
-0.2987675689889719
 21
-1.13759674014343
 31
0.0
  0
LWPOLYLINE
  5
DD
330
91
100
AcDbEntity
  8
AM_9
100
AcDbPolyline
 90
        3
 70
     0
 43
0.0
 10
-0.2987675689889719
 20
-1.13759674014343
 10
-0.2912216284034025
 20
-1.163213296117991
 10
-0.28139190003636
 20
-1.188779415441251
  0
LINE
  5
DE
330
91
100
AcDbEntity
  8
AM_9
100
AcDbLine
 10
-0.28139190003636
 20
-1.188779415441251
 30
0.0
 11
-0.2711532636537957
 21
-1.209973366561874
 31
0.0
  0
LWPOLYLINE
  5
DF
330
91
100
AcDbEntity
  8
AM_9
100
AcDbPolyline
 90
        3
 70
     0
 43
0.0
 10
-0.2711532636537957
 20
-1.209973366561874
 10
-0.2561815527589922
 20
-1.235497178691774
 10
-0.2389369657326277
 20
-1.260548265660626
  0
LINE
  5
E0
330
91
100
AcDbEntity
  8
AM_9
100
AcDbLine
 10
-0.2099962668917054
 20
-1.255492848725297
 30
0.0
 11
-0.2389369657326277
 21
-1.260548265660626
 31
0.0
  0
LWPOLYLINE
  5
E1
330
91
100
AcDbEntity
  8
AM_9
100
AcDbPolyline
 90
        3
 70
     0
 43
0.0
 10
0.1093749999999998
 20
-0.841642486362733
 10
0.1640624999999998
 20
-0.8700206674538296
 10
0.2187499999999999
 20
-0.8967952183573762
  0
LWPOLYLINE
  5
E2
330
91
100
AcDbEntity
  8
AM_9
100
AcDbPolyline
 90
        3
 70
     0
 43
0.0
 10
-0.2187500000000001
 20
-0.8967952183573762
 10
-0.1643083897258505
 20
-0.870144373902139
 10
-0.1093750000000001
 20
-0.841642486362733
  0
LWPOLYLINE
  5
E3
330
91
100
AcDbEntity
  8
AM_9
100
AcDbPolyline
 90
        3
 70
     0
 43
0.0
 10
-0.0000000000000002
 20
-0.7490290950264986
 10
-0.0544416102741497
 20
-0.7756799394817359
 10
-0.1093750000000001
 20
-0.8041818270211418
  0
LWPOLYLINE
  5
E4
330
91
100
AcDbEntity
  8
AM_9
100
AcDbPolyline
 90
        3
 70
     0
 43
0.0
 10
0.1093749999999998
 20
-0.8041818270211418
 10
0.0546874999999998
 20
-0.7758036459300451
 10
-0.0000000000000002
 20
-0.7490290950264986
  0
LINE
  5
E5
330
91
100
AcDbEntity
  8
AM_9
100
AcDbLine
 10
-0.0000000000000002
 20
-0.7796961891024742
 30
0.0
 11
-0.0000000000000002
 21
-0.7490290950264986
 31
0.0
  0
ELLIPSE
  5
E6
330
91
100
AcDbEntity
  8
AM_9
100
AcDbEllipse
 10
-0.0000000000000002
 20
-1.072311373653048
 30
0.0
 11
-0.2
 21
2.449293598294707E-17
 31
0.0
210
0.0
220
0.0
230
1.0
 40
0.9271838545667876
 41
0.4619460205669652
 42
5.821239286612619
  0
LWPOLYLINE
  5
E7
330
91
100
AcDbEntity
  8
AM_9
100
AcDbPolyline
 90
        7
 70
     0
 43
0.0
 10
-0.1790373738501785
 20
-1.154958873859323
 10
-0.1842628795203942
 20
-1.139809359260436
 10
-0.1891729979031394
 20
-1.124202225304415
 10
-0.1936098952159724
 20
-1.10753199255683
 10
-0.1971856748420372
 20
-1.089806262823844
 10
-0.1994144431868155
 20
-1.071666531042054
 10
-0.1999999999699529
 20
-1.057144504945267
  0
LINE
  5
E8
330
91
100
AcDbEntity
  8
AM_9
100
AcDbLine
 10
-0.2000000000000001
 20
-1.017291030245086
 30
0.0
 11
-0.2000000000000001
 21
-1.057212394445849
 31
0.0
  0
LINE
  5
E9
330
91
100
AcDbEntity
  8
AM_9
100
AcDbLine
 10
0.1999999999999998
 20
-1.072311373653048
 30
0.0
 11
0.1999999999999998
 21
-1.017291030245086
 31
0.0
  0
LWPOLYLINE
  5
EA
330
91
100
AcDbEntity
  8
AM_9
100
AcDbPolyline
 90
        8
 70
     0
 43
0.0
 10
-0.1999999999699529
 20
-1.057144504945267
 10
-0.1999786710855128
 20
-1.054451899812958
 10
-0.1988321115509054
 20
-1.037816751556131
 10
-0.196164942998426
 20
-1.023287847218797
 10
-0.1920694300574959
 20
-1.010336072048568
 10
-0.1870948030566196
 20
-0.9999885105281668
 10
-0.1815005947613931
 20
-0.9921400041487412
 10
-0.1790373738501786
 20
-0.9896638734467734
  0
LWPOLYLINE
  5
EB
330
91
100
AcDbEntity
  8
AM_9
100
AcDbPolyline
 90
        3
 70
     0
 43
0.0
 10
0.2187499999999999
 20
-0.8661281242814006
 10
0.1643083897258503
 20
-0.8344927084927374
 10
0.1093749999999998
 20
-0.8041818270211418
  0
LWPOLYLINE
  5
EC
330
91
100
AcDbEntity
  8
AM_9
100
AcDbPolyline
 90
        3
 70
     0
 43
0.0
 10
-0.1093750000000001
 20
-0.8041818270211418
 10
-0.1640625000000001
 20
-0.8343531605574963
 10
-0.2187500000000001
 20
-0.8661281242814008
  0
LINE
  5
ED
330
91
100
AcDbEntity
  8
AM_9
100
AcDbLine
 10
-0.2187500000000001
 20
-1.13099327686718
 30
0.0
 11
-0.2187500000000001
 21
-0.8661281242814008
 31
0.0
  0
LWPOLYLINE
  5
EE
330
91
100
AcDbEntity
  8
AM_9
100
AcDbPolyline
 90
        3
 70
     0
 43
0.0
 10
-0.1093750000000001
 20
-1.192939574127439
 10
-0.1640625000000001
 20
-1.162768240591085
 10
-0.2187500000000001
 20
-1.13099327686718
  0
LWPOLYLINE
  5
EF
330
91
100
AcDbEntity
  8
AM_9
100
AcDbPolyline
 90
        3
 70
     0
 43
0.0
 10
-0.0000000000000001
 20
-1.248092306122082
 10
-0.0544416102741497
 20
-1.221441461666845
 10
-0.1093750000000001
 20
-1.192939574127439
  0
LWPOLYLINE
  5
F0
330
91
100
AcDbEntity
  8
AM_9
100
AcDbPolyline
 90
        3
 70
     0
 43
0.0
 10
-0.1093750000000001
 20
-1.155478914785848
 10
-0.0546875000000002
 20
-1.185650248322202
 10
-0.0000000000000001
 20
-1.217425212046107
  0
LWPOLYLINE
  5
F1
330
91
100
AcDbEntity
  8
AM_9
100
AcDbPolyline
 90
        3
 70
     0
 43
0.0
 10
-0.2187500000000001
 20
-1.100326182791205
 10
-0.1643083897258505
 20
-1.126977027246442
 10
-0.1093750000000001
 20
-1.155478914785848
  0
LINE
  5
F2
330
91
100
AcDbEntity
  8
AM_9
100
AcDbLine
 10
-0.0000000000000001
 20
-1.248092306122082
 30
0.0
 11
-0.0000000000000001
 21
-1.217425212046107
 31
0.0
  0
LWPOLYLINE
  5
F3
330
91
100
AcDbEntity
  8
AM_9
100
AcDbPolyline
 90
        3
 70
     0
 43
0.0
 10
0.1093749999999998
 20
-1.192939574127439
 10
0.0546874999999998
 20
-1.221317755218536
 10
-0.0000000000000001
 20
-1.248092306122082
  0
LWPOLYLINE
  5
F4
330
91
100
AcDbEntity
  8
AM_9
100
AcDbPolyline
 90
        3
 70
     0
 43
0.0
 10
0.2187499999999999
 20
-1.13099327686718
 10
0.1643083897258503
 20
-1.162628692655844
 10
0.1093749999999998
 20
-1.192939574127439
  0
LINE
  5
F5
330
91
100
AcDbEntity
  8
AM_9
100
AcDbLine
 10
0.2187499999999999
 20
-1.13099327686718
 30
0.0
 11
0.2187499999999999
 21
-0.8661281242814006
 31
0.0
  0
LWPOLYLINE
  5
F6
330
91
100
AcDbEntity
  8
AM_9
100
AcDbPolyline
 90
        3
 70
     0
 43
0.0
 10
0.1093749999999998
 20
-1.155478914785848
 10
0.1640624999999998
 20
-1.127100733694752
 10
0.2187499999999999
 20
-1.100326182791205
  0
LWPOLYLINE
  5
F7
330
91
100
AcDbEntity
  8
AM_9
100
AcDbPolyline
 90
        3
 70
     0
 43
0.0
 10
-0.0000000000000001
 20
-1.217425212046107
 10
0.0544416102741494
 20
-1.185789796257444
 10
0.1093749999999998
 20
-1.155478914785848
  0
LINE
  5
F8
330
91
100
AcDbEntity
  8
AM_9
100
AcDbLine
 10
-0.2000000000000001
 20
-0.9505642307928769
 30
0.0
 11
-0.2000000000000001
 21
-0.9798303709034949
 31
0.0
  0
LINE
  5
F9
330
91
100
AcDbEntity
  8
AM_9
100
AcDbLine
 10
0.1999999999999998
 20
-0.979830370903495
 30
0.0
 11
0.1999999999999998
 21
-0.9505642307928769
 31
0.0
  0
LINE
  5
FA
330
91
100
AcDbEntity
  8
AM_9
100
AcDbLine
 10
-0.184861775919733
 20
-0.8642195275601947
 30
0.0
 11
-0.1909374614401157
 21
-0.9368294325898833
 31
0.0
  0
LINE
  5
FB
330
91
100
AcDbEntity
  8
AM_9
100
AcDbLine
 10
0.1909374614401154
 20
-0.9368294325898834
 30
0.0
 11
0.1848617759197328
 21
-0.8642195275601947
 31
0.0
  0
ELLIPSE
  5
FC
330
91
100
AcDbEntity
  8
AM_9
100
AcDbEllipse
 10
-0.0000000000000001
 20
-0.8686190384831461
 30
0.0
 11
0.1616637258772237
 21
0.0
 31
0.0
210
0.0
220
0.0
230
1.0
 40
0.927183854566788
 41
0.0
 42
6.283185307179586
  0
ELLIPSE
  5
FD
330
91
100
AcDbEntity
  8
AM_9
100
AcDbEllipse
 10
-0.4687499999999996
 20
-1.149560076982628
 30
0.0
 11
-0.01780691014293403
 21
0.1019390547459407
 31
0.0
210
0.0
220
0.0
230
1.0
 40
0.3918448289310549
 41
0.0
 42
6.283185307179586
  0
ELLIPSE
  5
FE
330
91
100
AcDbEntity
  8
AM_9
100
AcDbEllipse
 10
-0.3994303217889764
 20
-1.137451182269829
 30
0.0
 11
-0.02394416896528261
 21
0.1370729638890504
 31
0.0
210
0.0
220
0.0
230
1.0
 40
0.3918448289310577
 41
0.0
 42
6.283185307179586
  0
ELLIPSE
  5
FF
330
91
100
AcDbEntity
  8
AM_9
100
AcDbEllipse
 10
-0.3729962569743098
 20
-1.132833628988159
 30
0.0
 11
-0.02291951316922237
 21
0.1312071262758918
 31
0.0
210
0.0
220
0.0
230
1.0
 40
0.3918448289310529
 41
0.0
 42
6.283185307179586
  0
ELLIPSE
  5
100
330
91
100
AcDbEntity
  8
AM_9
100
AcDbEllipse
 10
-0.2013892028241882
 20
-1.102856978715546
 30
0.0
 11
-0.01892839322622106
 21
0.1083591986398639
 31
0.0
210
0.0
220
0.0
230
1.0
 40
0.3918448289310568
 41
0.0
 42
6.283185307179586
  0
ELLIPSE
  5
101
330
91
100
AcDbEntity
  8
AM_9
100
AcDbEllipse
 10
0.0000000000000003
 20
-1.017291030245086
 30
0.0
 11
-0.2000000000000004
 21
2.449293598294711E-17
 31
0.0
210
0.0
220
0.0
230
1.0
 40
0.9271838545667886
 41
0.0
 42
6.283185307179586
  0
ELLIPSE
  5
102
330
91
100
AcDbEntity
  8
AM_9
100
AcDbEllipse
 10
-0.0000000000000001
 20
-1.017291030245087
 30
0.0
 11
-0.218749999999999
 21
3.259629037943309E-9
 31
0.0
210
0.0
220
0.0
230
1.0
 40
0.9271838545667846
 41
0.0
 42
6.283185307179586
  0
ELLIPSE
  5
103
330
91
100
AcDbEntity
  8
AM_9
100
AcDbEllipse
 10
-0.0000000000000001
 20
-0.9798303709034953
 30
0.0
 11
-0.2187500000000003
 21
3.259629037943328E-9
 31
0.0
210
0.0
220
0.0
230
1.0
 40
0.9271838545667839
 41
0.0
 42
6.283185307179586
  0
ELLIPSE
  5
104
330
91
100
AcDbEntity
  8
AM_9
100
AcDbEllipse
 10
-0.0000000000000003
 20
-0.9798303709034952
 30
0.0
 11
-0.1999999999999998
 21
2.449293598294704E-17
 31
0.0
210
0.0
220
0.0
230
1.0
 40
0.927183854566787
 41
0.0
 42
6.283185307179586
  0
ELLIPSE
  5
105
330
91
100
AcDbEntity
  8
AM_9
100
AcDbEllipse
 10
-0.0000000000000001
 20
-0.9505642307928769
 30
0.0
 11
-0.1999999999999998
 21
2.449293598294704E-17
 31
0.0
210
0.0
220
0.0
230
1.0
 40
0.9271838545667878
 41
0.0
 42
6.283185307179586
  0
ELLIPSE
  5
106
330
91
100
AcDbEntity
  8
AM_9
100
AcDbEllipse
 10
0.0000000000000001
 20
-0.9505642307928768
 30
0.0
 11
-0.1915112338502296
 21
2.345336195354440E-17
 31
0.0
210
0.0
220
0.0
230
1.0
 40
0.9271838545667874
 41
0.0
 42
6.283185307179586
  0
ELLIPSE
  5
107
330
91
100
AcDbEntity
  8
AM_9
100
AcDbEllipse
 10
-0.0000000000000001
 20
-0.8775172804922502
 30
0.0
 11
-0.1854172907249857
 21
2.270706915929280E-17
 31
0.0
210
0.0
220
0.0
230
1.0
 40
0.9271838545667862
 41
0.0
 42
6.283185307179586
  0
ENDBLK
  5
94
330
91
100
AcDbEntity
  8
0
100
AcDbBlockEnd
  0
BLOCK
  5
10A
330
108
100
AcDbEntity
  8
0
100
AcDbBlockBegin
  2
3_ASME_B18_3_10_1_0_in_069380_2
 70
     2
 10
0.0
 20
0.0
 30
0.0
  3
3_ASME_B18_3_10_1_0_in_069380_2
  1

  0
ATTDEF
  5
10C
330
108
100
AcDbEntity
  8
AM_6
100
AcDbText
 10
4.115625
 20
-1.302138888888889
 30
0.0
 40
0.5
  1
ANSI/ASME B18.3-1998
100
AcDbAttributeDefinition
  3

  2
NN
 70
     8
280
     0
  0
ATTDEF
  5
10D
330
108
100
AcDbEntity
  8
AM_6
100
AcDbText
 10
4.115625
 20
-1.802138888888889
 30
0.0
 40
0.5
  1
Socket Button Head Cap Screws
100
AcDbAttributeDefinition
  3

  2
NT
 70
     8
280
     0
  0
ATTDEF
  5
10E
330
108
100
AcDbEntity
  8
AM_6
100
AcDbText
 10
4.115625
 20
-2.302138888888889
 30
0.0
 40
0.5
  1
ASME B18.3-10
100
AcDbAttributeDefinition
  3

  2
NB
 70
     8
280
     0
  0
ATTDEF
  5
10F
330
108
100
AcDbEntity
  8
AM_6
100
AcDbText
 10
4.115625
 20
-2.802138888888889
 30
0.0
 40
0.5
  1
ASME B18.3-$NS.
100
AcDbAttributeDefinition
  3

  2
NBSYN
 70
     8
280
     0
  0
ATTDEF
  5
110
330
108
100
AcDbEntity
  8
AM_6
100
AcDbText
 10
4.115625
 20
-3.302138888888889
 30
0.0
 40
0.5
  1
ASME B18.3-10
100
AcDbAttributeDefinition
  3

  2
LINA
 70
     8
280
     0
  0
ATTDEF
  5
111
330
108
100
AcDbEntity
  8
AM_6
100
AcDbText
 10
4.115625
 20
-3.802138888888889
 30
0.0
 40
0.5
  1
10
100
AcDbAttributeDefinition
  3

  2
NS
 70
     8
280
     0
  0
ATTDEF
  5
112
330
108
100
AcDbEntity
  8
AM_6
100
AcDbText
 10
4.115625
 20
-4.302138888888889
 30
0.0
 40
0.5
  1
0.361
100
AcDbAttributeDefinition
  3

  2
A
 70
     8
280
     0
  0
ATTDEF
  5
113
330
108
100
AcDbEntity
  8
AM_6
100
AcDbText
 10
4.115625
 20
-4.802138888888889
 30
0.0
 40
0.5
  1
0.101
100
AcDbAttributeDefinition
  3

  2
H
 70
     8
280
     0
  0
ATTDEF
  5
114
330
108
100
AcDbEntity
  8
AM_6
100
AcDbText
 10
4.115625
 20
-5.302138888888889
 30
0.0
 40
0.5
  1
0.800
100
AcDbAttributeDefinition
  3

  2
L
 70
     8
280
     0
  0
ATTDEF
  5
115
330
108
100
AcDbEntity
  8
AM_6
100
AcDbText
 10
4.115625
 20
-5.802138888888889
 30
0.0
 40
0.5
  1
0.020
100
AcDbAttributeDefinition
  3

  2
S
 70
     8
280
     0
  0
ATTDEF
  5
116
330
108
100
AcDbEntity
  8
AM_6
100
AcDbText
 10
4.115625
 20
-6.302138888888889
 30
0.0
 40
0.5
  1
0.125000
100
AcDbAttributeDefinition
  3

  2
J
 70
     8
280
     0
  0
ATTDEF
  5
117
330
108
100
AcDbEntity
  8
AM_6
100
AcDbText
 10
4.115625
 20
-6.802138888888889
 30
0.0
 40
0.5
  1
baldor
100
AcDbAttributeDefinition
  3

  2
COMPANY
 70
     8
280
     0
  0
LINE
  5
118
330
108
100
AcDbEntity
  8
AM_9
100
AcDbLine
 10
-1.724375
 20
-1.410470105240186
 30
0.0
 11
-1.785375
 21
-1.410470105240186
 31
0.0
  0
LINE
  5
119
330
108
100
AcDbEntity
  8
AM_9
100
AcDbLine
 10
-1.724375
 20
-1.554807672537592
 30
0.0
 11
-1.785375
 21
-1.554807672537592
 31
0.0
  0
LINE
  5
11A
330
108
100
AcDbEntity
  8
AM_9
100
AcDbLine
 10
-1.724375
 20
-1.410470105240186
 30
0.0
 11
-1.724375
 21
-1.554807672537592
 31
0.0
  0
LINE
  5
11B
330
108
100
AcDbEntity
  8
AM_9
100
AcDbLine
 10
-1.724375
 20
-1.446554497064537
 30
0.0
 11
-1.785375
 21
-1.446554497064537
 31
0.0
  0
LINE
  5
11C
330
108
100
AcDbEntity
  8
AM_9
100
AcDbLine
 10
-1.724375
 20
-1.51872328071324
 30
0.0
 11
-1.785375
 21
-1.51872328071324
 31
0.0
  0
LINE
  5
11D
330
108
100
AcDbEntity
  8
AM_9
100
AcDbLine
 10
-0.8843749999999999
 20
-1.406238888888889
 30
0.0
 11
-0.8843749999999999
 21
-1.559038888888889
 31
0.0
  0
LINE
  5
11E
330
108
100
AcDbEntity
  8
AM_9
100
AcDbLine
 10
-0.8843749999999999
 20
-1.406238888888889
 30
0.0
 11
-0.902975
 21
-1.387638888888889
 31
0.0
  0
LINE
  5
11F
330
108
100
AcDbEntity
  8
AM_9
100
AcDbLine
 10
-0.902975
 20
-1.577638888888889
 30
0.0
 11
-0.8843749999999999
 21
-1.559038888888889
 31
0.0
  0
LINE
  5
120
330
108
100
AcDbEntity
  8
AM_9
100
AcDbLine
 10
-0.902975
 20
-1.387638888888889
 30
0.0
 11
-0.902975
 21
-1.577638888888889
 31
0.0
  0
LINE
  5
121
330
108
100
AcDbEntity
  8
AM_9
100
AcDbLine
 10
-1.684375
 20
-1.577638888888889
 30
0.0
 11
-0.902975
 21
-1.577638888888889
 31
0.0
  0
LINE
  5
122
330
108
100
AcDbEntity
  8
AM_9
100
AcDbLine
 10
-0.902975
 20
-1.387638888888889
 30
0.0
 11
-1.684375
 21
-1.387638888888889
 31
0.0
  0
LINE
  5
124
330
108
100
AcDbEntity
  8
AM_5
100
AcDbLine
 10
-1.604375
 20
-1.559038888888889
 30
0.0
 11
-1.636591145020782
 21
-1.577638888888889
 31
0.0
  0
LINE
  5
125
330
108
100
AcDbEntity
  8
AM_5
100
AcDbLine
 10
-1.604375
 20
-1.38845713201868
 30
0.0
 11
-1.604375
 21
-1.577639056061956
 31
0.0
  0
LINE
  5
126
330
108
100
AcDbEntity
  8
AM_5
100
AcDbLine
 10
-1.604375
 20
-1.406238888888889
 30
0.0
 11
-1.636591145020782
 21
-1.387638888888889
 31
0.0
  0
LINE
  5
128
330
108
100
AcDbEntity
  8
AM_4
100
AcDbLine
 10
-1.785375
 20
-1.383138888888889
 30
0.0
 11
-1.785375
 21
-1.582138888888889
 31
0.0
  0
ARC
  5
129
330
108
100
AcDbEntity
  8
AM_4
100
AcDbCircle
 10
-1.704375
 20
-1.582138888888888
 30
0.0
 40
0.0810000000000006
100
AcDbArc
 50
180.0
 51
270.0
  0
ARC
  5
12A
330
108
100
AcDbEntity
  8
AM_4
100
AcDbCircle
 10
-1.704375
 20
-1.38313888888889
 30
0.0
 40
0.0810000000000006
100
AcDbArc
 50
90.0
 51
180.0
  0
LINE
  5
12B
330
108
100
AcDbEntity
  8
AM_4
100
AcDbLine
 10
-1.704375
 20
-1.302138888888889
 30
0.0
 11
-1.704375
 21
-1.663138888888889
 31
0.0
  0
LINE
  5
12C
330
108
100
AcDbEntity
  8
AM_4
100
AcDbLine
 10
-1.704375
 20
-1.663138888888889
 30
0.0
 11
-1.684375
 21
-1.663138888888889
 31
0.0
  0
LINE
  5
12D
330
108
100
AcDbEntity
  8
AM_4
100
AcDbLine
 10
-1.684375
 20
-1.302138888888889
 30
0.0
 11
-1.704375
 21
-1.302138888888889
 31
0.0
  0
ENDBLK
  5
10B
330
108
100
AcDbEntity
  8
0
100
AcDbBlockEnd
  0
BLOCK
  5
130
330
12E
100
AcDbEntity
  8
0
100
AcDbBlockBegin
  2
4_ASME_B18_3_10_2_0_in_069380_2
 70
     2
 10
0.0
 20
0.0
 30
0.0
  3
4_ASME_B18_3_10_2_0_in_069380_2
  1

  0
ATTDEF
  5
132
330
12E
100
AcDbEntity
  8
AM_6
100
AcDbText
 10
4.115625
 20
1.663138888888889
 30
0.0
 40
0.5
  1
ANSI/ASME B18.3-1998
100
AcDbAttributeDefinition
  3

  2
NN
 70
     8
280
     0
  0
ATTDEF
  5
133
330
12E
100
AcDbEntity
  8
AM_6
100
AcDbText
 10
4.115625
 20
1.163138888888889
 30
0.0
 40
0.5
  1
Socket Button Head Cap Screws
100
AcDbAttributeDefinition
  3

  2
NT
 70
     8
280
     0
  0
ATTDEF
  5
134
330
12E
100
AcDbEntity
  8
AM_6
100
AcDbText
 10
4.115625
 20
0.6631388888888887
 30
0.0
 40
0.5
  1
ASME B18.3-10
100
AcDbAttributeDefinition
  3

  2
NB
 70
     8
280
     0
  0
ATTDEF
  5
135
330
12E
100
AcDbEntity
  8
AM_6
100
AcDbText
 10
4.115625
 20
0.1631388888888887
 30
0.0
 40
0.5
  1
ASME B18.3-$NS.
100
AcDbAttributeDefinition
  3

  2
NBSYN
 70
     8
280
     0
  0
ATTDEF
  5
136
330
12E
100
AcDbEntity
  8
AM_6
100
AcDbText
 10
4.115625
 20
-0.3368611111111113
 30
0.0
 40
0.5
  1
ASME B18.3-10
100
AcDbAttributeDefinition
  3

  2
LINA
 70
     8
280
     0
  0
ATTDEF
  5
137
330
12E
100
AcDbEntity
  8
AM_6
100
AcDbText
 10
4.115625
 20
-0.8368611111111113
 30
0.0
 40
0.5
  1
10
100
AcDbAttributeDefinition
  3

  2
NS
 70
     8
280
     0
  0
ATTDEF
  5
138
330
12E
100
AcDbEntity
  8
AM_6
100
AcDbText
 10
4.115625
 20
-1.336861111111111
 30
0.0
 40
0.5
  1
0.361
100
AcDbAttributeDefinition
  3

  2
A
 70
     8
280
     0
  0
ATTDEF
  5
139
330
12E
100
AcDbEntity
  8
AM_6
100
AcDbText
 10
4.115625
 20
-1.836861111111111
 30
0.0
 40
0.5
  1
0.101
100
AcDbAttributeDefinition
  3

  2
H
 70
     8
280
     0
  0
ATTDEF
  5
13A
330
12E
100
AcDbEntity
  8
AM_6
100
AcDbText
 10
4.115625
 20
-2.336861111111111
 30
0.0
 40
0.5
  1
0.800
100
AcDbAttributeDefinition
  3

  2
L
 70
     8
280
     0
  0
ATTDEF
  5
13B
330
12E
100
AcDbEntity
  8
AM_6
100
AcDbText
 10
4.115625
 20
-2.836861111111111
 30
0.0
 40
0.5
  1
0.020
100
AcDbAttributeDefinition
  3

  2
S
 70
     8
280
     0
  0
ATTDEF
  5
13C
330
12E
100
AcDbEntity
  8
AM_6
100
AcDbText
 10
4.115625
 20
-3.336861111111111
 30
0.0
 40
0.5
  1
0.125000
100
AcDbAttributeDefinition
  3

  2
J
 70
     8
280
     0
  0
ATTDEF
  5
13D
330
12E
100
AcDbEntity
  8
AM_6
100
AcDbText
 10
4.115625
 20
-3.836861111111111
 30
0.0
 40
0.5
  1
baldor
100
AcDbAttributeDefinition
  3

  2
COMPANY
 70
     8
280
     0
  0
LINE
  5
13E
330
12E
100
AcDbEntity
  8
AM_9
100
AcDbLine
 10
-1.724375
 20
1.554807672537592
 30
0.0
 11
-1.785375
 21
1.554807672537592
 31
0.0
  0
LINE
  5
13F
330
12E
100
AcDbEntity
  8
AM_9
100
AcDbLine
 10
-1.724375
 20
1.410470105240186
 30
0.0
 11
-1.785375
 21
1.410470105240186
 31
0.0
  0
LINE
  5
140
330
12E
100
AcDbEntity
  8
AM_9
100
AcDbLine
 10
-1.724375
 20
1.51872328071324
 30
0.0
 11
-1.785375
 21
1.51872328071324
 31
0.0
  0
LINE
  5
141
330
12E
100
AcDbEntity
  8
AM_9
100
AcDbLine
 10
-1.724375
 20
1.554807672537592
 30
0.0
 11
-1.724375
 21
1.410470105240186
 31
0.0
  0
LINE
  5
142
330
12E
100
AcDbEntity
  8
AM_9
100
AcDbLine
 10
-1.724375
 20
1.446554497064537
 30
0.0
 11
-1.785375
 21
1.446554497064537
 31
0.0
  0
LINE
  5
143
330
12E
100
AcDbEntity
  8
AM_9
100
AcDbLine
 10
-0.8843749999999999
 20
1.559038888888889
 30
0.0
 11
-0.8843749999999999
 21
1.406238888888889
 31
0.0
  0
LINE
  5
144
330
12E
100
AcDbEntity
  8
AM_9
100
AcDbLine
 10
-0.8843749999999999
 20
1.559038888888889
 30
0.0
 11
-0.902975
 21
1.577638888888889
 31
0.0
  0
LINE
  5
145
330
12E
100
AcDbEntity
  8
AM_9
100
AcDbLine
 10
-0.902975
 20
1.387638888888889
 30
0.0
 11
-0.8843749999999999
 21
1.406238888888889
 31
0.0
  0
LINE
  5
146
330
12E
100
AcDbEntity
  8
AM_9
100
AcDbLine
 10
-0.902975
 20
1.577638888888889
 30
0.0
 11
-0.902975
 21
1.387638888888889
 31
0.0
  0
LINE
  5
147
330
12E
100
AcDbEntity
  8
AM_9
100
AcDbLine
 10
-1.684375
 20
1.387638888888889
 30
0.0
 11
-0.902975
 21
1.387638888888889
 31
0.0
  0
LINE
  5
148
330
12E
100
AcDbEntity
  8
AM_9
100
AcDbLine
 10
-0.902975
 20
1.577638888888889
 30
0.0
 11
-1.684375
 21
1.577638888888889
 31
0.0
  0
LINE
  5
149
330
12E
100
AcDbEntity
  8
AM_5
100
AcDbLine
 10
-1.604375
 20
1.406238888888889
 30
0.0
 11
-1.636591145020782
 21
1.387638888888889
 31
0.0
  0
LINE
  5
14A
330
12E
100
AcDbEntity
  8
AM_5
100
AcDbLine
 10
-1.604375
 20
1.577639056061956
 30
0.0
 11
-1.604375
 21
1.388457132018679
 31
0.0
  0
LINE
  5
14B
330
12E
100
AcDbEntity
  8
AM_5
100
AcDbLine
 10
-1.604375
 20
1.559038888888889
 30
0.0
 11
-1.636591145020782
 21
1.577638888888889
 31
0.0
  0
LINE
  5
14C
330
12E
100
AcDbEntity
  8
AM_4
100
AcDbLine
 10
-1.785375
 20
1.582138888888889
 30
0.0
 11
-1.785375
 21
1.383138888888889
 31
0.0
  0
ARC
  5
14D
330
12E
100
AcDbEntity
  8
AM_4
100
AcDbCircle
 10
-1.704375
 20
1.38313888888889
 30
0.0
 40
0.0810000000000006
100
AcDbArc
 50
180.0
 51
270.0
  0
ARC
  5
14E
330
12E
100
AcDbEntity
  8
AM_4
100
AcDbCircle
 10
-1.704375
 20
1.582138888888888
 30
0.0
 40
0.0810000000000006
100
AcDbArc
 50
90.0
 51
180.0
  0
LINE
  5
14F
330
12E
100
AcDbEntity
  8
AM_4
100
AcDbLine
 10
-1.704375
 20
1.663138888888889
 30
0.0
 11
-1.704375
 21
1.302138888888889
 31
0.0
  0
LINE
  5
150
330
12E
100
AcDbEntity
  8
AM_4
100
AcDbLine
 10
-1.704375
 20
1.302138888888889
 30
0.0
 11
-1.684375
 21
1.302138888888889
 31
0.0
  0
LINE
  5
151
330
12E
100
AcDbEntity
  8
AM_4
100
AcDbLine
 10
-1.684375
 20
1.663138888888889
 30
0.0
 11
-1.704375
 21
1.663138888888889
 31
0.0
  0
ENDBLK
  5
131
330
12E
100
AcDbEntity
  8
0
100
AcDbBlockEnd
  0
BLOCK
  5
154
330
152
100
AcDbEntity
  8
0
100
AcDbBlockBegin
  2
5_070892LW_0_in_069380_2
 70
     2
 10
0.0
 20
0.0
 30
0.0
  3
5_070892LW_0_in_069380_2
  1

  0
ATTDEF
  5
156
330
152
100
AcDbEntity
  8
AM_6
100
AcDbText
 10
3.755625
 20
1.75
 30
0.0
 40
0.5
  1
Imperial Insert Lockwasher -Inch
100
AcDbAttributeDefinition
  3

  2
NN
 70
     8
280
     0
  0
ATTDEF
  5
157
330
152
100
AcDbEntity
  8
AM_6
100
AcDbText
 10
3.755625
 20
1.25
 30
0.0
 40
0.5
  1
Imperial Bearings
100
AcDbAttributeDefinition
  3

  2
NT
 70
     8
280
     0
  0
ATTDEF
  5
158
330
152
100
AcDbEntity
  8
AM_6
100
AcDbText
 10
3.755625
 20
0.7499999999999996
 30
0.0
 40
0.5
  1
070892LW
100
AcDbAttributeDefinition
  3

  2
NB
 70
     8
280
     0
  0
ATTDEF
  5
159
330
152
100
AcDbEntity
  8
AM_6
100
AcDbText
 10
3.755625
 20
0.2499999999999996
 30
0.0
 40
0.5
  1
$PN.LW
100
AcDbAttributeDefinition
  3

  2
NBSYN
 70
     8
280
     0
  0
ATTDEF
  5
15A
330
152
100
AcDbEntity
  8
AM_6
100
AcDbText
 10
3.755625
 20
-0.2500000000000004
 30
0.0
 40
0.5
  1
070892
100
AcDbAttributeDefinition
  3

  2
LINA
 70
     8
280
     0
  0
ATTDEF
  5
15B
330
152
100
AcDbEntity
  8
AM_6
100
AcDbText
 10
3.755625
 20
-0.7500000000000004
 30
0.0
 40
0.5
  1
2-3/16
100
AcDbAttributeDefinition
  3

  2
SS
 70
     8
280
     0
  0
ATTDEF
  5
15C
330
152
100
AcDbEntity
  8
AM_6
100
AcDbText
 10
3.755625
 20
-1.25
 30
0.0
 40
0.5
  1
2.187500
100
AcDbAttributeDefinition
  3

  2
SS1
 70
     8
280
     0
  0
ATTDEF
  5
15D
330
152
100
AcDbEntity
  8
AM_6
100
AcDbText
 10
3.755625
 20
-1.75
 30
0.0
 40
0.5
  1
070892
100
AcDbAttributeDefinition
  3

  2
PN
 70
     8
280
     0
  0
ATTDEF
  5
15E
330
152
100
AcDbEntity
  8
AM_6
100
AcDbText
 10
3.755625
 20
-2.25
 30
0.0
 40
0.5
  1
INS-IP-203R
100
AcDbAttributeDefinition
  3

  2
DESCRIPTION
 70
     8
280
     0
  0
ATTDEF
  5
15F
330
152
100
AcDbEntity
  8
AM_6
100
AcDbText
 10
3.755625
 20
-2.75
 30
0.0
 40
0.5
  1
3.9370
100
AcDbAttributeDefinition
  3

  2
A
 70
     8
280
     0
  0
ATTDEF
  5
160
330
152
100
AcDbEntity
  8
AM_6
100
AcDbText
 10
3.755625
 20
-3.25
 30
0.0
 40
0.5
  1
1-3/64
100
AcDbAttributeDefinition
  3

  2
B
 70
     8
280
     0
  0
ATTDEF
  5
161
330
152
100
AcDbEntity
  8
AM_6
100
AcDbText
 10
3.755625
 20
-3.75
 30
0.0
 40
0.5
  1
3-1/32
100
AcDbAttributeDefinition
  3

  2
C
 70
     8
280
     0
  0
ATTDEF
  5
162
330
152
100
AcDbEntity
  8
AM_6
100
AcDbText
 10
3.755625
 20
-4.25
 30
0.0
 40
0.5
  1
1.050
100
AcDbAttributeDefinition
  3

  2
D
 70
     8
280
     0
  0
ATTDEF
  5
163
330
152
100
AcDbEntity
  8
AM_6
100
AcDbText
 10
3.755625
 20
-4.75
 30
0.0
 40
0.5
  1
3-1/2
100
AcDbAttributeDefinition
  3

  2
E
 70
     8
280
     0
  0
ATTDEF
  5
164
330
152
100
AcDbEntity
  8
AM_6
100
AcDbText
 10
3.755625
 20
-5.25
 30
0.0
 40
0.5
  1
0.1900
100
AcDbAttributeDefinition
  3

  2
NDM
 70
     8
280
     0
  0
ATTDEF
  5
165
330
152
100
AcDbEntity
  8
AM_6
100
AcDbText
 10
3.755625
 20
-5.75
 30
0.0
 40
0.5
  1
0.1450
100
AcDbAttributeDefinition
  3

  2
KDM
 70
     8
280
     0
  0
ATTDEF
  5
166
330
152
100
AcDbEntity
  8
AM_6
100
AcDbText
 10
3.755625
 20
-6.25
 30
0.0
 40
0.5
  1
2.92
100
AcDbAttributeDefinition
  3

  2
AL
 70
     8
280
     0
  0
ATTDEF
  5
167
330
152
100
AcDbEntity
  8
AM_6
100
AcDbText
 10
3.755625
 20
-6.75
 30
0.0
 40
0.5
  1
0.50
100
AcDbAttributeDefinition
  3

  2
BL
 70
     8
280
     0
  0
ATTDEF
  5
168
330
152
100
AcDbEntity
  8
AM_6
100
AcDbText
 10
3.755625
 20
-7.25
 30
0.0
 40
0.5
  1
0.07
100
AcDbAttributeDefinition
  3

  2
CL
 70
     8
280
     0
  0
ATTDEF
  5
169
330
152
100
AcDbEntity
  8
AM_6
100
AcDbText
 10
3.755625
 20
-7.75
 30
0.0
 40
0.5
  1
0.44
100
AcDbAttributeDefinition
  3

  2
DL
 70
     8
280
     0
  0
ATTDEF
  5
16A
330
152
100
AcDbEntity
  8
AM_6
100
AcDbText
 10
3.755625
 20
-8.25
 30
0.0
 40
0.5
  1
baldor
100
AcDbAttributeDefinition
  3

  2
COMPANY
 70
     8
280
     0
  0
LINE
  5
16B
330
152
100
AcDbEntity
  8
AM_9
100
AcDbLine
 10
-1.614375
 20
1.038468339436791
 30
0.0
 11
-1.684375
 21
1.038468339436791
 31
0.0
  0
LINE
  5
16C
330
152
100
AcDbEntity
  8
AM_9
100
AcDbLine
 10
-1.244375
 20
1.009553897169328
 30
0.0
 11
-1.614375
 21
1.009553897169328
 31
0.0
  0
LINE
  5
16D
330
152
100
AcDbEntity
  8
AM_9
100
AcDbLine
 10
-1.244375
 20
0.9560369800276002
 30
0.0
 11
-1.244375
 21
1.105224755260601
 31
0.0
  0
LINE
  5
16E
330
152
100
AcDbEntity
  8
AM_9
100
AcDbLine
 10
-1.244375
 20
0.9560369800276002
 30
0.0
 11
-1.684375
 21
0.9560369800276002
 31
0.0
  0
LINE
  5
16F
330
152
100
AcDbEntity
  8
AM_9
100
AcDbLine
 10
-1.614375
 20
1.105224755260601
 30
0.0
 11
-1.244375
 21
1.105224755260601
 31
0.0
  0
LINE
  5
170
330
152
100
AcDbEntity
  8
AM_9
100
AcDbLine
 10
-1.244375
 20
1.051707838118873
 30
0.0
 11
-1.684375
 21
1.051707838118873
 31
0.0
  0
LINE
  5
171
330
152
100
AcDbEntity
  8
AM_9
100
AcDbLine
 10
-1.614375
 20
1.134139197528063
 30
0.0
 11
-1.684375
 21
1.134139197528063
 31
0.0
  0
LINE
  5
172
330
152
100
AcDbEntity
  8
AM_9
100
AcDbLine
 10
-1.614375
 20
1.482638888888889
 30
0.0
 11
-1.684375
 21
1.482638888888889
 31
0.0
  0
LINE
  5
173
330
152
100
AcDbEntity
  8
AM_9
100
AcDbLine
 10
-1.614375
 20
1.577687730650903
 30
0.0
 11
-1.684375
 21
1.577687730650903
 31
0.0
  0
LINE
  5
174
330
152
100
AcDbEntity
  8
AM_9
100
AcDbLine
 10
-1.614375
 20
-1.482638888888889
 30
0.0
 11
-1.684375
 21
-1.482638888888889
 31
0.0
  0
LINE
  5
175
330
152
100
AcDbEntity
  8
AM_9
100
AcDbLine
 10
-1.684375
 20
-1.577687730650903
 30
0.0
 11
-1.614375
 21
-1.577687730650903
 31
0.0
  0
LINE
  5
176
330
152
100
AcDbEntity
  8
AM_9
100
AcDbLine
 10
-1.614375
 20
1.178609968254163
 30
0.0
 11
-1.684375
 21
1.178609968254163
 31
0.0
  0
LINE
  5
177
330
152
100
AcDbEntity
  8
AM_9
100
AcDbLine
 10
-1.614375
 20
-1.178609968254163
 30
0.0
 11
-1.684375
 21
-1.178609968254163
 31
0.0
  0
LINE
  5
178
330
152
100
AcDbEntity
  8
AM_9
100
AcDbLine
 10
-1.614375
 20
-0.9005782451393017
 30
0.0
 11
-1.684375
 21
-0.900578245139302
 31
0.0
  0
LINE
  5
179
330
152
100
AcDbEntity
  8
AM_9
100
AcDbLine
 10
-1.614375
 20
0.9005782451393021
 30
0.0
 11
-1.684375
 21
0.9005782451393021
 31
0.0
  0
LINE
  5
17A
330
152
100
AcDbEntity
  8
AM_9
100
AcDbLine
 10
-1.614375
 20
0.7662279567138583
 30
0.0
 11
-1.684375
 21
0.7662279567138585
 31
0.0
  0
LINE
  5
17B
330
152
100
AcDbEntity
  8
AM_9
100
AcDbLine
 10
-1.614375
 20
-0.7662279567138575
 30
0.0
 11
-1.684375
 21
-0.7662279567138575
 31
0.0
  0
LINE
  5
17C
330
152
100
AcDbEntity
  8
AM_9
100
AcDbLine
 10
-1.614375
 20
1.115559156596944
 30
0.0
 11
-1.684375
 21
1.115559156596944
 31
0.0
  0
LINE
  5
17D
330
152
100
AcDbEntity
  8
AM_9
100
AcDbLine
 10
-1.614375
 20
0.9812088681714999
 30
0.0
 11
-1.684375
 21
0.9812088681714999
 31
0.0
  0
LINE
  5
17E
330
152
100
AcDbEntity
  8
AM_9
100
AcDbLine
 10
-1.614375
 20
1.143418552400836
 30
0.0
 11
-1.684375
 21
1.143418552400836
 31
0.0
  0
LINE
  5
17F
330
152
100
AcDbEntity
  8
AM_9
100
AcDbLine
 10
-1.614375
 20
-0.981208868171499
 30
0.0
 11
-1.684375
 21
-0.981208868171499
 31
0.0
  0
LINE
  5
180
330
152
100
AcDbEntity
  8
AM_9
100
AcDbLine
 10
-1.614375
 20
-1.115559156596938
 30
0.0
 11
-1.684375
 21
-1.115559156596938
 31
0.0
  0
LINE
  5
181
330
152
100
AcDbEntity
  8
AM_9
100
AcDbLine
 10
-1.684375
 20
-1.143418552400835
 30
0.0
 11
-1.614375
 21
-1.143418552400835
 31
0.0
  0
LINE
  5
182
330
152
100
AcDbEntity
  8
AM_9
100
AcDbLine
 10
-1.614375
 20
0.0950000000000006
 30
0.0
 11
-1.684375
 21
0.0950000000000005
 31
0.0
  0
LINE
  5
183
330
152
100
AcDbEntity
  8
AM_9
100
AcDbLine
 10
-1.614375
 20
-0.0949999999999993
 30
0.0
 11
-1.684375
 21
-0.0949999999999993
 31
0.0
  0
LINE
  5
184
330
152
100
AcDbEntity
  8
AM_4
100
AcDbLine
 10
-1.614375
 20
1.75
 30
0.0
 11
-1.684375
 21
1.75
 31
0.0
  0
LINE
  5
185
330
152
100
AcDbEntity
  8
AM_4
100
AcDbLine
 10
-1.684375
 20
-1.75
 30
0.0
 11
-1.614375
 21
-1.75
 31
0.0
  0
LINE
  5
186
330
152
100
AcDbEntity
  8
AM_4
100
AcDbLine
 10
-1.684375
 20
1.75
 30
0.0
 11
-1.684375
 21
-1.75
 31
0.0
  0
LINE
  5
187
330
152
100
AcDbEntity
  8
AM_4
100
AcDbLine
 10
-1.614375
 20
1.75
 30
0.0
 11
-1.614375
 21
-1.75
 31
0.0
  0
ENDBLK
  5
155
330
152
100
AcDbEntity
  8
0
100
AcDbBlockEnd
  0
BLOCK
  5
18A
330
188
100
AcDbEntity
  8
0
100
AcDbBlockBegin
  2
6_070892I_0_in_069380_2
 70
     2
 10
0.0
 20
0.0
 30
0.0
  3
6_070892I_0_in_069380_2
  1

  0
ATTDEF
  5
18C
330
188
100
AcDbEntity
  8
AM_6
100
AcDbText
 10
6.3496875
 20
1.9685
 30
0.0
 40
0.5
  1
Imperial Insert -Inch
100
AcDbAttributeDefinition
  3

  2
NN
 70
     8
280
     0
  0
ATTDEF
  5
18D
330
188
100
AcDbEntity
  8
AM_6
100
AcDbText
 10
6.3496875
 20
1.4685
 30
0.0
 40
0.5
  1
Imperial Bearings
100
AcDbAttributeDefinition
  3

  2
NT
 70
     8
280
     0
  0
ATTDEF
  5
18E
330
188
100
AcDbEntity
  8
AM_6
100
AcDbText
 10
6.3496875
 20
0.9684999999999997
 30
0.0
 40
0.5
  1
070892I
100
AcDbAttributeDefinition
  3

  2
NB
 70
     8
280
     0
  0
ATTDEF
  5
18F
330
188
100
AcDbEntity
  8
AM_6
100
AcDbText
 10
6.3496875
 20
0.4684999999999997
 30
0.0
 40
0.5
  1
$PN.I
100
AcDbAttributeDefinition
  3

  2
NBSYN
 70
     8
280
     0
  0
ATTDEF
  5
190
330
188
100
AcDbEntity
  8
AM_6
100
AcDbText
 10
6.3496875
 20
-0.0315000000000003
 30
0.0
 40
0.5
  1
070892
100
AcDbAttributeDefinition
  3

  2
LINA
 70
     8
280
     0
  0
ATTDEF
  5
191
330
188
100
AcDbEntity
  8
AM_6
100
AcDbText
 10
6.3496875
 20
-0.5315000000000003
 30
0.0
 40
0.5
  1
2-3/16
100
AcDbAttributeDefinition
  3

  2
SS
 70
     8
280
     0
  0
ATTDEF
  5
192
330
188
100
AcDbEntity
  8
AM_6
100
AcDbText
 10
6.3496875
 20
-1.0315
 30
0.0
 40
0.5
  1
2.187500
100
AcDbAttributeDefinition
  3

  2
SS1
 70
     8
280
     0
  0
ATTDEF
  5
193
330
188
100
AcDbEntity
  8
AM_6
100
AcDbText
 10
6.3496875
 20
-1.5315
 30
0.0
 40
0.5
  1
070892
100
AcDbAttributeDefinition
  3

  2
PN
 70
     8
280
     0
  0
ATTDEF
  5
194
330
188
100
AcDbEntity
  8
AM_6
100
AcDbText
 10
6.3496875
 20
-2.0315
 30
0.0
 40
0.5
  1
INS-IP-203R
100
AcDbAttributeDefinition
  3

  2
DESCRIPTION
 70
     8
280
     0
  0
ATTDEF
  5
195
330
188
100
AcDbEntity
  8
AM_6
100
AcDbText
 10
6.3496875
 20
-2.5315
 30
0.0
 40
0.5
  1
Contact Seal
100
AcDbAttributeDefinition
  3

  2
ST
 70
     8
280
     0
  0
ATTDEF
  5
196
330
188
100
AcDbEntity
  8
AM_6
100
AcDbText
 10
6.3496875
 20
-3.0315
 30
0.0
 40
0.5
  1
3.9370
100
AcDbAttributeDefinition
  3

  2
A
 70
     8
280
     0
  0
ATTDEF
  5
197
330
188
100
AcDbEntity
  8
AM_6
100
AcDbText
 10
6.3496875
 20
-3.5315
 30
0.0
 40
0.5
  1
1-3/64
100
AcDbAttributeDefinition
  3

  2
B
 70
     8
280
     0
  0
ATTDEF
  5
198
330
188
100
AcDbEntity
  8
AM_6
100
AcDbText
 10
6.3496875
 20
-4.0315
 30
0.0
 40
0.5
  1
3-1/32
100
AcDbAttributeDefinition
  3

  2
C
 70
     8
280
     0
  0
ATTDEF
  5
199
330
188
100
AcDbEntity
  8
AM_6
100
AcDbText
 10
6.3496875
 20
-4.5315
 30
0.0
 40
0.5
  1
1.050
100
AcDbAttributeDefinition
  3

  2
D
 70
     8
280
     0
  0
ATTDEF
  5
19A
330
188
100
AcDbEntity
  8
AM_6
100
AcDbText
 10
6.3496875
 20
-5.0315
 30
0.0
 40
0.5
  1
3-1/2
100
AcDbAttributeDefinition
  3

  2
E
 70
     8
280
     0
  0
ATTDEF
  5
19B
330
188
100
AcDbEntity
  8
AM_6
100
AcDbText
 10
6.3496875
 20
-5.5315
 30
0.0
 40
0.5
  1
0.1900
100
AcDbAttributeDefinition
  3

  2
NDM
 70
     8
280
     0
  0
ATTDEF
  5
19C
330
188
100
AcDbEntity
  8
AM_6
100
AcDbText
 10
6.3496875
 20
-6.0315
 30
0.0
 40
0.5
  1
0.101
100
AcDbAttributeDefinition
  3

  2
H
 70
     8
280
     0
  0
ATTDEF
  5
19D
330
188
100
AcDbEntity
  8
AM_6
100
AcDbText
 10
6.3496875
 20
-6.5315
 30
0.0
 40
0.5
  1
0.1450
100
AcDbAttributeDefinition
  3

  2
KDM
 70
     8
280
     0
  0
ATTDEF
  5
19E
330
188
100
AcDbEntity
  8
AM_6
100
AcDbText
 10
6.3496875
 20
-7.0315
 30
0.0
 40
0.5
  1
2.92
100
AcDbAttributeDefinition
  3

  2
AL
 70
     8
280
     0
  0
ATTDEF
  5
19F
330
188
100
AcDbEntity
  8
AM_6
100
AcDbText
 10
6.3496875
 20
-7.5315
 30
0.0
 40
0.5
  1
0.50
100
AcDbAttributeDefinition
  3

  2
BL
 70
     8
280
     0
  0
ATTDEF
  5
1A0
330
188
100
AcDbEntity
  8
AM_6
100
AcDbText
 10
6.3496875
 20
-8.031500000000001
 30
0.0
 40
0.5
  1
0.07
100
AcDbAttributeDefinition
  3

  2
CL
 70
     8
280
     0
  0
ATTDEF
  5
1A1
330
188
100
AcDbEntity
  8
AM_6
100
AcDbText
 10
6.3496875
 20
-8.531500000000001
 30
0.0
 40
0.5
  1
0.44
100
AcDbAttributeDefinition
  3

  2
DL
 70
     8
280
     0
  0
ATTDEF
  5
1A2
330
188
100
AcDbEntity
  8
AM_6
100
AcDbText
 10
6.3496875
 20
-9.031500000000001
 30
0.0
 40
0.5
  1
0.8000
100
AcDbAttributeDefinition
  3

  2
LL
 70
     8
280
     0
  0
ATTDEF
  5
1A3
330
188
100
AcDbEntity
  8
AM_6
100
AcDbText
 10
6.3496875
 20
-9.531500000000001
 30
0.0
 40
0.5
  1
0.025
100
AcDbAttributeDefinition
  3

  2
Y
 70
     8
280
     0
  0
ATTDEF
  5
1A4
330
188
100
AcDbEntity
  8
AM_6
100
AcDbText
 10
6.3496875
 20
-10.0315
 30
0.0
 40
0.5
  1
0.025000
100
AcDbAttributeDefinition
  3

  2
Y1
 70
     8
280
     0
  0
ATTDEF
  5
1A5
330
188
100
AcDbEntity
  8
AM_6
100
AcDbText
 10
6.3496875
 20
-10.5315
 30
0.0
 40
0.5
  1
2-19/32
100
AcDbAttributeDefinition
  3

  2
Z
 70
     8
280
     0
  0
ATTDEF
  5
1A6
330
188
100
AcDbEntity
  8
AM_6
100
AcDbText
 10
6.3496875
 20
-11.0315
 30
0.0
 40
0.5
  1
2.593750
100
AcDbAttributeDefinition
  3

  2
Z1
 70
     8
280
     0
  0
ATTDEF
  5
1A7
330
188
100
AcDbEntity
  8
AM_6
100
AcDbText
 10
6.3496875
 20
-11.5315
 30
0.0
 40
0.5
  1
baldor
100
AcDbAttributeDefinition
  3

  2
COMPANY
 70
     8
280
     0
  0
LINE
  5
1A8
330
188
100
AcDbEntity
  8
AM_9
100
AcDbLine
 10
0.6453125000000003
 20
1.108047935886763
 30
0.0
 11
-1.614375
 21
1.108047935886763
 31
0.0
  0
LINE
  5
1A9
330
188
100
AcDbEntity
  8
AM_9
100
AcDbLine
 10
0.6453125000000003
 20
1.012377077795491
 30
0.0
 11
-1.614375
 21
1.012377077795491
 31
0.0
  0
LINE
  5
1AA
330
188
100
AcDbEntity
  8
AM_9
100
AcDbLine
 10
-0.7743750000000043
 20
-1.482638888888889
 30
0.0
 11
-0.8081589898333374
 21
-1.410188888888889
 31
0.0
  0
LINE
  5
1AB
330
188
100
AcDbEntity
  8
AM_9
100
AcDbLine
 10
-0.8081589898333374
 20
-1.555088888888889
 30
0.0
 11
-0.7743750000000043
 21
-1.482638888888889
 31
0.0
  0
LINE
  5
1AC
330
188
100
AcDbEntity
  8
AM_9
100
AcDbLine
 10
-0.7743749999999998
 20
1.482638888888889
 30
0.0
 11
-0.8081589898333296
 21
1.555088888888889
 31
0.0
  0
LINE
  5
1AD
330
188
100
AcDbEntity
  8
AM_9
100
AcDbLine
 10
-0.8081589898333296
 20
1.410188888888889
 30
0.0
 11
-0.7743749999999998
 21
1.482638888888889
 31
0.0
  0
LINE
  5
1AE
330
188
100
AcDbEntity
  8
AM_9
100
AcDbLine
 10
-1.591825000000006
 20
-1.555088888888889
 30
0.0
 11
-0.8081589898333374
 21
-1.555088888888889
 31
0.0
  0
LINE
  5
1AF
330
188
100
AcDbEntity
  8
AM_9
100
AcDbLine
 10
-0.8081589898333374
 20
-1.410188888888889
 30
0.0
 11
-1.591825000000006
 21
-1.410188888888889
 31
0.0
  0
LINE
  5
1B0
330
188
100
AcDbEntity
  8
AM_9
100
AcDbLine
 10
-0.8081589898333374
 20
-1.410188888888889
 30
0.0
 11
-0.8081589898333374
 21
-1.555088888888889
 31
0.0
  0
LINE
  5
1B1
330
188
100
AcDbEntity
  8
AM_9
100
AcDbLine
 10
-0.8081589898333296
 20
1.410188888888889
 30
0.0
 11
-0.8081589898333296
 21
1.555088888888889
 31
0.0
  0
LINE
  5
1B2
330
188
100
AcDbEntity
  8
AM_9
100
AcDbLine
 10
-0.8081589898333296
 20
1.555088888888889
 30
0.0
 11
-1.591825
 21
1.555088888888889
 31
0.0
  0
LINE
  5
1B3
330
188
100
AcDbEntity
  8
AM_9
100
AcDbLine
 10
-1.591825
 20
1.410188888888889
 30
0.0
 11
-0.8081589898333296
 21
1.410188888888889
 31
0.0
  0
LINE
  5
1B4
330
188
100
AcDbEntity
  8
AM_9
100
AcDbLine
 10
-1.591825
 20
1.410188888888889
 30
0.0
 11
-1.591825
 21
1.555088888888889
 31
0.0
  0
LINE
  5
1B5
330
188
100
AcDbEntity
  8
AM_9
100
AcDbLine
 10
-1.591825
 20
1.555088888888889
 30
0.0
 11
-1.614375
 21
1.577638888888889
 31
0.0
  0
LINE
  5
1B6
330
188
100
AcDbEntity
  8
AM_9
100
AcDbLine
 10
-1.614375
 20
1.387638888888889
 30
0.0
 11
-1.591825
 21
1.410188888888889
 31
0.0
  0
LINE
  5
1B7
330
188
100
AcDbEntity
  8
AM_9
100
AcDbLine
 10
-1.591825000000006
 20
-1.410188888888889
 30
0.0
 11
-1.614374999999997
 21
-1.387638888888889
 31
0.0
  0
LINE
  5
1B8
330
188
100
AcDbEntity
  8
AM_9
100
AcDbLine
 10
-1.614374999999997
 20
-1.577638888888889
 30
0.0
 11
-1.591825000000006
 21
-1.555088888888889
 31
0.0
  0
LINE
  5
1B9
330
188
100
AcDbEntity
  8
AM_9
100
AcDbLine
 10
-1.591825000000006
 20
-1.410188888888889
 30
0.0
 11
-1.591825000000006
 21
-1.555088888888889
 31
0.0
  0
LINE
  5
1BA
330
188
100
AcDbEntity
  8
AM_9
100
AcDbLine
 10
0.6453125000000003
 20
1.051707838118872
 30
0.0
 11
-1.859375
 21
1.051707838118873
 31
0.0
  0
LINE
  5
1BB
330
188
100
AcDbEntity
  8
AM_9
100
AcDbLine
 10
-1.859375
 20
0.9560369800276006
 30
0.0
 11
0.6453125000000003
 21
0.9560369800276001
 31
0.0
  0
LINE
  5
1BC
330
188
100
AcDbEntity
  8
AM_9
100
AcDbLine
 10
0.6453124999999997
 20
1.09375
 30
0.0
 11
-1.859375
 21
1.09375
 31
0.0
  0
LINE
  5
1BD
330
188
100
AcDbEntity
  8
AM_9
100
AcDbLine
 10
-1.859375
 20
-1.09375
 30
0.0
 11
0.6453124999999997
 21
-1.09375
 31
0.0
  0
LINE
  5
1BE
330
188
100
AcDbEntity
  8
AM_9
100
AcDbLine
 10
1.171875
 20
1.151315789473684
 30
0.0
 11
0.6453124999999997
 21
1.151315789473684
 31
0.0
  0
LINE
  5
1BF
330
188
100
AcDbEntity
  8
AM_9
100
AcDbLine
 10
0.6453124999999997
 20
-1.151315789473684
 30
0.0
 11
1.171875
 21
-1.151315789473684
 31
0.0
  0
LINE
  5
1C0
330
188
100
AcDbEntity
  8
AM_9
100
AcDbLine
 10
-1.859375
 20
1.1052247552606
 30
0.0
 11
-1.614375
 21
1.1052247552606
 31
0.0
  0
LINE
  5
1C1
330
188
100
AcDbEntity
  8
AM_9
100
AcDbLine
 10
-1.614375
 20
1.009553897169328
 30
0.0
 11
-1.859375
 21
1.009553897169328
 31
0.0
  0
LINE
  5
1C2
330
188
100
AcDbEntity
  8
AM_9
100
AcDbLine
 10
-1.614375
 20
1.151315789473684
 30
0.0
 11
-1.684375
 21
1.151315789473684
 31
0.0
  0
LINE
  5
1C3
330
188
100
AcDbEntity
  8
AM_9
100
AcDbLine
 10
-1.684375
 20
-1.151315789473684
 30
0.0
 11
-1.614375
 21
-1.151315789473684
 31
0.0
  0
LINE
  5
1C4
330
188
100
AcDbEntity
  8
AM_9
100
AcDbLine
 10
-1.174375
 20
-0.8555992052357224
 30
0.0
 11
-1.614375
 21
-0.8555992052357224
 31
0.0
  0
LINE
  5
1C5
330
188
100
AcDbEntity
  8
AM_9
100
AcDbLine
 10
-1.174375
 20
0.8555992052357221
 30
0.0
 11
-1.614375
 21
0.8555992052357221
 31
0.0
  0
LINE
  5
1C6
330
188
100
AcDbEntity
  8
AM_9
100
AcDbLine
 10
1.171875
 20
-1.296875
 30
0.0
 11
1.171875
 21
1.296875
 31
0.0
  0
LINE
  5
1C7
330
188
100
AcDbEntity
  8
AM_9
100
AcDbLine
 10
1.196874999999999
 20
1.296875
 30
0.0
 11
1.171875
 21
1.296875
 31
0.0
  0
LINE
  5
1C8
330
188
100
AcDbEntity
  8
AM_9
100
AcDbLine
 10
1.171875
 20
-1.296875
 30
0.0
 11
1.196874999999999
 21
-1.296875
 31
0.0
  0
LINE
  5
1C9
330
188
100
AcDbEntity
  8
AM_9
100
AcDbLine
 10
-1.174375
 20
-0.8555992052357224
 30
0.0
 11
-1.174375
 21
-1.058944566254844
 31
0.0
  0
LINE
  5
1CA
330
188
100
AcDbEntity
  8
AM_9
100
AcDbLine
 10
-1.174375
 20
1.058944566254843
 30
0.0
 11
-1.174375
 21
0.8555992052357221
 31
0.0
  0
LINE
  5
1CB
330
188
100
AcDbEntity
  8
AM_9
100
AcDbLine
 10
1.109375
 20
1.440972222222222
 30
0.0
 11
0.8546875
 21
1.440972222222222
 31
0.0
  0
LINE
  5
1CC
330
188
100
AcDbEntity
  8
AM_9
100
AcDbLine
 10
0.8546875
 20
-1.440972222222222
 30
0.0
 11
1.109375
 21
-1.440972222222222
 31
0.0
  0
LINE
  5
1CD
330
188
100
AcDbEntity
  8
AM_9
100
AcDbLine
 10
1.196875
 20
-0.7056749292081238
 30
0.0
 11
1.196875
 21
0.7056749292081238
 31
0.0
  0
LINE
  5
1CE
330
188
100
AcDbEntity
  8
AM_9
100
AcDbLine
 10
1.163621794871795
 20
-0.759256998543466
 30
0.0
 11
1.163621794871795
 21
0.759256998543466
 31
0.0
  0
LINE
  5
1CF
330
188
100
AcDbEntity
  8
AM_9
100
AcDbLine
 10
0.8546875
 20
-1.589882260469459
 30
0.0
 11
0.8546875
 21
1.589882260469459
 31
0.0
  0
ARC
  5
1D0
330
188
100
AcDbEntity
  8
AM_9
100
AcDbCircle
 10
0.7546874999999614
 20
1.589882260469437
 30
0.0
 40
0.1000000000000386
100
AcDbArc
 50
0.0
 51
59.99999999998739
  0
ARC
  5
1D1
330
188
100
AcDbEntity
  8
AM_9
100
AcDbCircle
 10
0.7546875
 20
-1.589882260469459
 30
0.0
 40
0.1000000000000001
100
AcDbArc
 50
299.9999999999998
 51
0.0
  0
LINE
  5
1D2
330
188
100
AcDbEntity
  8
AM_9
100
AcDbLine
 10
0.8046874999999998
 20
1.676484800847903
 30
0.0
 11
0.6453124999999997
 21
1.7685
 31
0.0
  0
LINE
  5
1D3
330
188
100
AcDbEntity
  8
AM_9
100
AcDbLine
 10
0.6453124999999997
 20
-1.7685
 30
0.0
 11
0.8046874999999998
 21
-1.676484800847903
 31
0.0
  0
LINE
  5
1D4
330
188
100
AcDbEntity
  8
AM_9
100
AcDbLine
 10
0.8046874999999998
 20
-1.676484800847903
 30
0.0
 11
0.8046874999999998
 21
1.676484800847903
 31
0.0
  0
LINE
  5
1D5
330
188
100
AcDbEntity
  8
AM_9
100
AcDbLine
 10
-1.109375
 20
-1.767634988593333
 30
0.0
 11
-0.4015624999999999
 21
-1.792352345749211
 31
0.0
  0
LINE
  5
1D6
330
188
100
AcDbEntity
  8
AM_9
100
AcDbLine
 10
-0.4015624999999999
 20
1.792352345749211
 30
0.0
 11
-1.109375
 21
1.767634988593333
 31
0.0
  0
LINE
  5
1D7
330
188
100
AcDbEntity
  8
AM_9
100
AcDbLine
 10
0.1520956781528944
 20
1.91615625
 30
0.0
 11
0.0916543218471055
 21
1.91615625
 31
0.0
  0
LINE
  5
1D8
330
188
100
AcDbEntity
  8
AM_9
100
AcDbLine
 10
0.0916543218471055
 20
-1.91615625
 30
0.0
 11
0.1520956781528944
 21
-1.91615625
 31
0.0
  0
LINE
  5
1D9
330
188
100
AcDbEntity
  8
AM_9
100
AcDbLine
 10
0.0614336436942111
 20
1.9685
 30
0.0
 11
-0.3515625000000002
 21
1.9685
 31
0.0
  0
LINE
  5
1DA
330
188
100
AcDbEntity
  8
AM_9
100
AcDbLine
 10
-0.3515625000000002
 20
-1.9685
 30
0.0
 11
0.0614336436942111
 21
-1.9685
 31
0.0
  0
LINE
  5
1DB
330
188
100
AcDbEntity
  8
AM_9
100
AcDbLine
 10
0.0916543218471055
 20
1.91615625
 30
0.0
 11
0.0614336436942111
 21
1.9685
 31
0.0
  0
LINE
  5
1DC
330
188
100
AcDbEntity
  8
AM_9
100
AcDbLine
 10
0.0614336436942111
 20
-1.9685
 30
0.0
 11
0.0916543218471055
 21
-1.91615625
 31
0.0
  0
LINE
  5
1DD
330
188
100
AcDbEntity
  8
AM_9
100
AcDbLine
 10
0.0916543218471055
 20
-1.91615625
 30
0.0
 11
0.0916543218471055
 21
1.91615625
 31
0.0
  0
LINE
  5
1DE
330
188
100
AcDbEntity
  8
AM_9
100
AcDbLine
 10
0.0614336436942111
 20
-1.9685
 30
0.0
 11
0.0614336436942111
 21
1.9685
 31
0.0
  0
LINE
  5
1DF
330
188
100
AcDbEntity
  8
AM_9
100
AcDbLine
 10
0.1520956781528944
 20
-1.91615625
 30
0.0
 11
0.1823163563057888
 21
-1.9685
 31
0.0
  0
LINE
  5
1E0
330
188
100
AcDbEntity
  8
AM_9
100
AcDbLine
 10
0.1823163563057888
 20
1.9685
 30
0.0
 11
0.1520956781528944
 21
1.91615625
 31
0.0
  0
LINE
  5
1E1
330
188
100
AcDbEntity
  8
AM_9
100
AcDbLine
 10
0.1520956781528944
 20
-1.91615625
 30
0.0
 11
0.1520956781528944
 21
1.91615625
 31
0.0
  0
LINE
  5
1E2
330
188
100
AcDbEntity
  8
AM_9
100
AcDbLine
 10
-0.4015624999999999
 20
-1.918499999999998
 30
0.0
 11
-0.4015624999999999
 21
1.918499999999998
 31
0.0
  0
ARC
  5
1E3
330
188
100
AcDbEntity
  8
AM_9
100
AcDbCircle
 10
-0.3515625000000001
 20
1.9185
 30
0.0
 40
0.05
100
AcDbArc
 50
90.0
 51
180.0
  0
ARC
  5
1E4
330
188
100
AcDbEntity
  8
AM_9
100
AcDbCircle
 10
-0.3515625000000005
 20
-1.9185
 30
0.0
 40
0.0499999999999994
100
AcDbArc
 50
180.0
 51
270.0
  0
LINE
  5
1E5
330
188
100
AcDbEntity
  8
AM_9
100
AcDbLine
 10
-0.3515625000000002
 20
-1.9685
 30
0.0
 11
-0.3515625000000002
 21
1.9685
 31
0.0
  0
LINE
  5
1E6
330
188
100
AcDbEntity
  8
AM_9
100
AcDbLine
 10
0.5953124999999998
 20
1.9685
 30
0.0
 11
0.1823163563057888
 21
1.9685
 31
0.0
  0
LINE
  5
1E7
330
188
100
AcDbEntity
  8
AM_9
100
AcDbLine
 10
0.1823163563057888
 20
-1.9685
 30
0.0
 11
0.5953124999999998
 21
-1.9685
 31
0.0
  0
LINE
  5
1E8
330
188
100
AcDbEntity
  8
AM_9
100
AcDbLine
 10
0.1823163563057888
 20
-1.9685
 30
0.0
 11
0.1823163563057888
 21
1.9685
 31
0.0
  0
LINE
  5
1E9
330
188
100
AcDbEntity
  8
AM_9
100
AcDbLine
 10
0.6453124999999997
 20
-1.9185
 30
0.0
 11
0.6453124999999997
 21
1.9185
 31
0.0
  0
ARC
  5
1EA
330
188
100
AcDbEntity
  8
AM_9
100
AcDbCircle
 10
0.5953125000000005
 20
1.9185
 30
0.0
 40
0.0499999999999995
100
AcDbArc
 50
0.0
 51
90.0
  0
ARC
  5
1EB
330
188
100
AcDbEntity
  8
AM_9
100
AcDbCircle
 10
0.5953125000000039
 20
-1.918500000000004
 30
0.0
 40
0.049999999999996
100
AcDbArc
 50
270.0
 51
0.0
  0
LINE
  5
1EC
330
188
100
AcDbEntity
  8
AM_9
100
AcDbLine
 10
0.5953124999999998
 20
-1.9685
 30
0.0
 11
0.5953124999999998
 21
1.9685
 31
0.0
  0
LINE
  5
1ED
330
188
100
AcDbEntity
  8
AM_5
100
AcDbLine
 10
-0.854375
 20
1.555088888888889
 30
0.0
 11
-0.854375
 21
1.577638888888889
 31
0.0
  0
LINE
  5
1EE
330
188
100
AcDbEntity
  8
AM_5
100
AcDbLine
 10
-0.854375
 20
1.577638888888889
 30
0.0
 11
-0.8413557514297739
 21
1.555088888888889
 31
0.0
  0
LINE
  5
1EF
330
188
100
AcDbEntity
  8
AM_5
100
AcDbLine
 10
-0.854375
 20
1.410188888888889
 30
0.0
 11
-0.854375
 21
1.387638888888889
 31
0.0
  0
LINE
  5
1F0
330
188
100
AcDbEntity
  8
AM_5
100
AcDbLine
 10
-0.854375
 20
1.387638888888889
 30
0.0
 11
-0.8413557514297739
 21
1.410188888888889
 31
0.0
  0
LINE
  5
1F1
330
188
100
AcDbEntity
  8
AM_5
100
AcDbLine
 10
-0.8543750000000008
 20
-1.555088888888889
 30
0.0
 11
-0.8543750000000008
 21
-1.577638888888889
 31
0.0
  0
LINE
  5
1F2
330
188
100
AcDbEntity
  8
AM_5
100
AcDbLine
 10
-0.8543750000000008
 20
-1.577638888888889
 30
0.0
 11
-0.841355751429765
 21
-1.555088888888889
 31
0.0
  0
LINE
  5
1F3
330
188
100
AcDbEntity
  8
AM_5
100
AcDbLine
 10
-0.8543750000000008
 20
-1.410188888888889
 30
0.0
 11
-0.8543750000000008
 21
-1.387638888888889
 31
0.0
  0
LINE
  5
1F4
330
188
100
AcDbEntity
  8
AM_5
100
AcDbLine
 10
-0.8543750000000008
 20
-1.387638888888889
 30
0.0
 11
-0.841355751429765
 21
-1.410188888888889
 31
0.0
  0
LINE
  5
1F7
330
188
100
AcDbEntity
  8
AM_7
100
AcDbLine
 10
1.3496875
 20
0.0
 30
0.0
 11
-2.0121875
 21
0.0
 31
0.0
  0
LINE
  5
1F8
330
188
100
AcDbEntity
  8
AM_7
100
AcDbLine
 10
-0.7323749999999998
 20
1.482638888888889
 30
0.0
 11
-1.830425
 21
1.482638888888889
 31
0.0
  0
LINE
  5
1F9
330
188
100
AcDbEntity
  8
AM_7
100
AcDbLine
 10
-0.7323750000000049
 20
-1.482638888888889
 30
0.0
 11
-1.830425
 21
-1.482638888888889
 31
0.0
  0
ARC
  5
1FA
330
188
100
AcDbEntity
  8
AM_4
100
AcDbCircle
 10
-1.564374999999999
 20
-1.701715561259647
 30
0.0
 40
0.0500000000000005
100
AcDbArc
 50
180.0
 51
267.9999999999993
  0
ARC
  5
1FB
330
188
100
AcDbEntity
  8
AM_4
100
AcDbCircle
 10
-1.564374999999999
 20
1.701715561259647
 30
0.0
 40
0.0500000000000003
100
AcDbArc
 50
92.00000000000074
 51
180.0
  0
LWPOLYLINE
  5
1FC
330
188
100
AcDbEntity
  8
AM_4
100
AcDbPolyline
 90
        6
 70
     0
 43
0.0
 10
-1.566119974835125
 20
-1.402725450079624
 10
-1.582434537852182
 20
-1.400335707104308
 10
-1.596719563500847
 20
-1.394265809917441
 10
-1.60744303550237
 20
-1.385169656136095
 10
-1.613416447241351
 20
-1.373980152177874
 10
-1.614375
 20
-1.367015295627099
  0
LWPOLYLINE
  5
1FD
330
188
100
AcDbEntity
  8
AM_4
100
AcDbPolyline
 90
        6
 70
     0
 43
0.0
 10
-1.614375
 20
1.367015295627099
 10
-1.613864130908627
 20
1.37211148542419
 10
-1.608619884505245
 20
1.383661460948832
 10
-1.59827121377439
 20
1.393285102677707
 10
-1.58409455036443
 20
1.399851693899151
 10
-1.566119974835125
 20
1.402725450079624
  0
LINE
  5
1FE
330
188
100
AcDbEntity
  8
AM_4
100
AcDbLine
 10
-1.684375
 20
1.151315789473684
 30
0.0
 11
-1.859375
 21
1.151315789473684
 31
0.0
  0
LINE
  5
1FF
330
188
100
AcDbEntity
  8
AM_4
100
AcDbLine
 10
-1.859375
 20
-1.151315789473684
 30
0.0
 11
-1.684375
 21
-1.151315789473684
 31
0.0
  0
LINE
  5
200
330
188
100
AcDbEntity
  8
AM_4
100
AcDbLine
 10
-1.859375
 20
-1.151315789473684
 30
0.0
 11
-1.859375
 21
1.151315789473684
 31
0.0
  0
LINE
  5
201
330
188
100
AcDbEntity
  8
AM_4
100
AcDbLine
 10
-1.174375
 20
-1.209152595828996
 30
0.0
 11
-1.614375
 21
-1.209152595828996
 31
0.0
  0
LINE
  5
202
330
188
100
AcDbEntity
  8
AM_4
100
AcDbLine
 10
-1.174375
 20
1.209152595828995
 30
0.0
 11
-1.614375
 21
1.209152595828995
 31
0.0
  0
LINE
  5
203
330
188
100
AcDbEntity
  8
AM_4
100
AcDbLine
 10
1.163621794871795
 20
1.440972222222222
 30
0.0
 11
1.109375
 21
1.440972222222222
 31
0.0
  0
LINE
  5
204
330
188
100
AcDbEntity
  8
AM_4
100
AcDbLine
 10
1.109375
 20
-1.440972222222222
 30
0.0
 11
1.163621794871795
 21
-1.440972222222222
 31
0.0
  0
LINE
  5
205
330
188
100
AcDbEntity
  8
AM_4
100
AcDbLine
 10
1.196875
 20
0.7056749292081238
 30
0.0
 11
1.196875
 21
1.407719017094017
 31
0.0
  0
LINE
  5
206
330
188
100
AcDbEntity
  8
AM_4
100
AcDbLine
 10
1.163621794871795
 20
0.759256998543466
 30
0.0
 11
1.163621794871795
 21
1.440972222222222
 31
0.0
  0
LINE
  5
207
330
188
100
AcDbEntity
  8
AM_4
100
AcDbLine
 10
1.196875
 20
-1.407719017094017
 30
0.0
 11
1.196875
 21
-0.7056749292081238
 31
0.0
  0
ARC
  5
208
330
188
100
AcDbEntity
  8
AM_4
100
AcDbCircle
 10
1.163621794871795
 20
1.407719017094017
 30
0.0
 40
0.0332532051282055
100
AcDbArc
 50
0.0
 51
90.0
  0
ARC
  5
209
330
188
100
AcDbEntity
  8
AM_4
100
AcDbCircle
 10
1.163621794871795
 20
-1.407719017094017
 30
0.0
 40
0.0332532051282055
100
AcDbArc
 50
270.0
 51
0.0
  0
LINE
  5
20A
330
188
100
AcDbEntity
  8
AM_4
100
AcDbLine
 10
1.163621794871795
 20
-1.440972222222222
 30
0.0
 11
1.163621794871795
 21
-0.759256998543466
 31
0.0
  0
LWPOLYLINE
  5
20B
330
188
100
AcDbEntity
  8
AM_4
100
AcDbPolyline
 90
        6
 70
     0
 43
0.0
 10
-1.566119974835125
 20
1.04917205948635
 10
-1.582434537852182
 20
1.046782316511033
 10
-1.596719563500847
 20
1.040712419324166
 10
-1.60744303550237
 20
1.03161626554282
 10
-1.613416447241351
 20
1.020426761584599
 10
-1.614375
 20
1.013461905033825
  0
LWPOLYLINE
  5
20C
330
188
100
AcDbEntity
  8
AM_4
100
AcDbPolyline
 90
        6
 70
     0
 43
0.0
 10
-1.614375
 20
-1.013461905033825
 10
-1.613864130908627
 20
-1.018558094830917
 10
-1.608619884505245
 20
-1.030108070355559
 10
-1.59827121377439
 20
-1.039731712084434
 10
-1.584094550364431
 20
-1.046298303305878
 10
-1.566119974835125
 20
-1.049172059486351
  0
LINE
  5
20D
330
188
100
AcDbEntity
  8
AM_4
100
AcDbLine
 10
-1.566119974835125
 20
-1.049172059486351
 30
0.0
 11
-1.566119974835125
 21
1.04917205948635
 31
0.0
  0
LINE
  5
20E
330
188
100
AcDbEntity
  8
AM_4
100
AcDbLine
 10
-1.566119974835125
 20
-1.049172059486351
 30
0.0
 11
-1.174375
 21
-1.058944566254844
 31
0.0
  0
LINE
  5
20F
330
188
100
AcDbEntity
  8
AM_4
100
AcDbLine
 10
-1.174375
 20
-1.058944566254844
 30
0.0
 11
-1.174375
 21
-1.412497956848118
 31
0.0
  0
LINE
  5
210
330
188
100
AcDbEntity
  8
AM_4
100
AcDbLine
 10
-1.174375
 20
-1.412497956848118
 30
0.0
 11
-1.566119974835125
 21
-1.402725450079624
 31
0.0
  0
LINE
  5
211
330
188
100
AcDbEntity
  8
AM_4
100
AcDbLine
 10
-1.566119974835125
 20
1.402725450079624
 30
0.0
 11
-1.566119974835125
 21
1.751685102610602
 31
0.0
  0
LINE
  5
212
330
188
100
AcDbEntity
  8
AM_4
100
AcDbLine
 10
-1.566119974835125
 20
1.402725450079624
 30
0.0
 11
-1.174375
 21
1.412497956848117
 31
0.0
  0
LINE
  5
213
330
188
100
AcDbEntity
  8
AM_4
100
AcDbLine
 10
-1.174375
 20
1.412497956848117
 30
0.0
 11
-1.174375
 21
1.058944566254843
 31
0.0
  0
LINE
  5
214
330
188
100
AcDbEntity
  8
AM_4
100
AcDbLine
 10
-1.174375
 20
1.058944566254843
 30
0.0
 11
-1.566119974835125
 21
1.04917205948635
 31
0.0
  0
LINE
  5
215
330
188
100
AcDbEntity
  8
AM_4
100
AcDbLine
 10
-1.566119974835125
 20
-1.751685102610602
 30
0.0
 11
-1.109375
 21
-1.767634988593333
 31
0.0
  0
LINE
  5
216
330
188
100
AcDbEntity
  8
AM_4
100
AcDbLine
 10
-1.109375
 20
1.767634988593333
 30
0.0
 11
-1.566119974835125
 21
1.751685102610602
 31
0.0
  0
LINE
  5
217
330
188
100
AcDbEntity
  8
AM_4
100
AcDbLine
 10
-1.566119974835125
 20
-1.751685102610602
 30
0.0
 11
-1.566119974835125
 21
-1.402725450079624
 31
0.0
  0
ENDBLK
  5
18B
330
188
100
AcDbEntity
  8
0
100
AcDbBlockEnd
  0
BLOCK
  5
21A
330
218
100
AcDbEntity
  8
0
100
AcDbBlockBegin
  2
7_069380H_0_in_069380_2
 70
     2
 10
0.0
 20
0.0
 30
0.0
  3
7_069380H_0_in_069380_2
  1

  0
ATTDEF
  5
21C
330
218
100
AcDbEntity
  8
AM_6
100
AcDbText
 10
6.389419616724153
 20
2.625
 30
0.0
 40
0.5
  1
WSTU-IP -Housing -Inch
100
AcDbAttributeDefinition
  3

  2
NN
 70
     8
280
     0
  0
ATTDEF
  5
21D
330
218
100
AcDbEntity
  8
AM_6
100
AcDbText
 10
6.389419616724153
 20
2.125
 30
0.0
 40
0.5
  1
Imperial Wide Slot Take-Up Bearings
100
AcDbAttributeDefinition
  3

  2
NT
 70
     8
280
     0
  0
ATTDEF
  5
21E
330
218
100
AcDbEntity
  8
AM_6
100
AcDbText
 10
6.389419616724153
 20
1.625
 30
0.0
 40
0.5
  1
069380H
100
AcDbAttributeDefinition
  3

  2
NB
 70
     8
280
     0
  0
ATTDEF
  5
21F
330
218
100
AcDbEntity
  8
AM_6
100
AcDbText
 10
6.389419616724153
 20
1.125
 30
0.0
 40
0.5
  1
$PN.H
100
AcDbAttributeDefinition
  3

  2
NBSYN
 70
     8
280
     0
  0
ATTDEF
  5
220
330
218
100
AcDbEntity
  8
AM_6
100
AcDbText
 10
6.389419616724153
 20
0.625
 30
0.0
 40
0.5
  1
069380
100
AcDbAttributeDefinition
  3

  2
LINA
 70
     8
280
     0
  0
ATTDEF
  5
221
330
218
100
AcDbEntity
  8
AM_6
100
AcDbText
 10
6.389419616724153
 20
0.125
 30
0.0
 40
0.5
  1
2-3/16
100
AcDbAttributeDefinition
  3

  2
SS
 70
     8
280
     0
  0
ATTDEF
  5
222
330
218
100
AcDbEntity
  8
AM_6
100
AcDbText
 10
6.389419616724153
 20
-0.375
 30
0.0
 40
0.5
  1
069380
100
AcDbAttributeDefinition
  3

  2
PN
 70
     8
280
     0
  0
ATTDEF
  5
223
330
218
100
AcDbEntity
  8
AM_6
100
AcDbText
 10
6.389419616724153
 20
-0.875
 30
0.0
 40
0.5
  1
WSTU-IP-203RE
100
AcDbAttributeDefinition
  3

  2
DESCRIPTION
 70
     8
280
     0
  0
ATTDEF
  5
224
330
218
100
AcDbEntity
  8
AM_6
100
AcDbText
 10
6.389419616724153
 20
-1.375
 30
0.0
 40
0.5
  1
Expansion
100
AcDbAttributeDefinition
  3

  2
EF
 70
     8
280
     0
  0
ATTDEF
  5
225
330
218
100
AcDbEntity
  8
AM_6
100
AcDbText
 10
6.389419616724153
 20
-1.875
 30
0.0
 40
0.5
  1
Contact Seal
100
AcDbAttributeDefinition
  3

  2
ST
 70
     8
280
     0
  0
ATTDEF
  5
226
330
218
100
AcDbEntity
  8
AM_6
100
AcDbText
 10
6.389419616724153
 20
-2.375
 30
0.0
 40
0.5
  1
3-1/32
100
AcDbAttributeDefinition
  3

  2
A
 70
     8
280
     0
  0
ATTDEF
  5
227
330
218
100
AcDbEntity
  8
AM_6
100
AcDbText
 10
6.389419616724153
 20
-2.875
 30
0.0
 40
0.5
  1
7-1/16
100
AcDbAttributeDefinition
  3

  2
B
 70
     8
280
     0
  0
ATTDEF
  5
228
330
218
100
AcDbEntity
  8
AM_6
100
AcDbText
 10
6.389419616724153
 20
-3.375
 30
0.0
 40
0.5
  1
13/16
100
AcDbAttributeDefinition
  3

  2
C
 70
     8
280
     0
  0
ATTDEF
  5
229
330
218
100
AcDbEntity
  8
AM_6
100
AcDbText
 10
6.389419616724153
 20
-3.875
 30
0.0
 40
0.5
  1
3-5/8
100
AcDbAttributeDefinition
  3

  2
D
 70
     8
280
     0
  0
ATTDEF
  5
22A
330
218
100
AcDbEntity
  8
AM_6
100
AcDbText
 10
6.389419616724153
 20
-4.375
 30
0.0
 40
0.5
  1
4-5/8
100
AcDbAttributeDefinition
  3

  2
E
 70
     8
280
     0
  0
ATTDEF
  5
22B
330
218
100
AcDbEntity
  8
AM_6
100
AcDbText
 10
6.389419616724153
 20
-4.875
 30
0.0
 40
0.5
  1
1-3/8
100
AcDbAttributeDefinition
  3

  2
F
 70
     8
280
     0
  0
ATTDEF
  5
22C
330
218
100
AcDbEntity
  8
AM_6
100
AcDbText
 10
6.389419616724153
 20
-5.375
 30
0.0
 40
0.5
  1
15/16
100
AcDbAttributeDefinition
  3

  2
G
 70
     8
280
     0
  0
ATTDEF
  5
22D
330
218
100
AcDbEntity
  8
AM_6
100
AcDbText
 10
6.389419616724153
 20
-5.875
 30
0.0
 40
0.5
  1
1-1/4
100
AcDbAttributeDefinition
  3

  2
H
 70
     8
280
     0
  0
ATTDEF
  5
22E
330
218
100
AcDbEntity
  8
AM_6
100
AcDbText
 10
6.389419616724153
 20
-6.375
 30
0.0
 40
0.5
  1
3-7/8
100
AcDbAttributeDefinition
  3

  2
J
 70
     8
280
     0
  0
ATTDEF
  5
22F
330
218
100
AcDbEntity
  8
AM_6
100
AcDbText
 10
6.389419616724153
 20
-6.875
 30
0.0
 40
0.5
  1
2-1/4
100
AcDbAttributeDefinition
  3

  2
K
 70
     8
280
     0
  0
ATTDEF
  5
230
330
218
100
AcDbEntity
  8
AM_6
100
AcDbText
 10
6.389419616724153
 20
-7.375
 30
0.0
 40
0.5
  1
3-1/2
100
AcDbAttributeDefinition
  3

  2
L
 70
     8
280
     0
  0
ATTDEF
  5
231
330
218
100
AcDbEntity
  8
AM_6
100
AcDbText
 10
6.389419616724153
 20
-7.875
 30
0.0
 40
0.5
  1
4-1/2
100
AcDbAttributeDefinition
  3

  2
M
 70
     8
280
     0
  0
ATTDEF
  5
232
330
218
100
AcDbEntity
  8
AM_6
100
AcDbText
 10
6.389419616724153
 20
-8.375
 30
0.0
 40
0.5
  1
5-1/4
100
AcDbAttributeDefinition
  3

  2
N
 70
     8
280
     0
  0
ATTDEF
  5
233
330
218
100
AcDbEntity
  8
AM_6
100
AcDbText
 10
6.389419616724153
 20
-8.875
 30
0.0
 40
0.5
  1
3-3/16
100
AcDbAttributeDefinition
  3

  2
R
 70
     8
280
     0
  0
ATTDEF
  5
234
330
218
100
AcDbEntity
  8
AM_6
100
AcDbText
 10
6.389419616724153
 20
-9.375
 30
0.0
 40
0.5
  1
2-7/64
100
AcDbAttributeDefinition
  3

  2
S
 70
     8
280
     0
  0
ATTDEF
  5
235
330
218
100
AcDbEntity
  8
AM_6
100
AcDbText
 10
6.389419616724153
 20
-9.875
 30
0.0
 40
0.5
  1
2-7/32
100
AcDbAttributeDefinition
  3

  2
T
 70
     8
280
     0
  0
ATTDEF
  5
236
330
218
100
AcDbEntity
  8
AM_6
100
AcDbText
 10
6.389419616724153
 20
-10.375
 30
0.0
 40
0.5
  1
1/4
100
AcDbAttributeDefinition
  3

  2
X
 70
     8
280
     0
  0
ATTDEF
  5
237
330
218
100
AcDbEntity
  8
AM_6
100
AcDbText
 10
6.389419616724153
 20
-10.875
 30
0.0
 40
0.5
  1
0.025
100
AcDbAttributeDefinition
  3

  2
Y
 70
     8
280
     0
  0
ATTDEF
  5
238
330
218
100
AcDbEntity
  8
AM_6
100
AcDbText
 10
6.389419616724153
 20
-11.375
 30
0.0
 40
0.5
  1
2-19/32
100
AcDbAttributeDefinition
  3

  2
Z
 70
     8
280
     0
  0
ATTDEF
  5
239
330
218
100
AcDbEntity
  8
AM_6
100
AcDbText
 10
6.389419616724153
 20
-11.875
 30
0.0
 40
0.5
  1
baldor
100
AcDbAttributeDefinition
  3

  2
COMPANY
 70
     8
280
     0
  0
LWPOLYLINE
  5
23A
330
218
100
AcDbEntity
  8
AM_9
100
AcDbPolyline
 90
        3
 70
     0
 43
0.0
 10
0.4962997348487068
 20
-0.856524274510479
 10
0.499877461359098
 20
-0.9028311221161495
 10
0.4999999999999997
 20
-0.9131035714512852
  0
LWPOLYLINE
  5
23B
330
218
100
AcDbEntity
  8
AM_9
100
AcDbPolyline
 90
       27
 70
     0
 43
0.0
 10
-0.4790055637121377
 20
-0.7785966225600152
 10
-0.4735506105905921
 20
-0.7624482571459523
 10
-0.4531361857160461
 20
-0.7137071115866691
 10
-0.4270300829026297
 20
-0.6668052397643189
 10
-0.3956711805520434
 20
-0.6225207879618468
 10
-0.359628974151434
 20
-0.5817063664479346
 10
-0.3183812510330401
 20
-0.5442008707563868
 10
-0.2729743759732062
 20
-0.5111565696155096
 10
-0.2242361834785183
 20
-0.4832686379516744
 10
-0.1724411971554637
 20
-0.4609167782269339
 10
-0.1182228249716695
 20
-0.444382532933301
 10
-0.0626263829472446
 20
-0.4340533244805016
 10
-0.0072061834258026
 20
-0.4301914221273034
 10
0.0484843128186132
 20
-0.4325086070628534
 10
0.1033775327713542
 20
-0.4409502095660746
 10
0.1563943775280885
 20
-0.4553150970151348
 10
0.207635375199995
 20
-0.4753783292020495
 10
0.2561804574453302
 20
-0.500705429606591
 10
0.3021671587265829
 20
-0.531512079475242
 10
0.3445524520832842
 20
-0.5670593269369995
 10
0.3825839167136534
 20
-0.6066306083817414
 10
0.4163645220781753
 20
-0.6505789096467706
 10
0.4449852017647791
 20
-0.697773095982897
 10
0.4678932305739257
 20
-0.7472651399583754
 10
0.4846851184401798
 20
-0.7982423786463653
 10
0.49542086429576
 20
-0.8504456069942433
 10
0.4962997348487068
 20
-0.856524274510479
  0
LWPOLYLINE
  5
23C
330
218
100
AcDbEntity
  8
AM_9
100
AcDbPolyline
 90
        4
 70
     0
 43
0.0
 10
-0.5
 20
-0.9131035714512822
 10
-0.4971953856752409
 20
-0.8638551745717911
 10
-0.4883333626720004
 20
-0.8128186812572994
 10
-0.4790055637121377
 20
-0.7785966225600152
  0
ELLIPSE
  5
23D
330
218
100
AcDbEntity
  8
AM_9
100
AcDbEllipse
 10
0.000000000000002
 20
-0.9131035714512857
 30
0.0
 11
-0.500000000000002
 21
6.123233995736791E-17
 31
0.0
210
0.0
220
0.0
230
1.0
 40
0.9271838545667858
 41
3.141592653589793
 42
6.283185307179586
  0
ELLIPSE
  5
23E
330
218
100
AcDbEntity
  8
AM_9
100
AcDbEllipse
 10
-0.0000000000000001
 20
-0.9505642307928769
 30
0.0
 11
0.3999999999999999
 21
0.0
 31
0.0
210
0.0
220
0.0
230
1.0
 40
0.9271838545667875
 41
0.0
 42
6.283185307179586
  0
LINE
  5
23F
330
218
100
AcDbEntity
  8
AM_9
100
AcDbLine
 10
0.4999940396139889
 20
-0.9154038360221035
 30
0.0
 11
0.4999988075372233
 21
-0.9120746930460693
 31
0.0
  0
LWPOLYLINE
  5
240
330
218
100
AcDbEntity
  8
AM_9
100
AcDbPolyline
 90
       23
 70
     0
 43
0.0
 10
-0.0000000000000001
 20
-1.383977113278001
 10
0.0198373581226832
 20
-1.383606708815338
 10
0.0541583295396474
 20
-1.381209213292927
 10
0.0882347746533049
 20
-1.37659387722132
 10
0.1218998826631662
 20
-1.369781221134059
 10
0.1549930571848159
 20
-1.360802139670427
 10
0.1873560875903264
 20
-1.349698020599022
 10
0.218833919633976
 20
-1.336520655296733
 10
0.2492754491347496
 20
-1.321332100912783
 10
0.2785343351041824
 20
-1.30420448273831
 10
0.3064698266512635
 20
-1.285219724228934
 10
0.3329475931538893
 20
-1.264469192752516
 10
0.3578405423003497
 20
-1.242053251510343
 10
0.3810296063460248
 20
-1.218080712302094
 10
0.4024044740604112
 20
-1.192668189688562
 10
0.4218642450759989
 20
-1.165939364133588
 10
0.4393179851995648
 20
-1.138024169048616
 10
0.4546851658450797
 20
-1.109057923285962
 10
0.4678959777672257
 20
-1.079180435477039
 10
0.478891517929069
 20
-1.04853510883305
 10
0.4876238575038973
 20
-1.017268074146774
 10
0.4940560074365109
 20
-0.985527374774043
 10
0.4949550177219628
 20
-0.9798563101368558
  0
LWPOLYLINE
  5
241
330
218
100
AcDbEntity
  8
AM_9
100
AcDbPolyline
 90
       23
 70
     0
 43
0.0
 10
-0.4966754448586992
 20
-0.9673389494167395
 10
-0.495214170463725
 20
-0.9781277168945042
 10
-0.4893327572959264
 20
-1.009893469913087
 10
-0.4811601938347298
 20
-1.041199131489463
 10
-0.4707347085291581
 20
-1.071901218832804
 10
-0.4581041713413115
 20
-1.101858828159035
 10
-0.4433260221878758
 20
-1.130934067320378
 10
-0.4264672051501036
 20
-1.158992531913824
 10
-0.4076040856092417
 20
-1.185903832934071
 10
-0.3868223264200588
 20
-1.211542175845401
 10
-0.364216701272719
 20
-1.23578698296988
 10
-0.3398908281436089
 20
-1.258523544373738
 10
-0.3139568124302258
 20
-1.279643677832478
 10
-0.2865347969634172
 20
-1.299046376472094
 10
-0.2577524234698061
 20
-1.316638423388621
 10
-0.2277442162215736
 20
-1.332334955583276
 10
-0.1966509028610364
 20
-1.346059964229618
 10
-0.1646186894125209
 20
-1.357746723760417
 10
-0.1317985063678785
 20
-1.367338147682548
 10
-0.0983452408292839
 20
-1.37478707370978
 10
-0.0644169665610431
 20
-1.380056484293535
 10
-0.0301741800291503
 20
-1.383119670729138
 10
-0.0000000000000001
 20
-1.383977113278001
  0
LWPOLYLINE
  5
242
330
218
100
AcDbEntity
  8
AM_9
100
AcDbPolyline
 90
       29
 70
     0
 43
0.0
 10
0.4999999999999997
 20
-0.9131035714512852
 10
0.4973066555118894
 20
-0.9606774275980385
 10
0.4893202394230088
 20
-1.007457649292077
 10
0.4761811777965349
 20
-1.052696175008485
 10
0.4565127767048489
 20
-1.098918734207184
 10
0.4312953431482499
 20
-1.142638671803534
 10
0.4009973459310558
 20
-1.183141125961596
 10
0.3651934171695116
 20
-1.220697490943076
 10
0.3247436723041727
 20
-1.254387816548094
 10
0.2803763121832238
 20
-1.283683667176394
 10
0.2318802733500948
 20
-1.308583955337048
 10
0.1802179150898443
 20
-1.328628049298661
 10
0.1263656986984011
 20
-1.343481450942644
 10
0.0637201707103019
 20
-1.353803134567229
 10
-0.0000000000000001
 20
-1.357278453555008
 10
-0.0553831461081075
 20
-1.354634809677751
 10
-0.110235225909593
 20
-1.346792188987652
 10
-0.1635185088153407
 20
-1.333883057897224
 10
-0.2146753992900632
 20
-1.315951116873099
 10
-0.2633152089193542
 20
-1.293174242342639
 10
-0.308569956735862
 20
-1.265909965175511
 10
-0.3505250057662281
 20
-1.233827710590017
 10
-0.3882340554076808
 20
-1.197525092563301
 10
-0.4210112485895092
 20
-1.15757725339501
 10
-0.4487087229704581
 20
-1.113796861117146
 10
-0.470799004864656
 20
-1.066916729430234
 10
-0.4868393626015005
 20
-1.017769163457567
 10
-0.4966856110596034
 20
-0.9660444742167607
 10
-0.5
 20
-0.9131035714512822
  0
ELLIPSE
  5
243
330
218
100
AcDbEntity
  8
AM_9
100
AcDbEllipse
 10
-0.0000000000000001
 20
-0.9131035714512856
 30
0.0
 11
-0.5000000000000002
 21
6.123233995736769E-17
 31
0.0
210
0.0
220
0.0
230
1.0
 40
0.9271838545667875
 41
0.3495857025011597
 42
2.891250256997689
  0
LINE
  5
244
330
218
100
AcDbEntity
  8
AM_9
100
AcDbLine
 10
-0.815390625
 20
1.629800601300663
 30
0.0
 11
0.8153906249999994
 21
1.629800601300663
 31
0.0
  0
LINE
  5
245
330
218
100
AcDbEntity
  8
AM_9
100
AcDbLine
 10
0.8153906250000001
 20
-1.629800601300662
 30
0.0
 11
-0.8153906249999989
 21
-1.629800601300662
 31
0.0
  0
LINE
  5
246
330
218
100
AcDbEntity
  8
AM_9
100
AcDbLine
 10
-1.109375
 20
-1.9685
 30
0.0
 11
1.109375
 21
-1.9685
 31
0.0
  0
LINE
  5
247
330
218
100
AcDbEntity
  8
AM_9
100
AcDbLine
 10
1.109375
 20
1.9685
 30
0.0
 11
-1.109375
 21
1.9685
 31
0.0
  0
LINE
  5
248
330
218
100
AcDbEntity
  8
AM_9
100
AcDbLine
 10
1.109375
 20
0.836524943270008
 30
0.0
 11
1.109375
 21
-0.836524943270008
 31
0.0
  0
LINE
  5
249
330
218
100
AcDbEntity
  8
AM_9
100
AcDbLine
 10
0.9718750000000002
 20
0.9929480629483549
 30
0.0
 11
0.9718750000000002
 21
-0.9929480629483549
 31
0.0
  0
LINE
  5
24A
330
218
100
AcDbEntity
  8
AM_9
100
AcDbLine
 10
-0.9718749999999997
 20
0.9929480629483555
 30
0.0
 11
-0.9718749999999997
 21
-0.9929480629483555
 31
0.0
  0
LINE
  5
24B
330
218
100
AcDbEntity
  8
AM_9
100
AcDbLine
 10
-1.109375
 20
0.8365249432700086
 30
0.0
 11
-1.109375
 21
-0.8365249432700086
 31
0.0
  0
LINE
  5
24C
330
218
100
AcDbEntity
  8
AM_9
100
AcDbLine
 10
-0.8153906249999997
 20
1.010416666666667
 30
0.0
 11
0.8153906250000004
 21
1.010416666666667
 31
0.0
  0
LINE
  5
24D
330
218
100
AcDbEntity
  8
AM_9
100
AcDbLine
 10
-0.8153906249999997
 20
1.125
 30
0.0
 11
0.8153906250000004
 21
1.125
 31
0.0
  0
LINE
  5
24E
330
218
100
AcDbEntity
  8
AM_9
100
AcDbLine
 10
-0.8153906249999997
 20
1.125
 30
0.0
 11
-0.8153906249999997
 21
-1.125
 31
0.0
  0
LINE
  5
24F
330
218
100
AcDbEntity
  8
AM_9
100
AcDbLine
 10
0.8153906250000003
 20
-1.125
 30
0.0
 11
0.8153906250000003
 21
1.125
 31
0.0
  0
LINE
  5
250
330
218
100
AcDbEntity
  8
AM_9
100
AcDbLine
 10
-0.8153906249999997
 20
-1.010416666666667
 30
0.0
 11
0.8153906250000004
 21
-1.010416666666667
 31
0.0
  0
LINE
  5
251
330
218
100
AcDbEntity
  8
AM_9
100
AcDbLine
 10
-0.8153906249999997
 20
-1.125
 30
0.0
 11
0.8153906250000004
 21
-1.125
 31
0.0
  0
LINE
  5
252
330
218
100
AcDbEntity
  8
AM_7
100
AcDbLine
 10
0.0000000000000003
 20
-0.721875
 30
0.0
 11
0.0000000000000003
 21
0.721875
 31
0.0
  0
LINE
  5
253
330
218
100
AcDbEntity
  8
AM_4
100
AcDbLine
 10
0.9984375000000001
 20
1.625924357342983
 30
0.0
 11
0.9984375000000001
 21
2.625
 31
0.0
  0
LINE
  5
254
330
218
100
AcDbEntity
  8
AM_4
100
AcDbLine
 10
0.4062500000000002
 20
2.25
 30
0.0
 11
0.4062500000000001
 21
2.625
 31
0.0
  0
LINE
  5
255
330
218
100
AcDbEntity
  8
AM_4
100
AcDbLine
 10
0.4062500000000001
 20
2.625
 30
0.0
 11
0.9984375000000001
 21
2.625
 31
0.0
  0
LINE
  5
256
330
218
100
AcDbEntity
  8
AM_4
100
AcDbLine
 10
-0.4062499999999999
 20
2.625
 30
0.0
 11
-0.4062499999999999
 21
2.25
 31
0.0
  0
LINE
  5
257
330
218
100
AcDbEntity
  8
AM_4
100
AcDbLine
 10
-0.9984374999999999
 20
1.625924357342983
 30
0.0
 11
-0.9984374999999999
 21
2.625
 31
0.0
  0
LINE
  5
258
330
218
100
AcDbEntity
  8
AM_4
100
AcDbLine
 10
0.4062500000000002
 20
2.487499999999999
 30
0.0
 11
0.9984375000000001
 21
2.4875
 31
0.0
  0
LINE
  5
259
330
218
100
AcDbEntity
  8
AM_4
100
AcDbLine
 10
-0.4062499999999999
 20
2.25
 30
0.0
 11
0.4062500000000002
 21
2.25
 31
0.0
  0
LINE
  5
25A
330
218
100
AcDbEntity
  8
AM_4
100
AcDbLine
 10
-0.9984374999999999
 20
2.625
 30
0.0
 11
-0.4062499999999999
 21
2.625
 31
0.0
  0
LINE
  5
25B
330
218
100
AcDbEntity
  8
AM_4
100
AcDbLine
 10
-0.9984374999999999
 20
2.4875
 30
0.0
 11
-0.4062499999999999
 21
2.487499999999999
 31
0.0
  0
LINE
  5
25C
330
218
100
AcDbEntity
  8
AM_4
100
AcDbLine
 10
0.9984375000000001
 20
-2.625
 30
0.0
 11
0.9984375000000001
 21
-1.625924357342983
 31
0.0
  0
LINE
  5
25D
330
218
100
AcDbEntity
  8
AM_4
100
AcDbLine
 10
-0.9984374999999999
 20
-2.625
 30
0.0
 11
-0.9984374999999999
 21
-1.625924357342983
 31
0.0
  0
LINE
  5
25E
330
218
100
AcDbEntity
  8
AM_4
100
AcDbLine
 10
-0.4062499999999999
 20
-2.25
 30
0.0
 11
-0.4062499999999999
 21
-2.625
 31
0.0
  0
LINE
  5
25F
330
218
100
AcDbEntity
  8
AM_4
100
AcDbLine
 10
0.4062500000000002
 20
-2.25
 30
0.0
 11
-0.4062499999999999
 21
-2.25
 31
0.0
  0
LINE
  5
260
330
218
100
AcDbEntity
  8
AM_4
100
AcDbLine
 10
0.4062500000000001
 20
-2.625
 30
0.0
 11
0.4062500000000002
 21
-2.25
 31
0.0
  0
LINE
  5
261
330
218
100
AcDbEntity
  8
AM_4
100
AcDbLine
 10
-0.9984374999999999
 20
-2.487499999999999
 30
0.0
 11
-0.4062499999999999
 21
-2.487499999999999
 31
0.0
  0
LINE
  5
262
330
218
100
AcDbEntity
  8
AM_4
100
AcDbLine
 10
-0.9984374999999999
 20
-2.625
 30
0.0
 11
-0.4062499999999999
 21
-2.625
 31
0.0
  0
LINE
  5
263
330
218
100
AcDbEntity
  8
AM_4
100
AcDbLine
 10
0.4062500000000001
 20
-2.625
 30
0.0
 11
0.9984375000000001
 21
-2.625
 31
0.0
  0
LINE
  5
264
330
218
100
AcDbEntity
  8
AM_4
100
AcDbLine
 10
0.4062500000000002
 20
-2.487499999999999
 30
0.0
 11
0.9984375000000001
 21
-2.487499999999999
 31
0.0
  0
LWPOLYLINE
  5
265
330
218
100
AcDbEntity
  8
AM_4
100
AcDbPolyline
 90
        3
 70
     0
 43
0.0
 10
0.9718750000000002
 20
1.629800601300662
 10
0.9734384890424149
 20
1.629787306489936
 10
0.9984375000000001
 20
1.625924357342983
  0
LWPOLYLINE
  5
266
330
218
100
AcDbEntity
  8
AM_4
100
AcDbPolyline
 90
        3
 70
     0
 43
0.0
 10
0.9984375000000001
 20
-1.625924357342983
 10
0.9874827718381933
 20
-1.628471178845287
 10
0.9718750000000002
 20
-1.629800601300662
  0
LINE
  5
267
330
218
100
AcDbEntity
  8
AM_4
100
AcDbLine
 10
1.109375
 20
-0.836524943270008
 30
0.0
 11
1.109375
 21
-2.3
 31
0.0
  0
LINE
  5
268
330
218
100
AcDbEntity
  8
AM_4
100
AcDbLine
 10
1.109375
 20
2.3
 30
0.0
 11
1.109375
 21
0.836524943270008
 31
0.0
  0
ARC
  5
269
330
218
100
AcDbEntity
  8
AM_4
100
AcDbCircle
 10
0.9718749999999984
 20
-2.299999999999999
 30
0.0
 40
0.1375000000000015
100
AcDbArc
 50
281.1385300057715
 51
0.0
  0
ARC
  5
26A
330
218
100
AcDbEntity
  8
AM_4
100
AcDbCircle
 10
0.9718749999999994
 20
2.299999999999999
 30
0.0
 40
0.1375000000000006
100
AcDbArc
 50
0.0
 51
78.86146999422887
  0
LINE
  5
26B
330
218
100
AcDbEntity
  8
AM_4
100
AcDbLine
 10
0.8153906250000001
 20
-1.629800601300662
 30
0.0
 11
0.9718750000000002
 21
-1.629800601300662
 31
0.0
  0
LINE
  5
26C
330
218
100
AcDbEntity
  8
AM_4
100
AcDbLine
 10
0.9718750000000002
 20
-0.9929480629483549
 30
0.0
 11
0.9718750000000002
 21
-1.629800601300662
 31
0.0
  0
LINE
  5
26D
330
218
100
AcDbEntity
  8
AM_4
100
AcDbLine
 10
0.9718750000000002
 20
1.629800601300662
 30
0.0
 11
0.9718750000000002
 21
0.9929480629483549
 31
0.0
  0
LINE
  5
26E
330
218
100
AcDbEntity
  8
AM_4
100
AcDbLine
 10
0.9718750000000002
 20
1.629800601300662
 30
0.0
 11
0.8153906250000001
 21
1.629800601300662
 31
0.0
  0
LINE
  5
26F
330
218
100
AcDbEntity
  8
AM_4
100
AcDbLine
 10
-0.8153906249999997
 20
1.629800601300662
 30
0.0
 11
-0.9718749999999997
 21
1.629800601300663
 31
0.0
  0
LINE
  5
270
330
218
100
AcDbEntity
  8
AM_4
100
AcDbLine
 10
-0.9718749999999997
 20
-1.629800601300663
 30
0.0
 11
-0.8153906249999997
 21
-1.629800601300662
 31
0.0
  0
LWPOLYLINE
  5
271
330
218
100
AcDbEntity
  8
AM_4
100
AcDbPolyline
 90
        3
 70
     0
 43
0.0
 10
-0.9718749999999997
 20
-1.629800601300663
 10
-0.9874827718381931
 20
-1.628471178845287
 10
-0.9984374999999999
 20
-1.625924357342983
  0
LINE
  5
272
330
218
100
AcDbEntity
  8
AM_4
100
AcDbLine
 10
-0.9718749999999997
 20
-0.9929480629483555
 30
0.0
 11
-0.9718749999999997
 21
-1.629800601300663
 31
0.0
  0
LINE
  5
273
330
218
100
AcDbEntity
  8
AM_4
100
AcDbLine
 10
-0.9718749999999997
 20
1.629800601300663
 30
0.0
 11
-0.9718749999999997
 21
0.9929480629483555
 31
0.0
  0
LWPOLYLINE
  5
274
330
218
100
AcDbEntity
  8
AM_4
100
AcDbPolyline
 90
        3
 70
     0
 43
0.0
 10
-0.9984374999999999
 20
1.625924357342983
 10
-0.9796125773484342
 20
1.629474722806315
 10
-0.9718749999999997
 20
1.629800601300663
  0
LINE
  5
275
330
218
100
AcDbEntity
  8
AM_4
100
AcDbLine
 10
-1.109375
 20
-0.8365249432700086
 30
0.0
 11
-1.109375
 21
-2.299999999999999
 31
0.0
  0
LINE
  5
276
330
218
100
AcDbEntity
  8
AM_4
100
AcDbLine
 10
-1.109375
 20
2.299999999999999
 30
0.0
 11
-1.109375
 21
0.8365249432700086
 31
0.0
  0
ARC
  5
277
330
218
100
AcDbEntity
  8
AM_4
100
AcDbCircle
 10
-0.9718749999999994
 20
-2.299999999999999
 30
0.0
 40
0.1375000000000006
100
AcDbArc
 50
180.0
 51
258.8614699942288
  0
ARC
  5
278
330
218
100
AcDbEntity
  8
AM_4
100
AcDbCircle
 10
-0.9718749999999994
 20
2.299999999999999
 30
0.0
 40
0.1375000000000009
100
AcDbArc
 50
101.1385300057712
 51
180.0
  0
LINE
  5
279
330
218
100
AcDbEntity
  8
AM_4
100
AcDbLine
 10
-0.8153906249999997
 20
1.8
 30
0.0
 11
-0.8153906249999997
 21
1.125
 31
0.0
  0
LINE
  5
27A
330
218
100
AcDbEntity
  8
AM_4
100
AcDbLine
 10
-0.8153906249999997
 20
-1.125
 30
0.0
 11
-0.8153906249999997
 21
-1.8
 31
0.0
  0
LINE
  5
27B
330
218
100
AcDbEntity
  8
AM_4
100
AcDbLine
 10
0.8153906250000001
 20
-1.8
 30
0.0
 11
0.8153906250000003
 21
-1.125
 31
0.0
  0
LINE
  5
27C
330
218
100
AcDbEntity
  8
AM_4
100
AcDbLine
 10
0.8153906250000003
 20
1.125
 30
0.0
 11
0.8153906250000003
 21
1.8
 31
0.0
  0
ARC
  5
27D
330
218
100
AcDbEntity
  8
AM_4
100
AcDbCircle
 10
0.6778906250000001
 20
1.8
 30
0.0
 40
0.1375000000000002
100
AcDbArc
 50
0.0
 51
90.0
  0
LINE
  5
27E
330
218
100
AcDbEntity
  8
AM_4
100
AcDbLine
 10
0.6778906250000004
 20
1.9375
 30
0.0
 11
-0.6778906249999997
 21
1.9375
 31
0.0
  0
CIRCLE
  5
27F
330
218
100
AcDbEntity
  8
AM_4
100
AcDbCircle
 10
0.0000000000000003
 20
0.0
 30
0.0
 40
0.6875
  0
ARC
  5
280
330
218
100
AcDbEntity
  8
AM_4
100
AcDbCircle
 10
-0.0000000000000004
 20
0.0
 30
0.0
 40
1.389419616724152
100
AcDbArc
 50
125.9342870110545
 51
234.0657129889455
  0
ARC
  5
281
330
218
100
AcDbEntity
  8
AM_4
100
AcDbCircle
 10
-0.6778906249999999
 20
-1.8
 30
0.0
 40
0.1374999999999998
100
AcDbArc
 50
180.0
 51
270.0
  0
LINE
  5
282
330
218
100
AcDbEntity
  8
AM_4
100
AcDbLine
 10
-0.6778906249999999
 20
-1.9375
 30
0.0
 11
0.6778906250000003
 21
-1.9375
 31
0.0
  0
ARC
  5
283
330
218
100
AcDbEntity
  8
AM_4
100
AcDbCircle
 10
0.6778906249999999
 20
-1.8
 30
0.0
 40
0.1375
100
AcDbArc
 50
270.0
 51
0.0
  0
ARC
  5
284
330
218
100
AcDbEntity
  8
AM_4
100
AcDbCircle
 10
0.0000000000000009
 20
0.0
 30
0.0
 40
1.389419616724152
100
AcDbArc
 50
305.9342870110545
 51
54.06571298894549
  0
ARC
  5
285
330
218
100
AcDbEntity
  8
AM_4
100
AcDbCircle
 10
-0.6778906249999994
 20
1.8
 30
0.0
 40
0.1375
100
AcDbArc
 50
90.0
 51
180.0
  0
ENDBLK
  5
21B
330
218
100
AcDbEntity
  8
0
100
AcDbBlockEnd
  0
ENDSEC
  0
SECTION
  2
ENTITIES
  0
INSERT
  5
6F
330
1F
100
AcDbEntity
  8
0
100
AcDbBlockReference
  2
1_069380_2
 10
0.0
 20
0.0
 30
0.0
  0
POINT
  5
287
330
1F
100
AcDbEntity
  8
ConnectionPoints
100
AcDbPoint
 10
-1.684375
 20
-1.482638888888889
 30
0.0000000000000001
  0
POINT
  5
288
330
1F
100
AcDbEntity
  8
ConnectionPoints
100
AcDbPoint
 10
-1.684375
 20
1.482638888888889
 30
0.0000000000000001
  0
POINT
  5
289
330
1F
100
AcDbEntity
  8
ConnectionPoints
100
AcDbPoint
 10
-1.614375
 20
0.0
 30
0.0000000000000001
  0
POINT
  5
28A
330
1F
100
AcDbEntity
  8
ConnectionPoints
100
AcDbPoint
 10
-1.859375
 20
0.0
 30
0.0000000000000001
  0
POINT
  5
28B
330
1F
100
AcDbEntity
  8
ConnectionPoints
100
AcDbPoint
 10
-1.813375
 20
0.0
 30
0.0000000000000001
  0
POINT
  5
28C
330
1F
100
AcDbEntity
  8
ConnectionPoints
100
AcDbPoint
 10
-1.614375
 20
1.482638888888889
 30
0.0000000000000001
  0
POINT
  5
28D
330
1F
100
AcDbEntity
  8
ConnectionPoints
100
AcDbPoint
 10
-1.758375
 20
1.482638888888889
 30
0.0000000000000001
  0
POINT
  5
28E
330
1F
100
AcDbEntity
  8
ConnectionPoints
100
AcDbPoint
 10
-1.614375
 20
-1.482638888888889
 30
0.0000000000000001
  0
POINT
  5
28F
330
1F
100
AcDbEntity
  8
ConnectionPoints
100
AcDbPoint
 10
-1.758375
 20
-1.482638888888889
 30
0.0000000000000001
  0
POINT
  5
290
330
1F
100
AcDbEntity
  8
ConnectionPoints
100
AcDbPoint
 10
-1.614375
 20
0.0
 30
0.0000000000000001
  0
POINT
  5
291
330
1F
100
AcDbEntity
  8
ConnectionPoints
100
AcDbPoint
 10
-0.0000000000000001
 20
-0.9505642307928769
 30
-2.352729030963223
  0
POINT
  5
292
330
1F
100
AcDbEntity
  8
ConnectionPoints
100
AcDbPoint
 10
-1.859375
 20
0.0
 30
0.0000000000000001
  0
POINT
  5
293
330
1F
100
AcDbEntity
  8
ConnectionPoints
100
AcDbPoint
 10
-2.109375
 20
0.0
 30
0.0000000000000001
  0
ENDSEC
  0
SECTION
  2
OBJECTS
  0
DICTIONARY
  5
C
330
0
100
AcDbDictionary
281
     1
  3
ACAD_DETAILVIEWSTYLE
350
29B
  3
ACAD_GROUP
350
D
  3
ACAD_LAYOUT
350
1A
  3
ACAD_MATERIAL
350
43
  3
ACAD_MLEADERSTYLE
350
6B
  3
ACAD_MLINESTYLE
350
17
  3
ACAD_PLOTSETTINGS
350
19
  3
ACAD_PLOTSTYLENAME
350
E
  3
ACAD_SCALELIST
350
47
  3
ACAD_SECTIONVIEWSTYLE
350
29C
  3
ACAD_TABLESTYLE
350
69
  3
ACAD_VISUALSTYLE
350
2A
  3
ACDB_RECOMPOSE_DATA
350
298
  3
AcDbVariableDictionary
350
294
  0
SUN
  5
6D
330
29
100
AcDbSun
 90
        1
290
     0
 63
     7
421
 16777215
 40
1.0
291
     1
 91
  2455826
 92
 54000000
292
     0
 70
     2
 71
   256
280
     1
  0
DICTIONARY
  5
29B
102
{ACAD_REACTORS
330
C
102
}
330
C
100
AcDbDictionary
281
     1
  0
DICTIONARY
  5
D
102
{ACAD_REACTORS
330
C
102
}
330
C
100
AcDbDictionary
281
     1
  0
DICTIONARY
  5
1A
102
{ACAD_REACTORS
330
C
102
}
330
C
100
AcDbDictionary
281
     1
  3
Layout1
350
1E
  3
Layout2
350
26
  3
Model
350
22
  0
DICTIONARY
  5
43
102
{ACAD_REACTORS
330
C
102
}
330
C
100
AcDbDictionary
281
     1
  3
ByBlock
350
45
  3
ByLayer
350
44
  3
Global
350
46
  0
DICTIONARY
  5
6B
102
{ACAD_REACTORS
330
C
102
}
330
C
100
AcDbDictionary
281
     1
  3
Standard
350
6C
  0
DICTIONARY
  5
17
102
{ACAD_REACTORS
330
C
102
}
330
C
100
AcDbDictionary
281
     1
  3
Standard
350
18
  0
DICTIONARY
  5
19
102
{ACAD_REACTORS
330
C
102
}
330
C
100
AcDbDictionary
281
     1
  0
ACDBDICTIONARYWDFLT
  5
E
102
{ACAD_REACTORS
330
C
102
}
330
C
100
AcDbDictionary
281
     1
  3
Normal
350
F
100
AcDbDictionaryWithDefault
340
F
  0
DICTIONARY
  5
47
102
{ACAD_REACTORS
330
C
102
}
330
C
100
AcDbDictionary
281
     1
  3
A0
350
48
  3
A1
350
49
  3
A2
350
4A
  3
A3
350
4B
  3
A4
350
4C
  3
A5
350
4D
  3
A6
350
4E
  3
A7
350
4F
  3
A8
350
50
  3
A9
350
51
  3
B0
350
52
  3
B1
350
53
  3
B2
350
54
  3
B3
350
55
  3
B4
350
56
  3
B5
350
57
  3
B6
350
58
  3
B7
350
59
  3
B8
350
5A
  3
B9
350
5B
  3
C0
350
5C
  3
C1
350
5D
  3
C2
350
5E
  3
C3
350
5F
  3
C4
350
60
  3
C5
350
61
  3
C6
350
62
  3
C7
350
63
  3
C8
350
64
  3
C9
350
65
  3
D0
350
66
  3
D1
350
67
  3
D2
350
68
  0
DICTIONARY
  5
29C
102
{ACAD_REACTORS
330
C
102
}
330
C
100
AcDbDictionary
281
     1
  0
DICTIONARY
  5
69
102
{ACAD_REACTORS
330
C
102
}
330
C
100
AcDbDictionary
281
     1
  3
Standard
350
6A
  0
DICTIONARY
  5
2A
102
{ACAD_REACTORS
330
C
102
}
330
C
100
AcDbDictionary
281
     1
  3
2dWireframe
350
2F
  3
Basic
350
32
  3
Brighten
350
36
  3
ColorChange
350
3A
  3
Conceptual
350
34
  3
Dim
350
35
  3
EdgeColorOff
350
3D
  3
Facepattern
350
39
  3
Flat
350
2B
  3
FlatWithEdges
350
2C
  3
Gouraud
350
2D
  3
GouraudWithEdges
350
2E
  3
Hidden
350
31
  3
JitterOff
350
3B
  3
Linepattern
350
38
  3
OverhangOff
350
3C
  3
Realistic
350
33
  3
Shaded
350
42
  3
Shaded with edges
350
41
  3
Shades of Gray
350
3E
  3
Sketchy
350
3F
  3
Thicken
350
37
  3
Wireframe
350
30
  3
X-Ray
350
40
  0
XRECORD
  5
298
102
{ACAD_REACTORS
330
C
102
}
330
C
100
AcDbXrecord
280
     1
 90
        1
330
6A
  0
DICTIONARY
  5
294
102
{ACAD_REACTORS
330
C
102
}
330
C
100
AcDbDictionary
281
     1
  3
CANNOSCALE
350
295
  3
CMLEADERSTYLE
350
29A
  3
CTABLESTYLE
350
299
  0
LAYOUT
  5
1E
102
{ACAD_REACTORS
330
1A
102
}
330
1A
100
AcDbPlotSettings
  1

  2
none_device
  4

  6

 40
0.0
 41
0.0
 42
0.0
 43
0.0
 44
0.0
 45
0.0
 46
0.0
 47
0.0
 48
0.0
 49
0.0
140
0.0
141
0.0
142
1.0
143
1.0
 70
   688
 72
     0
 73
     0
 74
     5
  7

 75
    16
 76
     0
 77
     2
 78
   300
147
1.0
148
0.0
149
0.0
100
AcDbLayout
  1
Layout1
 70
     1
 71
     1
 10
0.0
 20
0.0
 11
12.0
 21
9.0
 12
0.0
 22
0.0
 32
0.0
 14
1.000000000000000E+20
 24
1.000000000000000E+20
 34
1.000000000000000E+20
 15
-1.000000000000000E+20
 25
-1.000000000000000E+20
 35
-1.000000000000000E+20
146
0.0
 13
0.0
 23
0.0
 33
0.0
 16
1.0
 26
0.0
 36
0.0
 17
0.0
 27
1.0
 37
0.0
 76
     0
330
1B
  0
LAYOUT
  5
26
102
{ACAD_REACTORS
330
1A
102
}
330
1A
100
AcDbPlotSettings
  1

  2
none_device
  4

  6

 40
0.0
 41
0.0
 42
0.0
 43
0.0
 44
0.0
 45
0.0
 46
0.0
 47
0.0
 48
0.0
 49
0.0
140
0.0
141
0.0
142
1.0
143
1.0
 70
   688
 72
     0
 73
     0
 74
     5
  7

 75
    16
 76
     0
 77
     2
 78
   300
147
1.0
148
0.0
149
0.0
100
AcDbLayout
  1
Layout2
 70
     1
 71
     2
 10
0.0
 20
0.0
 11
0.0
 21
0.0
 12
0.0
 22
0.0
 32
0.0
 14
0.0
 24
0.0
 34
0.0
 15
0.0
 25
0.0
 35
0.0
146
0.0
 13
0.0
 23
0.0
 33
0.0
 16
1.0
 26
0.0
 36
0.0
 17
0.0
 27
1.0
 37
0.0
 76
     0
330
23
  0
LAYOUT
  5
22
102
{ACAD_REACTORS
330
1A
102
}
330
1A
100
AcDbPlotSettings
  1

  2
none_device
  4
Letter_(8.50_x_11.00_Inches)
  6

 40
6.35
 41
6.35
 42
6.35000508
 43
6.35000508
 44
215.9
 45
279.4
 46
0.0
 47
0.0
 48
0.0
 49
0.0
140
0.0
141
0.0
142
1.0
143
1.0
 70
  1712
 72
     0
 73
     0
 74
     0
  7

 75
     0
 76
     0
 77
     2
 78
   300
147
1.0
148
0.0
149
0.0
100
AcDbLayout
  1
Model
 70
     1
 71
     0
 10
0.0
 20
0.0
 11
12.0
 21
9.0
 12
0.0
 22
0.0
 32
0.0
 14
1.000000000000000E+20
 24
1.000000000000000E+20
 34
1.000000000000000E+20
 15
-1.000000000000000E+20
 25
-1.000000000000000E+20
 35
-1.000000000000000E+20
146
0.0
 13
0.0
 23
0.0
 33
0.0
 16
1.0
 26
0.0
 36
0.0
 17
0.0
 27
1.0
 37
0.0
 76
     0
330
1F
331
29
  0
MATERIAL
  5
45
102
{ACAD_REACTORS
330
43
102
}
330
43
100
AcDbMaterial
  1
ByBlock
 72
     1
 94
      127
  0
MATERIAL
  5
44
102
{ACAD_REACTORS
330
43
102
}
330
43
100
AcDbMaterial
  1
ByLayer
 72
     1
 94
      127
  0
MATERIAL
  5
46
102
{ACAD_REACTORS
330
43
102
}
330
43
100
AcDbMaterial
  1
Global
 72
     1
 94
      127
  0
MLEADERSTYLE
  5
6C
102
{ACAD_REACTORS
330
6B
102
}
330
6B
100
AcDbMLeaderStyle
179
     2
170
     2
171
     1
172
     0
 90
        2
 40
0.0
 41
0.0
173
     1
 91
-1056964608
340
14
 92
       -2
290
     1
 42
0.09
291
     1
 43
0.36
  3
Standard
341
0
 44
0.18
300

342
11
174
     1
178
     6
175
     1
176
     0
 93
-1056964608
 45
0.18
292
     0
297
     0
 46
0.18
343
0
 94
-1056964608
 47
1.0
 49
1.0
140
1.0
293
     1
141
0.0
294
     1
177
     0
142
1.0
295
     0
296
     0
143
0.125
271
     0
272
     9
273
     9
298
     0
  0
MLINESTYLE
  5
18
102
{ACAD_REACTORS
330
17
102
}
330
17
100
AcDbMlineStyle
  2
Standard
 70
     0
  3

 62
   256
 51
90.0
 52
90.0
 71
     2
 49
0.5
 62
   256
  6
BYLAYER
 49
-0.5
 62
   256
  6
BYLAYER
  0
ACDBPLACEHOLDER
  5
F
102
{ACAD_REACTORS
330
E
102
}
330
E
  0
SCALE
  5
48
102
{ACAD_REACTORS
330
47
102
}
330
47
100
AcDbScale
 70
     0
300
1:1
140
1.0
141
1.0
290
     1
  0
SCALE
  5
49
102
{ACAD_REACTORS
330
47
102
}
330
47
100
AcDbScale
 70
     0
300
1:2
140
1.0
141
2.0
290
     0
  0
SCALE
  5
4A
102
{ACAD_REACTORS
330
47
102
}
330
47
100
AcDbScale
 70
     0
300
1:4
140
1.0
141
4.0
290
     0
  0
SCALE
  5
4B
102
{ACAD_REACTORS
330
47
102
}
330
47
100
AcDbScale
 70
     0
300
1:5
140
1.0
141
5.0
290
     0
  0
SCALE
  5
4C
102
{ACAD_REACTORS
330
47
102
}
330
47
100
AcDbScale
 70
     0
300
1:8
140
1.0
141
8.0
290
     0
  0
SCALE
  5
4D
102
{ACAD_REACTORS
330
47
102
}
330
47
100
AcDbScale
 70
     0
300
1:10
140
1.0
141
10.0
290
     0
  0
SCALE
  5
4E
102
{ACAD_REACTORS
330
47
102
}
330
47
100
AcDbScale
 70
     0
300
1:16
140
1.0
141
16.0
290
     0
  0
SCALE
  5
4F
102
{ACAD_REACTORS
330
47
102
}
330
47
100
AcDbScale
 70
     0
300
1:20
140
1.0
141
20.0
290
     0
  0
SCALE
  5
50
102
{ACAD_REACTORS
330
47
102
}
330
47
100
AcDbScale
 70
     0
300
1:30
140
1.0
141
30.0
290
     0
  0
SCALE
  5
51
102
{ACAD_REACTORS
330
47
102
}
330
47
100
AcDbScale
 70
     0
300
1:40
140
1.0
141
40.0
290
     0
  0
SCALE
  5
52
102
{ACAD_REACTORS
330
47
102
}
330
47
100
AcDbScale
 70
     0
300
1:50
140
1.0
141
50.0
290
     0
  0
SCALE
  5
53
102
{ACAD_REACTORS
330
47
102
}
330
47
100
AcDbScale
 70
     0
300
1:100
140
1.0
141
100.0
290
     0
  0
SCALE
  5
54
102
{ACAD_REACTORS
330
47
102
}
330
47
100
AcDbScale
 70
     0
300
2:1
140
2.0
141
1.0
290
     0
  0
SCALE
  5
55
102
{ACAD_REACTORS
330
47
102
}
330
47
100
AcDbScale
 70
     0
300
4:1
140
4.0
141
1.0
290
     0
  0
SCALE
  5
56
102
{ACAD_REACTORS
330
47
102
}
330
47
100
AcDbScale
 70
     0
300
8:1
140
8.0
141
1.0
290
     0
  0
SCALE
  5
57
102
{ACAD_REACTORS
330
47
102
}
330
47
100
AcDbScale
 70
     0
300
10:1
140
10.0
141
1.0
290
     0
  0
SCALE
  5
58
102
{ACAD_REACTORS
330
47
102
}
330
47
100
AcDbScale
 70
     0
300
100:1
140
100.0
141
1.0
290
     0
  0
SCALE
  5
59
102
{ACAD_REACTORS
330
47
102
}
330
47
100
AcDbScale
 70
     0
300
1/128" = 1'-0"
140
0.0078125
141
12.0
290
     0
  0
SCALE
  5
5A
102
{ACAD_REACTORS
330
47
102
}
330
47
100
AcDbScale
 70
     0
300
1/64" = 1'-0"
140
0.015625
141
12.0
290
     0
  0
SCALE
  5
5B
102
{ACAD_REACTORS
330
47
102
}
330
47
100
AcDbScale
 70
     0
300
1/32" = 1'-0"
140
0.03125
141
12.0
290
     0
  0
SCALE
  5
5C
102
{ACAD_REACTORS
330
47
102
}
330
47
100
AcDbScale
 70
     0
300
1/16" = 1'-0"
140
0.0625
141
12.0
290
     0
  0
SCALE
  5
5D
102
{ACAD_REACTORS
330
47
102
}
330
47
100
AcDbScale
 70
     0
300
3/32" = 1'-0"
140
0.09375
141
12.0
290
     0
  0
SCALE
  5
5E
102
{ACAD_REACTORS
330
47
102
}
330
47
100
AcDbScale
 70
     0
300
1/8" = 1'-0"
140
0.125
141
12.0
290
     0
  0
SCALE
  5
5F
102
{ACAD_REACTORS
330
47
102
}
330
47
100
AcDbScale
 70
     0
300
3/16" = 1'-0"
140
0.1875
141
12.0
290
     0
  0
SCALE
  5
60
102
{ACAD_REACTORS
330
47
102
}
330
47
100
AcDbScale
 70
     0
300
1/4" = 1'-0"
140
0.25
141
12.0
290
     0
  0
SCALE
  5
61
102
{ACAD_REACTORS
330
47
102
}
330
47
100
AcDbScale
 70
     0
300
3/8" = 1'-0"
140
0.375
141
12.0
290
     0
  0
SCALE
  5
62
102
{ACAD_REACTORS
330
47
102
}
330
47
100
AcDbScale
 70
     0
300
1/2" = 1'-0"
140
0.5
141
12.0
290
     0
  0
SCALE
  5
63
102
{ACAD_REACTORS
330
47
102
}
330
47
100
AcDbScale
 70
     0
300
3/4" = 1'-0"
140
0.75
141
12.0
290
     0
  0
SCALE
  5
64
102
{ACAD_REACTORS
330
47
102
}
330
47
100
AcDbScale
 70
     0
300
1" = 1'-0"
140
1.0
141
12.0
290
     0
  0
SCALE
  5
65
102
{ACAD_REACTORS
330
47
102
}
330
47
100
AcDbScale
 70
     0
300
1-1/2" = 1'-0"
140
1.5
141
12.0
290
     0
  0
SCALE
  5
66
102
{ACAD_REACTORS
330
47
102
}
330
47
100
AcDbScale
 70
     0
300
3" = 1'-0"
140
3.0
141
12.0
290
     0
  0
SCALE
  5
67
102
{ACAD_REACTORS
330
47
102
}
330
47
100
AcDbScale
 70
     0
300
6" = 1'-0"
140
6.0
141
12.0
290
     0
  0
SCALE
  5
68
102
{ACAD_REACTORS
330
47
102
}
330
47
100
AcDbScale
 70
     0
300
1'-0" = 1'-0"
140
12.0
141
12.0
290
     0
  0
TABLESTYLE
  5
6A
102
{ACAD_REACTORS
330
69
102
}
102
{ACAD_XDICTIONARY
360
296
102
}
330
69
100
AcDbTableStyle
  3
Standard
 70
     0
 71
     0
 40
0.06
 41
0.06
280
     0
281
     0
  7
Standard
140
0.18
170
     2
 62
     0
 63
   257
283
     0
 90
        4
 91
        0
  1

274
    -2
284
     1
 64
     0
275
    -2
285
     1
 65
     0
276
    -2
286
     1
 66
     0
277
    -2
287
     1
 67
     0
278
    -2
288
     1
 68
     0
279
    -2
289
     1
 69
     0
  7
Standard
140
0.25
170
     5
 62
     0
 63
   257
283
     0
 90
        4
 91
        0
  1

274
    -2
284
     1
 64
     0
275
    -2
285
     1
 65
     0
276
    -2
286
     1
 66
     0
277
    -2
287
     1
 67
     0
278
    -2
288
     1
 68
     0
279
    -2
289
     1
 69
     0
  7
Standard
140
0.18
170
     5
 62
     0
 63
   257
283
     0
 90
        4
 91
        0
  1

274
    -2
284
     1
 64
     0
275
    -2
285
     1
 65
     0
276
    -2
286
     1
 66
     0
277
    -2
287
     1
 67
     0
278
    -2
288
     1
 68
     0
279
    -2
289
     1
 69
     0
  0
VISUALSTYLE
  5
2F
102
{ACAD_REACTORS
330
2A
102
}
330
2A
100
AcDbVisualStyle
  2
2dWireframe
 70
     4
177
     3
291
     0
 70
    58
 90
        0
176
     1
 90
        2
176
     1
 90
        0
176
     1
 90
        0
176
     1
 40
0.6
176
     1
 40
30.0
176
     1
 62
     7
420
 16777215
176
     1
 90
        1
176
     1
 90
        4
176
     1
 62
     7
176
     1
 62
   257
176
     1
 90
        1
176
     1
 90
        1
176
     1
 40
1.0
176
     1
 90
        0
176
     1
 62
   257
176
     1
 40
1.0
176
     1
 90
        1
176
     1
 90
        6
176
     1
 90
        2
176
     1
 62
     7
176
     1
 90
        5
176
     1
 90
        0
176
     1
 90
        0
176
     1
290
     0
176
     1
 90
        1
176
     1
 40
0.0
176
     1
 90
        0
176
     1
290
     1
176
     1
290
     1
176
     1
290
     0
176
     1
290
     0
176
     1
290
     0
176
     1
290
     0
176
     1
290
     0
176
     1
290
     0
176
     1
290
     0
176
     1
 90
       50
176
     1
 40
0.0
176
     1
 40
1.0
176
     1
 90
        0
176
     1
 62
    18
420
        0
176
     1
 90
       50
176
     1
 90
        3
176
     1
 62
     5
420
      255
176
     1
290
     0
176
     1
 90
       50
176
     1
 90
       50
176
     1
 90
       50
176
     1
290
     0
176
     1
 90
       50
176
     1
 62
   256
176
     0
 40
1.0
176
     0
 90
        2
176
     1
  1
strokes_ogs.tif
176
     1
290
     0
176
     1
 40
1.0
176
     1
 40
1.0
176
     1
  0
VISUALSTYLE
  5
32
102
{ACAD_REACTORS
330
2A
102
}
330
2A
100
AcDbVisualStyle
  2
Basic
 70
     7
177
     3
291
     1
 70
    58
 90
        1
176
     1
 90
        0
176
     1
 90
        1
176
     1
 90
        0
176
     1
 40
0.6
176
     1
 40
30.0
176
     1
 62
     7
420
 16777215
176
     1
 90
        0
176
     1
 90
        4
176
     1
 62
     7
176
     1
 62
   257
176
     1
 90
        1
176
     1
 90
        1
176
     1
 40
1.0
176
     1
 90
        8
176
     1
 62
     7
176
     1
 40
1.0
176
     1
 90
        1
176
     1
 90
        6
176
     1
 90
        2
176
     1
 62
     7
176
     1
 90
        5
176
     1
 90
        0
176
     1
 90
        0
176
     1
290
     0
176
     1
 90
        1
176
     1
 40
0.0
176
     1
 90
        0
176
     1
290
     0
176
     1
290
     1
176
     1
290
     1
176
     1
290
     0
176
     1
290
     0
176
     1
290
     0
176
     1
290
     0
176
     1
290
     0
176
     1
290
     0
176
     1
 90
       50
176
     1
 40
0.0
176
     1
 40
1.0
176
     1
 90
        0
176
     1
 62
    18
420
        0
176
     1
 90
       50
176
     1
 90
        3
176
     1
 62
     5
420
      255
176
     1
290
     0
176
     1
 90
       50
176
     1
 90
       50
176
     1
 90
       50
176
     1
290
     0
176
     1
 90
       50
176
     1
 62
   256
176
     0
 40
1.0
176
     0
 90
        2
176
     1
  1
strokes_ogs.tif
176
     1
290
     0
176
     1
 40
1.0
176
     1
 40
1.0
176
     1
  0
VISUALSTYLE
  5
36
102
{ACAD_REACTORS
330
2A
102
}
330
2A
100
AcDbVisualStyle
  2
Brighten
 70
    12
177
     3
291
     1
 70
    58
 90
        2
176
     1
 90
        2
176
     1
 90
        0
176
     1
 90
        0
176
     1
 40
0.6
176
     1
 40
30.0
176
     1
 62
     7
420
 16777215
176
     1
 90
        1
176
     1
 90
        4
176
     1
 62
     7
176
     1
 62
   257
176
     1
 90
        1
176
     1
 90
        1
176
     1
 40
1.0
176
     1
 90
        8
176
     1
 62
     7
176
     1
 40
1.0
176
     1
 90
        1
176
     1
 90
        6
176
     1
 90
        2
176
     1
 62
     7
176
     1
 90
        5
176
     1
 90
        0
176
     1
 90
        0
176
     1
290
     0
176
     1
 90
        1
176
     1
 40
50.0
176
     1
 90
        0
176
     1
290
     0
176
     1
290
     1
176
     1
290
     1
176
     1
290
     0
176
     1
290
     0
176
     1
290
     0
176
     1
290
     0
176
     1
290
     0
176
     1
290
     0
176
     1
 90
       50
176
     1
 40
0.0
176
     1
 40
1.0
176
     1
 90
        0
176
     1
 62
    18
420
        0
176
     1
 90
       50
176
     1
 90
        3
176
     1
 62
     5
420
      255
176
     1
290
     0
176
     1
 90
       50
176
     1
 90
       50
176
     1
 90
       50
176
     1
290
     0
176
     1
 90
       50
176
     1
 62
   256
176
     0
 40
1.0
176
     0
 90
        2
176
     1
  1
strokes_ogs.tif
176
     1
290
     0
176
     1
 40
1.0
176
     1
 40
1.0
176
     1
  0
VISUALSTYLE
  5
3A
102
{ACAD_REACTORS
330
2A
102
}
330
2A
100
AcDbVisualStyle
  2
ColorChange
 70
    16
177
     3
291
     1
 70
    58
 90
        2
176
     1
 90
        2
176
     1
 90
        3
176
     1
 90
        0
176
     1
 40
0.6
176
     1
 40
30.0
176
     1
 62
     8
420
  8421504
176
     1
 90
        1
176
     1
 90
        4
176
     1
 62
     7
176
     1
 62
   257
176
     1
 90
        1
176
     1
 90
        1
176
     1
 40
1.0
176
     1
 90
        8
176
     1
 62
     8
420
  8421504
176
     1
 40
1.0
176
     1
 90
        1
176
     1
 90
        6
176
     1
 90
        2
176
     1
 62
     7
176
     1
 90
        5
176
     1
 90
        0
176
     1
 90
        0
176
     1
290
     0
176
     1
 90
        1
176
     1
 40
0.0
176
     1
 90
        0
176
     1
290
     0
176
     1
290
     1
176
     1
290
     1
176
     1
290
     0
176
     1
290
     0
176
     1
290
     0
176
     1
290
     0
176
     1
290
     0
176
     1
290
     0
176
     1
 90
       50
176
     1
 40
0.0
176
     1
 40
1.0
176
     1
 90
        0
176
     1
 62
    18
420
        0
176
     1
 90
       50
176
     1
 90
        3
176
     1
 62
     5
420
      255
176
     1
290
     0
176
     1
 90
       50
176
     1
 90
       50
176
     1
 90
       50
176
     1
290
     0
176
     1
 90
       50
176
     1
 62
   256
176
     0
 40
1.0
176
     0
 90
        2
176
     1
  1
strokes_ogs.tif
176
     1
290
     0
176
     1
 40
1.0
176
     1
 40
1.0
176
     1
  0
VISUALSTYLE
  5
34
102
{ACAD_REACTORS
330
2A
102
}
330
2A
100
AcDbVisualStyle
  2
Conceptual
 70
     9
177
     3
291
     0
 70
    58
 90
        3
176
     1
 90
        2
176
     1
 90
        0
176
     1
 90
        0
176
     1
 40
0.6
176
     1
 40
30.0
176
     1
 62
     7
420
 16777215
176
     1
 90
        2
176
     1
 90
        2
176
     1
 62
     7
176
     1
 62
   257
176
     1
 90
        1
176
     1
 90
        1
176
     1
 40
179.0
176
     1
 90
        8
176
     1
 62
     7
176
     1
 40
1.0
176
     1
 90
        1
176
     1
 90
        6
176
     1
 90
        2
176
     1
 62
     7
176
     1
 90
        3
176
     1
 90
        0
176
     1
 90
        0
176
     1
290
     0
176
     1
 90
        1
176
     1
 40
0.0
176
     1
 90
        0
176
     1
290
     0
176
     1
290
     1
176
     1
290
     1
176
     1
290
     0
176
     1
290
     0
176
     1
290
     0
176
     1
290
     0
176
     1
290
     0
176
     1
290
     0
176
     1
 90
       50
176
     1
 40
0.0
176
     1
 40
1.0
176
     1
 90
        0
176
     1
 62
    18
420
        0
176
     1
 90
       50
176
     1
 90
        3
176
     1
 62
     5
420
      255
176
     1
290
     0
176
     1
 90
       50
176
     1
 90
       50
176
     1
 90
       50
176
     1
290
     0
176
     1
 90
       50
176
     1
 62
   256
176
     0
 40
1.0
176
     0
 90
        2
176
     1
  1
strokes_ogs.tif
176
     1
290
     0
176
     1
 40
1.0
176
     1
 40
1.0
176
     1
  0
VISUALSTYLE
  5
35
102
{ACAD_REACTORS
330
2A
102
}
330
2A
100
AcDbVisualStyle
  2
Dim
 70
    11
177
     3
291
     1
 70
    58
 90
        2
176
     1
 90
        2
176
     1
 90
        0
176
     1
 90
        0
176
     1
 40
0.6
176
     1
 40
30.0
176
     1
 62
     7
420
 16777215
176
     1
 90
        1
176
     1
 90
        4
176
     1
 62
     7
176
     1
 62
   257
176
     1
 90
        1
176
     1
 90
        1
176
     1
 40
1.0
176
     1
 90
        8
176
     1
 62
     7
176
     1
 40
1.0
176
     1
 90
        1
176
     1
 90
        6
176
     1
 90
        2
176
     1
 62
     7
176
     1
 90
        5
176
     1
 90
        0
176
     1
 90
        0
176
     1
290
     0
176
     1
 90
        1
176
     1
 40
-50.0
176
     1
 90
        0
176
     1
290
     0
176
     1
290
     1
176
     1
290
     1
176
     1
290
     0
176
     1
290
     0
176
     1
290
     0
176
     1
290
     0
176
     1
290
     0
176
     1
290
     0
176
     1
 90
       50
176
     1
 40
0.0
176
     1
 40
1.0
176
     1
 90
        0
176
     1
 62
    18
420
        0
176
     1
 90
       50
176
     1
 90
        3
176
     1
 62
     5
420
      255
176
     1
290
     0
176
     1
 90
       50
176
     1
 90
       50
176
     1
 90
       50
176
     1
290
     0
176
     1
 90
       50
176
     1
 62
   256
176
     0
 40
1.0
176
     0
 90
        2
176
     1
  1
strokes_ogs.tif
176
     1
290
     0
176
     1
 40
1.0
176
     1
 40
1.0
176
     1
  0
VISUALSTYLE
  5
3D
102
{ACAD_REACTORS
330
2A
102
}
330
2A
100
AcDbVisualStyle
  2
EdgeColorOff
 70
    22
177
     3
291
     1
 70
    58
 90
        2
176
     0
 90
        2
176
     0
 90
        0
176
     0
 90
        0
176
     0
 40
0.6
176
     0
 40
30.0
176
     0
 62
     7
420
 16777215
176
     0
 90
        1
176
     0
 90
        4
176
     0
 62
     7
176
     0
 62
   257
176
     0
 90
        1
176
     0
 90
        1
176
     0
 40
1.0
176
     0
 90
        8
176
     2
 62
     7
176
     0
 40
1.0
176
     0
 90
        1
176
     0
 90
        6
176
     0
 90
        2
176
     0
 62
     7
176
     0
 90
        5
176
     0
 90
        0
176
     0
 90
        0
176
     0
290
     0
176
     0
 90
        1
176
     0
 40
0.0
176
     0
 90
        0
176
     0
290
     0
176
     0
290
     1
176
     0
290
     1
176
     0
290
     0
176
     0
290
     0
176
     0
290
     0
176
     0
290
     0
176
     0
290
     0
176
     0
290
     0
176
     0
 90
       50
176
     0
 40
0.0
176
     0
 40
1.0
176
     0
 90
        0
176
     0
 62
    18
420
        0
176
     0
 90
       50
176
     0
 90
        3
176
     0
 62
     5
420
      255
176
     0
290
     0
176
     0
 90
       50
176
     0
 90
       50
176
     0
 90
       50
176
     0
290
     0
176
     0
 90
       50
176
     0
 62
   256
176
     0
 40
1.0
176
     0
 90
        2
176
     0
  1
strokes_ogs.tif
176
     0
290
     0
176
     0
 40
1.0
176
     0
 40
1.0
176
     0
  0
VISUALSTYLE
  5
39
102
{ACAD_REACTORS
330
2A
102
}
330
2A
100
AcDbVisualStyle
  2
Facepattern
 70
    15
177
     3
291
     1
 70
    58
 90
        2
176
     1
 90
        2
176
     1
 90
        0
176
     1
 90
        0
176
     1
 40
0.6
176
     1
 40
30.0
176
     1
 62
     7
420
 16777215
176
     1
 90
        1
176
     1
 90
        4
176
     1
 62
     7
176
     1
 62
   257
176
     1
 90
        1
176
     1
 90
        1
176
     1
 40
1.0
176
     1
 90
        8
176
     1
 62
     7
176
     1
 40
1.0
176
     1
 90
        1
176
     1
 90
        6
176
     1
 90
        2
176
     1
 62
     7
176
     1
 90
        5
176
     1
 90
        0
176
     1
 90
        0
176
     1
290
     0
176
     1
 90
        1
176
     1
 40
0.0
176
     1
 90
        0
176
     1
290
     0
176
     1
290
     1
176
     1
290
     1
176
     1
290
     0
176
     1
290
     0
176
     1
290
     0
176
     1
290
     0
176
     1
290
     0
176
     1
290
     0
176
     1
 90
       50
176
     1
 40
0.0
176
     1
 40
1.0
176
     1
 90
        0
176
     1
 62
    18
420
        0
176
     1
 90
       50
176
     1
 90
        3
176
     1
 62
     5
420
      255
176
     1
290
     0
176
     1
 90
       50
176
     1
 90
       50
176
     1
 90
       50
176
     1
290
     0
176
     1
 90
       50
176
     1
 62
   256
176
     0
 40
1.0
176
     0
 90
        2
176
     1
  1
strokes_ogs.tif
176
     1
290
     0
176
     1
 40
1.0
176
     1
 40
1.0
176
     1
  0
VISUALSTYLE
  5
2B
102
{ACAD_REACTORS
330
2A
102
}
330
2A
100
AcDbVisualStyle
  2
Flat
 70
     0
177
     3
291
     1
 70
    58
 90
        2
176
     1
 90
        1
176
     1
 90
        1
176
     1
 90
        2
176
     1
 40
0.6
176
     1
 40
30.0
176
     1
 62
     7
420
 16777215
176
     1
 90
        0
176
     1
 90
        0
176
     1
 62
     7
176
     1
 62
   257
176
     1
 90
        1
176
     1
 90
        1
176
     1
 40
1.0
176
     1
 90
        8
176
     1
 62
     7
176
     1
 40
1.0
176
     1
 90
        1
176
     1
 90
        6
176
     1
 90
        2
176
     1
 62
     7
176
     1
 90
        5
176
     1
 90
        0
176
     1
 90
        0
176
     1
290
     0
176
     1
 90
       13
176
     1
 40
0.0
176
     1
 90
        0
176
     1
290
     0
176
     1
290
     1
176
     1
290
     1
176
     1
290
     0
176
     1
290
     0
176
     1
290
     0
176
     1
290
     0
176
     1
290
     0
176
     1
290
     0
176
     1
 90
       50
176
     1
 40
0.0
176
     1
 40
1.0
176
     1
 90
        0
176
     1
 62
    18
420
        0
176
     1
 90
       50
176
     1
 90
        3
176
     1
 62
     5
420
      255
176
     1
290
     0
176
     1
 90
       50
176
     1
 90
       50
176
     1
 90
       50
176
     1
290
     0
176
     1
 90
       50
176
     1
 62
   256
176
     0
 40
1.0
176
     0
 90
        2
176
     1
  1
strokes_ogs.tif
176
     1
290
     0
176
     1
 40
1.0
176
     1
 40
1.0
176
     1
  0
VISUALSTYLE
  5
2C
102
{ACAD_REACTORS
330
2A
102
}
330
2A
100
AcDbVisualStyle
  2
FlatWithEdges
 70
     1
177
     3
291
     1
 70
    58
 90
        2
176
     1
 90
        1
176
     1
 90
        1
176
     1
 90
        2
176
     1
 40
0.6
176
     1
 40
30.0
176
     1
 62
     7
420
 16777215
176
     1
 90
        1
176
     1
 90
        0
176
     1
 62
     7
176
     1
 62
   257
176
     1
 90
        1
176
     1
 90
        1
176
     1
 40
1.0
176
     1
 90
        0
176
     1
 62
   257
176
     1
 40
1.0
176
     1
 90
        1
176
     1
 90
        6
176
     1
 90
        2
176
     1
 62
     7
176
     1
 90
        5
176
     1
 90
        0
176
     1
 90
        0
176
     1
290
     0
176
     1
 90
       13
176
     1
 40
0.0
176
     1
 90
        0
176
     1
290
     0
176
     1
290
     1
176
     1
290
     1
176
     1
290
     0
176
     1
290
     0
176
     1
290
     0
176
     1
290
     0
176
     1
290
     0
176
     1
290
     0
176
     1
 90
       50
176
     1
 40
0.0
176
     1
 40
1.0
176
     1
 90
        0
176
     1
 62
    18
420
        0
176
     1
 90
       50
176
     1
 90
        3
176
     1
 62
     5
420
      255
176
     1
290
     0
176
     1
 90
       50
176
     1
 90
       50
176
     1
 90
       50
176
     1
290
     0
176
     1
 90
       50
176
     1
 62
   256
176
     0
 40
1.0
176
     0
 90
        2
176
     1
  1
strokes_ogs.tif
176
     1
290
     0
176
     1
 40
1.0
176
     1
 40
1.0
176
     1
  0
VISUALSTYLE
  5
2D
102
{ACAD_REACTORS
330
2A
102
}
330
2A
100
AcDbVisualStyle
  2
Gouraud
 70
     2
177
     3
291
     1
 70
    58
 90
        2
176
     1
 90
        2
176
     1
 90
        1
176
     1
 90
        2
176
     1
 40
0.6
176
     1
 40
30.0
176
     1
 62
     7
420
 16777215
176
     1
 90
        0
176
     1
 90
        0
176
     1
 62
     7
176
     1
 62
   257
176
     1
 90
        1
176
     1
 90
        1
176
     1
 40
1.0
176
     1
 90
        0
176
     1
 62
     7
176
     1
 40
1.0
176
     1
 90
        1
176
     1
 90
        6
176
     1
 90
        2
176
     1
 62
     7
176
     1
 90
        5
176
     1
 90
        0
176
     1
 90
        0
176
     1
290
     0
176
     1
 90
       13
176
     1
 40
0.0
176
     1
 90
        0
176
     1
290
     0
176
     1
290
     1
176
     1
290
     1
176
     1
290
     0
176
     1
290
     0
176
     1
290
     0
176
     1
290
     0
176
     1
290
     0
176
     1
290
     0
176
     1
 90
       50
176
     1
 40
0.0
176
     1
 40
1.0
176
     1
 90
        0
176
     1
 62
    18
420
        0
176
     1
 90
       50
176
     1
 90
        3
176
     1
 62
     5
420
      255
176
     1
290
     0
176
     1
 90
       50
176
     1
 90
       50
176
     1
 90
       50
176
     1
290
     0
176
     1
 90
       50
176
     1
 62
   256
176
     0
 40
1.0
176
     0
 90
        2
176
     1
  1
strokes_ogs.tif
176
     1
290
     0
176
     1
 40
1.0
176
     1
 40
1.0
176
     1
  0
VISUALSTYLE
  5
2E
102
{ACAD_REACTORS
330
2A
102
}
330
2A
100
AcDbVisualStyle
  2
GouraudWithEdges
 70
     3
177
     3
291
     1
 70
    58
 90
        2
176
     1
 90
        2
176
     1
 90
        1
176
     1
 90
        2
176
     1
 40
0.6
176
     1
 40
30.0
176
     1
 62
     7
420
 16777215
176
     1
 90
        1
176
     1
 90
        0
176
     1
 62
     7
176
     1
 62
   257
176
     1
 90
        1
176
     1
 90
        1
176
     1
 40
1.0
176
     1
 90
        0
176
     1
 62
   257
176
     1
 40
1.0
176
     1
 90
        1
176
     1
 90
        6
176
     1
 90
        2
176
     1
 62
     7
176
     1
 90
        5
176
     1
 90
        0
176
     1
 90
        0
176
     1
290
     0
176
     1
 90
       13
176
     1
 40
0.0
176
     1
 90
        0
176
     1
290
     0
176
     1
290
     1
176
     1
290
     1
176
     1
290
     0
176
     1
290
     0
176
     1
290
     0
176
     1
290
     0
176
     1
290
     0
176
     1
290
     0
176
     1
 90
       50
176
     1
 40
0.0
176
     1
 40
1.0
176
     1
 90
        0
176
     1
 62
    18
420
        0
176
     1
 90
       50
176
     1
 90
        3
176
     1
 62
     5
420
      255
176
     1
290
     0
176
     1
 90
       50
176
     1
 90
       50
176
     1
 90
       50
176
     1
290
     0
176
     1
 90
       50
176
     1
 62
   256
176
     0
 40
1.0
176
     0
 90
        2
176
     1
  1
strokes_ogs.tif
176
     1
290
     0
176
     1
 40
1.0
176
     1
 40
1.0
176
     1
  0
VISUALSTYLE
  5
31
102
{ACAD_REACTORS
330
2A
102
}
330
2A
100
AcDbVisualStyle
  2
Hidden
 70
     6
177
     3
291
     0
 70
    58
 90
        1
176
     1
 90
        2
176
     1
 90
        2
176
     1
 90
        0
176
     1
 40
0.6
176
     1
 40
30.0
176
     1
 62
     7
420
 16777215
176
     1
 90
        2
176
     1
 90
        2
176
     1
 62
     7
176
     1
 62
   257
176
     1
 90
        2
176
     1
 90
        1
176
     1
 40
40.0
176
     1
 90
        0
176
     1
 62
   257
176
     1
 40
1.0
176
     1
 90
        1
176
     1
 90
        6
176
     1
 90
        2
176
     1
 62
     7
176
     1
 90
        3
176
     1
 90
        0
176
     1
 90
        0
176
     1
290
     0
176
     1
 90
        1
176
     1
 40
0.0
176
     1
 90
        0
176
     1
290
     0
176
     1
290
     1
176
     1
290
     1
176
     1
290
     0
176
     1
290
     0
176
     1
290
     0
176
     1
290
     0
176
     1
290
     0
176
     1
290
     0
176
     1
 90
       50
176
     1
 40
0.0
176
     1
 40
1.0
176
     1
 90
        0
176
     1
 62
    18
420
        0
176
     1
 90
       50
176
     1
 90
        3
176
     1
 62
     5
420
      255
176
     1
290
     0
176
     1
 90
       50
176
     1
 90
       50
176
     1
 90
       50
176
     1
290
     0
176
     1
 90
       50
176
     1
 62
   256
176
     0
 40
1.0
176
     0
 90
        2
176
     1
  1
strokes_ogs.tif
176
     1
290
     0
176
     1
 40
1.0
176
     1
 40
1.0
176
     1
  0
VISUALSTYLE
  5
3B
102
{ACAD_REACTORS
330
2A
102
}
330
2A
100
AcDbVisualStyle
  2
JitterOff
 70
    20
177
     3
291
     1
 70
    58
 90
        2
176
     0
 90
        2
176
     0
 90
        0
176
     0
 90
        0
176
     0
 40
0.6
176
     0
 40
30.0
176
     0
 62
     7
420
 16777215
176
     0
 90
        1
176
     0
 90
        4
176
     0
 62
     7
176
     0
 62
   257
176
     0
 90
        1
176
     0
 90
        1
176
     0
 40
1.0
176
     0
 90
       10
176
     2
 62
     7
176
     0
 40
1.0
176
     0
 90
        1
176
     0
 90
        6
176
     0
 90
        2
176
     0
 62
     7
176
     0
 90
        5
176
     0
 90
        0
176
     0
 90
        0
176
     0
290
     0
176
     0
 90
        1
176
     0
 40
0.0
176
     0
 90
        0
176
     0
290
     0
176
     0
290
     1
176
     0
290
     1
176
     0
290
     0
176
     0
290
     0
176
     0
290
     0
176
     0
290
     0
176
     0
290
     0
176
     0
290
     0
176
     0
 90
       50
176
     0
 40
0.0
176
     0
 40
1.0
176
     0
 90
        0
176
     0
 62
    18
420
        0
176
     0
 90
       50
176
     0
 90
        3
176
     0
 62
     5
420
      255
176
     0
290
     0
176
     0
 90
       50
176
     0
 90
       50
176
     0
 90
       50
176
     0
290
     0
176
     0
 90
       50
176
     0
 62
   256
176
     0
 40
1.0
176
     0
 90
        2
176
     0
  1
strokes_ogs.tif
176
     0
290
     0
176
     0
 40
1.0
176
     0
 40
1.0
176
     0
  0
VISUALSTYLE
  5
38
102
{ACAD_REACTORS
330
2A
102
}
330
2A
100
AcDbVisualStyle
  2
Linepattern
 70
    14
177
     3
291
     1
 70
    58
 90
        2
176
     1
 90
        2
176
     1
 90
        0
176
     1
 90
        0
176
     1
 40
0.6
176
     1
 40
30.0
176
     1
 62
     7
420
 16777215
176
     1
 90
        1
176
     1
 90
        4
176
     1
 62
     7
176
     1
 62
   257
176
     1
 90
        7
176
     1
 90
        7
176
     1
 40
1.0
176
     1
 90
        8
176
     1
 62
     7
176
     1
 40
1.0
176
     1
 90
        1
176
     1
 90
        6
176
     1
 90
        2
176
     1
 62
     7
176
     1
 90
        5
176
     1
 90
        0
176
     1
 90
        0
176
     1
290
     0
176
     1
 90
        1
176
     1
 40
0.0
176
     1
 90
        0
176
     1
290
     0
176
     1
290
     1
176
     1
290
     1
176
     1
290
     0
176
     1
290
     0
176
     1
290
     0
176
     1
290
     0
176
     1
290
     0
176
     1
290
     0
176
     1
 90
       50
176
     1
 40
0.0
176
     1
 40
1.0
176
     1
 90
        0
176
     1
 62
    18
420
        0
176
     1
 90
       50
176
     1
 90
        3
176
     1
 62
     5
420
      255
176
     1
290
     0
176
     1
 90
       50
176
     1
 90
       50
176
     1
 90
       50
176
     1
290
     0
176
     1
 90
       50
176
     1
 62
   256
176
     0
 40
1.0
176
     0
 90
        2
176
     1
  1
strokes_ogs.tif
176
     1
290
     0
176
     1
 40
1.0
176
     1
 40
1.0
176
     1
  0
VISUALSTYLE
  5
3C
102
{ACAD_REACTORS
330
2A
102
}
330
2A
100
AcDbVisualStyle
  2
OverhangOff
 70
    21
177
     3
291
     1
 70
    58
 90
        2
176
     0
 90
        2
176
     0
 90
        0
176
     0
 90
        0
176
     0
 40
0.6
176
     0
 40
30.0
176
     0
 62
     7
420
 16777215
176
     0
 90
        1
176
     0
 90
        4
176
     0
 62
     7
176
     0
 62
   257
176
     0
 90
        1
176
     0
 90
        1
176
     0
 40
1.0
176
     0
 90
        9
176
     2
 62
     7
176
     0
 40
1.0
176
     0
 90
        1
176
     0
 90
        6
176
     0
 90
        2
176
     0
 62
     7
176
     0
 90
        5
176
     0
 90
        0
176
     0
 90
        0
176
     0
290
     0
176
     0
 90
        1
176
     0
 40
0.0
176
     0
 90
        0
176
     0
290
     0
176
     0
290
     1
176
     0
290
     1
176
     0
290
     0
176
     0
290
     0
176
     0
290
     0
176
     0
290
     0
176
     0
290
     0
176
     0
290
     0
176
     0
 90
       50
176
     0
 40
0.0
176
     0
 40
1.0
176
     0
 90
        0
176
     0
 62
    18
420
        0
176
     0
 90
       50
176
     0
 90
        3
176
     0
 62
     5
420
      255
176
     0
290
     0
176
     0
 90
       50
176
     0
 90
       50
176
     0
 90
       50
176
     0
290
     0
176
     0
 90
       50
176
     0
 62
   256
176
     0
 40
1.0
176
     0
 90
        2
176
     0
  1
strokes_ogs.tif
176
     0
290
     0
176
     0
 40
1.0
176
     0
 40
1.0
176
     0
  0
VISUALSTYLE
  5
33
102
{ACAD_REACTORS
330
2A
102
}
330
2A
100
AcDbVisualStyle
  2
Realistic
 70
     8
177
     3
291
     0
 70
    58
 90
        2
176
     1
 90
        3
176
     1
 90
        0
176
     1
 90
        2
176
     1
 40
0.6
176
     1
 40
30.0
176
     1
 62
     7
420
 16777215
176
     1
 90
        0
176
     1
 90
        0
176
     1
 62
     7
176
     1
 62
   257
176
     1
 90
        1
176
     1
 90
        1
176
     1
 40
1.0
176
     1
 90
        8
176
     1
 62
   257
176
     1
 40
1.0
176
     1
 90
        1
176
     1
 90
        6
176
     1
 90
        2
176
     1
 62
     7
176
     1
 90
        3
176
     1
 90
        0
176
     1
 90
        0
176
     1
290
     0
176
     1
 90
       13
176
     1
 40
0.0
176
     1
 90
        0
176
     1
290
     0
176
     1
290
     1
176
     1
290
     1
176
     1
290
     0
176
     1
290
     0
176
     1
290
     0
176
     1
290
     0
176
     1
290
     0
176
     1
290
     0
176
     1
 90
       50
176
     1
 40
0.0
176
     1
 40
1.0
176
     1
 90
        0
176
     1
 62
    18
420
        0
176
     1
 90
       50
176
     1
 90
        3
176
     1
 62
     5
420
      255
176
     1
290
     0
176
     1
 90
       50
176
     1
 90
       50
176
     1
 90
       50
176
     1
290
     0
176
     1
 90
       50
176
     1
 62
   256
176
     0
 40
1.0
176
     0
 90
        2
176
     1
  1
strokes_ogs.tif
176
     1
290
     0
176
     1
 40
1.0
176
     1
 40
1.0
176
     1
  0
VISUALSTYLE
  5
42
102
{ACAD_REACTORS
330
2A
102
}
330
2A
100
AcDbVisualStyle
  2
Shaded
 70
    27
177
     3
291
     0
 70
    58
 90
        2
176
     1
 90
        2
176
     1
 90
        1
176
     1
 90
        2
176
     1
 40
0.6
176
     1
 40
30.0
176
     1
 62
     7
420
 16777215
176
     1
 90
        0
176
     1
 90
        4
176
     1
 62
     7
176
     1
 62
   257
176
     1
 90
        1
176
     1
 90
        1
176
     1
 40
1.0
176
     1
 90
        8
176
     1
 62
   257
176
     1
 40
1.0
176
     1
 90
        1
176
     1
 90
        6
176
     1
 90
        2
176
     1
 62
     8
420
  7895160
176
     1
 90
        3
176
     1
 90
        0
176
     1
 90
        0
176
     1
290
     0
176
     1
 90
        5
176
     1
 40
0.0
176
     1
 90
        0
176
     1
290
     0
176
     1
290
     1
176
     1
290
     1
176
     1
290
     0
176
     1
290
     0
176
     1
290
     0
176
     1
290
     0
176
     1
290
     0
176
     1
290
     0
176
     1
 90
       50
176
     1
 40
0.0
176
     1
 40
1.0
176
     1
 90
        0
176
     1
 62
    18
420
        0
176
     1
 90
       50
176
     1
 90
        3
176
     1
 62
     5
420
      255
176
     1
290
     0
176
     1
 90
       50
176
     1
 90
       50
176
     1
 90
       50
176
     1
290
     0
176
     1
 90
       50
176
     1
 62
   256
176
     0
 40
1.0
176
     0
 90
        2
176
     1
  1
strokes_ogs.tif
176
     1
290
     0
176
     1
 40
1.0
176
     1
 40
1.0
176
     1
  0
VISUALSTYLE
  5
41
102
{ACAD_REACTORS
330
2A
102
}
330
2A
100
AcDbVisualStyle
  2
Shaded with edges
 70
    26
177
     3
291
     0
 70
    58
 90
        2
176
     1
 90
        2
176
     1
 90
        1
176
     1
 90
        2
176
     1
 40
0.6
176
     1
 40
30.0
176
     1
 62
     7
420
 16777215
176
     1
 90
        1
176
     1
 90
       10
176
     1
 62
     7
176
     1
 62
   257
176
     1
 90
        2
176
     1
 90
        1
176
     1
 40
1.0
176
     1
 90
        8
176
     1
 62
   257
176
     1
 40
1.0
176
     1
 90
        1
176
     1
 90
        6
176
     1
 90
        2
176
     1
 62
     7
176
     1
 90
        3
176
     1
 90
        0
176
     1
 90
        0
176
     1
290
     0
176
     1
 90
        5
176
     1
 40
0.0
176
     1
 90
        0
176
     1
290
     0
176
     1
290
     1
176
     1
290
     1
176
     1
290
     0
176
     1
290
     0
176
     1
290
     0
176
     1
290
     0
176
     1
290
     0
176
     1
290
     0
176
     1
 90
       50
176
     1
 40
0.0
176
     1
 40
1.0
176
     1
 90
        0
176
     1
 62
    18
420
        0
176
     1
 90
       50
176
     1
 90
        3
176
     1
 62
     5
420
      255
176
     1
290
     0
176
     1
 90
       50
176
     1
 90
       50
176
     1
 90
       50
176
     1
290
     0
176
     1
 90
       50
176
     1
 62
   256
176
     0
 40
1.0
176
     0
 90
        2
176
     1
  1
strokes_ogs.tif
176
     1
290
     0
176
     1
 40
1.0
176
     1
 40
1.0
176
     1
  0
VISUALSTYLE
  5
3E
102
{ACAD_REACTORS
330
2A
102
}
330
2A
100
AcDbVisualStyle
  2
Shades of Gray
 70
    23
177
     3
291
     0
 70
    58
 90
        2
176
     1
 90
        2
176
     1
 90
        3
176
     1
 90
        0
176
     1
 40
0.6
176
     1
 40
30.0
176
     1
 62
     7
420
 16777215
176
     1
 90
        2
176
     1
 90
        2
176
     1
 62
     7
176
     1
 62
     7
176
     1
 90
        1
176
     1
 90
        1
176
     1
 40
40.0
176
     1
 90
        8
176
     1
 62
     7
176
     1
 40
1.0
176
     1
 90
        1
176
     1
 90
        6
176
     1
 90
        2
176
     1
 62
     7
176
     1
 90
        3
176
     1
 90
        0
176
     1
 90
        0
176
     1
290
     0
176
     1
 90
        1
176
     1
 40
0.0
176
     1
 90
        0
176
     1
290
     0
176
     1
290
     1
176
     1
290
     1
176
     1
290
     0
176
     1
290
     0
176
     1
290
     0
176
     1
290
     0
176
     1
290
     0
176
     1
290
     0
176
     1
 90
       50
176
     1
 40
0.0
176
     1
 40
1.0
176
     1
 90
        0
176
     1
 62
    18
420
        0
176
     1
 90
       50
176
     1
 90
        3
176
     1
 62
     5
420
      255
176
     1
290
     0
176
     1
 90
       50
176
     1
 90
       50
176
     1
 90
       50
176
     1
290
     0
176
     1
 90
       50
176
     1
 62
   256
176
     0
 40
1.0
176
     0
 90
        2
176
     1
  1
strokes_ogs.tif
176
     1
290
     0
176
     1
 40
1.0
176
     1
 40
1.0
176
     1
  0
VISUALSTYLE
  5
3F
102
{ACAD_REACTORS
330
2A
102
}
330
2A
100
AcDbVisualStyle
  2
Sketchy
 70
    24
177
     3
291
     0
 70
    58
 90
        1
176
     1
 90
        2
176
     1
 90
        2
176
     1
 90
        0
176
     1
 40
0.6
176
     1
 40
30.0
176
     1
 62
     7
420
 16777215
176
     1
 90
        2
176
     1
 90
        2
176
     1
 62
     7
176
     1
 62
     7
176
     1
 90
        1
176
     1
 90
        1
176
     1
 40
40.0
176
     1
 90
       11
176
     1
 62
     7
176
     1
 40
1.0
176
     1
 90
        1
176
     1
 90
        6
176
     1
 90
        2
176
     1
 62
     7
176
     1
 90
        6
176
     1
 90
        0
176
     1
 90
        0
176
     1
290
     0
176
     1
 90
        1
176
     1
 40
0.0
176
     1
 90
        0
176
     1
290
     0
176
     1
290
     1
176
     1
290
     1
176
     1
290
     0
176
     1
290
     0
176
     1
290
     0
176
     1
290
     0
176
     1
290
     0
176
     1
290
     0
176
     1
 90
       50
176
     1
 40
0.0
176
     1
 40
1.0
176
     1
 90
        0
176
     1
 62
    18
420
        0
176
     1
 90
       50
176
     1
 90
        3
176
     1
 62
     5
420
      255
176
     1
290
     0
176
     1
 90
       50
176
     1
 90
       50
176
     1
 90
       50
176
     1
290
     0
176
     1
 90
       50
176
     1
 62
   256
176
     0
 40
1.0
176
     0
 90
        2
176
     1
  1
strokes_ogs.tif
176
     1
290
     0
176
     1
 40
1.0
176
     1
 40
1.0
176
     1
  0
VISUALSTYLE
  5
37
102
{ACAD_REACTORS
330
2A
102
}
330
2A
100
AcDbVisualStyle
  2
Thicken
 70
    13
177
     3
291
     1
 70
    58
 90
        2
176
     1
 90
        2
176
     1
 90
        0
176
     1
 90
        0
176
     1
 40
0.6
176
     1
 40
30.0
176
     1
 62
     7
420
 16777215
176
     1
 90
        1
176
     1
 90
        4
176
     1
 62
     7
176
     1
 62
   257
176
     1
 90
        1
176
     1
 90
        1
176
     1
 40
1.0
176
     1
 90
       12
176
     1
 62
     7
176
     1
 40
1.0
176
     1
 90
        1
176
     1
 90
        6
176
     1
 90
        2
176
     1
 62
     7
176
     1
 90
        5
176
     1
 90
        0
176
     1
 90
        0
176
     1
290
     0
176
     1
 90
        1
176
     1
 40
0.0
176
     1
 90
        0
176
     1
290
     0
176
     1
290
     1
176
     1
290
     1
176
     1
290
     0
176
     1
290
     0
176
     1
290
     0
176
     1
290
     0
176
     1
290
     0
176
     1
290
     0
176
     1
 90
       50
176
     1
 40
0.0
176
     1
 40
1.0
176
     1
 90
        0
176
     1
 62
    18
420
        0
176
     1
 90
       50
176
     1
 90
        3
176
     1
 62
     5
420
      255
176
     1
290
     0
176
     1
 90
       50
176
     1
 90
       50
176
     1
 90
       50
176
     1
290
     0
176
     1
 90
       50
176
     1
 62
   256
176
     0
 40
1.0
176
     0
 90
        2
176
     1
  1
strokes_ogs.tif
176
     1
290
     0
176
     1
 40
1.0
176
     1
 40
1.0
176
     1
  0
VISUALSTYLE
  5
30
102
{ACAD_REACTORS
330
2A
102
}
330
2A
100
AcDbVisualStyle
  2
Wireframe
 70
     5
177
     3
291
     0
 70
    58
 90
        0
176
     1
 90
        2
176
     1
 90
        0
176
     1
 90
        0
176
     1
 40
0.6
176
     1
 40
30.0
176
     1
 62
     7
420
 16777215
176
     1
 90
        1
176
     1
 90
        4
176
     1
 62
     7
176
     1
 62
   257
176
     1
 90
        1
176
     1
 90
        1
176
     1
 40
1.0
176
     1
 90
        0
176
     1
 62
   257
176
     1
 40
1.0
176
     1
 90
        1
176
     1
 90
        6
176
     1
 90
        2
176
     1
 62
     7
176
     1
 90
        3
176
     1
 90
        0
176
     1
 90
        0
176
     1
290
     0
176
     1
 90
        1
176
     1
 40
0.0
176
     1
 90
        0
176
     1
290
     0
176
     1
290
     1
176
     1
290
     1
176
     1
290
     0
176
     1
290
     0
176
     1
290
     0
176
     1
290
     0
176
     1
290
     0
176
     1
290
     0
176
     1
 90
       50
176
     1
 40
0.0
176
     1
 40
1.0
176
     1
 90
        0
176
     1
 62
    18
420
        0
176
     1
 90
       50
176
     1
 90
        3
176
     1
 62
     5
420
      255
176
     1
290
     0
176
     1
 90
       50
176
     1
 90
       50
176
     1
 90
       50
176
     1
290
     0
176
     1
 90
       50
176
     1
 62
   256
176
     0
 40
1.0
176
     0
 90
        2
176
     1
  1
strokes_ogs.tif
176
     1
290
     0
176
     1
 40
1.0
176
     1
 40
1.0
176
     1
  0
VISUALSTYLE
  5
40
102
{ACAD_REACTORS
330
2A
102
}
330
2A
100
AcDbVisualStyle
  2
X-Ray
 70
    25
177
     3
291
     0
 70
    58
 90
        2
176
     1
 90
        2
176
     1
 90
        1
176
     1
 90
        1
176
     1
 40
0.5
176
     1
 40
30.0
176
     1
 62
     7
420
 16777215
176
     1
 90
        1
176
     1
 90
        0
176
     1
 62
     7
176
     1
 62
   257
176
     1
 90
        1
176
     1
 90
        1
176
     1
 40
1.0
176
     1
 90
        8
176
     1
 62
     7
176
     1
 40
1.0
176
     1
 90
        1
176
     1
 90
        6
176
     1
 90
        2
176
     1
 62
     7
176
     1
 90
        3
176
     1
 90
        0
176
     1
 90
        0
176
     1
290
     0
176
     1
 90
       13
176
     1
 40
0.0
176
     1
 90
        0
176
     1
290
     0
176
     1
290
     1
176
     1
290
     1
176
     1
290
     0
176
     1
290
     0
176
     1
290
     0
176
     1
290
     0
176
     1
290
     0
176
     1
290
     0
176
     1
 90
       50
176
     1
 40
0.0
176
     1
 40
1.0
176
     1
 90
        0
176
     1
 62
    18
420
        0
176
     1
 90
       50
176
     1
 90
        3
176
     1
 62
     5
420
      255
176
     1
290
     0
176
     1
 90
       50
176
     1
 90
       50
176
     1
 90
       50
176
     1
290
     0
176
     1
 90
       50
176
     1
 62
   256
176
     0
 40
1.0
176
     0
 90
        2
176
     1
  1
strokes_ogs.tif
176
     1
290
     0
176
     1
 40
1.0
176
     1
 40
1.0
176
     1
  0
DICTIONARYVAR
  5
295
102
{ACAD_REACTORS
330
294
102
}
330
294
100
DictionaryVariables
280
     0
  1
1:1
  0
DICTIONARYVAR
  5
29A
102
{ACAD_REACTORS
330
294
102
}
330
294
100
DictionaryVariables
280
     0
  1
Standard
  0
DICTIONARYVAR
  5
299
102
{ACAD_REACTORS
330
294
102
}
330
294
100
DictionaryVariables
280
     0
  1
Standard
  0
DICTIONARY
  5
296
330
6A
100
AcDbDictionary
280
     1
281
     1
  3
ACAD_ROUNDTRIP_2008_TABLESTYLE_CELLSTYLEMAP
360
297
  0
CELLSTYLEMAP
  5
297
102
{ACAD_REACTORS
330
296
102
}
330
296
100
AcDbCellStyleMap
 90
        3
300
CELLSTYLE
  1
TABLEFORMAT_BEGIN
 90
        5
170
     1
 91
        0
 92
    32768
 62
   257
 93
        1
300
CONTENTFORMAT
  1
CONTENTFORMAT_BEGIN
 90
        0
 91
        0
 92
        4
 93
        0
300

 40
0.0
140
1.0
 94
        5
 62
     0
340
11
144
0.25
309
CONTENTFORMAT_END
171
     1
301
MARGIN
  1
CELLMARGIN_BEGIN
 40
0.06
 40
0.06
 40
0.06
 40
0.06
 40
0.06
 40
0.06
309
CELLMARGIN_END
 94
        6
 95
        1
302
GRIDFORMAT
  1
GRIDFORMAT_BEGIN
 90
        0
 91
        1
 62
     0
 92
       -2
340
14
 93
        0
 40
0.045
309
GRIDFORMAT_END
 95
        2
302
GRIDFORMAT
  1
GRIDFORMAT_BEGIN
 90
        0
 91
        1
 62
     0
 92
       -2
340
14
 93
        0
 40
0.045
309
GRIDFORMAT_END
 95
        4
302
GRIDFORMAT
  1
GRIDFORMAT_BEGIN
 90
        0
 91
        1
 62
     0
 92
       -2
340
14
 93
        0
 40
0.045
309
GRIDFORMAT_END
 95
        8
302
GRIDFORMAT
  1
GRIDFORMAT_BEGIN
 90
        0
 91
        1
 62
     0
 92
       -2
340
14
 93
        0
 40
0.045
309
GRIDFORMAT_END
 95
       16
302
GRIDFORMAT
  1
GRIDFORMAT_BEGIN
 90
        0
 91
        1
 62
     0
 92
       -2
340
14
 93
        0
 40
0.045
309
GRIDFORMAT_END
 95
       32
302
GRIDFORMAT
  1
GRIDFORMAT_BEGIN
 90
        0
 91
        1
 62
     0
 92
       -2
340
14
 93
        0
 40
0.045
309
GRIDFORMAT_END
309
TABLEFORMAT_END
  1
CELLSTYLE_BEGIN
 90
        1
 91
        1
300
_TITLE
309
CELLSTYLE_END
300
CELLSTYLE
  1
TABLEFORMAT_BEGIN
 90
        5
170
     1
 91
        0
 92
        0
 62
   257
 93
        1
300
CONTENTFORMAT
  1
CONTENTFORMAT_BEGIN
 90
        0
 91
        0
 92
        4
 93
        0
300

 40
0.0
140
1.0
 94
        5
 62
     0
340
11
144
0.18
309
CONTENTFORMAT_END
171
     1
301
MARGIN
  1
CELLMARGIN_BEGIN
 40
0.06
 40
0.06
 40
0.06
 40
0.06
 40
0.06
 40
0.06
309
CELLMARGIN_END
 94
        6
 95
        1
302
GRIDFORMAT
  1
GRIDFORMAT_BEGIN
 90
        0
 91
        1
 62
     0
 92
       -2
340
14
 93
        0
 40
0.045
309
GRIDFORMAT_END
 95
        2
302
GRIDFORMAT
  1
GRIDFORMAT_BEGIN
 90
        0
 91
        1
 62
     0
 92
       -2
340
14
 93
        0
 40
0.045
309
GRIDFORMAT_END
 95
        4
302
GRIDFORMAT
  1
GRIDFORMAT_BEGIN
 90
        0
 91
        1
 62
     0
 92
       -2
340
14
 93
        0
 40
0.045
309
GRIDFORMAT_END
 95
        8
302
GRIDFORMAT
  1
GRIDFORMAT_BEGIN
 90
        0
 91
        1
 62
     0
 92
       -2
340
14
 93
        0
 40
0.045
309
GRIDFORMAT_END
 95
       16
302
GRIDFORMAT
  1
GRIDFORMAT_BEGIN
 90
        0
 91
        1
 62
     0
 92
       -2
340
14
 93
        0
 40
0.045
309
GRIDFORMAT_END
 95
       32
302
GRIDFORMAT
  1
GRIDFORMAT_BEGIN
 90
        0
 91
        1
 62
     0
 92
       -2
340
14
 93
        0
 40
0.045
309
GRIDFORMAT_END
309
TABLEFORMAT_END
  1
CELLSTYLE_BEGIN
 90
        2
 91
        1
300
_HEADER
309
CELLSTYLE_END
300
CELLSTYLE
  1
TABLEFORMAT_BEGIN
 90
        5
170
     1
 91
        0
 92
        0
 62
   257
 93
        1
300
CONTENTFORMAT
  1
CONTENTFORMAT_BEGIN
 90
        0
 91
        0
 92
        4
 93
        0
300

 40
0.0
140
1.0
 94
        2
 62
     0
340
11
144
0.18
309
CONTENTFORMAT_END
171
     1
301
MARGIN
  1
CELLMARGIN_BEGIN
 40
0.06
 40
0.06
 40
0.06
 40
0.06
 40
0.06
 40
0.06
309
CELLMARGIN_END
 94
        6
 95
        1
302
GRIDFORMAT
  1
GRIDFORMAT_BEGIN
 90
        0
 91
        1
 62
     0
 92
       -2
340
14
 93
        0
 40
0.045
309
GRIDFORMAT_END
 95
        2
302
GRIDFORMAT
  1
GRIDFORMAT_BEGIN
 90
        0
 91
        1
 62
     0
 92
       -2
340
14
 93
        0
 40
0.045
309
GRIDFORMAT_END
 95
        4
302
GRIDFORMAT
  1
GRIDFORMAT_BEGIN
 90
        0
 91
        1
 62
     0
 92
       -2
340
14
 93
        0
 40
0.045
309
GRIDFORMAT_END
 95
        8
302
GRIDFORMAT
  1
GRIDFORMAT_BEGIN
 90
        0
 91
        1
 62
     0
 92
       -2
340
14
 93
        0
 40
0.045
309
GRIDFORMAT_END
 95
       16
302
GRIDFORMAT
  1
GRIDFORMAT_BEGIN
 90
        0
 91
        1
 62
     0
 92
       -2
340
14
 93
        0
 40
0.045
309
GRIDFORMAT_END
 95
       32
302
GRIDFORMAT
  1
GRIDFORMAT_BEGIN
 90
        0
 91
        1
 62
     0
 92
       -2
340
14
 93
        0
 40
0.045
309
GRIDFORMAT_END
309
TABLEFORMAT_END
  1
CELLSTYLE_BEGIN
 90
        3
 91
        2
300
_DATA
309
CELLSTYLE_END
  0
ENDSEC
  0
EOF