0
SECTION
  2
HEADER
  9
$ACADVER
  1
AC1027
  9
$ACADMAINTVER
 70
     8
  9
$DWGCODEPAGE
  3
ANSI_1252
  9
$REQUIREDVERSIONS
160
                 0
  9
$COMMENTS
  1
File was created by Cadenas
  9
$CUSTOMPROPERTYTAG
  1
NN
  9
$CUSTOMPROPERTY
  1
Imperial - IP Wide Slot Take-Up
  9
$CUSTOMPROPERTYTAG
  1
NT
  9
$CUSTOMPROPERTY
  1
Imperial Wide Slot Take-Up Bearings
  9
$CUSTOMPROPERTYTAG
  1
NB
  9
$CUSTOMPROPERTY
  1
069379
  9
$CUSTOMPROPERTYTAG
  1
NBSYN
  9
$CUSTOMPROPERTY
  1
$PN.
  9
$CUSTOMPROPERTYTAG
  1
LINA
  9
$CUSTOMPROPERTY
  1
069379
  9
$CUSTOMPROPERTYTAG
  1
SS
  9
$CUSTOMPROPERTY
  1
2
  9
$CUSTOMPROPERTYTAG
  1
PN
  9
$CUSTOMPROPERTY
  1
069379
  9
$CUSTOMPROPERTYTAG
  1
DESCRIPTION
  9
$CUSTOMPROPERTY
  1
WSTU-IP-200RE
  9
$CUSTOMPROPERTYTAG
  1
EF
  9
$CUSTOMPROPERTY
  1
Expansion
  9
$CUSTOMPROPERTYTAG
  1
ST
  9
$CUSTOMPROPERTY
  1
Contact Seal
  9
$CUSTOMPROPERTYTAG
  1
A
  9
$CUSTOMPROPERTY
  1
2-55/64
  9
$CUSTOMPROPERTYTAG
  1
B
  9
$CUSTOMPROPERTY
  1
6-3/16
  9
$CUSTOMPROPERTYTAG
  1
C
  9
$CUSTOMPROPERTY
  1
11/16
  9
$CUSTOMPROPERTYTAG
  1
D
  9
$CUSTOMPROPERTY
  1
3-5/8
  9
$CUSTOMPROPERTYTAG
  1
E
  9
$CUSTOMPROPERTY
  1
3-15/16
  9
$CUSTOMPROPERTYTAG
  1
F
  9
$CUSTOMPROPERTY
  1
1-1/8
  9
$CUSTOMPROPERTYTAG
  1
G
  9
$CUSTOMPROPERTY
  1
15/16
  9
$CUSTOMPROPERTYTAG
  1
H
  9
$CUSTOMPROPERTY
  1
3/4
  9
$CUSTOMPROPERTYTAG
  1
J
  9
$CUSTOMPROPERTY
  1
3-5/16
  9
$CUSTOMPROPERTYTAG
  1
K
  9
$CUSTOMPROPERTY
  1
1-15/16
  9
$CUSTOMPROPERTYTAG
  1
L
  9
$CUSTOMPROPERTY
  1
3-9/32
  9
$CUSTOMPROPERTYTAG
  1
M
  9
$CUSTOMPROPERTY
  1
4
  9
$CUSTOMPROPERTYTAG
  1
N
  9
$CUSTOMPROPERTY
  1
4-3/4
  9
$CUSTOMPROPERTYTAG
  1
R
  9
$CUSTOMPROPERTY
  1
2-15/16
  9
$CUSTOMPROPERTYTAG
  1
S
  9
$CUSTOMPROPERTY
  1
2
  9
$CUSTOMPROPERTYTAG
  1
T
  9
$CUSTOMPROPERTY
  1
2
  9
$CUSTOMPROPERTYTAG
  1
X
  9
$CUSTOMPROPERTY
  1
1/4
  9
$CUSTOMPROPERTYTAG
  1
Y
  9
$CUSTOMPROPERTY
  1
0.020
  9
$CUSTOMPROPERTYTAG
  1
Z
  9
$CUSTOMPROPERTY
  1
2-19/64
  9
$CUSTOMPROPERTYTAG
  1
COMPANY
  9
$CUSTOMPROPERTY
  1
baldor
  9
$INSBASE
 10
0.0
 20
0.0
 30
0.0
  9
$EXTMIN
 10
1.000000000000000E+20
 20
1.000000000000000E+20
 30
1.000000000000000E+20
  9
$EXTMAX
 10
-1.000000000000000E+20
 20
-1.000000000000000E+20
 30
-1.000000000000000E+20
  9
$LIMMIN
 10
0.0
 20
0.0
  9
$LIMMAX
 10
12.0
 20
9.0
  9
$ORTHOMODE
 70
     0
  9
$REGENMODE
 70
     1
  9
$FILLMODE
 70
     1
  9
$QTEXTMODE
 70
     0
  9
$MIRRTEXT
 70
     1
  9
$LTSCALE
 40
1.0
  9
$ATTMODE
 70
     1
  9
$TEXTSIZE
 40
0.2
  9
$TRACEWID
 40
0.05
  9
$TEXTSTYLE
  7
Standard
  9
$CLAYER
  8
0
  9
$CELTYPE
  6
ByLayer
  9
$CECOLOR
 62
   256
  9
$CELTSCALE
 40
1.0
  9
$DISPSILH
 70
     0
  9
$DIMSCALE
 40
1.0
  9
$DIMASZ
 40
0.18
  9
$DIMEXO
 40
0.0625
  9
$DIMDLI
 40
0.38
  9
$DIMRND
 40
0.0
  9
$DIMDLE
 40
0.0
  9
$DIMEXE
 40
0.18
  9
$DIMTP
 40
0.0
  9
$DIMTM
 40
0.0
  9
$DIMTXT
 40
0.18
  9
$DIMCEN
 40
0.09
  9
$DIMTSZ
 40
0.0
  9
$DIMTOL
 70
     0
  9
$DIMLIM
 70
     0
  9
$DIMTIH
 70
     1
  9
$DIMTOH
 70
     1
  9
$DIMSE1
 70
     0
  9
$DIMSE2
 70
     0
  9
$DIMTAD
 70
     0
  9
$DIMZIN
 70
     0
  9
$DIMBLK
  1

  9
$DIMASO
 70
     1
  9
$DIMSHO
 70
     1
  9
$DIMPOST
  1

  9
$DIMAPOST
  1

  9
$DIMALT
 70
     0
  9
$DIMALTD
 70
     2
  9
$DIMALTF
 40
25.4
  9
$DIMLFAC
 40
1.0
  9
$DIMTOFL
 70
     0
  9
$DIMTVP
 40
0.0
  9
$DIMTIX
 70
     0
  9
$DIMSOXD
 70
     0
  9
$DIMSAH
 70
     0
  9
$DIMBLK1
  1

  9
$DIMBLK2
  1

  9
$DIMSTYLE
  2
Standard
  9
$DIMCLRD
 70
     0
  9
$DIMCLRE
 70
     0
  9
$DIMCLRT
 70
     0
  9
$DIMTFAC
 40
1.0
  9
$DIMGAP
 40
0.09
  9
$DIMJUST
 70
     0
  9
$DIMSD1
 70
     0
  9
$DIMSD2
 70
     0
  9
$DIMTOLJ
 70
     1
  9
$DIMTZIN
 70
     0
  9
$DIMALTZ
 70
     0
  9
$DIMALTTZ
 70
     0
  9
$DIMUPT
 70
     0
  9
$DIMDEC
 70
     4
  9
$DIMTDEC
 70
     4
  9
$DIMALTU
 70
     2
  9
$DIMALTTD
 70
     2
  9
$DIMTXSTY
  7
Standard
  9
$DIMAUNIT
 70
     0
  9
$DIMADEC
 70
     0
  9
$DIMALTRND
 40
0.0
  9
$DIMAZIN
 70
     0
  9
$DIMDSEP
 70
    46
  9
$DIMATFIT
 70
     3
  9
$DIMFRAC
 70
     0
  9
$DIMLDRBLK
  1

  9
$DIMLUNIT
 70
     2
  9
$DIMLWD
 70
    -2
  9
$DIMLWE
 70
    -2
  9
$DIMTMOVE
 70
     0
  9
$DIMFXL
 40
1.0
  9
$DIMFXLON
 70
     0
  9
$DIMJOGANG
 40
0.7853981633974483
  9
$DIMTFILL
 70
     0
  9
$DIMTFILLCLR
 70
     0
  9
$DIMARCSYM
 70
     0
  9
$DIMLTYPE
  6

  9
$DIMLTEX1
  6

  9
$DIMLTEX2
  6

  9
$DIMTXTDIRECTION
 70
     0
  9
$LUNITS
 70
     2
  9
$LUPREC
 70
     4
  9
$SKETCHINC
 40
0.1
  9
$FILLETRAD
 40
0.5
  9
$AUNITS
 70
     0
  9
$AUPREC
 70
     0
  9
$MENU
  1
.
  9
$ELEVATION
 40
0.0
  9
$PELEVATION
 40
0.0
  9
$THICKNESS
 40
0.0
  9
$LIMCHECK
 70
     0
  9
$CHAMFERA
 40
0.0
  9
$CHAMFERB
 40
0.0
  9
$CHAMFERC
 40
0.0
  9
$CHAMFERD
 40
0.0
  9
$SKPOLY
 70
     0
  9
$TDCREATE
 40
2458168.962547107
  9
$TDUCREATE
 40
2458168.92088044
  9
$TDUPDATE
 40
2458168.962547292
  9
$TDUUPDATE
 40
2458168.920880625
  9
$TDINDWG
 40
0.0000000116
  9
$TDUSRTIMER
 40
0.0000000116
  9
$USRTIMER
 70
     1
  9
$ANGBASE
 50
0.0
  9
$ANGDIR
 70
     0
  9
$PDMODE
 70
     0
  9
$PDSIZE
 40
0.0
  9
$PLINEWID
 40
0.0
  9
$SPLFRAME
 70
     0
  9
$SPLINETYPE
 70
     6
  9
$SPLINESEGS
 70
     8
  9
$HANDSEED
  5
277
  9
$SURFTAB1
 70
     6
  9
$SURFTAB2
 70
     6
  9
$SURFTYPE
 70
     6
  9
$SURFU
 70
     6
  9
$SURFV
 70
     6
  9
$UCSBASE
  2

  9
$UCSNAME
  2

  9
$UCSORG
 10
0.0
 20
0.0
 30
0.0
  9
$UCSXDIR
 10
1.0
 20
0.0
 30
0.0
  9
$UCSYDIR
 10
0.0
 20
1.0
 30
0.0
  9
$UCSORTHOREF
  2

  9
$UCSORTHOVIEW
 70
     0
  9
$UCSORGTOP
 10
0.0
 20
0.0
 30
0.0
  9
$UCSORGBOTTOM
 10
0.0
 20
0.0
 30
0.0
  9
$UCSORGLEFT
 10
0.0
 20
0.0
 30
0.0
  9
$UCSORGRIGHT
 10
0.0
 20
0.0
 30
0.0
  9
$UCSORGFRONT
 10
0.0
 20
0.0
 30
0.0
  9
$UCSORGBACK
 10
0.0
 20
0.0
 30
0.0
  9
$PUCSBASE
  2

  9
$PUCSNAME
  2

  9
$PUCSORG
 10
0.0
 20
0.0
 30
0.0
  9
$PUCSXDIR
 10
1.0
 20
0.0
 30
0.0
  9
$PUCSYDIR
 10
0.0
 20
1.0
 30
0.0
  9
$PUCSORTHOREF
  2

  9
$PUCSORTHOVIEW
 70
     0
  9
$PUCSORGTOP
 10
0.0
 20
0.0
 30
0.0
  9
$PUCSORGBOTTOM
 10
0.0
 20
0.0
 30
0.0
  9
$PUCSORGLEFT
 10
0.0
 20
0.0
 30
0.0
  9
$PUCSORGRIGHT
 10
0.0
 20
0.0
 30
0.0
  9
$PUCSORGFRONT
 10
0.0
 20
0.0
 30
0.0
  9
$PUCSORGBACK
 10
0.0
 20
0.0
 30
0.0
  9
$USERI1
 70
     0
  9
$USERI2
 70
     0
  9
$USERI3
 70
     0
  9
$USERI4
 70
     0
  9
$USERI5
 70
     0
  9
$USERR1
 40
0.0
  9
$USERR2
 40
0.0
  9
$USERR3
 40
0.0
  9
$USERR4
 40
0.0
  9
$USERR5
 40
0.0
  9
$WORLDVIEW
 70
     1
  9
$SHADEDGE
 70
     3
  9
$SHADEDIF
 70
    70
  9
$TILEMODE
 70
     1
  9
$MAXACTVP
 70
    64
  9
$PINSBASE
 10
0.0
 20
0.0
 30
0.0
  9
$PLIMCHECK
 70
     0
  9
$PEXTMIN
 10
1.000000000000000E+20
 20
1.000000000000000E+20
 30
1.000000000000000E+20
  9
$PEXTMAX
 10
-1.000000000000000E+20
 20
-1.000000000000000E+20
 30
-1.000000000000000E+20
  9
$PLIMMIN
 10
0.0
 20
0.0
  9
$PLIMMAX
 10
12.0
 20
9.0
  9
$UNITMODE
 70
     0
  9
$VISRETAIN
 70
     1
  9
$PLINEGEN
 70
     0
  9
$PSLTSCALE
 70
     1
  9
$TREEDEPTH
 70
  3020
  9
$CMLSTYLE
  2
Standard
  9
$CMLJUST
 70
     0
  9
$CMLSCALE
 40
1.0
  9
$PROXYGRAPHICS
 70
     1
  9
$MEASUREMENT
 70
     0
  9
$CELWEIGHT
370
    -1
  9
$ENDCAPS
280
     0
  9
$JOINSTYLE
280
     0
  9
$LWDISPLAY
290
     0
  9
$INSUNITS
 70
     1
  9
$HYPERLINKBASE
  1

  9
$STYLESHEET
  1

  9
$XEDIT
290
     1
  9
$CEPSNTYPE
380
     0
  9
$PSTYLEMODE
290
     1
  9
$FINGERPRINTGUID
  2
{A1CA47D7-4FF4-4124-AC17-EDFCBACF5131}
  9
$VERSIONGUID
  2
{FAEB1C32-E019-11D5-929B-00C0DF256EC4}
  9
$EXTNAMES
290
     1
  9
$PSVPSCALE
 40
0.0
  9
$OLESTARTUP
290
     0
  9
$SORTENTS
280
   127
  9
$INDEXCTL
280
     0
  9
$HIDETEXT
280
     1
  9
$XCLIPFRAME
280
     2
  9
$HALOGAP
280
     0
  9
$OBSCOLOR
 70
   257
  9
$OBSLTYPE
280
     0
  9
$INTERSECTIONDISPLAY
280
     0
  9
$INTERSECTIONCOLOR
 70
   257
  9
$DIMASSOC
280
     2
  9
$PROJECTNAME
  1

  9
$CAMERADISPLAY
290
     0
  9
$LENSLENGTH
 40
50.0
  9
$CAMERAHEIGHT
 40
0.0
  9
$STEPSPERSEC
 40
2.0
  9
$STEPSIZE
 40
6.0
  9
$3DDWFPREC
 40
2.0
  9
$PSOLWIDTH
 40
0.25
  9
$PSOLHEIGHT
 40
4.0
  9
$LOFTANG1
 40
1.570796326794897
  9
$LOFTANG2
 40
1.570796326794897
  9
$LOFTMAG1
 40
0.0
  9
$LOFTMAG2
 40
0.0
  9
$LOFTPARAM
 70
     7
  9
$LOFTNORMALS
280
     1
  9
$LATITUDE
 40
37.795
  9
$LONGITUDE
 40
-122.394
  9
$NORTHDIRECTION
 40
0.0
  9
$TIMEZONE
 70
 -8000
  9
$LIGHTGLYPHDISPLAY
280
     1
  9
$TILEMODELIGHTSYNCH
280
     1
  9
$CMATERIAL
347
44
  9
$SOLIDHIST
280
     0
  9
$SHOWHIST
280
     1
  9
$DWFFRAME
280
     2
  9
$DGNFRAME
280
     2
  9
$REALWORLDSCALE
290
     1
  9
$INTERFERECOLOR
 62
   256
  9
$CSHADOW
280
     0
  9
$SHADOWPLANELOCATION
 40
0.0
  0
ENDSEC
  0
SECTION
  2
CLASSES
  0
CLASS
  1
ACDBDICTIONARYWDFLT
  2
AcDbDictionaryWithDefault
  3
ObjectDBX Classes
 90
        0
 91
        4
280
     0
281
     0
  0
CLASS
  1
VISUALSTYLE
  2
AcDbVisualStyle
  3
ObjectDBX Classes
 90
     4095
 91
        4
280
     0
281
     0
  0
CLASS
  1
MATERIAL
  2
AcDbMaterial
  3
ObjectDBX Classes
 90
     1153
 91
        4
280
     0
281
     0
  0
CLASS
  1
SCALE
  2
AcDbScale
  3
ObjectDBX Classes
 90
     1153
 91
        4
280
     0
281
     0
  0
CLASS
  1
TABLESTYLE
  2
AcDbTableStyle
  3
ObjectDBX Classes
 90
     4095
 91
        4
280
     0
281
     0
  0
CLASS
  1
MLEADERSTYLE
  2
AcDbMLeaderStyle
  3
ACDB_MLEADERSTYLE_CLASS
 90
     4095
 91
        4
280
     0
281
     0
  0
CLASS
  1
SUN
  2
AcDbSun
  3
SCENEOE
 90
     1153
 91
        4
280
     0
281
     0
  0
CLASS
  1
DICTIONARYVAR
  2
AcDbDictionaryVar
  3
ObjectDBX Classes
 90
        0
 91
        4
280
     0
281
     0
  0
CLASS
  1
CELLSTYLEMAP
  2
AcDbCellStyleMap
  3
ObjectDBX Classes
 90
     1152
 91
        4
280
     0
281
     0
  0
ENDSEC
  0
SECTION
  2
TABLES
  0
TABLE
  2
VPORT
  5
8
330
0
100
AcDbSymbolTable
 70
     1
  0
VPORT
  5
29
330
8
100
AcDbSymbolTableRecord
100
AcDbViewportTableRecord
  2
*Active
 70
     0
 10
0.0
 20
0.0
 11
1.0
 21
1.0
 12
0.6074565877772837
 22
-0.3633281249999998
 13
0.0
 23
0.0
 14
0.5
 24
0.5
 15
0.5
 25
0.5
 16
0.0
 26
0.0
 36
1.0
 17
0.0
 27
0.0
 37
0.0
 40
3.338810625000001
 41
2.06328370628518
 42
50.0
 43
0.0
 44
0.0
 50
0.0
 51
0.0
 71
     0
 72
   100
 73
     1
 74
     3
 75
     0
 76
     0
 77
     0
 78
     0
281
     0
 65
     1
110
0.0
120
0.0
130
0.0
111
1.0
121
0.0
131
0.0
112
0.0
122
1.0
132
0.0
 79
     0
146
0.0
348
2F
 60
     3
 61
     5
292
     1
282
     1
141
0.0
142
0.0
 63
   250
361
6D
  0
ENDTAB
  0
TABLE
  2
LTYPE
  5
5
330
0
100
AcDbSymbolTable
 70
     3
  0
LTYPE
  5
14
330
5
100
AcDbSymbolTableRecord
100
AcDbLinetypeTableRecord
  2
ByBlock
 70
     0
  3

 72
    65
 73
     0
 40
0.0
  0
LTYPE
  5
15
330
5
100
AcDbSymbolTableRecord
100
AcDbLinetypeTableRecord
  2
ByLayer
 70
     0
  3

 72
    65
 73
     0
 40
0.0
  0
LTYPE
  5
16
330
5
100
AcDbSymbolTableRecord
100
AcDbLinetypeTableRecord
  2
Continuous
 70
     0
  3
Solid line
 72
    65
 73
     0
 40
0.0
  0
LTYPE
  5
A2
330
5
100
AcDbSymbolTableRecord
100
AcDbLinetypeTableRecord
  2
Dashed
 70
     0
  3

 72
    65
 73
     2
 40
2.0
 49
1.0
 74
     0
 49
-1.0
 74
     0
  0
LTYPE
  5
1E8
330
5
100
AcDbSymbolTableRecord
100
AcDbLinetypeTableRecord
  2
Center
 70
     0
  3

 72
    65
 73
     4
 40
1.5
 49
0.45
 74
     0
 49
-0.5
 74
     0
 49
0.05
 74
     0
 49
-0.5
 74
     0
  0
ENDTAB
  0
TABLE
  2
LAYER
  5
2
330
0
100
AcDbSymbolTable
 70
     7
  0
LAYER
  5
10
330
2
100
AcDbSymbolTableRecord
100
AcDbLayerTableRecord
  2
0
 70
     0
 62
     7
  6
Continuous
370
    -3
390
F
347
46
348
0
  0
LAYER
  5
72
330
2
100
AcDbSymbolTableRecord
100
AcDbLayerTableRecord
  2
AM_6
 70
     0
 62
    -2
  6
Continuous
370
    35
390
F
347
46
348
0
  0
LAYER
  5
A3
330
2
100
AcDbSymbolTableRecord
100
AcDbLayerTableRecord
  2
AM_9
 70
     0
 62
     6
  6
Dashed
370
    25
390
F
347
46
348
0
  0
LAYER
  5
E4
330
2
100
AcDbSymbolTableRecord
100
AcDbLayerTableRecord
  2
AM_4
 70
     0
 62
     7
  6
Continuous
370
    50
390
F
347
46
348
0
  0
LAYER
  5
12E
330
2
100
AcDbSymbolTableRecord
100
AcDbLayerTableRecord
  2
AM_5
 70
     0
 62
     3
  6
Continuous
370
    25
390
F
347
46
348
0
  0
LAYER
  5
1E9
330
2
100
AcDbSymbolTableRecord
100
AcDbLayerTableRecord
  2
AM_7
 70
     0
 62
     7
  6
Center
370
    25
390
F
347
46
348
0
  0
LAYER
  5
260
330
2
100
AcDbSymbolTableRecord
100
AcDbLayerTableRecord
  2
ConnectionPoints
 70
     0
 62
     7
  6
Continuous
370
    50
390
F
347
46
348
0
  0
ENDTAB
  0
TABLE
  2
STYLE
  5
3
330
0
100
AcDbSymbolTable
 70
     1
  0
STYLE
  5
11
330
3
100
AcDbSymbolTableRecord
100
AcDbTextStyleTableRecord
  2
Standard
 70
     0
 40
0.0
 41
1.0
 50
0.0
 71
     0
 42
0.2
  3
txt
  4

  0
ENDTAB
  0
TABLE
  2
VIEW
  5
6
330
0
100
AcDbSymbolTable
 70
     0
  0
ENDTAB
  0
TABLE
  2
UCS
  5
7
330
0
100
AcDbSymbolTable
 70
     0
  0
ENDTAB
  0
TABLE
  2
APPID
  5
9
330
0
100
AcDbSymbolTable
 70
     1
  0
APPID
  5
12
330
9
100
AcDbSymbolTableRecord
100
AcDbRegAppTableRecord
  2
ACAD
 70
     0
  0
ENDTAB
  0
TABLE
  2
DIMSTYLE
  5
A
330
0
100
AcDbSymbolTable
 70
     1
100
AcDbDimStyleTable
  0
DIMSTYLE
105
27
330
A
100
AcDbSymbolTableRecord
100
AcDbDimStyleTableRecord
  2
Standard
 70
     0
178
     0
340
11
  0
ENDTAB
  0
TABLE
  2
BLOCK_RECORD
  5
1
330
0
100
AcDbSymbolTable
 70
     8
  0
BLOCK_RECORD
  5
1F
330
1
100
AcDbSymbolTableRecord
100
AcDbBlockTableRecord
  2
*Model_Space
340
22
 70
     0
280
     1
281
     0
  0
BLOCK_RECORD
  5
1B
330
1
100
AcDbSymbolTableRecord
100
AcDbBlockTableRecord
  2
*Paper_Space
340
1E
 70
     0
280
     1
281
     0
  0
BLOCK_RECORD
  5
23
330
1
100
AcDbSymbolTableRecord
100
AcDbBlockTableRecord
  2
*Paper_Space0
340
26
 70
     0
280
     1
281
     0
  0
BLOCK_RECORD
  5
6E
330
1
100
AcDbSymbolTableRecord
100
AcDbBlockTableRecord
  2
1_069379_4
340
0
102
{BLKREFS
331
6F
102
}
 70
     0
280
     1
281
     0
  0
BLOCK_RECORD
  5
91
330
1
100
AcDbSymbolTableRecord
100
AcDbBlockTableRecord
  2
2_405016_Inch_0_in_069379_4
340
0
102
{BLKREFS
331
92
102
}
 70
     0
280
     1
281
     0
  0
BLOCK_RECORD
  5
11E
330
1
100
AcDbSymbolTableRecord
100
AcDbBlockTableRecord
  2
3_ASME_B18_3_10_1_0_in_069379_4
340
0
102
{BLKREFS
331
11F
102
}
 70
     0
280
     1
281
     0
  0
BLOCK_RECORD
  5
131
330
1
100
AcDbSymbolTableRecord
100
AcDbBlockTableRecord
  2
4_ASME_B18_3_10_2_0_in_069379_4
340
0
102
{BLKREFS
331
132
102
}
 70
     0
280
     1
281
     0
  0
BLOCK_RECORD
  5
153
330
1
100
AcDbSymbolTableRecord
100
AcDbBlockTableRecord
  2
5_070891LW_0_in_069379_4
340
0
102
{BLKREFS
331
154
102
}
 70
     0
280
     1
281
     0
  0
BLOCK_RECORD
  5
189
330
1
100
AcDbSymbolTableRecord
100
AcDbBlockTableRecord
  2
6_070891I_0_in_069379_4
340
0
102
{BLKREFS
331
18A
102
}
 70
     0
280
     1
281
     0
  0
BLOCK_RECORD
  5
20A
330
1
100
AcDbSymbolTableRecord
100
AcDbBlockTableRecord
  2
7_069379H_0_in_069379_4
340
0
102
{BLKREFS
331
20B
102
}
 70
     0
280
     1
281
     0
  0
ENDTAB
  0
ENDSEC
  0
SECTION
  2
BLOCKS
  0
BLOCK
  5
20
330
1F
100
AcDbEntity
  8
0
100
AcDbBlockBegin
  2
*Model_Space
 70
     0
 10
0.0
 20
0.0
 30
0.0
  3
*Model_Space
  1

  0
ENDBLK
  5
21
330
1F
100
AcDbEntity
  8
0
100
AcDbBlockEnd
  0
BLOCK
  5
1C
330
1B
100
AcDbEntity
 67
     1
  8
0
100
AcDbBlockBegin
  2
*Paper_Space
 70
     0
 10
0.0
 20
0.0
 30
0.0
  3
*Paper_Space
  1

  0
ENDBLK
  5
1D
330
1B
100
AcDbEntity
 67
     1
  8
0
100
AcDbBlockEnd
  0
BLOCK
  5
24
330
23
100
AcDbEntity
  8
0
100
AcDbBlockBegin
  2
*Paper_Space0
 70
     0
 10
0.0
 20
0.0
 30
0.0
  3
*Paper_Space0
  1

  0
ENDBLK
  5
25
330
23
100
AcDbEntity
  8
0
100
AcDbBlockEnd
  0
BLOCK
  5
70
330
6E
100
AcDbEntity
  8
0
100
AcDbBlockBegin
  2
1_069379_4
 70
     2
 10
0.0
 20
0.0
 30
0.0
  3
1_069379_4
  1

  0
ATTDEF
  5
73
330
6E
100
AcDbEntity
  8
AM_6
100
AcDbText
 10
8.984375
 20
1.27334375
 30
0.0
 40
0.5
  1
Imperial - IP Wide Slot Take-Up
100
AcDbAttributeDefinition
  3

  2
NN
 70
     8
280
     0
  0
ATTDEF
  5
74
330
6E
100
AcDbEntity
  8
AM_6
100
AcDbText
 10
8.984375
 20
0.7733437500000002
 30
0.0
 40
0.5
  1
Imperial Wide Slot Take-Up Bearings
100
AcDbAttributeDefinition
  3

  2
NT
 70
     8
280
     0
  0
ATTDEF
  5
75
330
6E
100
AcDbEntity
  8
AM_6
100
AcDbText
 10
8.984375
 20
0.2733437500000002
 30
0.0
 40
0.5
  1
069379
100
AcDbAttributeDefinition
  3

  2
NB
 70
     8
280
     0
  0
ATTDEF
  5
76
330
6E
100
AcDbEntity
  8
AM_6
100
AcDbText
 10
8.984375
 20
-0.2266562499999998
 30
0.0
 40
0.5
  1
$PN.
100
AcDbAttributeDefinition
  3

  2
NBSYN
 70
     8
280
     0
  0
ATTDEF
  5
77
330
6E
100
AcDbEntity
  8
AM_6
100
AcDbText
 10
8.984375
 20
-0.7266562499999998
 30
0.0
 40
0.5
  1
069379
100
AcDbAttributeDefinition
  3

  2
LINA
 70
     8
280
     0
  0
ATTDEF
  5
78
330
6E
100
AcDbEntity
  8
AM_6
100
AcDbText
 10
8.984375
 20
-1.22665625
 30
0.0
 40
0.5
  1
2
100
AcDbAttributeDefinition
  3

  2
SS
 70
     8
280
     0
  0
ATTDEF
  5
79
330
6E
100
AcDbEntity
  8
AM_6
100
AcDbText
 10
8.984375
 20
-1.72665625
 30
0.0
 40
0.5
  1
069379
100
AcDbAttributeDefinition
  3

  2
PN
 70
     8
280
     0
  0
ATTDEF
  5
7A
330
6E
100
AcDbEntity
  8
AM_6
100
AcDbText
 10
8.984375
 20
-2.22665625
 30
0.0
 40
0.5
  1
WSTU-IP-200RE
100
AcDbAttributeDefinition
  3

  2
DESCRIPTION
 70
     8
280
     0
  0
ATTDEF
  5
7B
330
6E
100
AcDbEntity
  8
AM_6
100
AcDbText
 10
8.984375
 20
-2.72665625
 30
0.0
 40
0.5
  1
Expansion
100
AcDbAttributeDefinition
  3

  2
EF
 70
     8
280
     0
  0
ATTDEF
  5
7C
330
6E
100
AcDbEntity
  8
AM_6
100
AcDbText
 10
8.984375
 20
-3.22665625
 30
0.0
 40
0.5
  1
Contact Seal
100
AcDbAttributeDefinition
  3

  2
ST
 70
     8
280
     0
  0
ATTDEF
  5
7D
330
6E
100
AcDbEntity
  8
AM_6
100
AcDbText
 10
8.984375
 20
-3.72665625
 30
0.0
 40
0.5
  1
2-55/64
100
AcDbAttributeDefinition
  3

  2
A
 70
     8
280
     0
  0
ATTDEF
  5
7E
330
6E
100
AcDbEntity
  8
AM_6
100
AcDbText
 10
8.984375
 20
-4.22665625
 30
0.0
 40
0.5
  1
6-3/16
100
AcDbAttributeDefinition
  3

  2
B
 70
     8
280
     0
  0
ATTDEF
  5
7F
330
6E
100
AcDbEntity
  8
AM_6
100
AcDbText
 10
8.984375
 20
-4.72665625
 30
0.0
 40
0.5
  1
11/16
100
AcDbAttributeDefinition
  3

  2
C
 70
     8
280
     0
  0
ATTDEF
  5
80
330
6E
100
AcDbEntity
  8
AM_6
100
AcDbText
 10
8.984375
 20
-5.22665625
 30
0.0
 40
0.5
  1
3-5/8
100
AcDbAttributeDefinition
  3

  2
D
 70
     8
280
     0
  0
ATTDEF
  5
81
330
6E
100
AcDbEntity
  8
AM_6
100
AcDbText
 10
8.984375
 20
-5.72665625
 30
0.0
 40
0.5
  1
3-15/16
100
AcDbAttributeDefinition
  3

  2
E
 70
     8
280
     0
  0
ATTDEF
  5
82
330
6E
100
AcDbEntity
  8
AM_6
100
AcDbText
 10
8.984375
 20
-6.22665625
 30
0.0
 40
0.5
  1
1-1/8
100
AcDbAttributeDefinition
  3

  2
F
 70
     8
280
     0
  0
ATTDEF
  5
83
330
6E
100
AcDbEntity
  8
AM_6
100
AcDbText
 10
8.984375
 20
-6.72665625
 30
0.0
 40
0.5
  1
15/16
100
AcDbAttributeDefinition
  3

  2
G
 70
     8
280
     0
  0
ATTDEF
  5
84
330
6E
100
AcDbEntity
  8
AM_6
100
AcDbText
 10
8.984375
 20
-7.22665625
 30
0.0
 40
0.5
  1
3/4
100
AcDbAttributeDefinition
  3

  2
H
 70
     8
280
     0
  0
ATTDEF
  5
85
330
6E
100
AcDbEntity
  8
AM_6
100
AcDbText
 10
8.984375
 20
-7.72665625
 30
0.0
 40
0.5
  1
3-5/16
100
AcDbAttributeDefinition
  3

  2
J
 70
     8
280
     0
  0
ATTDEF
  5
86
330
6E
100
AcDbEntity
  8
AM_6
100
AcDbText
 10
8.984375
 20
-8.22665625
 30
0.0
 40
0.5
  1
1-15/16
100
AcDbAttributeDefinition
  3

  2
K
 70
     8
280
     0
  0
ATTDEF
  5
87
330
6E
100
AcDbEntity
  8
AM_6
100
AcDbText
 10
8.984375
 20
-8.72665625
 30
0.0
 40
0.5
  1
3-9/32
100
AcDbAttributeDefinition
  3

  2
L
 70
     8
280
     0
  0
ATTDEF
  5
88
330
6E
100
AcDbEntity
  8
AM_6
100
AcDbText
 10
8.984375
 20
-9.22665625
 30
0.0
 40
0.5
  1
4
100
AcDbAttributeDefinition
  3

  2
M
 70
     8
280
     0
  0
ATTDEF
  5
89
330
6E
100
AcDbEntity
  8
AM_6
100
AcDbText
 10
8.984375
 20
-9.72665625
 30
0.0
 40
0.5
  1
4-3/4
100
AcDbAttributeDefinition
  3

  2
N
 70
     8
280
     0
  0
ATTDEF
  5
8A
330
6E
100
AcDbEntity
  8
AM_6
100
AcDbText
 10
8.984375
 20
-10.22665625
 30
0.0
 40
0.5
  1
2-15/16
100
AcDbAttributeDefinition
  3

  2
R
 70
     8
280
     0
  0
ATTDEF
  5
8B
330
6E
100
AcDbEntity
  8
AM_6
100
AcDbText
 10
8.984375
 20
-10.72665625
 30
0.0
 40
0.5
  1
2
100
AcDbAttributeDefinition
  3

  2
S
 70
     8
280
     0
  0
ATTDEF
  5
8C
330
6E
100
AcDbEntity
  8
AM_6
100
AcDbText
 10
8.984375
 20
-11.22665625
 30
0.0
 40
0.5
  1
2
100
AcDbAttributeDefinition
  3

  2
T
 70
     8
280
     0
  0
ATTDEF
  5
8D
330
6E
100
AcDbEntity
  8
AM_6
100
AcDbText
 10
8.984375
 20
-11.72665625
 30
0.0
 40
0.5
  1
1/4
100
AcDbAttributeDefinition
  3

  2
X
 70
     8
280
     0
  0
ATTDEF
  5
8E
330
6E
100
AcDbEntity
  8
AM_6
100
AcDbText
 10
8.984375
 20
-12.22665625
 30
0.0
 40
0.5
  1
0.020
100
AcDbAttributeDefinition
  3

  2
Y
 70
     8
280
     0
  0
ATTDEF
  5
8F
330
6E
100
AcDbEntity
  8
AM_6
100
AcDbText
 10
8.984375
 20
-12.72665625
 30
0.0
 40
0.5
  1
2-19/64
100
AcDbAttributeDefinition
  3

  2
Z
 70
     8
280
     0
  0
ATTDEF
  5
90
330
6E
100
AcDbEntity
  8
AM_6
100
AcDbText
 10
8.984375
 20
-13.22665625
 30
0.0
 40
0.5
  1
baldor
100
AcDbAttributeDefinition
  3

  2
COMPANY
 70
     8
280
     0
  0
INSERT
  5
92
330
6E
100
AcDbEntity
  8
0
100
AcDbBlockReference
  2
2_405016_Inch_0_in_069379_4
 10
0.0
 20
0.0
 30
0.0
  0
INSERT
  5
11F
330
6E
100
AcDbEntity
  8
0
100
AcDbBlockReference
  2
3_ASME_B18_3_10_1_0_in_069379_4
 10
0.0
 20
0.0
 30
0.0
  0
INSERT
  5
132
330
6E
100
AcDbEntity
  8
0
100
AcDbBlockReference
  2
4_ASME_B18_3_10_2_0_in_069379_4
 10
0.0
 20
0.0
 30
0.0
  0
INSERT
  5
154
330
6E
100
AcDbEntity
  8
0
100
AcDbBlockReference
  2
5_070891LW_0_in_069379_4
 10
0.0
 20
0.0
 30
0.0
  0
INSERT
  5
18A
330
6E
100
AcDbEntity
  8
0
100
AcDbBlockReference
  2
6_070891I_0_in_069379_4
 10
0.0
 20
0.0
 30
0.0
  0
INSERT
  5
20B
330
6E
100
AcDbEntity
  8
0
100
AcDbBlockReference
  2
7_069379H_0_in_069379_4
 10
0.0
 20
0.0
 30
0.0
  0
ENDBLK
  5
71
330
6E
100
AcDbEntity
  8
0
100
AcDbBlockEnd
  0
BLOCK
  5
93
330
91
100
AcDbEntity
  8
0
100
AcDbBlockBegin
  2
2_405016_Inch_0_in_069379_4
 70
     2
 10
0.0
 20
0.0
 30
0.0
  3
2_405016_Inch_0_in_069379_4
  1

  0
ATTDEF
  5
95
330
91
100
AcDbEntity
  8
AM_6
100
AcDbText
 10
3.084499707584325
 20
0.2187500000000008
 30
0.0
 40
0.5
  1
405016 -Inch
100
AcDbAttributeDefinition
  3

  2
NN
 70
     8
280
     0
  0
ATTDEF
  5
96
330
91
100
AcDbEntity
  8
AM_6
100
AcDbText
 10
3.084499707584325
 20
-0.2812499999999992
 30
0.0
 40
0.5
  1
Grease Fitting
100
AcDbAttributeDefinition
  3

  2
NT
 70
     8
280
     0
  0
ATTDEF
  5
97
330
91
100
AcDbEntity
  8
AM_6
100
AcDbText
 10
3.084499707584325
 20
-0.7812499999999992
 30
0.0
 40
0.5
  1
405016-Inch
100
AcDbAttributeDefinition
  3

  2
NB
 70
     8
280
     0
  0
ATTDEF
  5
98
330
91
100
AcDbEntity
  8
AM_6
100
AcDbText
 10
3.084499707584325
 20
-1.281249999999999
 30
0.0
 40
0.5
  1
$MN.-Inch
100
AcDbAttributeDefinition
  3

  2
NBSYN
 70
     8
280
     0
  0
ATTDEF
  5
99
330
91
100
AcDbEntity
  8
AM_6
100
AcDbText
 10
3.084499707584325
 20
-1.781249999999999
 30
0.0
 40
0.5
  1
405016
100
AcDbAttributeDefinition
  3

  2
LINA
 70
     8
280
     0
  0
ATTDEF
  5
9A
330
91
100
AcDbEntity
  8
AM_6
100
AcDbText
 10
3.084499707584325
 20
-2.281249999999999
 30
0.0
 40
0.5
  1
405016
100
AcDbAttributeDefinition
  3

  2
MN
 70
     8
280
     0
  0
ATTDEF
  5
9B
330
91
100
AcDbEntity
  8
AM_6
100
AcDbText
 10
3.084499707584325
 20
-2.781249999999999
 30
0.0
 40
0.5
  1
7/16 HEX
100
AcDbAttributeDefinition
  3

  2
H
 70
     8
280
     0
  0
ATTDEF
  5
9C
330
91
100
AcDbEntity
  8
AM_6
100
AcDbText
 10
3.084499707584325
 20
-3.281249999999999
 30
0.0
 40
0.5
  1
0.383
100
AcDbAttributeDefinition
  3

  2
NDR
 70
     8
280
     0
  0
ATTDEF
  5
9D
330
91
100
AcDbEntity
  8
AM_6
100
AcDbText
 10
3.084499707584325
 20
-3.781249999999999
 30
0.0
 40
0.5
  1
0.337
100
AcDbAttributeDefinition
  3

  2
KDR
 70
     8
280
     0
  0
ATTDEF
  5
9E
330
91
100
AcDbEntity
  8
AM_6
100
AcDbText
 10
3.084499707584325
 20
-4.281249999999999
 30
0.0
 40
0.5
  1
0.1575
100
AcDbAttributeDefinition
  3

  2
BZE
 70
     8
280
     0
  0
ATTDEF
  5
9F
330
91
100
AcDbEntity
  8
AM_6
100
AcDbText
 10
3.084499707584325
 20
-4.781249999999999
 30
0.0
 40
0.5
  1
0.4375
100
AcDbAttributeDefinition
  3

  2
HEX
 70
     8
280
     0
  0
ATTDEF
  5
A0
330
91
100
AcDbEntity
  8
AM_6
100
AcDbText
 10
3.084499707584325
 20
-5.281249999999999
 30
0.0
 40
0.5
  1
0.281250
100
AcDbAttributeDefinition
  3

  2
HEX2
 70
     8
280
     0
  0
ATTDEF
  5
A1
330
91
100
AcDbEntity
  8
AM_6
100
AcDbText
 10
3.084499707584325
 20
-5.781249999999999
 30
0.0
 40
0.5
  1
baldor
100
AcDbAttributeDefinition
  3

  2
COMPANY
 70
     8
280
     0
  0
LWPOLYLINE
  5
A4
330
91
100
AcDbEntity
  8
AM_9
100
AcDbPolyline
 90
        3
 70
     0
 43
0.0
 10
-2.241007192610647
 20
-0.0000000000000001
 10
-2.25895040497148
 20
-0.0544416102741496
 10
-2.273070064068432
 20
-0.109375
  0
LWPOLYLINE
  5
A5
330
91
100
AcDbEntity
  8
AM_9
100
AcDbPolyline
 90
        3
 70
     0
 43
0.0
 10
-2.273070064068432
 20
0.1093749999999999
 10
-2.259023190337012
 20
0.0546874999999999
 10
-2.241007192610647
 20
-0.0000000000000001
  0
LINE
  5
A6
330
91
100
AcDbEntity
  8
AM_9
100
AcDbLine
 10
-2.648942715455961
 20
-0.151074129835757
 30
0.0
 11
-2.661063814739657
 21
-0.1791093260592887
 31
0.0
  0
LINE
  5
A7
330
91
100
AcDbEntity
  8
AM_9
100
AcDbLine
 10
-2.500139425955609
 20
-0.2099962668917053
 30
0.0
 11
-2.512652021950779
 21
-0.2389369657326276
 31
0.0
  0
LWPOLYLINE
  5
A8
330
91
100
AcDbEntity
  8
AM_9
100
AcDbPolyline
 90
        3
 70
     0
 43
0.0
 10
-2.180351678611752
 20
-0.109375
 10
-2.170743012923762
 20
-0.0546875000000001
 10
-2.165103471230719
 20
-0.0000000000000001
  0
LWPOLYLINE
  5
A9
330
91
100
AcDbEntity
  8
AM_9
100
AcDbPolyline
 90
        3
 70
     0
 43
0.0
 10
-2.165103471230719
 20
-0.0000000000000001
 10
-2.170709436614274
 20
0.0544416102741495
 10
-2.180351678611752
 20
0.1093749999999999
  0
LWPOLYLINE
  5
AA
330
91
100
AcDbEntity
  8
AM_9
100
AcDbPolyline
 90
        3
 70
     0
 43
0.0
 10
-2.425070040411327
 20
-0.2987675689889718
 10
-2.444713630574456
 20
-0.2912216284034024
 10
-2.463666193416957
 20
-0.2813919000363599
  0
LWPOLYLINE
  5
AB
330
91
100
AcDbEntity
  8
AM_9
100
AcDbPolyline
 90
        3
 70
     0
 43
0.0
 10
-2.288318271449465
 20
0.2187499999999999
 10
-2.28271230606591
 20
0.1643083897258503
 10
-2.273070064068432
 20
0.1093749999999999
  0
LINE
  5
AC
330
91
100
AcDbEntity
  8
AM_9
100
AcDbLine
 10
-2.241007192610647
 20
-0.0000000000000001
 30
0.0
 11
-2.165103471230719
 21
-0.0000000000000001
 31
0.0
  0
LWPOLYLINE
  5
AD
330
91
100
AcDbEntity
  8
AM_9
100
AcDbPolyline
 90
        3
 70
     0
 43
0.0
 10
-2.273070064068432
 20
-0.109375
 10
-2.282678729756422
 20
-0.1640625
 10
-2.288318271449465
 20
-0.2187500000000001
  0
LWPOLYLINE
  5
AE
330
91
100
AcDbEntity
  8
AM_9
100
AcDbPolyline
 90
        3
 70
     0
 43
0.0
 10
-2.444073951970404
 20
-0.2360765106845278
 10
-2.432417316523235
 20
-0.2462091938631851
 10
-2.425882597715631
 20
-0.2528207338751511
  0
LINE
  5
AF
330
91
100
AcDbEntity
  8
AM_9
100
AcDbLine
 10
-2.20586430136607
 20
0.2000413016192556
 30
0.0
 11
-2.212414550069538
 21
0.2187499999999999
 31
0.0
  0
LWPOLYLINE
  5
B0
330
91
100
AcDbEntity
  8
AM_9
100
AcDbPolyline
 90
        3
 70
     0
 43
0.0
 10
-2.180351678611752
 20
0.1093749999999999
 10
-2.194398552343172
 20
0.1640624999999999
 10
-2.20586430136607
 20
0.2000413016192556
  0
LWPOLYLINE
  5
B1
330
91
100
AcDbEntity
  8
AM_9
100
AcDbPolyline
 90
        3
 70
     0
 43
0.0
 10
-2.20586419867571
 20
-0.2000409996967265
 10
-2.194471337708704
 20
-0.1643083897258505
 10
-2.180351678611752
 20
-0.109375
  0
LINE
  5
B2
330
91
100
AcDbEntity
  8
AM_9
100
AcDbLine
 10
-2.212414550069538
 20
-0.2187500000000001
 30
0.0
 11
-2.20586419867571
 21
-0.2000409996967265
 31
0.0
  0
ELLIPSE
  5
B3
330
91
100
AcDbEntity
  8
AM_9
100
AcDbEllipse
 10
-2.671414061020653
 20
-0.4687500000000001
 30
0.0
 11
-0.09498502069410988
 21
0.04106705218388613
 31
0.0
210
0.0
220
0.0
230
1.0
 40
0.1583155873460401
 41
3.066756133314201
 42
6.358021827455186
  0
ELLIPSE
  5
B4
330
91
100
AcDbEntity
  8
AM_9
100
AcDbEllipse
 10
-2.641443494907602
 20
-0.399430321788976
 30
0.0
 11
-0.127722180120792
 21
0.0552210590441607
 31
0.0
210
0.0
220
0.0
230
1.0
 40
0.1583155873460343
 41
3.065594630857186
 42
5.93217652488275
  0
LINE
  5
B5
330
91
100
AcDbEntity
  8
AM_9
100
AcDbLine
 10
-2.639732090382626
 20
-0.1182889283861136
 30
0.0
 11
-2.640378523561346
 21
-0.1197840799880172
 31
0.0
  0
LINE
  5
B6
330
91
100
AcDbEntity
  8
AM_9
100
AcDbLine
 10
-2.435378309380137
 20
-0.2
 30
0.0
 11
-2.433813568555791
 21
-0.1963808714851038
 31
0.0
  0
ELLIPSE
  5
B7
330
91
100
AcDbEntity
  8
AM_9
100
AcDbEllipse
 10
-2.555819836485985
 20
-0.2013892028241928
 30
0.0
 11
-0.1009671980072491
 21
0.04365346408438265
 31
0.0
210
0.0
220
0.0
230
1.0
 40
0.1583155873460392
 41
3.141592653589793
 42
6.283185307179586
  0
LWPOLYLINE
  5
B8
330
91
100
AcDbEntity
  8
AM_9
100
AcDbPolyline
 90
        3
 70
     0
 43
0.0
 10
-2.639735001151131
 20
-0.1182956618802583
 10
-2.639431235122441
 20
-0.1208367673933812
 10
-2.638549993050947
 20
-0.1221908241006354
  0
LWPOLYLINE
  5
B9
330
91
100
AcDbEntity
  8
AM_9
100
AcDbPolyline
 90
        4
 70
     0
 43
0.0
 10
-2.433818801739716
 20
-0.1963929740740921
 10
-2.434268123018238
 20
-0.1971856748420371
 10
-2.437796259116342
 20
-0.1994144431868155
 10
-2.442686748196218
 20
-0.1999999999699529
  0
LWPOLYLINE
  5
BA
330
91
100
AcDbEntity
  8
AM_9
100
AcDbPolyline
 90
        5
 70
     0
 43
0.0
 10
-2.661063814739657
 20
-0.1791093260592887
 10
-2.678111167970558
 20
-0.1842540823997054
 10
-2.69402222646669
 20
-0.1862220679364951
 10
-2.708709896450137
 20
-0.1844124966919381
 10
-2.721892344675281
 20
-0.1791093260592887
  0
LWPOLYLINE
  5
BB
330
91
100
AcDbEntity
  8
AM_9
100
AcDbPolyline
 90
        4
 70
     0
 43
0.0
 10
-2.588322371383513
 20
-0.2168194786213518
 10
-2.588654250511019
 20
-0.216687117104632
 10
-2.625611091542072
 20
-0.1996402057054678
 10
-2.661063814739657
 20
-0.1791093260592887
  0
LWPOLYLINE
  5
BC
330
91
100
AcDbEntity
  8
AM_9
100
AcDbPolyline
 90
        3
 70
     0
 43
0.0
 10
-2.538068824677973
 20
-0.2330731529818579
 10
-2.551056713798301
 20
-0.2295338871417796
 10
-2.588322371383513
 20
-0.2168194786213518
  0
LINE
  5
BD
330
91
100
AcDbEntity
  8
AM_9
100
AcDbLine
 10
-2.512652021950779
 20
-0.2389369657326276
 30
0.0
 11
-2.538068824677973
 21
-0.2330731529818579
 31
0.0
  0
LWPOLYLINE
  5
BE
330
91
100
AcDbEntity
  8
AM_9
100
AcDbPolyline
 90
        3
 70
     0
 43
0.0
 10
-2.478784481639545
 20
-0.2711532636537956
 10
-2.496241780721178
 20
-0.2561815527589921
 10
-2.512652021950779
 20
-0.2389369657326276
  0
LINE
  5
BF
330
91
100
AcDbEntity
  8
AM_9
100
AcDbLine
 10
-2.508719189275149
 20
-0.2041669557382502
 30
0.0
 11
-2.500139425955609
 21
-0.2099962668917053
 31
0.0
  0
LWPOLYLINE
  5
C0
330
91
100
AcDbEntity
  8
AM_9
100
AcDbPolyline
 90
        6
 70
     0
 43
0.0
 10
-2.648942715455961
 20
-0.151074129835757
 10
-2.620014526358106
 20
-0.1564222384464442
 10
-2.591482833117464
 20
-0.1639940363880805
 10
-2.563220985212707
 20
-0.1744063212866122
 10
-2.53594187607378
 20
-0.1876759562813858
 10
-2.508719189275149
 20
-0.2041669557382502
  0
LWPOLYLINE
  5
C1
330
91
100
AcDbEntity
  8
AM_9
100
AcDbPolyline
 90
        3
 70
     0
 43
0.0
 10
-2.500139425955609
 20
-0.2099962668917053
 10
-2.479248667680448
 20
-0.2163479371246913
 10
-2.459192240192992
 20
-0.2258378743019629
  0
LWPOLYLINE
  5
C2
330
91
100
AcDbEntity
  8
AM_9
100
AcDbPolyline
 90
        4
 70
     0
 43
0.0
 10
-2.67541367216093
 20
-0.141958509815605
 10
-2.672522211271334
 20
-0.1420496512545706
 10
-2.661936012698538
 20
-0.1441228263802214
 10
-2.648942715455961
 20
-0.151074129835757
  0
ELLIPSE
  5
C3
330
91
100
AcDbEntity
  8
AM_9
100
AcDbEllipse
 10
-2.555819836485991
 20
-0.201389202824188
 30
0.0
 11
-0.1290773838160782
 21
0.05580698533514233
 31
0.0
210
0.0
220
0.0
230
1.0
 40
0.158315587346037
 41
3.937411257393411
 42
5.610613825799304
  0
ELLIPSE
  5
C4
330
91
100
AcDbEntity
  8
AM_9
100
AcDbEllipse
 10
-2.630014649483043
 20
-0.3729962569746644
 30
0.0
 11
-0.1222564956648751
 21
0.05285795434479281
 31
0.0
210
0.0
220
0.0
230
1.0
 40
0.1583155873460393
 41
3.332300388220219
 42
5.932176524882752
  0
LINE
  5
C5
330
91
100
AcDbEntity
  8
AM_9
100
AcDbLine
 10
-2.463666193416957
 20
-0.2813919000363599
 30
0.0
 11
-2.478784481639545
 21
-0.2711532636537956
 31
0.0
  0
ELLIPSE
  5
C6
330
91
100
AcDbEntity
  8
AM_9
100
AcDbEllipse
 10
-2.575412077932545
 20
-0.246704592176019
 30
0.0
 11
-0.129077383816079
 21
0.05580698533514386
 31
0.0
210
0.0
220
0.0
230
1.0
 40
0.1583155873460368
 41
2.931540131874943
 42
3.738151587585699
  0
LWPOLYLINE
  5
C7
330
91
100
AcDbEntity
  8
AM_9
100
AcDbPolyline
 90
        3
 70
     0
 43
0.0
 10
-2.702953636889169
 20
-0.1972757982658331
 10
-2.701560125277703
 20
-0.19967029406669
 10
-2.701443202359637
 20
-0.199881749662247
  0
ELLIPSE
  5
C8
330
91
100
AcDbEntity
  8
AM_9
100
AcDbEllipse
 10
-2.575412077932544
 20
-0.2467045921760201
 30
0.0
 11
-0.1290773838160799
 21
0.05580698533514308
 31
0.0
210
0.0
220
0.0
230
1.0
 40
0.158315587346031
 41
3.937411257393414
 42
6.73936774456874
  0
LINE
  5
C9
330
91
100
AcDbEntity
  8
AM_9
100
AcDbLine
 10
-2.459192240192992
 20
-0.2258378743019629
 30
0.0
 11
-2.449412842730506
 21
-0.2324608261325392
 31
0.0
  0
LWPOLYLINE
  5
CA
330
91
100
AcDbEntity
  8
AM_9
100
AcDbPolyline
 90
       17
 70
     0
 43
0.0
 10
-2.446825053383105
 20
-0.1790373738501779
 10
-2.456874115305935
 20
-0.1733931390117467
 10
-2.469494532352949
 20
-0.1670729780242511
 10
-2.48362866770857
 20
-0.1606047421316795
 10
-2.499679463187766
 20
-0.1538031670974777
 10
-2.516314120033167
 20
-0.1472336073736393
 10
-2.534000156523276
 20
-0.1407130262602576
 10
-2.551245538445094
 20
-0.1347930597680667
 10
-2.56855462663488
 20
-0.1293028157827817
 10
-2.584444883040998
 20
-0.1247141396218192
 10
-2.599403167370875
 20
-0.1208880884981781
 10
-2.612142839630223
 20
-0.1181545989145989
 10
-2.623064266854461
 20
-0.1164278875396128
 10
-2.631234751463121
 20
-0.1158549073091554
 10
-2.636910913549285
 20
-0.1164156227038167
 10
-2.639615065309467
 20
-0.1180609686233501
 10
-2.639735001151131
 20
-0.1182956618802583
  0
LWPOLYLINE
  5
CB
330
91
100
AcDbEntity
  8
AM_9
100
AcDbPolyline
 90
        5
 70
     0
 43
0.0
 10
-2.446825053383105
 20
-0.1790373738501784
 10
-2.439692575198879
 20
-0.1842628795203941
 10
-2.435370535711187
 20
-0.1891729979031393
 10
-2.433512173995394
 20
-0.1936098952159724
 10
-2.433818801739716
 20
-0.1963929740740921
  0
LINE
  5
CC
330
91
100
AcDbEntity
  8
AM_9
100
AcDbLine
 10
-2.344036682326659
 20
0.1999999999999999
 30
0.0
 11
-2.389117342633285
 21
0.1999999999999999
 31
0.0
  0
LINE
  5
CD
330
91
100
AcDbEntity
  8
AM_9
100
AcDbLine
 10
-2.389120173445308
 20
-0.2
 30
0.0
 11
-2.344036682326659
 21
-0.2
 31
0.0
  0
LINE
  5
CE
330
91
100
AcDbEntity
  8
AM_9
100
AcDbLine
 10
-2.178882058231951
 20
0.1999999999999998
 30
0.0
 11
-2.251318296869981
 21
0.1999999999999998
 31
0.0
  0
LINE
  5
CF
330
91
100
AcDbEntity
  8
AM_9
100
AcDbLine
 10
-2.251318296869981
 20
-0.2
 30
0.0
 11
-2.178882058231951
 21
-0.2
 31
0.0
  0
LINE
  5
D0
330
91
100
AcDbEntity
  8
AM_9
100
AcDbLine
 10
-2.314098025209322
 20
-0.2187500000000001
 30
0.0
 11
-2.212414550069538
 21
-0.2187500000000001
 31
0.0
  0
LINE
  5
D1
330
91
100
AcDbEntity
  8
AM_9
100
AcDbLine
 10
-2.308958939207206
 20
-0.1960292932966422
 30
0.0
 11
-2.307036707747175
 21
-0.2187500000000001
 31
0.0
  0
LWPOLYLINE
  5
D2
330
91
100
AcDbEntity
  8
AM_9
100
AcDbPolyline
 90
        3
 70
     0
 43
0.0
 10
-2.322284915128209
 20
-0.109375
 10
-2.312676249440218
 20
-0.1640625
 10
-2.308958939207206
 20
-0.1960292932966422
  0
LINE
  5
D3
330
91
100
AcDbEntity
  8
AM_9
100
AcDbLine
 10
-2.333921074480506
 20
-0.0629945368372909
 30
0.0
 11
-2.322284915128209
 21
-0.109375
 31
0.0
  0
LINE
  5
D4
330
91
100
AcDbEntity
  8
AM_9
100
AcDbLine
 10
-2.314056408535056
 20
0.2187499999999999
 30
0.0
 11
-2.212414550069538
 21
0.2187499999999999
 31
0.0
  0
LINE
  5
D5
330
91
100
AcDbEntity
  8
AM_9
100
AcDbLine
 10
-2.322284915128209
 20
0.1093749999999999
 30
0.0
 11
-2.333938135878043
 21
0.0629345754066001
 31
0.0
  0
LWPOLYLINE
  5
D6
330
91
100
AcDbEntity
  8
AM_9
100
AcDbPolyline
 90
        3
 70
     0
 43
0.0
 10
-2.309265313136182
 20
0.1929260955782976
 10
-2.31264267313073
 20
0.1643083897258503
 10
-2.322284915128209
 20
0.1093749999999999
  0
LINE
  5
D7
330
91
100
AcDbEntity
  8
AM_9
100
AcDbLine
 10
-2.307036707747175
 20
0.2187499999999999
 30
0.0
 11
-2.309265313136182
 21
0.1929260955782976
 31
0.0
  0
LINE
  5
D8
330
91
100
AcDbEntity
  8
AM_9
100
AcDbLine
 10
-1.997207497046304
 20
0.1854025098511931
 30
0.0
 11
-2.177976219361388
 21
0.191495967186768
 31
0.0
  0
LINE
  5
D9
330
91
100
AcDbEntity
  8
AM_9
100
AcDbLine
 10
-2.177976219361388
 20
-0.1914959671867681
 30
0.0
 11
-1.997207497046304
 21
-0.1854025098511932
 31
0.0
  0
LINE
  5
DA
330
91
100
AcDbEntity
  8
AM_9
100
AcDbLine
 10
-1.951592641558647
 20
0.1478814731883059
 30
0.0
 11
-1.970021440238391
 21
0.1696099849128765
 31
0.0
  0
LINE
  5
DB
330
91
100
AcDbEntity
  8
AM_9
100
AcDbLine
 10
-1.970021440238391
 20
-0.1696099849128766
 30
0.0
 11
-1.951592641558647
 21
-0.147881473188306
 31
0.0
  0
ELLIPSE
  5
DC
330
91
100
AcDbEntity
  8
AM_9
100
AcDbEllipse
 10
-2.34403668232666
 20
0.0
 30
0.0
 11
1.339457436567422E-17
 21
0.2187500000000008
 31
0.0
210
0.0
220
0.0
230
1.0
 40
0.3746065934159076
 41
0.0
 42
6.283185307179586
  0
ELLIPSE
  5
DD
330
91
100
AcDbEntity
  8
AM_9
100
AcDbEllipse
 10
-2.344036682326658
 20
0.0000000000000002
 30
0.0
 11
1.224646799147355E-17
 21
0.2000000000000002
 31
0.0
210
0.0
220
0.0
230
1.0
 40
0.3746065934159089
 41
0.0
 42
6.283185307179586
  0
ELLIPSE
  5
DE
330
91
100
AcDbEntity
  8
AM_9
100
AcDbEllipse
 10
-2.251318296869981
 20
-0.0000000000000005
 30
0.0
 11
1.339457436567414E-17
 21
0.2187499999999995
 31
0.0
210
0.0
220
0.0
230
1.0
 40
0.3746065934159077
 41
0.0
 42
6.283185307179586
  0
ELLIPSE
  5
DF
330
91
100
AcDbEntity
  8
AM_9
100
AcDbEllipse
 10
-2.251318296869981
 20
-0.0000000000000001
 30
0.0
 11
1.224646799147353E-17
 21
0.1999999999999999
 31
0.0
210
0.0
220
0.0
230
1.0
 40
0.3746065934159138
 41
0.0
 42
6.283185307179586
  0
ELLIPSE
  5
E0
330
91
100
AcDbEntity
  8
AM_9
100
AcDbEllipse
 10
-2.178882058231951
 20
0.0000000000000004
 30
0.0
 11
1.224646799147349E-17
 21
0.1999999999999994
 31
0.0
210
0.0
220
0.0
230
1.0
 40
0.3746065934159127
 41
0.0
 42
6.283185307179586
  0
ELLIPSE
  5
E1
330
91
100
AcDbEntity
  8
AM_9
100
AcDbEllipse
 10
-2.178882058231951
 20
-0.0000000000000003
 30
0.0
 11
1.172668097677220E-17
 21
0.1915112338502297
 31
0.0
210
0.0
220
0.0
230
1.0
 40
0.3746065934159096
 41
0.0
 42
6.283185307179586
  0
ELLIPSE
  5
E2
330
91
100
AcDbEntity
  8
AM_9
100
AcDbEllipse
 10
-1.998084511860716
 20
-0.0000000000000002
 30
0.0
 11
1.135353457964639E-17
 21
0.1854172907249856
 31
0.0
210
0.0
220
0.0
230
1.0
 40
0.3746065934159136
 41
0.0
 42
6.283185307179586
  0
ELLIPSE
  5
E3
330
91
100
AcDbEntity
  8
AM_9
100
AcDbEllipse
 10
-1.976060590045466
 20
-0.0000000000000002
 30
0.0
 11
9.899048221688849E-18
 21
0.1616637258772236
 31
0.0
210
0.0
220
0.0
230
1.0
 40
0.3746065934159106
 41
0.0
 42
6.283185307179586
  0
LINE
  5
E5
330
91
100
AcDbEntity
  8
AM_4
100
AcDbLine
 10
-2.425777207781981
 20
-0.2529328073185282
 30
0.0
 11
-2.431574862429821
 21
-0.2467669665417465
 31
0.0
  0
LINE
  5
E6
330
91
100
AcDbEntity
  8
AM_4
100
AcDbLine
 10
-2.425882597715631
 20
-0.2528207338751511
 30
0.0
 11
-2.412163024810384
 21
-0.2689146070947223
 31
0.0
  0
ELLIPSE
  5
E7
330
91
100
AcDbEntity
  8
AM_4
100
AcDbEllipse
 10
-2.555819836485991
 20
-0.2013892028241876
 30
0.0
 11
-0.1290773838160781
 21
0.05580698533514287
 31
0.0
210
0.0
220
0.0
230
1.0
 40
0.1583155873460374
 41
2.931540131874957
 42
3.73815158758571
  0
LWPOLYLINE
  5
E8
330
91
100
AcDbEntity
  8
AM_4
100
AcDbPolyline
 90
        3
 70
     0
 43
0.0
 10
-2.412163024810384
 20
-0.2689146070947222
 10
-2.421187951090872
 20
-0.2634308483997528
 10
-2.431421799286479
 20
-0.2602304684431305
  0
LWPOLYLINE
  5
E9
330
91
100
AcDbEntity
  8
AM_4
100
AcDbPolyline
 90
        3
 70
     0
 43
0.0
 10
-2.451014040733032
 20
-0.3055458577949631
 10
-2.438419807045192
 20
-0.3030753670497808
 10
-2.425070040411327
 20
-0.2987675689889718
  0
LINE
  5
EA
330
91
100
AcDbEntity
  8
AM_4
100
AcDbLine
 10
-2.412163024810384
 20
-0.2689146070947222
 30
0.0
 11
-2.425070040411327
 21
-0.2987675689889718
 31
0.0
  0
LINE
  5
EB
330
91
100
AcDbEntity
  8
AM_4
100
AcDbLine
 10
-2.577180997927793
 20
-0.5108264199512539
 30
0.0
 11
-2.514732439103972
 21
-0.456008633280415
 31
0.0
  0
LINE
  5
EC
330
91
100
AcDbEntity
  8
AM_4
100
AcDbLine
 10
-2.769461824445433
 20
-0.3458756366863984
 30
0.0
 11
-2.766619323480754
 21
-0.4289222044837946
 31
0.0
  0
ELLIPSE
  5
ED
330
91
100
AcDbEntity
  8
AM_4
100
AcDbEllipse
 10
-2.671414061020653
 20
-0.46875
 30
0.0
 11
-0.09498502069411031
 21
0.04106705218388621
 31
0.0
210
0.0
220
0.0
230
1.0
 40
0.1583155873460479
 41
0.0748365202755981
 42
3.066756133314197
  0
LWPOLYLINE
  5
EE
330
91
100
AcDbEntity
  8
AM_4
100
AcDbPolyline
 90
        7
 70
     0
 43
0.0
 10
-2.748184302517287
 20
-0.3173376125109089
 10
-2.752609859129535
 20
-0.3190037520744096
 10
-2.758334329907949
 20
-0.3224396627063937
 10
-2.763379418431632
 20
-0.3273765052730363
 10
-2.767142201898962
 20
-0.3336271901473228
 10
-2.769218234275702
 20
-0.3410406514986769
 10
-2.769433168508327
 20
-0.3465096007182386
  0
LWPOLYLINE
  5
EF
330
91
100
AcDbEntity
  8
AM_4
100
AcDbPolyline
 90
        8
 70
     0
 43
0.0
 10
-2.514899719935884
 20
-0.4561543420280507
 10
-2.51168869987843
 20
-0.4528974366630905
 10
-2.507771310233916
 20
-0.4467607490247523
 10
-2.505486456094936
 20
-0.4393274650763318
 10
-2.50523224155018
 20
-0.4323708131585257
 10
-2.506429545648358
 20
-0.4261711005085224
 10
-2.508650690275651
 20
-0.4206946960867173
 10
-2.508703469049717
 20
-0.420591820433504
  0
ELLIPSE
  5
F0
330
91
100
AcDbEntity
  8
AM_4
100
AcDbEllipse
 10
-2.641443494907602
 20
-0.3994303217889759
 30
0.0
 11
-0.1277221801207919
 21
0.05522105904416068
 31
0.0
210
0.0
220
0.0
230
1.0
 40
0.158315587346049
 41
0.0789892181194425
 42
3.065594630857192
  0
LWPOLYLINE
  5
F1
330
91
100
AcDbEntity
  8
AM_4
100
AcDbPolyline
 90
        3
 70
     0
 43
0.0
 10
-2.48589857034695
 20
-0.2987675689889718
 10
-2.476316483988373
 20
-0.3030606061861223
 10
-2.465815796102345
 20
-0.3055458577949631
  0
LINE
  5
F2
330
91
100
AcDbEntity
  8
AM_4
100
AcDbLine
 10
-2.709771245391585
 20
-0.151074129835757
 30
0.0
 11
-2.721892344675281
 21
-0.1791093260592887
 31
0.0
  0
LWPOLYLINE
  5
F3
330
91
100
AcDbEntity
  8
AM_4
100
AcDbPolyline
 90
        3
 70
     0
 43
0.0
 10
-2.446223554655789
 20
-0.2602304684431209
 10
-2.453342367815528
 20
-0.2616913382589203
 10
-2.472991554746008
 20
-0.2689146070947222
  0
LINE
  5
F4
330
91
100
AcDbEntity
  8
AM_4
100
AcDbLine
 10
-2.640378523561346
 20
-0.1197840799880172
 30
0.0
 11
-2.656787034493235
 21
-0.1577357387398101
 31
0.0
  0
LINE
  5
F5
330
91
100
AcDbEntity
  8
AM_4
100
AcDbLine
 10
-2.454852638478748
 20
-0.245042666908566
 30
0.0
 11
-2.435378309380137
 21
-0.2
 31
0.0
  0
ELLIPSE
  5
F6
330
91
100
AcDbEntity
  8
AM_4
100
AcDbEllipse
 10
-2.555819836485991
 20
-0.2013892028241881
 30
0.0
 11
-0.1009671980072433
 21
0.04365346408437798
 31
0.0
210
0.0
220
0.0
230
1.0
 40
0.1583155873460366
 41
0.0
 42
3.141592653589793
  0
LWPOLYLINE
  5
F7
330
91
100
AcDbEntity
  8
AM_4
100
AcDbPolyline
 90
        3
 70
     0
 43
0.0
 10
-2.721892344675281
 20
-0.1791093260592887
 10
-2.702786454480299
 20
-0.1988355121406939
 10
-2.698652156724354
 20
-0.2025620431642226
  0
LINE
  5
F8
330
91
100
AcDbEntity
  8
AM_4
100
AcDbLine
 10
-2.698708281782699
 20
-0.2025128028333112
 30
0.0
 11
-2.695182188814312
 21
-0.2056064806068164
 31
0.0
  0
LWPOLYLINE
  5
F9
330
91
100
AcDbEntity
  8
AM_4
100
AcDbPolyline
 90
        4
 70
     0
 43
0.0
 10
-2.698652156724354
 20
-0.2025620431642226
 10
-2.681967391694241
 20
-0.2156330920108724
 10
-2.658908985515559
 20
-0.2290462109660021
 10
-2.634309081822029
 20
-0.2389369657326276
  0
LWPOLYLINE
  5
FA
330
91
100
AcDbEntity
  8
AM_4
100
AcDbPolyline
 90
        4
 70
     0
 43
0.0
 10
-2.709771245391585
 20
-0.151074129835757
 10
-2.69664798295531
 20
-0.145877822676052
 10
-2.684208981328374
 20
-0.1427138007556462
 10
-2.67541367216093
 20
-0.141958509815605
  0
LWPOLYLINE
  5
FB
330
91
100
AcDbEntity
  8
AM_4
100
AcDbPolyline
 90
        6
 70
     0
 43
0.0
 10
-2.621796485826857
 20
-0.2099962668917053
 10
-2.635146625640083
 20
-0.1943573015029059
 10
-2.649645616957935
 20
-0.1805491420332303
 10
-2.665680851229379
 20
-0.1688997677199809
 10
-2.682998601964715
 20
-0.1598729403210871
 10
-2.709771245391585
 20
-0.151074129835757
  0
LINE
  5
FC
330
91
100
AcDbEntity
  8
AM_4
100
AcDbLine
 10
-2.673988985340317
 20
-0.1419585097669023
 30
0.0
 11
-2.67552904677213
 21
-0.1419585097669023
 31
0.0
  0
ELLIPSE
  5
FD
330
91
100
AcDbEntity
  8
AM_4
100
AcDbEllipse
 10
-2.555819836485982
 20
-0.2013892028241983
 30
0.0
 11
-0.1290773838160902
 21
0.05580698533515139
 31
0.0
210
0.0
220
0.0
230
1.0
 40
0.1583155873460589
 41
5.610613825799313
 42
7.926941792372046
  0
ELLIPSE
  5
FE
330
91
100
AcDbEntity
  8
AM_4
100
AcDbEllipse
 10
-2.575412077932544
 20
-0.2467045921760211
 30
0.0
 11
-0.1290773838160794
 21
0.05580698533514276
 31
0.0
210
0.0
220
0.0
230
1.0
 40
0.1583155873460354
 41
0.4561824373891072
 42
1.643756485192514
  0
LINE
  5
FF
330
91
100
AcDbEntity
  8
AM_4
100
AcDbLine
 10
-2.465815796102345
 20
-0.3055458577949631
 30
0.0
 11
-2.451014040733032
 21
-0.3055458577949631
 31
0.0
  0
ELLIPSE
  5
100
330
91
100
AcDbEntity
  8
AM_4
100
AcDbEllipse
 10
-2.575412077932546
 20
-0.24670459217602
 30
0.0
 11
-0.1290773838160813
 21
0.05580698533514298
 31
0.0
210
0.0
220
0.0
230
1.0
 40
0.1583155873460362
 41
1.843016155000222
 42
2.649627610710972
  0
LWPOLYLINE
  5
101
330
91
100
AcDbEntity
  8
AM_4
100
AcDbPolyline
 90
       16
 70
     0
 43
0.0
 10
-2.508396180207224
 20
-0.4211954281896563
 10
-2.508996974198519
 20
-0.4198865426530251
 10
-2.512235620678792
 20
-0.4112915156058374
 10
-2.514712891955803
 20
-0.4009133572924146
 10
-2.515845290279172
 20
-0.3892750699693256
 10
-2.515263086805605
 20
-0.3769960376043477
 10
-2.512812620779469
 20
-0.3646253084520992
 10
-2.507988985637967
 20
-0.3515224108934986
 10
-2.501424147972978
 20
-0.3398973483187089
 10
-2.493587792818776
 20
-0.3299668358938956
 10
-2.484924908539877
 20
-0.3217959305479536
 10
-2.475917826607738
 20
-0.3154016965103125
 10
-2.46712130347568
 20
-0.3107385837917823
 10
-2.459129337214006
 20
-0.3076513967763885
 10
-2.452418212567562
 20
-0.3058438952391986
 10
-2.451597249989703
 20
-0.3056718078832958
  0
LWPOLYLINE
  5
102
330
91
100
AcDbEntity
  8
AM_4
100
AcDbPolyline
 90
       14
 70
     0
 43
0.0
 10
-2.701443202359637
 20
-0.199881749662247
 10
-2.698160375850142
 20
-0.2066597282506752
 10
-2.695012013759466
 20
-0.2156040323941678
 10
-2.692740765034335
 20
-0.2262569456057725
 10
-2.691899773044644
 20
-0.2380566708170681
 10
-2.692815533806426
 20
-0.250390530616808
 10
-2.695609421749653
 20
-0.2627258158260817
 10
-2.700745469898471
 20
-0.2756045418973629
 10
-2.707547134334258
 20
-0.2869620310708607
 10
-2.715548313992501
 20
-0.2966098244339975
 10
-2.724301532759985
 20
-0.3044921631459416
 10
-2.733314187565074
 20
-0.3106000141983965
 10
-2.742019856744846
 20
-0.3149930240142153
 10
-2.748653373809042
 20
-0.3174808095931811
  0
ELLIPSE
  5
103
330
91
100
AcDbEntity
  8
AM_4
100
AcDbEllipse
 10
-2.630014649483043
 20
-0.3729962569746643
 30
0.0
 11
-0.1222564956648751
 21
0.05285795434479281
 31
0.0
210
0.0
220
0.0
230
1.0
 40
0.1583155873460396
 41
6.104238475033426
 42
9.602803550058558
  0
ELLIPSE
  5
104
330
91
100
AcDbEntity
  8
AM_4
100
AcDbEllipse
 10
-2.555819836485993
 20
-0.2013892028241838
 30
0.0
 11
-0.1290773838160897
 21
0.05580698533513314
 31
0.0
210
0.0
220
0.0
230
1.0
 40
0.1583155873460793
 41
1.843016155000218
 42
2.649627610710919
  0
LINE
  5
105
330
91
100
AcDbEntity
  8
AM_4
100
AcDbLine
 10
-2.431421799286479
 20
-0.2602304684431305
 30
0.0
 11
-2.446223554655789
 21
-0.2602304684431209
 31
0.0
  0
LINE
  5
106
330
91
100
AcDbEntity
  8
AM_4
100
AcDbLine
 10
-2.449412842730506
 20
-0.2324608261325392
 30
0.0
 11
-2.444073951970404
 21
-0.2360765106845277
 31
0.0
  0
LWPOLYLINE
  5
107
330
91
100
AcDbEntity
  8
AM_4
100
AcDbPolyline
 90
        3
 70
     0
 43
0.0
 10
-2.472991554746008
 20
-0.2689146070947222
 10
-2.500411821573067
 20
-0.251275593729576
 10
-2.529624551715424
 20
-0.2360765106845275
  0
LINE
  5
108
330
91
100
AcDbEntity
  8
AM_4
100
AcDbLine
 10
-2.529624551715424
 20
-0.2360765106845275
 30
0.0
 11
-2.555222293695963
 21
-0.2258378743019627
 31
0.0
  0
LWPOLYLINE
  5
109
330
91
100
AcDbEntity
  8
AM_4
100
AcDbPolyline
 90
        3
 70
     0
 43
0.0
 10
-2.555222293695963
 20
-0.2258378743019627
 10
-2.577913117789374
 20
-0.2189176876709014
 10
-2.621796485826857
 20
-0.2099962668917053
  0
LINE
  5
10A
330
91
100
AcDbEntity
  8
AM_4
100
AcDbLine
 10
-2.621796485826857
 20
-0.2099962668917053
 30
0.0
 11
-2.634309081822027
 21
-0.2389369657326276
 31
0.0
  0
LWPOLYLINE
  5
10B
330
91
100
AcDbEntity
  8
AM_4
100
AcDbPolyline
 90
        3
 70
     0
 43
0.0
 10
-2.634309081822027
 20
-0.2389369657326276
 10
-2.605263168231512
 20
-0.2560939713202353
 10
-2.574814535142515
 20
-0.2711532636537956
  0
LINE
  5
10C
330
91
100
AcDbEntity
  8
AM_4
100
AcDbLine
 10
-2.574814535142515
 20
-0.2711532636537956
 30
0.0
 11
-2.549216793161977
 21
-0.2813919000363599
 31
0.0
  0
LWPOLYLINE
  5
10D
330
91
100
AcDbEntity
  8
AM_4
100
AcDbPolyline
 90
        3
 70
     0
 43
0.0
 10
-2.549216793161977
 20
-0.2813919000363599
 10
-2.517985955905095
 20
-0.2911775952746243
 10
-2.48589857034695
 20
-0.2987675689889718
  0
LINE
  5
10E
330
91
100
AcDbEntity
  8
AM_4
100
AcDbLine
 10
-2.472991554746008
 20
-0.2689146070947222
 30
0.0
 11
-2.48589857034695
 21
-0.2987675689889718
 31
0.0
  0
ARC
  5
10F
330
91
100
AcDbEntity
  8
AM_4
100
AcDbCircle
 10
-2.480216810966153
 20
-0.0000000000000016
 30
0.0
 40
0.2000000000000016
100
AcDbArc
 50
90.0
 51
217.7477512431308
  0
LWPOLYLINE
  5
110
330
91
100
AcDbEntity
  8
AM_4
100
AcDbPolyline
 90
       11
 70
     0
 43
0.0
 10
-2.638549993050947
 20
-0.1221908241006354
 10
-2.636373649163787
 20
-0.1245107513506023
 10
-2.630355948092221
 20
-0.1291842652280562
 10
-2.621867294265577
 20
-0.1344729790611519
 10
-2.610674035031828
 20
-0.1405186270901959
 10
-2.597684319691448
 20
-0.146827078301712
 10
-2.582547508466289
 20
-0.1535654953592165
 10
-2.56650356418608
 20
-0.1601799433259583
 10
-2.549115293974051
 20
-0.1668493358980661
 10
-2.531559686249662
 20
-0.1731116383367606
 10
-2.513608568549192
 20
-0.1790373738502115
  0
ELLIPSE
  5
111
330
91
100
AcDbEntity
  8
AM_4
100
AcDbEllipse
 10
-2.480216810966157
 20
-0.0000000000000001
 30
0.0
 11
1.224646799147352E-17
 21
0.1999999999999998
 31
0.0
210
0.0
220
0.0
230
1.0
 40
0.3746065934159141
 41
0.0
 42
2.679646633022833
  0
LINE
  5
112
330
91
100
AcDbEntity
  8
AM_4
100
AcDbLine
 10
-2.389117342633285
 20
0.1999999999999999
 30
0.0
 11
-2.480216810966156
 21
0.1999999999999999
 31
0.0
  0
LINE
  5
113
330
91
100
AcDbEntity
  8
AM_4
100
AcDbLine
 10
-2.442845526030411
 20
-0.2
 30
0.0
 11
-2.389120173445308
 21
-0.2
 31
0.0
  0
LWPOLYLINE
  5
114
330
91
100
AcDbEntity
  8
AM_4
100
AcDbPolyline
 90
        8
 70
     0
 43
0.0
 10
-2.442686748196218
 20
-0.1999999999699529
 10
-2.443810059215215
 20
-0.1999786710855128
 10
-2.452452603167776
 20
-0.1988321115509053
 10
-2.462930865944631
 20
-0.1961649429984259
 10
-2.475675790325211
 20
-0.1920694300574958
 10
-2.489886970187379
 20
-0.1870948030566195
 10
-2.506045325001925
 20
-0.181500594761393
 10
-2.513608568549208
 20
-0.1790373738501783
  0
LWPOLYLINE
  5
115
330
91
100
AcDbEntity
  8
AM_4
100
AcDbPolyline
 90
        3
 70
     0
 43
0.0
 10
-2.415003300584888
 20
-0.1093749999999999
 10
-2.424611966272878
 20
-0.0546875
 10
-2.430251507965921
 20
0.0
  0
LWPOLYLINE
  5
116
330
91
100
AcDbEntity
  8
AM_4
100
AcDbPolyline
 90
        3
 70
     0
 43
0.0
 10
-2.382940429127102
 20
-0.2187500000000001
 10
-2.400883641487936
 20
-0.1643083897258504
 10
-2.415003300584888
 20
-0.1093749999999999
  0
LINE
  5
117
330
91
100
AcDbEntity
  8
AM_4
100
AcDbLine
 10
-2.382940429127102
 20
-0.2187500000000001
 30
0.0
 11
-2.314098025209322
 21
-0.2187500000000001
 31
0.0
  0
LWPOLYLINE
  5
118
330
91
100
AcDbEntity
  8
AM_4
100
AcDbPolyline
 90
        3
 70
     0
 43
0.0
 10
-2.354347786585993
 20
0.0
 10
-2.33640457422516
 20
-0.0544416102741496
 10
-2.333921074480506
 20
-0.0629945368372909
  0
LINE
  5
119
330
91
100
AcDbEntity
  8
AM_4
100
AcDbLine
 10
-2.382940429127102
 20
0.2187499999999999
 30
0.0
 11
-2.314056408535056
 21
0.2187499999999999
 31
0.0
  0
LWPOLYLINE
  5
11A
330
91
100
AcDbEntity
  8
AM_4
100
AcDbPolyline
 90
        3
 70
     0
 43
0.0
 10
-2.415003300584888
 20
0.1093749999999999
 10
-2.400956426853468
 20
0.1640624999999999
 10
-2.382940429127102
 20
0.2187499999999999
  0
LWPOLYLINE
  5
11B
330
91
100
AcDbEntity
  8
AM_4
100
AcDbPolyline
 90
        3
 70
     0
 43
0.0
 10
-2.430251507965921
 20
0.0
 10
-2.424645542582366
 20
0.0544416102741495
 10
-2.415003300584888
 20
0.1093749999999999
  0
LINE
  5
11C
330
91
100
AcDbEntity
  8
AM_4
100
AcDbLine
 10
-2.430251507965921
 20
0.0
 30
0.0
 11
-2.354347786585993
 21
0.0
 31
0.0
  0
LWPOLYLINE
  5
11D
330
91
100
AcDbEntity
  8
AM_4
100
AcDbPolyline
 90
        3
 70
     0
 43
0.0
 10
-2.333938135878043
 20
0.0629345754066001
 10
-2.336331788859628
 20
0.0546875
 10
-2.354347786585993
 20
0.0
  0
ENDBLK
  5
94
330
91
100
AcDbEntity
  8
0
100
AcDbBlockEnd
  0
BLOCK
  5
120
330
11E
100
AcDbEntity
  8
0
100
AcDbBlockBegin
  2
3_ASME_B18_3_10_1_0_in_069379_4
 70
     2
 10
0.0
 20
0.0
 30
0.0
  3
3_ASME_B18_3_10_1_0_in_069379_4
  1

  0
ATTDEF
  5
122
330
11E
100
AcDbEntity
  8
AM_6
100
AcDbText
 10
5.095
 20
-1.507166666666667
 30
0.0
 40
0.5
  1
ANSI/ASME B18.3-1998
100
AcDbAttributeDefinition
  3

  2
NN
 70
     8
280
     0
  0
ATTDEF
  5
123
330
11E
100
AcDbEntity
  8
AM_6
100
AcDbText
 10
5.095
 20
-2.007166666666667
 30
0.0
 40
0.5
  1
Socket Button Head Cap Screws
100
AcDbAttributeDefinition
  3

  2
NT
 70
     8
280
     0
  0
ATTDEF
  5
124
330
11E
100
AcDbEntity
  8
AM_6
100
AcDbText
 10
5.095
 20
-2.507166666666667
 30
0.0
 40
0.5
  1
ASME B18.3-10
100
AcDbAttributeDefinition
  3

  2
NB
 70
     8
280
     0
  0
ATTDEF
  5
125
330
11E
100
AcDbEntity
  8
AM_6
100
AcDbText
 10
5.095
 20
-3.007166666666667
 30
0.0
 40
0.5
  1
ASME B18.3-$NS.
100
AcDbAttributeDefinition
  3

  2
NBSYN
 70
     8
280
     0
  0
ATTDEF
  5
126
330
11E
100
AcDbEntity
  8
AM_6
100
AcDbText
 10
5.095
 20
-3.507166666666667
 30
0.0
 40
0.5
  1
ASME B18.3-10
100
AcDbAttributeDefinition
  3

  2
LINA
 70
     8
280
     0
  0
ATTDEF
  5
127
330
11E
100
AcDbEntity
  8
AM_6
100
AcDbText
 10
5.095
 20
-4.007166666666667
 30
0.0
 40
0.5
  1
10
100
AcDbAttributeDefinition
  3

  2
NS
 70
     8
280
     0
  0
ATTDEF
  5
128
330
11E
100
AcDbEntity
  8
AM_6
100
AcDbText
 10
5.095
 20
-4.507166666666667
 30
0.0
 40
0.5
  1
0.361
100
AcDbAttributeDefinition
  3

  2
A
 70
     8
280
     0
  0
ATTDEF
  5
129
330
11E
100
AcDbEntity
  8
AM_6
100
AcDbText
 10
5.095
 20
-5.007166666666667
 30
0.0
 40
0.5
  1
0.101
100
AcDbAttributeDefinition
  3

  2
H
 70
     8
280
     0
  0
ATTDEF
  5
12A
330
11E
100
AcDbEntity
  8
AM_6
100
AcDbText
 10
5.095
 20
-5.507166666666667
 30
0.0
 40
0.5
  1
0.800
100
AcDbAttributeDefinition
  3

  2
L
 70
     8
280
     0
  0
ATTDEF
  5
12B
330
11E
100
AcDbEntity
  8
AM_6
100
AcDbText
 10
5.095
 20
-6.007166666666667
 30
0.0
 40
0.5
  1
0.020
100
AcDbAttributeDefinition
  3

  2
S
 70
     8
280
     0
  0
ATTDEF
  5
12C
330
11E
100
AcDbEntity
  8
AM_6
100
AcDbText
 10
5.095
 20
-6.507166666666667
 30
0.0
 40
0.5
  1
0.125000
100
AcDbAttributeDefinition
  3

  2
J
 70
     8
280
     0
  0
ATTDEF
  5
12D
330
11E
100
AcDbEntity
  8
AM_6
100
AcDbText
 10
5.095
 20
-7.007166666666667
 30
0.0
 40
0.5
  1
baldor
100
AcDbAttributeDefinition
  3

  2
COMPANY
 70
     8
280
     0
  0
LINE
  5
12F
330
11E
100
AcDbEntity
  8
AM_5
100
AcDbLine
 10
0.095
 20
-1.507166666666667
 30
0.0
 11
-0.095
 21
-1.507166666666667
 31
0.0
  0
LINE
  5
130
330
11E
100
AcDbEntity
  8
AM_5
100
AcDbLine
 10
0.0764
 20
-1.507166666666667
 30
0.0
 11
0.095
 21
-1.539382811687448
 31
0.0
  0
ENDBLK
  5
121
330
11E
100
AcDbEntity
  8
0
100
AcDbBlockEnd
  0
BLOCK
  5
133
330
131
100
AcDbEntity
  8
0
100
AcDbBlockBegin
  2
4_ASME_B18_3_10_2_0_in_069379_4
 70
     2
 10
0.0
 20
0.0
 30
0.0
  3
4_ASME_B18_3_10_2_0_in_069379_4
  1

  0
ATTDEF
  5
135
330
131
100
AcDbEntity
  8
AM_6
100
AcDbText
 10
5.1805
 20
-0.7871666666666666
 30
0.0
 40
0.5
  1
ANSI/ASME B18.3-1998
100
AcDbAttributeDefinition
  3

  2
NN
 70
     8
280
     0
  0
ATTDEF
  5
136
330
131
100
AcDbEntity
  8
AM_6
100
AcDbText
 10
5.1805
 20
-1.287166666666667
 30
0.0
 40
0.5
  1
Socket Button Head Cap Screws
100
AcDbAttributeDefinition
  3

  2
NT
 70
     8
280
     0
  0
ATTDEF
  5
137
330
131
100
AcDbEntity
  8
AM_6
100
AcDbText
 10
5.1805
 20
-1.787166666666667
 30
0.0
 40
0.5
  1
ASME B18.3-10
100
AcDbAttributeDefinition
  3

  2
NB
 70
     8
280
     0
  0
ATTDEF
  5
138
330
131
100
AcDbEntity
  8
AM_6
100
AcDbText
 10
5.1805
 20
-2.287166666666667
 30
0.0
 40
0.5
  1
ASME B18.3-$NS.
100
AcDbAttributeDefinition
  3

  2
NBSYN
 70
     8
280
     0
  0
ATTDEF
  5
139
330
131
100
AcDbEntity
  8
AM_6
100
AcDbText
 10
5.1805
 20
-2.787166666666667
 30
0.0
 40
0.5
  1
ASME B18.3-10
100
AcDbAttributeDefinition
  3

  2
LINA
 70
     8
280
     0
  0
ATTDEF
  5
13A
330
131
100
AcDbEntity
  8
AM_6
100
AcDbText
 10
5.1805
 20
-3.287166666666667
 30
0.0
 40
0.5
  1
10
100
AcDbAttributeDefinition
  3

  2
NS
 70
     8
280
     0
  0
ATTDEF
  5
13B
330
131
100
AcDbEntity
  8
AM_6
100
AcDbText
 10
5.1805
 20
-3.787166666666667
 30
0.0
 40
0.5
  1
0.361
100
AcDbAttributeDefinition
  3

  2
A
 70
     8
280
     0
  0
ATTDEF
  5
13C
330
131
100
AcDbEntity
  8
AM_6
100
AcDbText
 10
5.1805
 20
-4.287166666666667
 30
0.0
 40
0.5
  1
0.101
100
AcDbAttributeDefinition
  3

  2
H
 70
     8
280
     0
  0
ATTDEF
  5
13D
330
131
100
AcDbEntity
  8
AM_6
100
AcDbText
 10
5.1805
 20
-4.787166666666667
 30
0.0
 40
0.5
  1
0.800
100
AcDbAttributeDefinition
  3

  2
L
 70
     8
280
     0
  0
ATTDEF
  5
13E
330
131
100
AcDbEntity
  8
AM_6
100
AcDbText
 10
5.1805
 20
-5.287166666666667
 30
0.0
 40
0.5
  1
0.020
100
AcDbAttributeDefinition
  3

  2
S
 70
     8
280
     0
  0
ATTDEF
  5
13F
330
131
100
AcDbEntity
  8
AM_6
100
AcDbText
 10
5.1805
 20
-5.787166666666667
 30
0.0
 40
0.5
  1
0.125000
100
AcDbAttributeDefinition
  3

  2
J
 70
     8
280
     0
  0
ATTDEF
  5
140
330
131
100
AcDbEntity
  8
AM_6
100
AcDbText
 10
5.1805
 20
-6.287166666666667
 30
0.0
 40
0.5
  1
baldor
100
AcDbAttributeDefinition
  3

  2
COMPANY
 70
     8
280
     0
  0
LINE
  5
141
330
131
100
AcDbEntity
  8
AM_9
100
AcDbLine
 10
-0.0625
 20
-1.627166666666667
 30
0.0
 11
-0.0625
 21
-1.688166666666667
 31
0.0
  0
LINE
  5
142
330
131
100
AcDbEntity
  8
AM_9
100
AcDbLine
 10
0.0625
 20
-1.627166666666667
 30
0.0
 11
0.0625
 21
-1.688166666666667
 31
0.0
  0
LINE
  5
143
330
131
100
AcDbEntity
  8
AM_9
100
AcDbLine
 10
-0.0625
 20
-1.627166666666667
 30
0.0
 11
0.0625
 21
-1.627166666666667
 31
0.0
  0
LINE
  5
144
330
131
100
AcDbEntity
  8
AM_9
100
AcDbLine
 10
0.0
 20
-1.627166666666667
 30
0.0
 11
0.0
 21
-1.688166666666667
 31
0.0
  0
LINE
  5
145
330
131
100
AcDbEntity
  8
AM_9
100
AcDbLine
 10
-0.0764
 20
-0.7871666666666666
 30
0.0
 11
-0.095
 21
-0.8057666666666666
 31
0.0
  0
LINE
  5
146
330
131
100
AcDbEntity
  8
AM_9
100
AcDbLine
 10
0.095
 20
-0.8057666666666666
 30
0.0
 11
0.0764
 21
-0.7871666666666666
 31
0.0
  0
LINE
  5
147
330
131
100
AcDbEntity
  8
AM_9
100
AcDbLine
 10
-0.0764
 20
-0.7871666666666666
 30
0.0
 11
0.0764
 21
-0.7871666666666666
 31
0.0
  0
LINE
  5
148
330
131
100
AcDbEntity
  8
AM_9
100
AcDbLine
 10
0.095
 20
-1.587166666666667
 30
0.0
 11
0.095
 21
-0.8057666666666666
 31
0.0
  0
LINE
  5
149
330
131
100
AcDbEntity
  8
AM_9
100
AcDbLine
 10
-0.095
 20
-0.8057666666666666
 30
0.0
 11
-0.095
 21
-1.587166666666667
 31
0.0
  0
LINE
  5
14A
330
131
100
AcDbEntity
  8
AM_9
100
AcDbLine
 10
-0.095
 20
-0.8057666666666666
 30
0.0
 11
0.095
 21
-0.8057666666666666
 31
0.0
  0
LINE
  5
14B
330
131
100
AcDbEntity
  8
AM_5
100
AcDbLine
 10
-0.0950000003813078
 20
-1.507166666666667
 30
0.0
 11
0.095000000381308
 21
-1.507166666666667
 31
0.0
  0
LINE
  5
14C
330
131
100
AcDbEntity
  8
AM_5
100
AcDbLine
 10
-0.0764
 20
-1.507166666666667
 30
0.0
 11
-0.0950000169299838
 21
-1.53938284101104
 31
0.0
  0
LINE
  5
14D
330
131
100
AcDbEntity
  8
AM_4
100
AcDbLine
 10
0.1805
 20
-1.607166666666666
 30
0.0
 11
0.1805
 21
-1.587166666666667
 31
0.0
  0
LINE
  5
14E
330
131
100
AcDbEntity
  8
AM_4
100
AcDbLine
 10
-0.1805
 20
-1.587166666666667
 30
0.0
 11
-0.1805
 21
-1.607166666666666
 31
0.0
  0
LINE
  5
14F
330
131
100
AcDbEntity
  8
AM_4
100
AcDbLine
 10
-0.0994999974509191
 20
-1.688166666666667
 30
0.0
 11
0.0995
 21
-1.688166666666667
 31
0.0
  0
ARC
  5
150
330
131
100
AcDbEntity
  8
AM_4
100
AcDbCircle
 10
0.0995000000000002
 20
-1.607166666666667
 30
0.0
 40
0.0809999999999997
100
AcDbArc
 50
270.0
 51
0.0
  0
ARC
  5
151
330
131
100
AcDbEntity
  8
AM_4
100
AcDbCircle
 10
-0.0995000000000002
 20
-1.607166666666667
 30
0.0
 40
0.0809999999999997
100
AcDbArc
 50
180.0
 51
270.0
  0
LINE
  5
152
330
131
100
AcDbEntity
  8
AM_4
100
AcDbLine
 10
-0.1805
 20
-1.607166666666666
 30
0.0
 11
0.1805
 21
-1.607166666666666
 31
0.0
  0
ENDBLK
  5
134
330
131
100
AcDbEntity
  8
0
100
AcDbBlockEnd
  0
BLOCK
  5
155
330
153
100
AcDbEntity
  8
0
100
AcDbBlockBegin
  2
5_070891LW_0_in_069379_4
 70
     2
 10
0.0
 20
0.0
 30
0.0
  3
5_070891LW_0_in_069379_4
  1

  0
ATTDEF
  5
157
330
153
100
AcDbEntity
  8
AM_6
100
AcDbText
 10
6.640625
 20
-1.147166666666667
 30
0.0
 40
0.5
  1
Imperial Insert Lockwasher -Inch
100
AcDbAttributeDefinition
  3

  2
NN
 70
     8
280
     0
  0
ATTDEF
  5
158
330
153
100
AcDbEntity
  8
AM_6
100
AcDbText
 10
6.640625
 20
-1.647166666666667
 30
0.0
 40
0.5
  1
Imperial Bearings
100
AcDbAttributeDefinition
  3

  2
NT
 70
     8
280
     0
  0
ATTDEF
  5
159
330
153
100
AcDbEntity
  8
AM_6
100
AcDbText
 10
6.640625
 20
-2.147166666666667
 30
0.0
 40
0.5
  1
070891LW
100
AcDbAttributeDefinition
  3

  2
NB
 70
     8
280
     0
  0
ATTDEF
  5
15A
330
153
100
AcDbEntity
  8
AM_6
100
AcDbText
 10
6.640625
 20
-2.647166666666667
 30
0.0
 40
0.5
  1
$PN.LW
100
AcDbAttributeDefinition
  3

  2
NBSYN
 70
     8
280
     0
  0
ATTDEF
  5
15B
330
153
100
AcDbEntity
  8
AM_6
100
AcDbText
 10
6.640625
 20
-3.147166666666667
 30
0.0
 40
0.5
  1
070891
100
AcDbAttributeDefinition
  3

  2
LINA
 70
     8
280
     0
  0
ATTDEF
  5
15C
330
153
100
AcDbEntity
  8
AM_6
100
AcDbText
 10
6.640625
 20
-3.647166666666667
 30
0.0
 40
0.5
  1
2
100
AcDbAttributeDefinition
  3

  2
SS
 70
     8
280
     0
  0
ATTDEF
  5
15D
330
153
100
AcDbEntity
  8
AM_6
100
AcDbText
 10
6.640625
 20
-4.147166666666667
 30
0.0
 40
0.5
  1
2.000000
100
AcDbAttributeDefinition
  3

  2
SS1
 70
     8
280
     0
  0
ATTDEF
  5
15E
330
153
100
AcDbEntity
  8
AM_6
100
AcDbText
 10
6.640625
 20
-4.647166666666667
 30
0.0
 40
0.5
  1
070891
100
AcDbAttributeDefinition
  3

  2
PN
 70
     8
280
     0
  0
ATTDEF
  5
15F
330
153
100
AcDbEntity
  8
AM_6
100
AcDbText
 10
6.640625
 20
-5.147166666666667
 30
0.0
 40
0.5
  1
INS-IP-200R
100
AcDbAttributeDefinition
  3

  2
DESCRIPTION
 70
     8
280
     0
  0
ATTDEF
  5
160
330
153
100
AcDbEntity
  8
AM_6
100
AcDbText
 10
6.640625
 20
-5.647166666666667
 30
0.0
 40
0.5
  1
3.5433
100
AcDbAttributeDefinition
  3

  2
A
 70
     8
280
     0
  0
ATTDEF
  5
161
330
153
100
AcDbEntity
  8
AM_6
100
AcDbText
 10
6.640625
 20
-6.147166666666667
 30
0.0
 40
0.5
  1
61/64
100
AcDbAttributeDefinition
  3

  2
B
 70
     8
280
     0
  0
ATTDEF
  5
162
330
153
100
AcDbEntity
  8
AM_6
100
AcDbText
 10
6.640625
 20
-6.647166666666667
 30
0.0
 40
0.5
  1
2-55/64
100
AcDbAttributeDefinition
  3

  2
C
 70
     8
280
     0
  0
ATTDEF
  5
163
330
153
100
AcDbEntity
  8
AM_6
100
AcDbText
 10
6.640625
 20
-7.147166666666667
 30
0.0
 40
0.5
  1
0.977
100
AcDbAttributeDefinition
  3

  2
D
 70
     8
280
     0
  0
ATTDEF
  5
164
330
153
100
AcDbEntity
  8
AM_6
100
AcDbText
 10
6.640625
 20
-7.647166666666667
 30
0.0
 40
0.5
  1
3-9/32
100
AcDbAttributeDefinition
  3

  2
E
 70
     8
280
     0
  0
ATTDEF
  5
165
330
153
100
AcDbEntity
  8
AM_6
100
AcDbText
 10
6.640625
 20
-8.147166666666667
 30
0.0
 40
0.5
  1
0.1900
100
AcDbAttributeDefinition
  3

  2
NDM
 70
     8
280
     0
  0
ATTDEF
  5
166
330
153
100
AcDbEntity
  8
AM_6
100
AcDbText
 10
6.640625
 20
-8.647166666666667
 30
0.0
 40
0.5
  1
0.1450
100
AcDbAttributeDefinition
  3

  2
KDM
 70
     8
280
     0
  0
ATTDEF
  5
167
330
153
100
AcDbEntity
  8
AM_6
100
AcDbText
 10
6.640625
 20
-9.147166666666667
 30
0.0
 40
0.5
  1
2.67
100
AcDbAttributeDefinition
  3

  2
AL
 70
     8
280
     0
  0
ATTDEF
  5
168
330
153
100
AcDbEntity
  8
AM_6
100
AcDbText
 10
6.640625
 20
-9.647166666666667
 30
0.0
 40
0.5
  1
0.38
100
AcDbAttributeDefinition
  3

  2
BL
 70
     8
280
     0
  0
ATTDEF
  5
169
330
153
100
AcDbEntity
  8
AM_6
100
AcDbText
 10
6.640625
 20
-10.14716666666667
 30
0.0
 40
0.5
  1
0.07
100
AcDbAttributeDefinition
  3

  2
CL
 70
     8
280
     0
  0
ATTDEF
  5
16A
330
153
100
AcDbEntity
  8
AM_6
100
AcDbText
 10
6.640625
 20
-10.64716666666667
 30
0.0
 40
0.5
  1
0.44
100
AcDbAttributeDefinition
  3

  2
DL
 70
     8
280
     0
  0
ATTDEF
  5
16B
330
153
100
AcDbEntity
  8
AM_6
100
AcDbText
 10
6.640625
 20
-11.14716666666667
 30
0.0
 40
0.5
  1
baldor
100
AcDbAttributeDefinition
  3

  2
COMPANY
 70
     8
280
     0
  0
LINE
  5
16C
330
153
100
AcDbEntity
  8
AM_9
100
AcDbLine
 10
1.375868055555556
 20
-1.517166666666667
 30
0.0
 11
1.375868055555556
 21
-1.587166666666667
 31
0.0
  0
LINE
  5
16D
330
153
100
AcDbEntity
  8
AM_9
100
AcDbLine
 10
1.467641122363626
 20
-1.587166666666667
 30
0.0
 11
1.467641122363626
 21
-1.517166666666667
 31
0.0
  0
LINE
  5
16E
330
153
100
AcDbEntity
  8
AM_9
100
AcDbLine
 10
-1.375868055555555
 20
-1.517166666666667
 30
0.0
 11
-1.375868055555555
 21
-1.587166666666667
 31
0.0
  0
LINE
  5
16F
330
153
100
AcDbEntity
  8
AM_9
100
AcDbLine
 10
-1.470924788419496
 20
-1.517166666666667
 30
0.0
 11
-1.470924788419496
 21
-1.587166666666667
 31
0.0
  0
LINE
  5
170
330
153
100
AcDbEntity
  8
AM_9
100
AcDbLine
 10
-1.076898929273977
 20
-1.517166666666667
 30
0.0
 11
-1.076898929273977
 21
-1.587166666666667
 31
0.0
  0
LINE
  5
171
330
153
100
AcDbEntity
  8
AM_9
100
AcDbLine
 10
1.076898929273977
 20
-1.517166666666667
 30
0.0
 11
1.076898929273977
 21
-1.587166666666667
 31
0.0
  0
LINE
  5
172
330
153
100
AcDbEntity
  8
AM_9
100
AcDbLine
 10
-0.8286576797548836
 20
-1.517166666666667
 30
0.0
 11
-0.8286576797548836
 21
-1.587166666666667
 31
0.0
  0
LINE
  5
173
330
153
100
AcDbEntity
  8
AM_9
100
AcDbLine
 10
0.8286576797548832
 20
-1.517166666666667
 30
0.0
 11
0.8286576797548832
 21
-1.587166666666667
 31
0.0
  0
LINE
  5
174
330
153
100
AcDbEntity
  8
AM_9
100
AcDbLine
 10
-0.468721215058001
 20
-1.147166666666667
 30
0.0
 11
-0.468721215058001
 21
-1.587166666666667
 31
0.0
  0
LINE
  5
175
330
153
100
AcDbEntity
  8
AM_9
100
AcDbLine
 10
-0.4998799341534281
 20
-1.517166666666667
 30
0.0
 11
-0.4998799341534281
 21
-1.587166666666667
 31
0.0
  0
LINE
  5
176
330
153
100
AcDbEntity
  8
AM_9
100
AcDbLine
 10
-0.6943073913294394
 20
-1.517166666666667
 30
0.0
 11
-0.6943073913294395
 21
-1.587166666666667
 31
0.0
  0
LINE
  5
177
330
153
100
AcDbEntity
  8
AM_9
100
AcDbLine
 10
-0.3243428229762838
 20
-1.517166666666667
 30
0.0
 11
-0.3243428229762838
 21
-1.587166666666667
 31
0.0
  0
LINE
  5
178
330
153
100
AcDbEntity
  8
AM_9
100
AcDbLine
 10
-0.2931841038808569
 20
-1.147166666666667
 30
0.0
 11
-0.4889493509964467
 21
-1.147166666666667
 31
0.0
  0
LINE
  5
179
330
153
100
AcDbEntity
  8
AM_9
100
AcDbLine
 10
-0.2931841038808569
 20
-1.147166666666667
 30
0.0
 11
-0.2931841038808569
 21
-1.587166666666667
 31
0.0
  0
LINE
  5
17A
330
153
100
AcDbEntity
  8
AM_9
100
AcDbLine
 10
0.6943073913294392
 20
-1.517166666666667
 30
0.0
 11
0.6943073913294389
 21
-1.587166666666667
 31
0.0
  0
LINE
  5
17B
330
153
100
AcDbEntity
  8
AM_9
100
AcDbLine
 10
-0.3134122398193022
 20
-1.517166666666667
 30
0.0
 11
-0.3134122398193022
 21
-1.147166666666667
 31
0.0
  0
LINE
  5
17C
330
153
100
AcDbEntity
  8
AM_9
100
AcDbLine
 10
-0.4889493509964467
 20
-1.147166666666667
 30
0.0
 11
-0.4889493509964467
 21
-1.517166666666667
 31
0.0
  0
LINE
  5
17D
330
153
100
AcDbEntity
  8
AM_9
100
AcDbLine
 10
-1.040060776314005
 20
-1.517166666666667
 30
0.0
 11
-1.040060776314005
 21
-1.587166666666667
 31
0.0
  0
LINE
  5
17E
330
153
100
AcDbEntity
  8
AM_9
100
AcDbLine
 10
-0.9057104878885709
 20
-1.517166666666667
 30
0.0
 11
-0.9057104878885709
 21
-1.587166666666667
 31
0.0
  0
LINE
  5
17F
330
153
100
AcDbEntity
  8
AM_9
100
AcDbLine
 10
-1.067925753252768
 20
-1.517166666666667
 30
0.0
 11
-1.067925753252768
 21
-1.587166666666667
 31
0.0
  0
LINE
  5
180
330
153
100
AcDbEntity
  8
AM_9
100
AcDbLine
 10
0.9057104878885606
 20
-1.517166666666667
 30
0.0
 11
0.9057104878885606
 21
-1.587166666666667
 31
0.0
  0
LINE
  5
181
330
153
100
AcDbEntity
  8
AM_9
100
AcDbLine
 10
1.040060776314004
 20
-1.517166666666667
 30
0.0
 11
1.040060776314004
 21
-1.587166666666667
 31
0.0
  0
LINE
  5
182
330
153
100
AcDbEntity
  8
AM_9
100
AcDbLine
 10
1.067925753252768
 20
-1.587166666666667
 30
0.0
 11
1.067925753252768
 21
-1.517166666666667
 31
0.0
  0
LINE
  5
183
330
153
100
AcDbEntity
  8
AM_9
100
AcDbLine
 10
-0.0950000000000002
 20
-1.517166666666667
 30
0.0
 11
-0.0950000000000002
 21
-1.587166666666667
 31
0.0
  0
LINE
  5
184
330
153
100
AcDbEntity
  8
AM_9
100
AcDbLine
 10
0.0949999999999999
 20
-1.517166666666667
 30
0.0
 11
0.0950000000000001
 21
-1.587166666666667
 31
0.0
  0
LINE
  5
185
330
153
100
AcDbEntity
  8
AM_4
100
AcDbLine
 10
-1.640625
 20
-1.517166666666667
 30
0.0
 11
-1.640625
 21
-1.587166666666667
 31
0.0
  0
LINE
  5
186
330
153
100
AcDbEntity
  8
AM_4
100
AcDbLine
 10
1.640625
 20
-1.587166666666667
 30
0.0
 11
1.640625
 21
-1.517166666666667
 31
0.0
  0
LINE
  5
187
330
153
100
AcDbEntity
  8
AM_4
100
AcDbLine
 10
-1.640625
 20
-1.587166666666667
 30
0.0
 11
1.640625
 21
-1.587166666666667
 31
0.0
  0
LINE
  5
188
330
153
100
AcDbEntity
  8
AM_4
100
AcDbLine
 10
-1.640625
 20
-1.517166666666667
 30
0.0
 11
1.640625
 21
-1.517166666666667
 31
0.0
  0
ENDBLK
  5
156
330
153
100
AcDbEntity
  8
0
100
AcDbBlockEnd
  0
BLOCK
  5
18B
330
189
100
AcDbEntity
  8
0
100
AcDbBlockBegin
  2
6_070891I_0_in_069379_4
 70
     2
 10
0.0
 20
0.0
 30
0.0
  3
6_070891I_0_in_069379_4
  1

  0
ATTDEF
  5
18D
330
189
100
AcDbEntity
  8
AM_6
100
AcDbText
 10
6.77165
 20
1.27334375
 30
0.0
 40
0.5
  1
Imperial Insert -Inch
100
AcDbAttributeDefinition
  3

  2
NN
 70
     8
280
     0
  0
ATTDEF
  5
18E
330
189
100
AcDbEntity
  8
AM_6
100
AcDbText
 10
6.77165
 20
0.7733437500000002
 30
0.0
 40
0.5
  1
Imperial Bearings
100
AcDbAttributeDefinition
  3

  2
NT
 70
     8
280
     0
  0
ATTDEF
  5
18F
330
189
100
AcDbEntity
  8
AM_6
100
AcDbText
 10
6.77165
 20
0.2733437500000002
 30
0.0
 40
0.5
  1
070891I
100
AcDbAttributeDefinition
  3

  2
NB
 70
     8
280
     0
  0
ATTDEF
  5
190
330
189
100
AcDbEntity
  8
AM_6
100
AcDbText
 10
6.77165
 20
-0.2266562499999998
 30
0.0
 40
0.5
  1
$PN.I
100
AcDbAttributeDefinition
  3

  2
NBSYN
 70
     8
280
     0
  0
ATTDEF
  5
191
330
189
100
AcDbEntity
  8
AM_6
100
AcDbText
 10
6.77165
 20
-0.7266562499999998
 30
0.0
 40
0.5
  1
070891
100
AcDbAttributeDefinition
  3

  2
LINA
 70
     8
280
     0
  0
ATTDEF
  5
192
330
189
100
AcDbEntity
  8
AM_6
100
AcDbText
 10
6.77165
 20
-1.22665625
 30
0.0
 40
0.5
  1
2
100
AcDbAttributeDefinition
  3

  2
SS
 70
     8
280
     0
  0
ATTDEF
  5
193
330
189
100
AcDbEntity
  8
AM_6
100
AcDbText
 10
6.77165
 20
-1.72665625
 30
0.0
 40
0.5
  1
2.000000
100
AcDbAttributeDefinition
  3

  2
SS1
 70
     8
280
     0
  0
ATTDEF
  5
194
330
189
100
AcDbEntity
  8
AM_6
100
AcDbText
 10
6.77165
 20
-2.22665625
 30
0.0
 40
0.5
  1
070891
100
AcDbAttributeDefinition
  3

  2
PN
 70
     8
280
     0
  0
ATTDEF
  5
195
330
189
100
AcDbEntity
  8
AM_6
100
AcDbText
 10
6.77165
 20
-2.72665625
 30
0.0
 40
0.5
  1
INS-IP-200R
100
AcDbAttributeDefinition
  3

  2
DESCRIPTION
 70
     8
280
     0
  0
ATTDEF
  5
196
330
189
100
AcDbEntity
  8
AM_6
100
AcDbText
 10
6.77165
 20
-3.22665625
 30
0.0
 40
0.5
  1
Contact Seal
100
AcDbAttributeDefinition
  3

  2
ST
 70
     8
280
     0
  0
ATTDEF
  5
197
330
189
100
AcDbEntity
  8
AM_6
100
AcDbText
 10
6.77165
 20
-3.72665625
 30
0.0
 40
0.5
  1
3.5433
100
AcDbAttributeDefinition
  3

  2
A
 70
     8
280
     0
  0
ATTDEF
  5
198
330
189
100
AcDbEntity
  8
AM_6
100
AcDbText
 10
6.77165
 20
-4.22665625
 30
0.0
 40
0.5
  1
61/64
100
AcDbAttributeDefinition
  3

  2
B
 70
     8
280
     0
  0
ATTDEF
  5
199
330
189
100
AcDbEntity
  8
AM_6
100
AcDbText
 10
6.77165
 20
-4.72665625
 30
0.0
 40
0.5
  1
2-55/64
100
AcDbAttributeDefinition
  3

  2
C
 70
     8
280
     0
  0
ATTDEF
  5
19A
330
189
100
AcDbEntity
  8
AM_6
100
AcDbText
 10
6.77165
 20
-5.22665625
 30
0.0
 40
0.5
  1
0.977
100
AcDbAttributeDefinition
  3

  2
D
 70
     8
280
     0
  0
ATTDEF
  5
19B
330
189
100
AcDbEntity
  8
AM_6
100
AcDbText
 10
6.77165
 20
-5.72665625
 30
0.0
 40
0.5
  1
3-9/32
100
AcDbAttributeDefinition
  3

  2
E
 70
     8
280
     0
  0
ATTDEF
  5
19C
330
189
100
AcDbEntity
  8
AM_6
100
AcDbText
 10
6.77165
 20
-6.22665625
 30
0.0
 40
0.5
  1
0.1900
100
AcDbAttributeDefinition
  3

  2
NDM
 70
     8
280
     0
  0
ATTDEF
  5
19D
330
189
100
AcDbEntity
  8
AM_6
100
AcDbText
 10
6.77165
 20
-6.72665625
 30
0.0
 40
0.5
  1
0.101
100
AcDbAttributeDefinition
  3

  2
H
 70
     8
280
     0
  0
ATTDEF
  5
19E
330
189
100
AcDbEntity
  8
AM_6
100
AcDbText
 10
6.77165
 20
-7.22665625
 30
0.0
 40
0.5
  1
0.1450
100
AcDbAttributeDefinition
  3

  2
KDM
 70
     8
280
     0
  0
ATTDEF
  5
19F
330
189
100
AcDbEntity
  8
AM_6
100
AcDbText
 10
6.77165
 20
-7.72665625
 30
0.0
 40
0.5
  1
2.67
100
AcDbAttributeDefinition
  3

  2
AL
 70
     8
280
     0
  0
ATTDEF
  5
1A0
330
189
100
AcDbEntity
  8
AM_6
100
AcDbText
 10
6.77165
 20
-8.22665625
 30
0.0
 40
0.5
  1
0.38
100
AcDbAttributeDefinition
  3

  2
BL
 70
     8
280
     0
  0
ATTDEF
  5
1A1
330
189
100
AcDbEntity
  8
AM_6
100
AcDbText
 10
6.77165
 20
-8.72665625
 30
0.0
 40
0.5
  1
0.07
100
AcDbAttributeDefinition
  3

  2
CL
 70
     8
280
     0
  0
ATTDEF
  5
1A2
330
189
100
AcDbEntity
  8
AM_6
100
AcDbText
 10
6.77165
 20
-9.22665625
 30
0.0
 40
0.5
  1
0.44
100
AcDbAttributeDefinition
  3

  2
DL
 70
     8
280
     0
  0
ATTDEF
  5
1A3
330
189
100
AcDbEntity
  8
AM_6
100
AcDbText
 10
6.77165
 20
-9.72665625
 30
0.0
 40
0.5
  1
0.8000
100
AcDbAttributeDefinition
  3

  2
LL
 70
     8
280
     0
  0
ATTDEF
  5
1A4
330
189
100
AcDbEntity
  8
AM_6
100
AcDbText
 10
6.77165
 20
-10.22665625
 30
0.0
 40
0.5
  1
0.020
100
AcDbAttributeDefinition
  3

  2
Y
 70
     8
280
     0
  0
ATTDEF
  5
1A5
330
189
100
AcDbEntity
  8
AM_6
100
AcDbText
 10
6.77165
 20
-10.72665625
 30
0.0
 40
0.5
  1
0.020000
100
AcDbAttributeDefinition
  3

  2
Y1
 70
     8
280
     0
  0
ATTDEF
  5
1A6
330
189
100
AcDbEntity
  8
AM_6
100
AcDbText
 10
6.77165
 20
-11.22665625
 30
0.0
 40
0.5
  1
2-19/64
100
AcDbAttributeDefinition
  3

  2
Z
 70
     8
280
     0
  0
ATTDEF
  5
1A7
330
189
100
AcDbEntity
  8
AM_6
100
AcDbText
 10
6.77165
 20
-11.72665625
 30
0.0
 40
0.5
  1
2.296875
100
AcDbAttributeDefinition
  3

  2
Z1
 70
     8
280
     0
  0
ATTDEF
  5
1A8
330
189
100
AcDbEntity
  8
AM_6
100
AcDbText
 10
6.77165
 20
-12.22665625
 30
0.0
 40
0.5
  1
baldor
100
AcDbAttributeDefinition
  3

  2
COMPANY
 70
     8
280
     0
  0
LINE
  5
1A9
330
189
100
AcDbEntity
  8
AM_9
100
AcDbLine
 10
-0.4900165565411319
 20
0.6089375
 30
0.0
 11
-0.4900165565411319
 21
-1.517166666666666
 31
0.0
  0
LINE
  5
1AA
330
189
100
AcDbEntity
  8
AM_9
100
AcDbLine
 10
-0.2931841038808566
 20
0.6089375
 30
0.0
 11
-0.2931841038808567
 21
-1.75
 31
0.0
  0
LINE
  5
1AB
330
189
100
AcDbEntity
  8
AM_9
100
AcDbLine
 10
-0.468721215058001
 20
-1.587166666666667
 30
0.0
 11
-0.468721215058001
 21
0.6089375
 31
0.0
  0
LINE
  5
1AC
330
189
100
AcDbEntity
  8
AM_9
100
AcDbLine
 10
-1.0
 20
0.6089375000000002
 30
0.0
 11
-1.0
 21
-1.75
 31
0.0
  0
LINE
  5
1AD
330
189
100
AcDbEntity
  8
AM_9
100
AcDbLine
 10
1.0
 20
-1.75
 30
0.0
 11
1.0
 21
0.6089375000000002
 31
0.0
  0
LINE
  5
1AE
330
189
100
AcDbEntity
  8
AM_9
100
AcDbLine
 10
-0.3144794453639874
 20
0.6089375
 30
0.0
 11
-0.3144794453639874
 21
-1.517166666666666
 31
0.0
  0
LINE
  5
1AF
330
189
100
AcDbEntity
  8
AM_9
100
AcDbLine
 10
-1.052631578947368
 20
1.109375
 30
0.0
 11
-1.052631578947368
 21
0.6089375000000002
 31
0.0
  0
LINE
  5
1B0
330
189
100
AcDbEntity
  8
AM_9
100
AcDbLine
 10
1.052631578947368
 20
0.6089375000000002
 30
0.0
 11
1.052631578947368
 21
1.109375
 31
0.0
  0
LINE
  5
1B1
330
189
100
AcDbEntity
  8
AM_9
100
AcDbLine
 10
-0.3134122398193018
 20
-1.587166666666667
 30
0.0
 11
-0.3134122398193019
 21
-1.517166666666666
 31
0.0
  0
LINE
  5
1B2
330
189
100
AcDbEntity
  8
AM_9
100
AcDbLine
 10
-0.4889493509964464
 20
-1.517166666666666
 30
0.0
 11
-0.4889493509964464
 21
-1.587166666666667
 31
0.0
  0
LINE
  5
1B3
330
189
100
AcDbEntity
  8
AM_9
100
AcDbLine
 10
-1.052631578947368
 20
-1.517166666666666
 30
0.0
 11
-1.052631578947368
 21
-1.587166666666667
 31
0.0
  0
LINE
  5
1B4
330
189
100
AcDbEntity
  8
AM_9
100
AcDbLine
 10
1.052631578947368
 20
-1.587166666666667
 30
0.0
 11
1.052631578947368
 21
-1.517166666666666
 31
0.0
  0
LINE
  5
1B5
330
189
100
AcDbEntity
  8
AM_9
100
AcDbLine
 10
0.8096372644585971
 20
-1.077166666666667
 30
0.0
 11
0.8096372644585971
 21
-1.517166666666666
 31
0.0
  0
LINE
  5
1B6
330
189
100
AcDbEntity
  8
AM_9
100
AcDbLine
 10
-0.8096372644585971
 20
-1.077166666666667
 30
0.0
 11
-0.8096372644585971
 21
-1.517166666666666
 31
0.0
  0
LINE
  5
1B7
330
189
100
AcDbEntity
  8
AM_9
100
AcDbLine
 10
1.1484375
 20
1.109375
 30
0.0
 11
-1.1484375
 21
1.109375
 31
0.0
  0
LINE
  5
1B8
330
189
100
AcDbEntity
  8
AM_9
100
AcDbLine
 10
-1.1484375
 20
1.129375
 30
0.0
 11
-1.1484375
 21
1.109375
 31
0.0
  0
LINE
  5
1B9
330
189
100
AcDbEntity
  8
AM_9
100
AcDbLine
 10
1.1484375
 20
1.109375
 30
0.0
 11
1.1484375
 21
1.129375
 31
0.0
  0
LINE
  5
1BA
330
189
100
AcDbEntity
  8
AM_9
100
AcDbLine
 10
-1.276041666666667
 20
1.0
 30
0.0
 11
-1.276041666666667
 21
0.7995625000000006
 31
0.0
  0
LINE
  5
1BB
330
189
100
AcDbEntity
  8
AM_9
100
AcDbLine
 10
1.276041666666667
 20
0.7995625000000006
 30
0.0
 11
1.276041666666667
 21
1.0
 31
0.0
  0
LINE
  5
1BC
330
189
100
AcDbEntity
  8
AM_9
100
AcDbLine
 10
-1.028878695709275
 20
-1.077166666666666
 30
0.0
 11
-0.8096372644585971
 21
-1.077166666666667
 31
0.0
  0
LINE
  5
1BD
330
189
100
AcDbEntity
  8
AM_9
100
AcDbLine
 10
0.8096372644585971
 20
-1.077166666666667
 30
0.0
 11
1.028878695709276
 21
-1.077166666666666
 31
0.0
  0
LINE
  5
1BE
330
189
100
AcDbEntity
  8
AM_9
100
AcDbLine
 10
-0.0724499999999999
 20
-0.710950656499996
 30
0.0
 11
-0.0724499999999999
 21
-1.494616666666666
 31
0.0
  0
LINE
  5
1BF
330
189
100
AcDbEntity
  8
AM_9
100
AcDbLine
 10
0.0724499999999999
 20
-1.494616666666666
 30
0.0
 11
0.0724499999999999
 21
-0.710950656499996
 31
0.0
  0
LINE
  5
1C0
330
189
100
AcDbEntity
  8
AM_9
100
AcDbLine
 10
0.0724499999999999
 20
-0.710950656499996
 30
0.0
 11
-0.0724499999999999
 21
-0.710950656499996
 31
0.0
  0
LINE
  5
1C1
330
189
100
AcDbEntity
  8
AM_9
100
AcDbLine
 10
0.0
 20
-0.6771666666666664
 30
0.0
 11
-0.0724499999999999
 21
-0.710950656499996
 31
0.0
  0
LINE
  5
1C2
330
189
100
AcDbEntity
  8
AM_9
100
AcDbLine
 10
0.0724499999999999
 20
-0.710950656499996
 30
0.0
 11
0.0
 21
-0.6771666666666664
 31
0.0
  0
LINE
  5
1C3
330
189
100
AcDbEntity
  8
AM_9
100
AcDbLine
 10
0.0724499999999999
 20
-1.494616666666666
 30
0.0
 11
-0.0724499999999999
 21
-1.494616666666666
 31
0.0
  0
LINE
  5
1C4
330
189
100
AcDbEntity
  8
AM_9
100
AcDbLine
 10
-0.0724499999999999
 20
-1.494616666666666
 30
0.0
 11
-0.0950000000000002
 21
-1.517166666666666
 31
0.0
  0
LINE
  5
1C5
330
189
100
AcDbEntity
  8
AM_9
100
AcDbLine
 10
0.0950000000000002
 20
-1.517166666666666
 30
0.0
 11
0.0724499999999999
 21
-1.494616666666666
 31
0.0
  0
LINE
  5
1C6
330
189
100
AcDbEntity
  8
AM_9
100
AcDbLine
 10
1.403857579506881
 20
0.7995625000000006
 30
0.0
 11
-1.403857579492944
 21
0.7995625000000006
 31
0.0
  0
ARC
  5
1C7
330
189
100
AcDbEntity
  8
AM_9
100
AcDbCircle
 10
-1.403857578016765
 20
0.6995625000000011
 30
0.0
 40
0.0999999999999995
100
AcDbArc
 50
90.0
 51
150.0000000000004
  0
ARC
  5
1C8
330
189
100
AcDbEntity
  8
AM_9
100
AcDbCircle
 10
1.403857578016765
 20
0.6995625000000011
 30
0.0
 40
0.0999999999999996
100
AcDbArc
 50
29.99999999999965
 51
90.0
  0
LINE
  5
1C9
330
189
100
AcDbEntity
  8
AM_9
100
AcDbLine
 10
1.490460118395209
 20
0.7495625000000004
 30
0.0
 11
-1.490460118395209
 21
0.7495625000000004
 31
0.0
  0
LINE
  5
1CA
330
189
100
AcDbEntity
  8
AM_9
100
AcDbLine
 10
-1.490460118395209
 20
0.7495625000000004
 30
0.0
 11
-1.57165
 21
0.6089375000000002
 31
0.0
  0
LINE
  5
1CB
330
189
100
AcDbEntity
  8
AM_9
100
AcDbLine
 10
1.57165
 20
0.6089375000000002
 30
0.0
 11
1.490460118395209
 21
0.7495625000000004
 31
0.0
  0
LINE
  5
1CC
330
189
100
AcDbEntity
  8
AM_9
100
AcDbLine
 10
1.658684857955483
 20
-0.9999999999999997
 30
0.0
 11
1.68158633509779
 21
-0.3441875
 31
0.0
  0
LINE
  5
1CD
330
189
100
AcDbEntity
  8
AM_9
100
AcDbLine
 10
-1.68158633509779
 20
-0.3441875
 30
0.0
 11
-1.658684857955483
 21
-0.9999999999999997
 31
0.0
  0
LINE
  5
1CE
330
189
100
AcDbEntity
  8
AM_9
100
AcDbLine
 10
-1.72399375
 20
0.1598893487660681
 30
0.0
 11
-1.72399375
 21
0.1048606512339322
 31
0.0
  0
LINE
  5
1CF
330
189
100
AcDbEntity
  8
AM_9
100
AcDbLine
 10
1.72399375
 20
0.1048606512339322
 30
0.0
 11
1.72399375
 21
0.1598893487660681
 31
0.0
  0
LINE
  5
1D0
330
189
100
AcDbEntity
  8
AM_9
100
AcDbLine
 10
1.721649999999999
 20
-0.3441875
 30
0.0
 11
-1.721649999993343
 21
-0.3441875
 31
0.0
  0
ARC
  5
1D1
330
189
100
AcDbEntity
  8
AM_9
100
AcDbCircle
 10
-1.721650000000005
 20
-0.2941875000000056
 30
0.0
 40
0.0499999999999943
100
AcDbArc
 50
180.0
 51
270.0
  0
ARC
  5
1D2
330
189
100
AcDbEntity
  8
AM_9
100
AcDbCircle
 10
1.721649999999999
 20
-0.2941874999999996
 30
0.0
 40
0.0500000000000003
100
AcDbArc
 50
270.0
 51
0.0
  0
LINE
  5
1D3
330
189
100
AcDbEntity
  8
AM_9
100
AcDbLine
 10
1.72399375
 20
0.1598893487660681
 30
0.0
 11
-1.72399375
 21
0.1598893487660681
 31
0.0
  0
LINE
  5
1D4
330
189
100
AcDbEntity
  8
AM_9
100
AcDbLine
 10
1.72399375
 20
0.1598893487660681
 30
0.0
 11
1.77165
 21
0.187403697532136
 31
0.0
  0
LINE
  5
1D5
330
189
100
AcDbEntity
  8
AM_9
100
AcDbLine
 10
-1.77165
 20
0.187403697532136
 30
0.0
 11
-1.72399375
 21
0.1598893487660681
 31
0.0
  0
LINE
  5
1D6
330
189
100
AcDbEntity
  8
AM_9
100
AcDbLine
 10
1.72399375
 20
0.1048606512339322
 30
0.0
 11
-1.72399375
 21
0.1048606512339322
 31
0.0
  0
LINE
  5
1D7
330
189
100
AcDbEntity
  8
AM_9
100
AcDbLine
 10
-1.72399375
 20
0.1048606512339322
 30
0.0
 11
-1.77165
 21
0.077346302467864
 31
0.0
  0
LINE
  5
1D8
330
189
100
AcDbEntity
  8
AM_9
100
AcDbLine
 10
1.77165
 20
0.077346302467864
 30
0.0
 11
1.72399375
 21
0.1048606512339322
 31
0.0
  0
LINE
  5
1D9
330
189
100
AcDbEntity
  8
AM_9
100
AcDbLine
 10
1.72165
 20
0.6089374999999999
 30
0.0
 11
-1.721649999993344
 21
0.6089374999999999
 31
0.0
  0
ARC
  5
1DA
330
189
100
AcDbEntity
  8
AM_9
100
AcDbCircle
 10
-1.72165
 20
0.5589375
 30
0.0
 40
0.0499999999999999
100
AcDbArc
 50
90.0
 51
180.0
  0
ARC
  5
1DB
330
189
100
AcDbEntity
  8
AM_9
100
AcDbCircle
 10
1.72165
 20
0.5589375000000003
 30
0.0
 40
0.0499999999999996
100
AcDbArc
 50
0.0
 51
90.0
  0
LINE
  5
1DC
330
189
100
AcDbEntity
  8
AM_9
100
AcDbLine
 10
1.77165
 20
0.5589375
 30
0.0
 11
-1.77165
 21
0.5589375
 31
0.0
  0
LINE
  5
1DD
330
189
100
AcDbEntity
  8
AM_9
100
AcDbLine
 10
1.77165
 20
0.187403697532136
 30
0.0
 11
-1.77165
 21
0.187403697532136
 31
0.0
  0
LINE
  5
1DE
330
189
100
AcDbEntity
  8
AM_9
100
AcDbLine
 10
-1.77165
 20
0.5589375
 30
0.0
 11
-1.77165
 21
0.187403697532136
 31
0.0
  0
LINE
  5
1DF
330
189
100
AcDbEntity
  8
AM_9
100
AcDbLine
 10
1.77165
 20
0.187403697532136
 30
0.0
 11
1.77165
 21
0.5589375
 31
0.0
  0
LINE
  5
1E0
330
189
100
AcDbEntity
  8
AM_9
100
AcDbLine
 10
1.77165
 20
0.077346302467864
 30
0.0
 11
-1.77165
 21
0.077346302467864
 31
0.0
  0
LINE
  5
1E1
330
189
100
AcDbEntity
  8
AM_9
100
AcDbLine
 10
1.77165
 20
-0.2941874999999997
 30
0.0
 11
-1.77165
 21
-0.2941874999999997
 31
0.0
  0
LINE
  5
1E2
330
189
100
AcDbEntity
  8
AM_9
100
AcDbLine
 10
-1.77165
 20
0.077346302467864
 30
0.0
 11
-1.77165
 21
-0.2941874999999997
 31
0.0
  0
LINE
  5
1E3
330
189
100
AcDbEntity
  8
AM_9
100
AcDbLine
 10
1.77165
 20
-0.2941874999999997
 30
0.0
 11
1.77165
 21
0.077346302467864
 31
0.0
  0
LINE
  5
1E4
330
189
100
AcDbEntity
  8
AM_5
100
AcDbLine
 10
-0.0724499999999999
 20
-0.7571666666666663
 30
0.0
 11
-0.0950000000000002
 21
-0.7571666666666663
 31
0.0
  0
LINE
  5
1E5
330
189
100
AcDbEntity
  8
AM_5
100
AcDbLine
 10
-0.0950000000000002
 20
-0.7571666666666663
 30
0.0
 11
-0.0724499999999999
 21
-0.7441474180964402
 31
0.0
  0
LINE
  5
1E6
330
189
100
AcDbEntity
  8
AM_5
100
AcDbLine
 10
0.0724499999999997
 20
-0.7571666666666663
 30
0.0
 11
0.0949999999999999
 21
-0.7571666666666663
 31
0.0
  0
LINE
  5
1E7
330
189
100
AcDbEntity
  8
AM_5
100
AcDbLine
 10
0.0950000000000002
 20
-0.7571666666666657
 30
0.0
 11
0.0724499999999999
 21
-0.7441474180964582
 31
0.0
  0
LINE
  5
1EA
330
189
100
AcDbEntity
  8
AM_7
100
AcDbLine
 10
0.0
 20
1.27334375
 30
0.0
 11
0.0
 21
-1.89396875
 31
0.0
  0
LINE
  5
1EB
330
189
100
AcDbEntity
  8
AM_4
100
AcDbLine
 10
-0.468721215058001
 20
-1.75
 30
0.0
 11
-0.468721215058001
 21
-1.587166666666667
 31
0.0
  0
ARC
  5
1EC
330
189
100
AcDbEntity
  8
AM_4
100
AcDbCircle
 10
1.592340561259646
 20
-1.467166666666666
 30
0.0
 40
0.0500000000000005
100
AcDbArc
 50
270.0
 51
357.9999999999993
  0
ARC
  5
1ED
330
189
100
AcDbEntity
  8
AM_4
100
AcDbCircle
 10
-1.592340561259646
 20
-1.467166666666666
 30
0.0
 40
0.0500000000000003
100
AcDbArc
 50
182.0000000000003
 51
270.0
  0
LWPOLYLINE
  5
1EE
330
189
100
AcDbEntity
  8
AM_4
100
AcDbPolyline
 90
        6
 70
     0
 43
0.0
 10
1.287841179836565
 20
-1.468911641501792
 10
1.285448556434734
 20
-1.485267379049313
 10
1.279364388634316
 20
-1.499589434706216
 10
1.270254606252683
 20
-1.510312136834694
 10
1.259085397042463
 20
-1.516239794707624
 10
1.252260942957524
 20
-1.517166666666666
  0
LWPOLYLINE
  5
1EF
330
189
100
AcDbEntity
  8
AM_4
100
AcDbPolyline
 90
        6
 70
     0
 43
0.0
 10
-1.252260942957524
 20
-1.517166666666666
 10
-1.257431462601879
 20
-1.516636751154502
 10
-1.268885094433819
 20
-1.511382398319422
 10
-1.278431471242283
 20
-1.501067543597212
 10
-1.284965208334057
 20
-1.486926837990357
 10
-1.287841179836565
 20
-1.468911641501792
  0
LINE
  5
1F0
330
189
100
AcDbEntity
  8
AM_4
100
AcDbLine
 10
-0.3134122398193019
 20
-1.75
 30
0.0
 11
-0.3134122398193018
 21
-1.587166666666667
 31
0.0
  0
LINE
  5
1F1
330
189
100
AcDbEntity
  8
AM_4
100
AcDbLine
 10
-0.4889493509964464
 20
-1.587166666666667
 30
0.0
 11
-0.4889493509964462
 21
-1.75
 31
0.0
  0
LINE
  5
1F2
330
189
100
AcDbEntity
  8
AM_4
100
AcDbLine
 10
-1.052631578947368
 20
-1.587166666666667
 30
0.0
 11
-1.052631578947368
 21
-1.75
 31
0.0
  0
LINE
  5
1F3
330
189
100
AcDbEntity
  8
AM_4
100
AcDbLine
 10
1.052631578947368
 20
-1.75
 30
0.0
 11
1.052631578947368
 21
-1.587166666666667
 31
0.0
  0
LINE
  5
1F4
330
189
100
AcDbEntity
  8
AM_4
100
AcDbLine
 10
1.052631578947368
 20
-1.75
 30
0.0
 11
-1.052631578947368
 21
-1.75
 31
0.0
  0
LINE
  5
1F5
330
189
100
AcDbEntity
  8
AM_4
100
AcDbLine
 10
1.078337841309485
 20
-1.077166666666667
 30
0.0
 11
1.078337841309485
 21
-1.517166666666666
 31
0.0
  0
LINE
  5
1F6
330
189
100
AcDbEntity
  8
AM_4
100
AcDbLine
 10
-1.078337841309485
 20
-1.077166666666667
 30
0.0
 11
-1.078337841309485
 21
-1.517166666666666
 31
0.0
  0
LINE
  5
1F7
330
189
100
AcDbEntity
  8
AM_4
100
AcDbLine
 10
-1.276041666666667
 20
1.099927884615385
 30
0.0
 11
-1.276041666666667
 21
1.0
 31
0.0
  0
LINE
  5
1F8
330
189
100
AcDbEntity
  8
AM_4
100
AcDbLine
 10
1.276041666666667
 20
1.0
 30
0.0
 11
1.276041666666667
 21
1.099927884615385
 31
0.0
  0
LINE
  5
1F9
330
189
100
AcDbEntity
  8
AM_4
100
AcDbLine
 10
1.246594551282051
 20
1.129375
 30
0.0
 11
-1.246594551282049
 21
1.129375
 31
0.0
  0
LINE
  5
1FA
330
189
100
AcDbEntity
  8
AM_4
100
AcDbLine
 10
1.276041666666667
 20
1.099927884615385
 30
0.0
 11
-1.276041666666667
 21
1.099927884615385
 31
0.0
  0
ARC
  5
1FB
330
189
100
AcDbEntity
  8
AM_4
100
AcDbCircle
 10
-1.246594551282052
 20
1.099927884615385
 30
0.0
 40
0.0294471153846152
100
AcDbArc
 50
90.0
 51
180.0
  0
ARC
  5
1FC
330
189
100
AcDbEntity
  8
AM_4
100
AcDbCircle
 10
1.246594551282052
 20
1.099927884615385
 30
0.0
 40
0.029447115384615
100
AcDbArc
 50
0.0
 51
90.0
  0
LWPOLYLINE
  5
1FD
330
189
100
AcDbEntity
  8
AM_4
100
AcDbPolyline
 90
        6
 70
     0
 43
0.0
 10
0.9835603661066361
 20
-1.517166666666666
 10
0.9887308857509913
 20
-1.516636751154502
 10
1.000184517582931
 20
-1.511382398319422
 10
1.009730894391395
 20
-1.501067543597212
 10
1.016264631483169
 20
-1.486926837990357
 10
1.019140602985677
 20
-1.468911641501792
  0
LWPOLYLINE
  5
1FE
330
189
100
AcDbEntity
  8
AM_4
100
AcDbPolyline
 90
        6
 70
     0
 43
0.0
 10
-1.019140602985677
 20
-1.468911641501792
 10
-1.016747979583846
 20
-1.485267379049313
 10
-1.010663811783428
 20
-1.499589434706216
 10
-1.001554029401795
 20
-1.510312136834694
 10
-0.9903848201915748
 20
-1.516239794707624
 10
-0.9835603661066357
 20
-1.517166666666666
  0
LINE
  5
1FF
330
189
100
AcDbEntity
  8
AM_4
100
AcDbLine
 10
-1.287841179836565
 20
-1.468911641501792
 30
0.0
 11
-1.642310102610602
 21
-1.468911641501792
 31
0.0
  0
LINE
  5
200
330
189
100
AcDbEntity
  8
AM_4
100
AcDbLine
 10
-1.287841179836565
 20
-1.468911641501792
 30
0.0
 11
-1.297579272560164
 21
-1.077166666666667
 31
0.0
  0
LINE
  5
201
330
189
100
AcDbEntity
  8
AM_4
100
AcDbLine
 10
-1.297579272560164
 20
-1.077166666666667
 30
0.0
 11
-1.028878695709275
 21
-1.077166666666666
 31
0.0
  0
LINE
  5
202
330
189
100
AcDbEntity
  8
AM_4
100
AcDbLine
 10
-1.028878695709275
 20
-1.077166666666666
 30
0.0
 11
-1.019140602985677
 21
-1.468911641501792
 31
0.0
  0
LINE
  5
203
330
189
100
AcDbEntity
  8
AM_4
100
AcDbLine
 10
1.019140602985677
 20
-1.468911641501792
 30
0.0
 11
-1.019140602985677
 21
-1.468911641501792
 31
0.0
  0
LINE
  5
204
330
189
100
AcDbEntity
  8
AM_4
100
AcDbLine
 10
1.019140602985677
 20
-1.468911641501792
 30
0.0
 11
1.028878695709276
 21
-1.077166666666666
 31
0.0
  0
LINE
  5
205
330
189
100
AcDbEntity
  8
AM_4
100
AcDbLine
 10
1.028878695709276
 20
-1.077166666666666
 30
0.0
 11
1.297579272560164
 21
-1.077166666666667
 31
0.0
  0
LINE
  5
206
330
189
100
AcDbEntity
  8
AM_4
100
AcDbLine
 10
1.297579272560164
 20
-1.077166666666667
 30
0.0
 11
1.287841179836565
 21
-1.468911641501792
 31
0.0
  0
LINE
  5
207
330
189
100
AcDbEntity
  8
AM_4
100
AcDbLine
 10
1.642310102610602
 20
-1.468911641501792
 30
0.0
 11
1.658684857955483
 21
-0.9999999999999997
 31
0.0
  0
LINE
  5
208
330
189
100
AcDbEntity
  8
AM_4
100
AcDbLine
 10
-1.658684857955483
 20
-0.9999999999999997
 30
0.0
 11
-1.642310102610602
 21
-1.468911641501792
 31
0.0
  0
LINE
  5
209
330
189
100
AcDbEntity
  8
AM_4
100
AcDbLine
 10
1.642310102610602
 20
-1.468911641501792
 30
0.0
 11
1.287841179836565
 21
-1.468911641501792
 31
0.0
  0
ENDBLK
  5
18C
330
189
100
AcDbEntity
  8
0
100
AcDbBlockEnd
  0
BLOCK
  5
20C
330
20A
100
AcDbEntity
  8
0
100
AcDbBlockBegin
  2
7_069379H_0_in_069379_4
 70
     2
 10
0.0
 20
0.0
 30
0.0
  3
7_069379H_0_in_069379_4
  1

  0
ATTDEF
  5
20E
330
20A
100
AcDbEntity
  8
AM_6
100
AcDbText
 10
8.984375
 20
1.216018734436275
 30
0.0
 40
0.5
  1
WSTU-IP -Housing -Inch
100
AcDbAttributeDefinition
  3

  2
NN
 70
     8
280
     0
  0
ATTDEF
  5
20F
330
20A
100
AcDbEntity
  8
AM_6
100
AcDbText
 10
8.984375
 20
0.716018734436275
 30
0.0
 40
0.5
  1
Imperial Wide Slot Take-Up Bearings
100
AcDbAttributeDefinition
  3

  2
NT
 70
     8
280
     0
  0
ATTDEF
  5
210
330
20A
100
AcDbEntity
  8
AM_6
100
AcDbText
 10
8.984375
 20
0.216018734436275
 30
0.0
 40
0.5
  1
069379H
100
AcDbAttributeDefinition
  3

  2
NB
 70
     8
280
     0
  0
ATTDEF
  5
211
330
20A
100
AcDbEntity
  8
AM_6
100
AcDbText
 10
8.984375
 20
-0.283981265563725
 30
0.0
 40
0.5
  1
$PN.H
100
AcDbAttributeDefinition
  3

  2
NBSYN
 70
     8
280
     0
  0
ATTDEF
  5
212
330
20A
100
AcDbEntity
  8
AM_6
100
AcDbText
 10
8.984375
 20
-0.783981265563725
 30
0.0
 40
0.5
  1
069379
100
AcDbAttributeDefinition
  3

  2
LINA
 70
     8
280
     0
  0
ATTDEF
  5
213
330
20A
100
AcDbEntity
  8
AM_6
100
AcDbText
 10
8.984375
 20
-1.283981265563725
 30
0.0
 40
0.5
  1
2
100
AcDbAttributeDefinition
  3

  2
SS
 70
     8
280
     0
  0
ATTDEF
  5
214
330
20A
100
AcDbEntity
  8
AM_6
100
AcDbText
 10
8.984375
 20
-1.783981265563725
 30
0.0
 40
0.5
  1
069379
100
AcDbAttributeDefinition
  3

  2
PN
 70
     8
280
     0
  0
ATTDEF
  5
215
330
20A
100
AcDbEntity
  8
AM_6
100
AcDbText
 10
8.984375
 20
-2.283981265563725
 30
0.0
 40
0.5
  1
WSTU-IP-200RE
100
AcDbAttributeDefinition
  3

  2
DESCRIPTION
 70
     8
280
     0
  0
ATTDEF
  5
216
330
20A
100
AcDbEntity
  8
AM_6
100
AcDbText
 10
8.984375
 20
-2.783981265563725
 30
0.0
 40
0.5
  1
Expansion
100
AcDbAttributeDefinition
  3

  2
EF
 70
     8
280
     0
  0
ATTDEF
  5
217
330
20A
100
AcDbEntity
  8
AM_6
100
AcDbText
 10
8.984375
 20
-3.283981265563725
 30
0.0
 40
0.5
  1
Contact Seal
100
AcDbAttributeDefinition
  3

  2
ST
 70
     8
280
     0
  0
ATTDEF
  5
218
330
20A
100
AcDbEntity
  8
AM_6
100
AcDbText
 10
8.984375
 20
-3.783981265563725
 30
0.0
 40
0.5
  1
2-55/64
100
AcDbAttributeDefinition
  3

  2
A
 70
     8
280
     0
  0
ATTDEF
  5
219
330
20A
100
AcDbEntity
  8
AM_6
100
AcDbText
 10
8.984375
 20
-4.283981265563725
 30
0.0
 40
0.5
  1
6-3/16
100
AcDbAttributeDefinition
  3

  2
B
 70
     8
280
     0
  0
ATTDEF
  5
21A
330
20A
100
AcDbEntity
  8
AM_6
100
AcDbText
 10
8.984375
 20
-4.783981265563725
 30
0.0
 40
0.5
  1
11/16
100
AcDbAttributeDefinition
  3

  2
C
 70
     8
280
     0
  0
ATTDEF
  5
21B
330
20A
100
AcDbEntity
  8
AM_6
100
AcDbText
 10
8.984375
 20
-5.283981265563725
 30
0.0
 40
0.5
  1
3-5/8
100
AcDbAttributeDefinition
  3

  2
D
 70
     8
280
     0
  0
ATTDEF
  5
21C
330
20A
100
AcDbEntity
  8
AM_6
100
AcDbText
 10
8.984375
 20
-5.783981265563725
 30
0.0
 40
0.5
  1
3-15/16
100
AcDbAttributeDefinition
  3

  2
E
 70
     8
280
     0
  0
ATTDEF
  5
21D
330
20A
100
AcDbEntity
  8
AM_6
100
AcDbText
 10
8.984375
 20
-6.283981265563725
 30
0.0
 40
0.5
  1
1-1/8
100
AcDbAttributeDefinition
  3

  2
F
 70
     8
280
     0
  0
ATTDEF
  5
21E
330
20A
100
AcDbEntity
  8
AM_6
100
AcDbText
 10
8.984375
 20
-6.783981265563725
 30
0.0
 40
0.5
  1
15/16
100
AcDbAttributeDefinition
  3

  2
G
 70
     8
280
     0
  0
ATTDEF
  5
21F
330
20A
100
AcDbEntity
  8
AM_6
100
AcDbText
 10
8.984375
 20
-7.283981265563725
 30
0.0
 40
0.5
  1
3/4
100
AcDbAttributeDefinition
  3

  2
H
 70
     8
280
     0
  0
ATTDEF
  5
220
330
20A
100
AcDbEntity
  8
AM_6
100
AcDbText
 10
8.984375
 20
-7.783981265563725
 30
0.0
 40
0.5
  1
3-5/16
100
AcDbAttributeDefinition
  3

  2
J
 70
     8
280
     0
  0
ATTDEF
  5
221
330
20A
100
AcDbEntity
  8
AM_6
100
AcDbText
 10
8.984375
 20
-8.283981265563725
 30
0.0
 40
0.5
  1
1-15/16
100
AcDbAttributeDefinition
  3

  2
K
 70
     8
280
     0
  0
ATTDEF
  5
222
330
20A
100
AcDbEntity
  8
AM_6
100
AcDbText
 10
8.984375
 20
-8.783981265563725
 30
0.0
 40
0.5
  1
3-9/32
100
AcDbAttributeDefinition
  3

  2
L
 70
     8
280
     0
  0
ATTDEF
  5
223
330
20A
100
AcDbEntity
  8
AM_6
100
AcDbText
 10
8.984375
 20
-9.283981265563725
 30
0.0
 40
0.5
  1
4
100
AcDbAttributeDefinition
  3

  2
M
 70
     8
280
     0
  0
ATTDEF
  5
224
330
20A
100
AcDbEntity
  8
AM_6
100
AcDbText
 10
8.984375
 20
-9.783981265563725
 30
0.0
 40
0.5
  1
4-3/4
100
AcDbAttributeDefinition
  3

  2
N
 70
     8
280
     0
  0
ATTDEF
  5
225
330
20A
100
AcDbEntity
  8
AM_6
100
AcDbText
 10
8.984375
 20
-10.28398126556372
 30
0.0
 40
0.5
  1
2-15/16
100
AcDbAttributeDefinition
  3

  2
R
 70
     8
280
     0
  0
ATTDEF
  5
226
330
20A
100
AcDbEntity
  8
AM_6
100
AcDbText
 10
8.984375
 20
-10.78398126556372
 30
0.0
 40
0.5
  1
2
100
AcDbAttributeDefinition
  3

  2
S
 70
     8
280
     0
  0
ATTDEF
  5
227
330
20A
100
AcDbEntity
  8
AM_6
100
AcDbText
 10
8.984375
 20
-11.28398126556372
 30
0.0
 40
0.5
  1
2
100
AcDbAttributeDefinition
  3

  2
T
 70
     8
280
     0
  0
ATTDEF
  5
228
330
20A
100
AcDbEntity
  8
AM_6
100
AcDbText
 10
8.984375
 20
-11.78398126556372
 30
0.0
 40
0.5
  1
1/4
100
AcDbAttributeDefinition
  3

  2
X
 70
     8
280
     0
  0
ATTDEF
  5
229
330
20A
100
AcDbEntity
  8
AM_6
100
AcDbText
 10
8.984375
 20
-12.28398126556372
 30
0.0
 40
0.5
  1
0.020
100
AcDbAttributeDefinition
  3

  2
Y
 70
     8
280
     0
  0
ATTDEF
  5
22A
330
20A
100
AcDbEntity
  8
AM_6
100
AcDbText
 10
8.984375
 20
-12.78398126556372
 30
0.0
 40
0.5
  1
2-19/64
100
AcDbAttributeDefinition
  3

  2
Z
 70
     8
280
     0
  0
ATTDEF
  5
22B
330
20A
100
AcDbEntity
  8
AM_6
100
AcDbText
 10
8.984375
 20
-13.28398126556372
 30
0.0
 40
0.5
  1
baldor
100
AcDbAttributeDefinition
  3

  2
COMPANY
 70
     8
280
     0
  0
ELLIPSE
  5
22C
330
20A
100
AcDbEntity
  8
AM_9
100
AcDbEllipse
 10
-2.086163672775272
 20
0.0
 30
0.0
 11
3.061616997868383E-17
 21
0.5
 31
0.0
210
0.0
220
0.0
230
1.0
 40
0.3746065934159102
 41
2.076752664232815
 42
7.348025296536566
  0
ELLIPSE
  5
22D
330
20A
100
AcDbEntity
  8
AM_9
100
AcDbEllipse
 10
-2.178882058231951
 20
-0.0000000000000001
 30
0.0
 11
-7.347880794884114E-17
 21
-0.3999999999999997
 31
0.0
210
0.0
220
0.0
230
1.0
 40
0.3746065934159117
 41
0.0
 42
6.283185307179586
  0
LINE
  5
22E
330
20A
100
AcDbEntity
  8
AM_9
100
AcDbLine
 10
-2.087630397611939
 20
-0.4999931105923501
 30
0.0
 11
-2.086115112938962
 21
-0.4999999924485142
 31
0.0
  0
LWPOLYLINE
  5
22F
330
20A
100
AcDbEntity
  8
AM_9
100
AcDbPolyline
 90
       12
 70
     0
 43
0.0
 10
-2.250192189281142
 20
-0.3925322550543167
 10
-2.243227287631143
 20
-0.4035035454194812
 10
-2.228230039741832
 20
-0.4241751812216114
 10
-2.214004090151465
 20
-0.4405958802357153
 10
-2.199284883081481
 20
-0.4548337320322177
 10
-2.184118863937229
 20
-0.4669884389438449
 10
-2.168503100494231
 20
-0.4771779054308076
 10
-2.152433863312156
 20
-0.4854801227257083
 10
-2.135933623616538
 20
-0.4919250297839843
 10
-2.117339553242748
 20
-0.4968658292308115
 10
-2.098713255302377
 20
-0.4994950811176105
 10
-2.087630397611939
 20
-0.4999931105923501
  0
LWPOLYLINE
  5
230
330
20A
100
AcDbEntity
  8
AM_9
100
AcDbPolyline
 90
       12
 70
     0
 43
0.0
 10
-2.091763304159531
 20
0.4998995630864695
 10
-2.096083153924919
 20
0.4996846746772824
 10
-2.11413191665168
 20
0.4974810122387229
 10
-2.131660977324322
 20
0.4932718872230817
 10
-2.148596417916132
 20
0.4871601348065183
 10
-2.164906871737992
 20
0.4792196866833703
 10
-2.180602585390416
 20
0.4694781076654369
 10
-2.195727352823973
 20
0.4579007783762502
 10
-2.21034122492627
 20
0.4443837525957218
 10
-2.224491341526702
 20
0.4287685428635878
 10
-2.238171112043322
 20
0.4108987477263366
 10
-2.250060968051857
 20
0.3927478521022377
  0
LINE
  5
231
330
20A
100
AcDbEntity
  8
AM_9
100
AcDbLine
 10
-2.088062497898957
 20
0.49998845327016
 30
0.0
 11
-2.091763304159531
 21
0.4998995630864695
 31
0.0
  0
LINE
  5
232
330
20A
100
AcDbEntity
  8
AM_9
100
AcDbLine
 10
-2.08621231820798
 20
0.4999999924218686
 30
0.0
 11
-2.088062497898957
 21
0.49998845327016
 31
0.0
  0
LINE
  5
233
330
20A
100
AcDbEntity
  8
AM_9
100
AcDbLine
 10
3.9375
 20
0.5625
 30
0.0
 11
3.0
 21
0.5625
 31
0.0
  0
LINE
  5
234
330
20A
100
AcDbEntity
  8
AM_9
100
AcDbLine
 10
3.0
 20
-0.5625
 30
0.0
 11
3.9375
 21
-0.5625
 31
0.0
  0
LINE
  5
235
330
20A
100
AcDbEntity
  8
AM_9
100
AcDbLine
 10
2.25
 20
-0.735
 30
0.0
 11
2.25
 21
0.735
 31
0.0
  0
LINE
  5
236
330
20A
100
AcDbEntity
  8
AM_9
100
AcDbLine
 10
3.0
 20
-0.735
 30
0.0
 11
3.0
 21
0.735
 31
0.0
  0
LINE
  5
237
330
20A
100
AcDbEntity
  8
AM_9
100
AcDbLine
 10
2.906250000000001
 20
-0.735
 30
0.0
 11
2.906250000000001
 21
0.735
 31
0.0
  0
LINE
  5
238
330
20A
100
AcDbEntity
  8
AM_9
100
AcDbLine
 10
2.34375
 20
-0.735
 30
0.0
 11
2.34375
 21
0.735
 31
0.0
  0
LWPOLYLINE
  5
239
330
20A
100
AcDbEntity
  8
AM_9
100
AcDbPolyline
 90
       30
 70
     0
 43
0.0
 10
-2.086163672775275
 20
-0.4999999999999998
 10
-2.105095030934179
 20
-0.4972859759951684
 10
-2.123601921320368
 20
-0.4885567715876372
 10
-2.14055202702046
 20
-0.4739459290838015
 10
-2.155737759461867
 20
-0.4537411704119982
 10
-2.169218859004202
 20
-0.4278584446237198
 10
-2.180963824292665
 20
-0.396749362822491
 10
-2.190957053952562
 20
-0.3609759574136582
 10
-2.19945534670276
 20
-0.3198828863990355
 10
-2.206390768301531
 20
-0.2746112532034533
 10
-2.211846145480791
 20
-0.2259812163412366
 10
-2.215968657347239
 20
-0.1742195987700104
 10
-2.218870174351258
 20
-0.1199951606591382
 10
-2.220621662525179
 20
-0.0643573581755451
 10
-2.221292751027372
 20
-0.0090384309616801
 10
-2.220949957182301
 20
0.0465752561649366
 10
-2.219583709412337
 20
0.1014131839353578
 10
-2.217186510171619
 20
0.1542838891718951
 10
-2.213662781796319
 20
0.2054084812436389
 10
-2.208938977357534
 20
0.2538757843238474
 10
-2.202775289524318
 20
0.2999267427067224
 10
-2.195104860198956
 20
0.342414993289809
 10
-2.185857067851696
 20
0.3805945254535747
 10
-2.174645362066158
 20
0.4146724988647777
 10
-2.161548845987712
 20
0.4436098177911655
 10
-2.146617523903652
 20
0.4668461167945296
 10
-2.129898402074791
 20
0.4839610315566642
 10
-2.111376219853124
 20
0.4950257908553739
 10
-2.091329373081191
 20
0.4998068673714319
 10
-2.086163672775272
 20
0.4999999999999998
  0
LWPOLYLINE
  5
23A
330
20A
100
AcDbEntity
  8
AM_9
100
AcDbPolyline
 90
       29
 70
     0
 43
0.0
 10
-2.086163672775272
 20
0.4999999999999998
 10
-2.06672114276622
 20
0.4974177853620959
 10
-2.046406697923409
 20
0.4897587609599764
 10
-2.025588554489644
 20
0.4771543560610304
 10
-2.002637365848272
 20
0.4578969378198132
 10
-1.979706784769909
 20
0.4331193190038582
 10
-1.957360974715338
 20
0.4032817867744017
 10
-1.935568196819046
 20
0.367865762147598
 10
-1.915165569992218
 20
0.3277891047433938
 10
-1.896731419768919
 20
0.283767503558998
 10
-1.880479266560328
 20
0.2354615016076555
 10
-1.866996771179336
 20
0.1839288002757407
 10
-1.85673009868116
 20
0.1301424245374912
 10
-1.849247022350609
 20
0.0656629208612897
 10
-1.846698029389173
 20
-0.0000000000000001
 10
-1.848522433134741
 20
-0.0552674496462543
 10
-1.853874245681182
 20
-0.1100035172302846
 10
-1.862571368993109
 20
-0.1631715026794426
 10
-1.874456411145606
 20
-0.2142105759060163
 10
-1.889204675454048
 20
-0.2627420881973817
 10
-1.906364366958761
 20
-0.3079080164819877
 10
-1.925931152107432
 20
-0.3498930255491981
 10
-1.947235124857618
 20
-0.3876461470951822
 10
-1.969681705374352
 20
-0.4204849353692302
 10
-1.993127718906748
 20
-0.448305230357375
 10
-2.016932584389478
 20
-0.4705157167483975
 10
-2.040484646153686
 20
-0.486666567280109
 10
-2.063837720056939
 20
-0.496641326969172
 10
-2.086163672775275
 20
-0.4999999999999998
  0
LINE
  5
23B
330
20A
100
AcDbEntity
  8
AM_9
100
AcDbLine
 10
1.77165
 20
-1.0
 30
0.0
 11
1.77165
 21
1.0
 31
0.0
  0
LINE
  5
23C
330
20A
100
AcDbEntity
  8
AM_9
100
AcDbLine
 10
-1.77165
 20
1.0
 30
0.0
 11
-1.77165
 21
-1.0
 31
0.0
  0
LINE
  5
23D
330
20A
100
AcDbEntity
  8
AM_7
100
AcDbLine
 10
2.953125
 20
0.0
 30
0.0
 11
3.984375
 21
0.0
 31
0.0
  0
LWPOLYLINE
  5
23E
330
20A
100
AcDbEntity
  8
AM_4
100
AcDbPolyline
 90
       30
 70
     0
 43
0.0
 10
-2.250060968051857
 20
0.3927478521022377
 10
-2.251283020003782
 20
0.3907262548639051
 10
-2.263645874966572
 20
0.3684108701072783
 10
-2.275071565529189
 20
0.3442964685131626
 10
-2.285416737915305
 20
0.3188457910933673
 10
-2.294689700765148
 20
0.2923003727062504
 10
-2.302935586969856
 20
0.2648085912039426
 10
-2.310202680183867
 20
0.2364717939762149
 10
-2.316530116828801
 20
0.207374380147221
 10
-2.321945914036045
 20
0.1775990506229974
 10
-2.326468679063535
 20
0.1472331416147361
 10
-2.330110079421773
 20
0.1163705556932081
 10
-2.332877073087942
 20
0.0851116886279048
 10
-2.334773651234147
 20
0.053562486043888
 10
-2.335802094234514
 20
0.0218331404256888
 10
-2.335963802266059
 20
-0.0099633503095738
 10
-2.335259758967387
 20
-0.0417126732230913
 10
-2.333691171550629
 20
-0.073292737713551
 10
-2.331259115201824
 20
-0.1045893323301942
 10
-2.327963717666256
 20
-0.1354932299611665
 10
-2.323803303460647
 20
-0.1658999097692178
 10
-2.31877303930519
 20
-0.1957111406383416
 10
-2.312862955138407
 20
-0.2248365283145879
 10
-2.306055143329083
 20
-0.2531948891261031
 10
-2.298319896815288
 20
-0.2807151161484259
 10
-2.289610594842507
 20
-0.3073357700994055
 10
-2.279857518231166
 20
-0.3330016968979214
 10
-2.268962131551706
 20
-0.3576540983920641
 10
-2.256797261625243
 20
-0.3812073396627642
 10
-2.250192189281142
 20
-0.3925322550543167
  0
ELLIPSE
  5
23F
330
20A
100
AcDbEntity
  8
AM_4
100
AcDbEllipse
 10
-2.086163672775272
 20
0.0
 30
0.0
 11
3.061616997868381E-17
 21
0.4999999999999996
 31
0.0
210
0.0
220
0.0
230
1.0
 40
0.3746065934159136
 41
1.064839989356974
 42
2.076752664232819
  0
LINE
  5
240
330
20A
100
AcDbEntity
  8
AM_4
100
AcDbLine
 10
3.9375
 20
1.216018734436275
 30
0.0
 11
3.0
 21
1.216018734436275
 31
0.0
  0
LINE
  5
241
330
20A
100
AcDbEntity
  8
AM_4
100
AcDbLine
 10
3.0
 20
1.216018734436275
 30
0.0
 11
3.0
 21
0.735
 31
0.0
  0
LINE
  5
242
330
20A
100
AcDbEntity
  8
AM_4
100
AcDbLine
 10
3.9375
 20
1.216018734436275
 30
0.0
 11
3.9375
 21
-1.216018734436275
 31
0.0
  0
LINE
  5
243
330
20A
100
AcDbEntity
  8
AM_4
100
AcDbLine
 10
3.0
 20
-0.735
 30
0.0
 11
3.0
 21
-1.216018734436275
 31
0.0
  0
LINE
  5
244
330
20A
100
AcDbEntity
  8
AM_4
100
AcDbLine
 10
3.0
 20
-1.216018734436275
 30
0.0
 11
3.9375
 21
-1.216018734436275
 31
0.0
  0
LINE
  5
245
330
20A
100
AcDbEntity
  8
AM_4
100
AcDbLine
 10
2.25
 20
0.735
 30
0.0
 11
2.25
 21
0.8874999999999998
 31
0.0
  0
LINE
  5
246
330
20A
100
AcDbEntity
  8
AM_4
100
AcDbLine
 10
-2.25
 20
0.8874999999999998
 30
0.0
 11
-2.25
 21
-0.8875000000000001
 31
0.0
  0
LINE
  5
247
330
20A
100
AcDbEntity
  8
AM_4
100
AcDbLine
 10
2.25
 20
-0.8875000000000001
 30
0.0
 11
2.25
 21
-0.735
 31
0.0
  0
LINE
  5
248
330
20A
100
AcDbEntity
  8
AM_4
100
AcDbLine
 10
3.9375
 20
0.7350000000000001
 30
0.0
 11
1.8125
 21
0.7350000000000001
 31
0.0
  0
LINE
  5
249
330
20A
100
AcDbEntity
  8
AM_4
100
AcDbLine
 10
3.9375
 20
0.6225000000000004
 30
0.0
 11
1.8125
 21
0.6225000000000004
 31
0.0
  0
LINE
  5
24A
330
20A
100
AcDbEntity
  8
AM_4
100
AcDbLine
 10
3.9375
 20
-0.7349999999999998
 30
0.0
 11
1.8125
 21
-0.7349999999999997
 31
0.0
  0
LINE
  5
24B
330
20A
100
AcDbEntity
  8
AM_4
100
AcDbLine
 10
3.9375
 20
-0.6224999999999997
 30
0.0
 11
1.8125
 21
-0.6224999999999997
 31
0.0
  0
LINE
  5
24C
330
20A
100
AcDbEntity
  8
AM_4
100
AcDbLine
 10
1.8125
 20
0.8875000000000001
 30
0.0
 11
2.25
 21
0.8874999999999998
 31
0.0
  0
LINE
  5
24D
330
20A
100
AcDbEntity
  8
AM_4
100
AcDbLine
 10
-2.1375
 20
1.0
 30
0.0
 11
2.137499999995011
 21
1.0
 31
0.0
  0
ARC
  5
24E
330
20A
100
AcDbEntity
  8
AM_4
100
AcDbCircle
 10
2.1375
 20
0.8874999999999997
 30
0.0
 40
0.1125000000000003
100
AcDbArc
 50
0.0
 51
90.0
  0
ARC
  5
24F
330
20A
100
AcDbEntity
  8
AM_4
100
AcDbCircle
 10
-2.1375
 20
0.8874999999999997
 30
0.0
 40
0.1125000000000003
100
AcDbArc
 50
90.0
 51
180.0
  0
LINE
  5
250
330
20A
100
AcDbEntity
  8
AM_4
100
AcDbLine
 10
-2.25
 20
0.8874999999999998
 30
0.0
 11
-1.8125
 21
0.8875000000000001
 31
0.0
  0
LINE
  5
251
330
20A
100
AcDbEntity
  8
AM_4
100
AcDbLine
 10
-2.1375
 20
-1.0
 30
0.0
 11
2.137499999995011
 21
-1.0
 31
0.0
  0
LINE
  5
252
330
20A
100
AcDbEntity
  8
AM_4
100
AcDbLine
 10
1.8125
 20
-0.8874999999999998
 30
0.0
 11
2.25
 21
-0.8875000000000001
 31
0.0
  0
ARC
  5
253
330
20A
100
AcDbEntity
  8
AM_4
100
AcDbCircle
 10
2.1375
 20
-0.8875000000000002
 30
0.0
 40
0.1124999999999998
100
AcDbArc
 50
270.0
 51
0.0
  0
ARC
  5
254
330
20A
100
AcDbEntity
  8
AM_4
100
AcDbCircle
 10
-2.1375
 20
-0.8875000000000002
 30
0.0
 40
0.1124999999999998
100
AcDbArc
 50
180.0
 51
270.0
  0
LINE
  5
255
330
20A
100
AcDbEntity
  8
AM_4
100
AcDbLine
 10
-2.25
 20
-0.8875000000000001
 30
0.0
 11
-1.8125
 21
-0.8874999999999998
 31
0.0
  0
LINE
  5
256
330
20A
100
AcDbEntity
  8
AM_4
100
AcDbLine
 10
1.7
 20
-0.8999999999999998
 30
0.0
 11
1.7
 21
-0.3437499999999998
 31
0.0
  0
LINE
  5
257
330
20A
100
AcDbEntity
  8
AM_4
100
AcDbLine
 10
1.8125
 20
-0.8999999999999998
 30
0.0
 11
1.8125
 21
0.9000000000000001
 31
0.0
  0
LINE
  5
258
330
20A
100
AcDbEntity
  8
AM_4
100
AcDbLine
 10
1.7
 20
0.3437500000000003
 30
0.0
 11
1.7
 21
0.9000000000000001
 31
0.0
  0
LINE
  5
259
330
20A
100
AcDbEntity
  8
AM_4
100
AcDbLine
 10
1.8125
 20
0.3437500000000001
 30
0.0
 11
-1.8125
 21
0.3437500000000001
 31
0.0
  0
LINE
  5
25A
330
20A
100
AcDbEntity
  8
AM_4
100
AcDbLine
 10
-1.7
 20
0.3437500000000003
 30
0.0
 11
-1.7
 21
0.9000000000000001
 31
0.0
  0
LINE
  5
25B
330
20A
100
AcDbEntity
  8
AM_4
100
AcDbLine
 10
1.8125
 20
0.9000000000000001
 30
0.0
 11
-1.8125
 21
0.9000000000000001
 31
0.0
  0
LINE
  5
25C
330
20A
100
AcDbEntity
  8
AM_4
100
AcDbLine
 10
-1.8125
 20
-0.8999999999999998
 30
0.0
 11
-1.8125
 21
0.9000000000000001
 31
0.0
  0
LINE
  5
25D
330
20A
100
AcDbEntity
  8
AM_4
100
AcDbLine
 10
-1.8125
 20
-0.3437499999999998
 30
0.0
 11
1.8125
 21
-0.3437499999999998
 31
0.0
  0
LINE
  5
25E
330
20A
100
AcDbEntity
  8
AM_4
100
AcDbLine
 10
1.8125
 20
-0.8999999999999998
 30
0.0
 11
-1.8125
 21
-0.8999999999999998
 31
0.0
  0
LINE
  5
25F
330
20A
100
AcDbEntity
  8
AM_4
100
AcDbLine
 10
-1.7
 20
-0.8999999999999998
 30
0.0
 11
-1.7
 21
-0.3437499999999998
 31
0.0
  0
ENDBLK
  5
20D
330
20A
100
AcDbEntity
  8
0
100
AcDbBlockEnd
  0
ENDSEC
  0
SECTION
  2
ENTITIES
  0
INSERT
  5
6F
330
1F
100
AcDbEntity
  8
0
100
AcDbBlockReference
  2
1_069379_4
 10
0.0
 20
0.0
 30
0.0
  0
POINT
  5
261
330
1F
100
AcDbEntity
  8
ConnectionPoints
100
AcDbPoint
 10
0.0
 20
-1.587166666666667
 30
-1.375868055555556
  0
POINT
  5
262
330
1F
100
AcDbEntity
  8
ConnectionPoints
100
AcDbPoint
 10
0.0
 20
-1.587166666666667
 30
1.375868055555556
  0
POINT
  5
263
330
1F
100
AcDbEntity
  8
ConnectionPoints
100
AcDbPoint
 10
0.0
 20
-1.517166666666667
 30
0.0000000000000001
  0
POINT
  5
264
330
1F
100
AcDbEntity
  8
ConnectionPoints
100
AcDbPoint
 10
0.0
 20
-1.75
 30
0.0000000000000001
  0
POINT
  5
265
330
1F
100
AcDbEntity
  8
ConnectionPoints
100
AcDbPoint
 10
0.0
 20
-1.716166666666667
 30
0.0000000000000001
  0
POINT
  5
266
330
1F
100
AcDbEntity
  8
ConnectionPoints
100
AcDbPoint
 10
0.0
 20
-1.517166666666667
 30
1.375868055555556
  0
POINT
  5
267
330
1F
100
AcDbEntity
  8
ConnectionPoints
100
AcDbPoint
 10
0.0
 20
-1.649
 30
1.375868055555556
  0
POINT
  5
268
330
1F
100
AcDbEntity
  8
ConnectionPoints
100
AcDbPoint
 10
0.0
 20
-1.517166666666667
 30
-1.375868055555556
  0
POINT
  5
269
330
1F
100
AcDbEntity
  8
ConnectionPoints
100
AcDbPoint
 10
0.0
 20
-1.649
 30
-1.375868055555556
  0
POINT
  5
26A
330
1F
100
AcDbEntity
  8
ConnectionPoints
100
AcDbPoint
 10
0.0
 20
-1.517166666666667
 30
0.0000000000000001
  0
POINT
  5
26B
330
1F
100
AcDbEntity
  8
ConnectionPoints
100
AcDbPoint
 10
-2.178882058231951
 20
-0.0000000000000001
 30
-0.8803254945273934
  0
POINT
  5
26C
330
1F
100
AcDbEntity
  8
ConnectionPoints
100
AcDbPoint
 10
0.0
 20
-1.75
 30
0.0000000000000001
  0
POINT
  5
26D
330
1F
100
AcDbEntity
  8
ConnectionPoints
100
AcDbPoint
 10
0.0
 20
-2.0
 30
0.0000000000000001
  0
ENDSEC
  0
SECTION
  2
OBJECTS
  0
DICTIONARY
  5
C
330
0
100
AcDbDictionary
281
     1
  3
ACAD_DETAILVIEWSTYLE
350
275
  3
ACAD_GROUP
350
D
  3
ACAD_LAYOUT
350
1A
  3
ACAD_MATERIAL
350
43
  3
ACAD_MLEADERSTYLE
350
6B
  3
ACAD_MLINESTYLE
350
17
  3
ACAD_PLOTSETTINGS
350
19
  3
ACAD_PLOTSTYLENAME
350
E
  3
ACAD_SCALELIST
350
47
  3
ACAD_SECTIONVIEWSTYLE
350
276
  3
ACAD_TABLESTYLE
350
69
  3
ACAD_VISUALSTYLE
350
2A
  3
ACDB_RECOMPOSE_DATA
350
272
  3
AcDbVariableDictionary
350
26E
  0
SUN
  5
6D
330
29
100
AcDbSun
 90
        1
290
     0
 63
     7
421
 16777215
 40
1.0
291
     1
 91
  2455826
 92
 54000000
292
     0
 70
     2
 71
   256
280
     1
  0
DICTIONARY
  5
275
102
{ACAD_REACTORS
330
C
102
}
330
C
100
AcDbDictionary
281
     1
  0
DICTIONARY
  5
D
102
{ACAD_REACTORS
330
C
102
}
330
C
100
AcDbDictionary
281
     1
  0
DICTIONARY
  5
1A
102
{ACAD_REACTORS
330
C
102
}
330
C
100
AcDbDictionary
281
     1
  3
Layout1
350
1E
  3
Layout2
350
26
  3
Model
350
22
  0
DICTIONARY
  5
43
102
{ACAD_REACTORS
330
C
102
}
330
C
100
AcDbDictionary
281
     1
  3
ByBlock
350
45
  3
ByLayer
350
44
  3
Global
350
46
  0
DICTIONARY
  5
6B
102
{ACAD_REACTORS
330
C
102
}
330
C
100
AcDbDictionary
281
     1
  3
Standard
350
6C
  0
DICTIONARY
  5
17
102
{ACAD_REACTORS
330
C
102
}
330
C
100
AcDbDictionary
281
     1
  3
Standard
350
18
  0
DICTIONARY
  5
19
102
{ACAD_REACTORS
330
C
102
}
330
C
100
AcDbDictionary
281
     1
  0
ACDBDICTIONARYWDFLT
  5
E
102
{ACAD_REACTORS
330
C
102
}
330
C
100
AcDbDictionary
281
     1
  3
Normal
350
F
100
AcDbDictionaryWithDefault
340
F
  0
DICTIONARY
  5
47
102
{ACAD_REACTORS
330
C
102
}
330
C
100
AcDbDictionary
281
     1
  3
A0
350
48
  3
A1
350
49
  3
A2
350
4A
  3
A3
350
4B
  3
A4
350
4C
  3
A5
350
4D
  3
A6
350
4E
  3
A7
350
4F
  3
A8
350
50
  3
A9
350
51
  3
B0
350
52
  3
B1
350
53
  3
B2
350
54
  3
B3
350
55
  3
B4
350
56
  3
B5
350
57
  3
B6
350
58
  3
B7
350
59
  3
B8
350
5A
  3
B9
350
5B
  3
C0
350
5C
  3
C1
350
5D
  3
C2
350
5E
  3
C3
350
5F
  3
C4
350
60
  3
C5
350
61
  3
C6
350
62
  3
C7
350
63
  3
C8
350
64
  3
C9
350
65
  3
D0
350
66
  3
D1
350
67
  3
D2
350
68
  0
DICTIONARY
  5
276
102
{ACAD_REACTORS
330
C
102
}
330
C
100
AcDbDictionary
281
     1
  0
DICTIONARY
  5
69
102
{ACAD_REACTORS
330
C
102
}
330
C
100
AcDbDictionary
281
     1
  3
Standard
350
6A
  0
DICTIONARY
  5
2A
102
{ACAD_REACTORS
330
C
102
}
330
C
100
AcDbDictionary
281
     1
  3
2dWireframe
350
2F
  3
Basic
350
32
  3
Brighten
350
36
  3
ColorChange
350
3A
  3
Conceptual
350
34
  3
Dim
350
35
  3
EdgeColorOff
350
3D
  3
Facepattern
350
39
  3
Flat
350
2B
  3
FlatWithEdges
350
2C
  3
Gouraud
350
2D
  3
GouraudWithEdges
350
2E
  3
Hidden
350
31
  3
JitterOff
350
3B
  3
Linepattern
350
38
  3
OverhangOff
350
3C
  3
Realistic
350
33
  3
Shaded
350
42
  3
Shaded with edges
350
41
  3
Shades of Gray
350
3E
  3
Sketchy
350
3F
  3
Thicken
350
37
  3
Wireframe
350
30
  3
X-Ray
350
40
  0
XRECORD
  5
272
102
{ACAD_REACTORS
330
C
102
}
330
C
100
AcDbXrecord
280
     1
 90
        1
330
6A
  0
DICTIONARY
  5
26E
102
{ACAD_REACTORS
330
C
102
}
330
C
100
AcDbDictionary
281
     1
  3
CANNOSCALE
350
26F
  3
CMLEADERSTYLE
350
274
  3
CTABLESTYLE
350
273
  0
LAYOUT
  5
1E
102
{ACAD_REACTORS
330
1A
102
}
330
1A
100
AcDbPlotSettings
  1

  2
none_device
  4

  6

 40
0.0
 41
0.0
 42
0.0
 43
0.0
 44
0.0
 45
0.0
 46
0.0
 47
0.0
 48
0.0
 49
0.0
140
0.0
141
0.0
142
1.0
143
1.0
 70
   688
 72
     0
 73
     0
 74
     5
  7

 75
    16
 76
     0
 77
     2
 78
   300
147
1.0
148
0.0
149
0.0
100
AcDbLayout
  1
Layout1
 70
     1
 71
     1
 10
0.0
 20
0.0
 11
12.0
 21
9.0
 12
0.0
 22
0.0
 32
0.0
 14
1.000000000000000E+20
 24
1.000000000000000E+20
 34
1.000000000000000E+20
 15
-1.000000000000000E+20
 25
-1.000000000000000E+20
 35
-1.000000000000000E+20
146
0.0
 13
0.0
 23
0.0
 33
0.0
 16
1.0
 26
0.0
 36
0.0
 17
0.0
 27
1.0
 37
0.0
 76
     0
330
1B
  0
LAYOUT
  5
26
102
{ACAD_REACTORS
330
1A
102
}
330
1A
100
AcDbPlotSettings
  1

  2
none_device
  4

  6

 40
0.0
 41
0.0
 42
0.0
 43
0.0
 44
0.0
 45
0.0
 46
0.0
 47
0.0
 48
0.0
 49
0.0
140
0.0
141
0.0
142
1.0
143
1.0
 70
   688
 72
     0
 73
     0
 74
     5
  7

 75
    16
 76
     0
 77
     2
 78
   300
147
1.0
148
0.0
149
0.0
100
AcDbLayout
  1
Layout2
 70
     1
 71
     2
 10
0.0
 20
0.0
 11
0.0
 21
0.0
 12
0.0
 22
0.0
 32
0.0
 14
0.0
 24
0.0
 34
0.0
 15
0.0
 25
0.0
 35
0.0
146
0.0
 13
0.0
 23
0.0
 33
0.0
 16
1.0
 26
0.0
 36
0.0
 17
0.0
 27
1.0
 37
0.0
 76
     0
330
23
  0
LAYOUT
  5
22
102
{ACAD_REACTORS
330
1A
102
}
330
1A
100
AcDbPlotSettings
  1

  2
none_device
  4
Letter_(8.50_x_11.00_Inches)
  6

 40
6.35
 41
6.35
 42
6.35000508
 43
6.35000508
 44
215.9
 45
279.4
 46
0.0
 47
0.0
 48
0.0
 49
0.0
140
0.0
141
0.0
142
1.0
143
1.0
 70
  1712
 72
     0
 73
     0
 74
     0
  7

 75
     0
 76
     0
 77
     2
 78
   300
147
1.0
148
0.0
149
0.0
100
AcDbLayout
  1
Model
 70
     1
 71
     0
 10
0.0
 20
0.0
 11
12.0
 21
9.0
 12
0.0
 22
0.0
 32
0.0
 14
1.000000000000000E+20
 24
1.000000000000000E+20
 34
1.000000000000000E+20
 15
-1.000000000000000E+20
 25
-1.000000000000000E+20
 35
-1.000000000000000E+20
146
0.0
 13
0.0
 23
0.0
 33
0.0
 16
1.0
 26
0.0
 36
0.0
 17
0.0
 27
1.0
 37
0.0
 76
     0
330
1F
331
29
  0
MATERIAL
  5
45
102
{ACAD_REACTORS
330
43
102
}
330
43
100
AcDbMaterial
  1
ByBlock
 72
     1
 94
      127
  0
MATERIAL
  5
44
102
{ACAD_REACTORS
330
43
102
}
330
43
100
AcDbMaterial
  1
ByLayer
 72
     1
 94
      127
  0
MATERIAL
  5
46
102
{ACAD_REACTORS
330
43
102
}
330
43
100
AcDbMaterial
  1
Global
 72
     1
 94
      127
  0
MLEADERSTYLE
  5
6C
102
{ACAD_REACTORS
330
6B
102
}
330
6B
100
AcDbMLeaderStyle
179
     2
170
     2
171
     1
172
     0
 90
        2
 40
0.0
 41
0.0
173
     1
 91
-1056964608
340
14
 92
       -2
290
     1
 42
0.09
291
     1
 43
0.36
  3
Standard
341
0
 44
0.18
300

342
11
174
     1
178
     6
175
     1
176
     0
 93
-1056964608
 45
0.18
292
     0
297
     0
 46
0.18
343
0
 94
-1056964608
 47
1.0
 49
1.0
140
1.0
293
     1
141
0.0
294
     1
177
     0
142
1.0
295
     0
296
     0
143
0.125
271
     0
272
     9
273
     9
298
     0
  0
MLINESTYLE
  5
18
102
{ACAD_REACTORS
330
17
102
}
330
17
100
AcDbMlineStyle
  2
Standard
 70
     0
  3

 62
   256
 51
90.0
 52
90.0
 71
     2
 49
0.5
 62
   256
  6
BYLAYER
 49
-0.5
 62
   256
  6
BYLAYER
  0
ACDBPLACEHOLDER
  5
F
102
{ACAD_REACTORS
330
E
102
}
330
E
  0
SCALE
  5
48
102
{ACAD_REACTORS
330
47
102
}
330
47
100
AcDbScale
 70
     0
300
1:1
140
1.0
141
1.0
290
     1
  0
SCALE
  5
49
102
{ACAD_REACTORS
330
47
102
}
330
47
100
AcDbScale
 70
     0
300
1:2
140
1.0
141
2.0
290
     0
  0
SCALE
  5
4A
102
{ACAD_REACTORS
330
47
102
}
330
47
100
AcDbScale
 70
     0
300
1:4
140
1.0
141
4.0
290
     0
  0
SCALE
  5
4B
102
{ACAD_REACTORS
330
47
102
}
330
47
100
AcDbScale
 70
     0
300
1:5
140
1.0
141
5.0
290
     0
  0
SCALE
  5
4C
102
{ACAD_REACTORS
330
47
102
}
330
47
100
AcDbScale
 70
     0
300
1:8
140
1.0
141
8.0
290
     0
  0
SCALE
  5
4D
102
{ACAD_REACTORS
330
47
102
}
330
47
100
AcDbScale
 70
     0
300
1:10
140
1.0
141
10.0
290
     0
  0
SCALE
  5
4E
102
{ACAD_REACTORS
330
47
102
}
330
47
100
AcDbScale
 70
     0
300
1:16
140
1.0
141
16.0
290
     0
  0
SCALE
  5
4F
102
{ACAD_REACTORS
330
47
102
}
330
47
100
AcDbScale
 70
     0
300
1:20
140
1.0
141
20.0
290
     0
  0
SCALE
  5
50
102
{ACAD_REACTORS
330
47
102
}
330
47
100
AcDbScale
 70
     0
300
1:30
140
1.0
141
30.0
290
     0
  0
SCALE
  5
51
102
{ACAD_REACTORS
330
47
102
}
330
47
100
AcDbScale
 70
     0
300
1:40
140
1.0
141
40.0
290
     0
  0
SCALE
  5
52
102
{ACAD_REACTORS
330
47
102
}
330
47
100
AcDbScale
 70
     0
300
1:50
140
1.0
141
50.0
290
     0
  0
SCALE
  5
53
102
{ACAD_REACTORS
330
47
102
}
330
47
100
AcDbScale
 70
     0
300
1:100
140
1.0
141
100.0
290
     0
  0
SCALE
  5
54
102
{ACAD_REACTORS
330
47
102
}
330
47
100
AcDbScale
 70
     0
300
2:1
140
2.0
141
1.0
290
     0
  0
SCALE
  5
55
102
{ACAD_REACTORS
330
47
102
}
330
47
100
AcDbScale
 70
     0
300
4:1
140
4.0
141
1.0
290
     0
  0
SCALE
  5
56
102
{ACAD_REACTORS
330
47
102
}
330
47
100
AcDbScale
 70
     0
300
8:1
140
8.0
141
1.0
290
     0
  0
SCALE
  5
57
102
{ACAD_REACTORS
330
47
102
}
330
47
100
AcDbScale
 70
     0
300
10:1
140
10.0
141
1.0
290
     0
  0
SCALE
  5
58
102
{ACAD_REACTORS
330
47
102
}
330
47
100
AcDbScale
 70
     0
300
100:1
140
100.0
141
1.0
290
     0
  0
SCALE
  5
59
102
{ACAD_REACTORS
330
47
102
}
330
47
100
AcDbScale
 70
     0
300
1/128" = 1'-0"
140
0.0078125
141
12.0
290
     0
  0
SCALE
  5
5A
102
{ACAD_REACTORS
330
47
102
}
330
47
100
AcDbScale
 70
     0
300
1/64" = 1'-0"
140
0.015625
141
12.0
290
     0
  0
SCALE
  5
5B
102
{ACAD_REACTORS
330
47
102
}
330
47
100
AcDbScale
 70
     0
300
1/32" = 1'-0"
140
0.03125
141
12.0
290
     0
  0
SCALE
  5
5C
102
{ACAD_REACTORS
330
47
102
}
330
47
100
AcDbScale
 70
     0
300
1/16" = 1'-0"
140
0.0625
141
12.0
290
     0
  0
SCALE
  5
5D
102
{ACAD_REACTORS
330
47
102
}
330
47
100
AcDbScale
 70
     0
300
3/32" = 1'-0"
140
0.09375
141
12.0
290
     0
  0
SCALE
  5
5E
102
{ACAD_REACTORS
330
47
102
}
330
47
100
AcDbScale
 70
     0
300
1/8" = 1'-0"
140
0.125
141
12.0
290
     0
  0
SCALE
  5
5F
102
{ACAD_REACTORS
330
47
102
}
330
47
100
AcDbScale
 70
     0
300
3/16" = 1'-0"
140
0.1875
141
12.0
290
     0
  0
SCALE
  5
60
102
{ACAD_REACTORS
330
47
102
}
330
47
100
AcDbScale
 70
     0
300
1/4" = 1'-0"
140
0.25
141
12.0
290
     0
  0
SCALE
  5
61
102
{ACAD_REACTORS
330
47
102
}
330
47
100
AcDbScale
 70
     0
300
3/8" = 1'-0"
140
0.375
141
12.0
290
     0
  0
SCALE
  5
62
102
{ACAD_REACTORS
330
47
102
}
330
47
100
AcDbScale
 70
     0
300
1/2" = 1'-0"
140
0.5
141
12.0
290
     0
  0
SCALE
  5
63
102
{ACAD_REACTORS
330
47
102
}
330
47
100
AcDbScale
 70
     0
300
3/4" = 1'-0"
140
0.75
141
12.0
290
     0
  0
SCALE
  5
64
102
{ACAD_REACTORS
330
47
102
}
330
47
100
AcDbScale
 70
     0
300
1" = 1'-0"
140
1.0
141
12.0
290
     0
  0
SCALE
  5
65
102
{ACAD_REACTORS
330
47
102
}
330
47
100
AcDbScale
 70
     0
300
1-1/2" = 1'-0"
140
1.5
141
12.0
290
     0
  0
SCALE
  5
66
102
{ACAD_REACTORS
330
47
102
}
330
47
100
AcDbScale
 70
     0
300
3" = 1'-0"
140
3.0
141
12.0
290
     0
  0
SCALE
  5
67
102
{ACAD_REACTORS
330
47
102
}
330
47
100
AcDbScale
 70
     0
300
6" = 1'-0"
140
6.0
141
12.0
290
     0
  0
SCALE
  5
68
102
{ACAD_REACTORS
330
47
102
}
330
47
100
AcDbScale
 70
     0
300
1'-0" = 1'-0"
140
12.0
141
12.0
290
     0
  0
TABLESTYLE
  5
6A
102
{ACAD_REACTORS
330
69
102
}
102
{ACAD_XDICTIONARY
360
270
102
}
330
69
100
AcDbTableStyle
  3
Standard
 70
     0
 71
     0
 40
0.06
 41
0.06
280
     0
281
     0
  7
Standard
140
0.18
170
     2
 62
     0
 63
   257
283
     0
 90
        4
 91
        0
  1

274
    -2
284
     1
 64
     0
275
    -2
285
     1
 65
     0
276
    -2
286
     1
 66
     0
277
    -2
287
     1
 67
     0
278
    -2
288
     1
 68
     0
279
    -2
289
     1
 69
     0
  7
Standard
140
0.25
170
     5
 62
     0
 63
   257
283
     0
 90
        4
 91
        0
  1

274
    -2
284
     1
 64
     0
275
    -2
285
     1
 65
     0
276
    -2
286
     1
 66
     0
277
    -2
287
     1
 67
     0
278
    -2
288
     1
 68
     0
279
    -2
289
     1
 69
     0
  7
Standard
140
0.18
170
     5
 62
     0
 63
   257
283
     0
 90
        4
 91
        0
  1

274
    -2
284
     1
 64
     0
275
    -2
285
     1
 65
     0
276
    -2
286
     1
 66
     0
277
    -2
287
     1
 67
     0
278
    -2
288
     1
 68
     0
279
    -2
289
     1
 69
     0
  0
VISUALSTYLE
  5
2F
102
{ACAD_REACTORS
330
2A
102
}
330
2A
100
AcDbVisualStyle
  2
2dWireframe
 70
     4
177
     3
291
     0
 70
    58
 90
        0
176
     1
 90
        2
176
     1
 90
        0
176
     1
 90
        0
176
     1
 40
0.6
176
     1
 40
30.0
176
     1
 62
     7
420
 16777215
176
     1
 90
        1
176
     1
 90
        4
176
     1
 62
     7
176
     1
 62
   257
176
     1
 90
        1
176
     1
 90
        1
176
     1
 40
1.0
176
     1
 90
        0
176
     1
 62
   257
176
     1
 40
1.0
176
     1
 90
        1
176
     1
 90
        6
176
     1
 90
        2
176
     1
 62
     7
176
     1
 90
        5
176
     1
 90
        0
176
     1
 90
        0
176
     1
290
     0
176
     1
 90
        1
176
     1
 40
0.0
176
     1
 90
        0
176
     1
290
     1
176
     1
290
     1
176
     1
290
     0
176
     1
290
     0
176
     1
290
     0
176
     1
290
     0
176
     1
290
     0
176
     1
290
     0
176
     1
290
     0
176
     1
 90
       50
176
     1
 40
0.0
176
     1
 40
1.0
176
     1
 90
        0
176
     1
 62
    18
420
        0
176
     1
 90
       50
176
     1
 90
        3
176
     1
 62
     5
420
      255
176
     1
290
     0
176
     1
 90
       50
176
     1
 90
       50
176
     1
 90
       50
176
     1
290
     0
176
     1
 90
       50
176
     1
 62
   256
176
     0
 40
1.0
176
     0
 90
        2
176
     1
  1
strokes_ogs.tif
176
     1
290
     0
176
     1
 40
1.0
176
     1
 40
1.0
176
     1
  0
VISUALSTYLE
  5
32
102
{ACAD_REACTORS
330
2A
102
}
330
2A
100
AcDbVisualStyle
  2
Basic
 70
     7
177
     3
291
     1
 70
    58
 90
        1
176
     1
 90
        0
176
     1
 90
        1
176
     1
 90
        0
176
     1
 40
0.6
176
     1
 40
30.0
176
     1
 62
     7
420
 16777215
176
     1
 90
        0
176
     1
 90
        4
176
     1
 62
     7
176
     1
 62
   257
176
     1
 90
        1
176
     1
 90
        1
176
     1
 40
1.0
176
     1
 90
        8
176
     1
 62
     7
176
     1
 40
1.0
176
     1
 90
        1
176
     1
 90
        6
176
     1
 90
        2
176
     1
 62
     7
176
     1
 90
        5
176
     1
 90
        0
176
     1
 90
        0
176
     1
290
     0
176
     1
 90
        1
176
     1
 40
0.0
176
     1
 90
        0
176
     1
290
     0
176
     1
290
     1
176
     1
290
     1
176
     1
290
     0
176
     1
290
     0
176
     1
290
     0
176
     1
290
     0
176
     1
290
     0
176
     1
290
     0
176
     1
 90
       50
176
     1
 40
0.0
176
     1
 40
1.0
176
     1
 90
        0
176
     1
 62
    18
420
        0
176
     1
 90
       50
176
     1
 90
        3
176
     1
 62
     5
420
      255
176
     1
290
     0
176
     1
 90
       50
176
     1
 90
       50
176
     1
 90
       50
176
     1
290
     0
176
     1
 90
       50
176
     1
 62
   256
176
     0
 40
1.0
176
     0
 90
        2
176
     1
  1
strokes_ogs.tif
176
     1
290
     0
176
     1
 40
1.0
176
     1
 40
1.0
176
     1
  0
VISUALSTYLE
  5
36
102
{ACAD_REACTORS
330
2A
102
}
330
2A
100
AcDbVisualStyle
  2
Brighten
 70
    12
177
     3
291
     1
 70
    58
 90
        2
176
     1
 90
        2
176
     1
 90
        0
176
     1
 90
        0
176
     1
 40
0.6
176
     1
 40
30.0
176
     1
 62
     7
420
 16777215
176
     1
 90
        1
176
     1
 90
        4
176
     1
 62
     7
176
     1
 62
   257
176
     1
 90
        1
176
     1
 90
        1
176
     1
 40
1.0
176
     1
 90
        8
176
     1
 62
     7
176
     1
 40
1.0
176
     1
 90
        1
176
     1
 90
        6
176
     1
 90
        2
176
     1
 62
     7
176
     1
 90
        5
176
     1
 90
        0
176
     1
 90
        0
176
     1
290
     0
176
     1
 90
        1
176
     1
 40
50.0
176
     1
 90
        0
176
     1
290
     0
176
     1
290
     1
176
     1
290
     1
176
     1
290
     0
176
     1
290
     0
176
     1
290
     0
176
     1
290
     0
176
     1
290
     0
176
     1
290
     0
176
     1
 90
       50
176
     1
 40
0.0
176
     1
 40
1.0
176
     1
 90
        0
176
     1
 62
    18
420
        0
176
     1
 90
       50
176
     1
 90
        3
176
     1
 62
     5
420
      255
176
     1
290
     0
176
     1
 90
       50
176
     1
 90
       50
176
     1
 90
       50
176
     1
290
     0
176
     1
 90
       50
176
     1
 62
   256
176
     0
 40
1.0
176
     0
 90
        2
176
     1
  1
strokes_ogs.tif
176
     1
290
     0
176
     1
 40
1.0
176
     1
 40
1.0
176
     1
  0
VISUALSTYLE
  5
3A
102
{ACAD_REACTORS
330
2A
102
}
330
2A
100
AcDbVisualStyle
  2
ColorChange
 70
    16
177
     3
291
     1
 70
    58
 90
        2
176
     1
 90
        2
176
     1
 90
        3
176
     1
 90
        0
176
     1
 40
0.6
176
     1
 40
30.0
176
     1
 62
     8
420
  8421504
176
     1
 90
        1
176
     1
 90
        4
176
     1
 62
     7
176
     1
 62
   257
176
     1
 90
        1
176
     1
 90
        1
176
     1
 40
1.0
176
     1
 90
        8
176
     1
 62
     8
420
  8421504
176
     1
 40
1.0
176
     1
 90
        1
176
     1
 90
        6
176
     1
 90
        2
176
     1
 62
     7
176
     1
 90
        5
176
     1
 90
        0
176
     1
 90
        0
176
     1
290
     0
176
     1
 90
        1
176
     1
 40
0.0
176
     1
 90
        0
176
     1
290
     0
176
     1
290
     1
176
     1
290
     1
176
     1
290
     0
176
     1
290
     0
176
     1
290
     0
176
     1
290
     0
176
     1
290
     0
176
     1
290
     0
176
     1
 90
       50
176
     1
 40
0.0
176
     1
 40
1.0
176
     1
 90
        0
176
     1
 62
    18
420
        0
176
     1
 90
       50
176
     1
 90
        3
176
     1
 62
     5
420
      255
176
     1
290
     0
176
     1
 90
       50
176
     1
 90
       50
176
     1
 90
       50
176
     1
290
     0
176
     1
 90
       50
176
     1
 62
   256
176
     0
 40
1.0
176
     0
 90
        2
176
     1
  1
strokes_ogs.tif
176
     1
290
     0
176
     1
 40
1.0
176
     1
 40
1.0
176
     1
  0
VISUALSTYLE
  5
34
102
{ACAD_REACTORS
330
2A
102
}
330
2A
100
AcDbVisualStyle
  2
Conceptual
 70
     9
177
     3
291
     0
 70
    58
 90
        3
176
     1
 90
        2
176
     1
 90
        0
176
     1
 90
        0
176
     1
 40
0.6
176
     1
 40
30.0
176
     1
 62
     7
420
 16777215
176
     1
 90
        2
176
     1
 90
        2
176
     1
 62
     7
176
     1
 62
   257
176
     1
 90
        1
176
     1
 90
        1
176
     1
 40
179.0
176
     1
 90
        8
176
     1
 62
     7
176
     1
 40
1.0
176
     1
 90
        1
176
     1
 90
        6
176
     1
 90
        2
176
     1
 62
     7
176
     1
 90
        3
176
     1
 90
        0
176
     1
 90
        0
176
     1
290
     0
176
     1
 90
        1
176
     1
 40
0.0
176
     1
 90
        0
176
     1
290
     0
176
     1
290
     1
176
     1
290
     1
176
     1
290
     0
176
     1
290
     0
176
     1
290
     0
176
     1
290
     0
176
     1
290
     0
176
     1
290
     0
176
     1
 90
       50
176
     1
 40
0.0
176
     1
 40
1.0
176
     1
 90
        0
176
     1
 62
    18
420
        0
176
     1
 90
       50
176
     1
 90
        3
176
     1
 62
     5
420
      255
176
     1
290
     0
176
     1
 90
       50
176
     1
 90
       50
176
     1
 90
       50
176
     1
290
     0
176
     1
 90
       50
176
     1
 62
   256
176
     0
 40
1.0
176
     0
 90
        2
176
     1
  1
strokes_ogs.tif
176
     1
290
     0
176
     1
 40
1.0
176
     1
 40
1.0
176
     1
  0
VISUALSTYLE
  5
35
102
{ACAD_REACTORS
330
2A
102
}
330
2A
100
AcDbVisualStyle
  2
Dim
 70
    11
177
     3
291
     1
 70
    58
 90
        2
176
     1
 90
        2
176
     1
 90
        0
176
     1
 90
        0
176
     1
 40
0.6
176
     1
 40
30.0
176
     1
 62
     7
420
 16777215
176
     1
 90
        1
176
     1
 90
        4
176
     1
 62
     7
176
     1
 62
   257
176
     1
 90
        1
176
     1
 90
        1
176
     1
 40
1.0
176
     1
 90
        8
176
     1
 62
     7
176
     1
 40
1.0
176
     1
 90
        1
176
     1
 90
        6
176
     1
 90
        2
176
     1
 62
     7
176
     1
 90
        5
176
     1
 90
        0
176
     1
 90
        0
176
     1
290
     0
176
     1
 90
        1
176
     1
 40
-50.0
176
     1
 90
        0
176
     1
290
     0
176
     1
290
     1
176
     1
290
     1
176
     1
290
     0
176
     1
290
     0
176
     1
290
     0
176
     1
290
     0
176
     1
290
     0
176
     1
290
     0
176
     1
 90
       50
176
     1
 40
0.0
176
     1
 40
1.0
176
     1
 90
        0
176
     1
 62
    18
420
        0
176
     1
 90
       50
176
     1
 90
        3
176
     1
 62
     5
420
      255
176
     1
290
     0
176
     1
 90
       50
176
     1
 90
       50
176
     1
 90
       50
176
     1
290
     0
176
     1
 90
       50
176
     1
 62
   256
176
     0
 40
1.0
176
     0
 90
        2
176
     1
  1
strokes_ogs.tif
176
     1
290
     0
176
     1
 40
1.0
176
     1
 40
1.0
176
     1
  0
VISUALSTYLE
  5
3D
102
{ACAD_REACTORS
330
2A
102
}
330
2A
100
AcDbVisualStyle
  2
EdgeColorOff
 70
    22
177
     3
291
     1
 70
    58
 90
        2
176
     0
 90
        2
176
     0
 90
        0
176
     0
 90
        0
176
     0
 40
0.6
176
     0
 40
30.0
176
     0
 62
     7
420
 16777215
176
     0
 90
        1
176
     0
 90
        4
176
     0
 62
     7
176
     0
 62
   257
176
     0
 90
        1
176
     0
 90
        1
176
     0
 40
1.0
176
     0
 90
        8
176
     2
 62
     7
176
     0
 40
1.0
176
     0
 90
        1
176
     0
 90
        6
176
     0
 90
        2
176
     0
 62
     7
176
     0
 90
        5
176
     0
 90
        0
176
     0
 90
        0
176
     0
290
     0
176
     0
 90
        1
176
     0
 40
0.0
176
     0
 90
        0
176
     0
290
     0
176
     0
290
     1
176
     0
290
     1
176
     0
290
     0
176
     0
290
     0
176
     0
290
     0
176
     0
290
     0
176
     0
290
     0
176
     0
290
     0
176
     0
 90
       50
176
     0
 40
0.0
176
     0
 40
1.0
176
     0
 90
        0
176
     0
 62
    18
420
        0
176
     0
 90
       50
176
     0
 90
        3
176
     0
 62
     5
420
      255
176
     0
290
     0
176
     0
 90
       50
176
     0
 90
       50
176
     0
 90
       50
176
     0
290
     0
176
     0
 90
       50
176
     0
 62
   256
176
     0
 40
1.0
176
     0
 90
        2
176
     0
  1
strokes_ogs.tif
176
     0
290
     0
176
     0
 40
1.0
176
     0
 40
1.0
176
     0
  0
VISUALSTYLE
  5
39
102
{ACAD_REACTORS
330
2A
102
}
330
2A
100
AcDbVisualStyle
  2
Facepattern
 70
    15
177
     3
291
     1
 70
    58
 90
        2
176
     1
 90
        2
176
     1
 90
        0
176
     1
 90
        0
176
     1
 40
0.6
176
     1
 40
30.0
176
     1
 62
     7
420
 16777215
176
     1
 90
        1
176
     1
 90
        4
176
     1
 62
     7
176
     1
 62
   257
176
     1
 90
        1
176
     1
 90
        1
176
     1
 40
1.0
176
     1
 90
        8
176
     1
 62
     7
176
     1
 40
1.0
176
     1
 90
        1
176
     1
 90
        6
176
     1
 90
        2
176
     1
 62
     7
176
     1
 90
        5
176
     1
 90
        0
176
     1
 90
        0
176
     1
290
     0
176
     1
 90
        1
176
     1
 40
0.0
176
     1
 90
        0
176
     1
290
     0
176
     1
290
     1
176
     1
290
     1
176
     1
290
     0
176
     1
290
     0
176
     1
290
     0
176
     1
290
     0
176
     1
290
     0
176
     1
290
     0
176
     1
 90
       50
176
     1
 40
0.0
176
     1
 40
1.0
176
     1
 90
        0
176
     1
 62
    18
420
        0
176
     1
 90
       50
176
     1
 90
        3
176
     1
 62
     5
420
      255
176
     1
290
     0
176
     1
 90
       50
176
     1
 90
       50
176
     1
 90
       50
176
     1
290
     0
176
     1
 90
       50
176
     1
 62
   256
176
     0
 40
1.0
176
     0
 90
        2
176
     1
  1
strokes_ogs.tif
176
     1
290
     0
176
     1
 40
1.0
176
     1
 40
1.0
176
     1
  0
VISUALSTYLE
  5
2B
102
{ACAD_REACTORS
330
2A
102
}
330
2A
100
AcDbVisualStyle
  2
Flat
 70
     0
177
     3
291
     1
 70
    58
 90
        2
176
     1
 90
        1
176
     1
 90
        1
176
     1
 90
        2
176
     1
 40
0.6
176
     1
 40
30.0
176
     1
 62
     7
420
 16777215
176
     1
 90
        0
176
     1
 90
        0
176
     1
 62
     7
176
     1
 62
   257
176
     1
 90
        1
176
     1
 90
        1
176
     1
 40
1.0
176
     1
 90
        8
176
     1
 62
     7
176
     1
 40
1.0
176
     1
 90
        1
176
     1
 90
        6
176
     1
 90
        2
176
     1
 62
     7
176
     1
 90
        5
176
     1
 90
        0
176
     1
 90
        0
176
     1
290
     0
176
     1
 90
       13
176
     1
 40
0.0
176
     1
 90
        0
176
     1
290
     0
176
     1
290
     1
176
     1
290
     1
176
     1
290
     0
176
     1
290
     0
176
     1
290
     0
176
     1
290
     0
176
     1
290
     0
176
     1
290
     0
176
     1
 90
       50
176
     1
 40
0.0
176
     1
 40
1.0
176
     1
 90
        0
176
     1
 62
    18
420
        0
176
     1
 90
       50
176
     1
 90
        3
176
     1
 62
     5
420
      255
176
     1
290
     0
176
     1
 90
       50
176
     1
 90
       50
176
     1
 90
       50
176
     1
290
     0
176
     1
 90
       50
176
     1
 62
   256
176
     0
 40
1.0
176
     0
 90
        2
176
     1
  1
strokes_ogs.tif
176
     1
290
     0
176
     1
 40
1.0
176
     1
 40
1.0
176
     1
  0
VISUALSTYLE
  5
2C
102
{ACAD_REACTORS
330
2A
102
}
330
2A
100
AcDbVisualStyle
  2
FlatWithEdges
 70
     1
177
     3
291
     1
 70
    58
 90
        2
176
     1
 90
        1
176
     1
 90
        1
176
     1
 90
        2
176
     1
 40
0.6
176
     1
 40
30.0
176
     1
 62
     7
420
 16777215
176
     1
 90
        1
176
     1
 90
        0
176
     1
 62
     7
176
     1
 62
   257
176
     1
 90
        1
176
     1
 90
        1
176
     1
 40
1.0
176
     1
 90
        0
176
     1
 62
   257
176
     1
 40
1.0
176
     1
 90
        1
176
     1
 90
        6
176
     1
 90
        2
176
     1
 62
     7
176
     1
 90
        5
176
     1
 90
        0
176
     1
 90
        0
176
     1
290
     0
176
     1
 90
       13
176
     1
 40
0.0
176
     1
 90
        0
176
     1
290
     0
176
     1
290
     1
176
     1
290
     1
176
     1
290
     0
176
     1
290
     0
176
     1
290
     0
176
     1
290
     0
176
     1
290
     0
176
     1
290
     0
176
     1
 90
       50
176
     1
 40
0.0
176
     1
 40
1.0
176
     1
 90
        0
176
     1
 62
    18
420
        0
176
     1
 90
       50
176
     1
 90
        3
176
     1
 62
     5
420
      255
176
     1
290
     0
176
     1
 90
       50
176
     1
 90
       50
176
     1
 90
       50
176
     1
290
     0
176
     1
 90
       50
176
     1
 62
   256
176
     0
 40
1.0
176
     0
 90
        2
176
     1
  1
strokes_ogs.tif
176
     1
290
     0
176
     1
 40
1.0
176
     1
 40
1.0
176
     1
  0
VISUALSTYLE
  5
2D
102
{ACAD_REACTORS
330
2A
102
}
330
2A
100
AcDbVisualStyle
  2
Gouraud
 70
     2
177
     3
291
     1
 70
    58
 90
        2
176
     1
 90
        2
176
     1
 90
        1
176
     1
 90
        2
176
     1
 40
0.6
176
     1
 40
30.0
176
     1
 62
     7
420
 16777215
176
     1
 90
        0
176
     1
 90
        0
176
     1
 62
     7
176
     1
 62
   257
176
     1
 90
        1
176
     1
 90
        1
176
     1
 40
1.0
176
     1
 90
        0
176
     1
 62
     7
176
     1
 40
1.0
176
     1
 90
        1
176
     1
 90
        6
176
     1
 90
        2
176
     1
 62
     7
176
     1
 90
        5
176
     1
 90
        0
176
     1
 90
        0
176
     1
290
     0
176
     1
 90
       13
176
     1
 40
0.0
176
     1
 90
        0
176
     1
290
     0
176
     1
290
     1
176
     1
290
     1
176
     1
290
     0
176
     1
290
     0
176
     1
290
     0
176
     1
290
     0
176
     1
290
     0
176
     1
290
     0
176
     1
 90
       50
176
     1
 40
0.0
176
     1
 40
1.0
176
     1
 90
        0
176
     1
 62
    18
420
        0
176
     1
 90
       50
176
     1
 90
        3
176
     1
 62
     5
420
      255
176
     1
290
     0
176
     1
 90
       50
176
     1
 90
       50
176
     1
 90
       50
176
     1
290
     0
176
     1
 90
       50
176
     1
 62
   256
176
     0
 40
1.0
176
     0
 90
        2
176
     1
  1
strokes_ogs.tif
176
     1
290
     0
176
     1
 40
1.0
176
     1
 40
1.0
176
     1
  0
VISUALSTYLE
  5
2E
102
{ACAD_REACTORS
330
2A
102
}
330
2A
100
AcDbVisualStyle
  2
GouraudWithEdges
 70
     3
177
     3
291
     1
 70
    58
 90
        2
176
     1
 90
        2
176
     1
 90
        1
176
     1
 90
        2
176
     1
 40
0.6
176
     1
 40
30.0
176
     1
 62
     7
420
 16777215
176
     1
 90
        1
176
     1
 90
        0
176
     1
 62
     7
176
     1
 62
   257
176
     1
 90
        1
176
     1
 90
        1
176
     1
 40
1.0
176
     1
 90
        0
176
     1
 62
   257
176
     1
 40
1.0
176
     1
 90
        1
176
     1
 90
        6
176
     1
 90
        2
176
     1
 62
     7
176
     1
 90
        5
176
     1
 90
        0
176
     1
 90
        0
176
     1
290
     0
176
     1
 90
       13
176
     1
 40
0.0
176
     1
 90
        0
176
     1
290
     0
176
     1
290
     1
176
     1
290
     1
176
     1
290
     0
176
     1
290
     0
176
     1
290
     0
176
     1
290
     0
176
     1
290
     0
176
     1
290
     0
176
     1
 90
       50
176
     1
 40
0.0
176
     1
 40
1.0
176
     1
 90
        0
176
     1
 62
    18
420
        0
176
     1
 90
       50
176
     1
 90
        3
176
     1
 62
     5
420
      255
176
     1
290
     0
176
     1
 90
       50
176
     1
 90
       50
176
     1
 90
       50
176
     1
290
     0
176
     1
 90
       50
176
     1
 62
   256
176
     0
 40
1.0
176
     0
 90
        2
176
     1
  1
strokes_ogs.tif
176
     1
290
     0
176
     1
 40
1.0
176
     1
 40
1.0
176
     1
  0
VISUALSTYLE
  5
31
102
{ACAD_REACTORS
330
2A
102
}
330
2A
100
AcDbVisualStyle
  2
Hidden
 70
     6
177
     3
291
     0
 70
    58
 90
        1
176
     1
 90
        2
176
     1
 90
        2
176
     1
 90
        0
176
     1
 40
0.6
176
     1
 40
30.0
176
     1
 62
     7
420
 16777215
176
     1
 90
        2
176
     1
 90
        2
176
     1
 62
     7
176
     1
 62
   257
176
     1
 90
        2
176
     1
 90
        1
176
     1
 40
40.0
176
     1
 90
        0
176
     1
 62
   257
176
     1
 40
1.0
176
     1
 90
        1
176
     1
 90
        6
176
     1
 90
        2
176
     1
 62
     7
176
     1
 90
        3
176
     1
 90
        0
176
     1
 90
        0
176
     1
290
     0
176
     1
 90
        1
176
     1
 40
0.0
176
     1
 90
        0
176
     1
290
     0
176
     1
290
     1
176
     1
290
     1
176
     1
290
     0
176
     1
290
     0
176
     1
290
     0
176
     1
290
     0
176
     1
290
     0
176
     1
290
     0
176
     1
 90
       50
176
     1
 40
0.0
176
     1
 40
1.0
176
     1
 90
        0
176
     1
 62
    18
420
        0
176
     1
 90
       50
176
     1
 90
        3
176
     1
 62
     5
420
      255
176
     1
290
     0
176
     1
 90
       50
176
     1
 90
       50
176
     1
 90
       50
176
     1
290
     0
176
     1
 90
       50
176
     1
 62
   256
176
     0
 40
1.0
176
     0
 90
        2
176
     1
  1
strokes_ogs.tif
176
     1
290
     0
176
     1
 40
1.0
176
     1
 40
1.0
176
     1
  0
VISUALSTYLE
  5
3B
102
{ACAD_REACTORS
330
2A
102
}
330
2A
100
AcDbVisualStyle
  2
JitterOff
 70
    20
177
     3
291
     1
 70
    58
 90
        2
176
     0
 90
        2
176
     0
 90
        0
176
     0
 90
        0
176
     0
 40
0.6
176
     0
 40
30.0
176
     0
 62
     7
420
 16777215
176
     0
 90
        1
176
     0
 90
        4
176
     0
 62
     7
176
     0
 62
   257
176
     0
 90
        1
176
     0
 90
        1
176
     0
 40
1.0
176
     0
 90
       10
176
     2
 62
     7
176
     0
 40
1.0
176
     0
 90
        1
176
     0
 90
        6
176
     0
 90
        2
176
     0
 62
     7
176
     0
 90
        5
176
     0
 90
        0
176
     0
 90
        0
176
     0
290
     0
176
     0
 90
        1
176
     0
 40
0.0
176
     0
 90
        0
176
     0
290
     0
176
     0
290
     1
176
     0
290
     1
176
     0
290
     0
176
     0
290
     0
176
     0
290
     0
176
     0
290
     0
176
     0
290
     0
176
     0
290
     0
176
     0
 90
       50
176
     0
 40
0.0
176
     0
 40
1.0
176
     0
 90
        0
176
     0
 62
    18
420
        0
176
     0
 90
       50
176
     0
 90
        3
176
     0
 62
     5
420
      255
176
     0
290
     0
176
     0
 90
       50
176
     0
 90
       50
176
     0
 90
       50
176
     0
290
     0
176
     0
 90
       50
176
     0
 62
   256
176
     0
 40
1.0
176
     0
 90
        2
176
     0
  1
strokes_ogs.tif
176
     0
290
     0
176
     0
 40
1.0
176
     0
 40
1.0
176
     0
  0
VISUALSTYLE
  5
38
102
{ACAD_REACTORS
330
2A
102
}
330
2A
100
AcDbVisualStyle
  2
Linepattern
 70
    14
177
     3
291
     1
 70
    58
 90
        2
176
     1
 90
        2
176
     1
 90
        0
176
     1
 90
        0
176
     1
 40
0.6
176
     1
 40
30.0
176
     1
 62
     7
420
 16777215
176
     1
 90
        1
176
     1
 90
        4
176
     1
 62
     7
176
     1
 62
   257
176
     1
 90
        7
176
     1
 90
        7
176
     1
 40
1.0
176
     1
 90
        8
176
     1
 62
     7
176
     1
 40
1.0
176
     1
 90
        1
176
     1
 90
        6
176
     1
 90
        2
176
     1
 62
     7
176
     1
 90
        5
176
     1
 90
        0
176
     1
 90
        0
176
     1
290
     0
176
     1
 90
        1
176
     1
 40
0.0
176
     1
 90
        0
176
     1
290
     0
176
     1
290
     1
176
     1
290
     1
176
     1
290
     0
176
     1
290
     0
176
     1
290
     0
176
     1
290
     0
176
     1
290
     0
176
     1
290
     0
176
     1
 90
       50
176
     1
 40
0.0
176
     1
 40
1.0
176
     1
 90
        0
176
     1
 62
    18
420
        0
176
     1
 90
       50
176
     1
 90
        3
176
     1
 62
     5
420
      255
176
     1
290
     0
176
     1
 90
       50
176
     1
 90
       50
176
     1
 90
       50
176
     1
290
     0
176
     1
 90
       50
176
     1
 62
   256
176
     0
 40
1.0
176
     0
 90
        2
176
     1
  1
strokes_ogs.tif
176
     1
290
     0
176
     1
 40
1.0
176
     1
 40
1.0
176
     1
  0
VISUALSTYLE
  5
3C
102
{ACAD_REACTORS
330
2A
102
}
330
2A
100
AcDbVisualStyle
  2
OverhangOff
 70
    21
177
     3
291
     1
 70
    58
 90
        2
176
     0
 90
        2
176
     0
 90
        0
176
     0
 90
        0
176
     0
 40
0.6
176
     0
 40
30.0
176
     0
 62
     7
420
 16777215
176
     0
 90
        1
176
     0
 90
        4
176
     0
 62
     7
176
     0
 62
   257
176
     0
 90
        1
176
     0
 90
        1
176
     0
 40
1.0
176
     0
 90
        9
176
     2
 62
     7
176
     0
 40
1.0
176
     0
 90
        1
176
     0
 90
        6
176
     0
 90
        2
176
     0
 62
     7
176
     0
 90
        5
176
     0
 90
        0
176
     0
 90
        0
176
     0
290
     0
176
     0
 90
        1
176
     0
 40
0.0
176
     0
 90
        0
176
     0
290
     0
176
     0
290
     1
176
     0
290
     1
176
     0
290
     0
176
     0
290
     0
176
     0
290
     0
176
     0
290
     0
176
     0
290
     0
176
     0
290
     0
176
     0
 90
       50
176
     0
 40
0.0
176
     0
 40
1.0
176
     0
 90
        0
176
     0
 62
    18
420
        0
176
     0
 90
       50
176
     0
 90
        3
176
     0
 62
     5
420
      255
176
     0
290
     0
176
     0
 90
       50
176
     0
 90
       50
176
     0
 90
       50
176
     0
290
     0
176
     0
 90
       50
176
     0
 62
   256
176
     0
 40
1.0
176
     0
 90
        2
176
     0
  1
strokes_ogs.tif
176
     0
290
     0
176
     0
 40
1.0
176
     0
 40
1.0
176
     0
  0
VISUALSTYLE
  5
33
102
{ACAD_REACTORS
330
2A
102
}
330
2A
100
AcDbVisualStyle
  2
Realistic
 70
     8
177
     3
291
     0
 70
    58
 90
        2
176
     1
 90
        3
176
     1
 90
        0
176
     1
 90
        2
176
     1
 40
0.6
176
     1
 40
30.0
176
     1
 62
     7
420
 16777215
176
     1
 90
        0
176
     1
 90
        0
176
     1
 62
     7
176
     1
 62
   257
176
     1
 90
        1
176
     1
 90
        1
176
     1
 40
1.0
176
     1
 90
        8
176
     1
 62
   257
176
     1
 40
1.0
176
     1
 90
        1
176
     1
 90
        6
176
     1
 90
        2
176
     1
 62
     7
176
     1
 90
        3
176
     1
 90
        0
176
     1
 90
        0
176
     1
290
     0
176
     1
 90
       13
176
     1
 40
0.0
176
     1
 90
        0
176
     1
290
     0
176
     1
290
     1
176
     1
290
     1
176
     1
290
     0
176
     1
290
     0
176
     1
290
     0
176
     1
290
     0
176
     1
290
     0
176
     1
290
     0
176
     1
 90
       50
176
     1
 40
0.0
176
     1
 40
1.0
176
     1
 90
        0
176
     1
 62
    18
420
        0
176
     1
 90
       50
176
     1
 90
        3
176
     1
 62
     5
420
      255
176
     1
290
     0
176
     1
 90
       50
176
     1
 90
       50
176
     1
 90
       50
176
     1
290
     0
176
     1
 90
       50
176
     1
 62
   256
176
     0
 40
1.0
176
     0
 90
        2
176
     1
  1
strokes_ogs.tif
176
     1
290
     0
176
     1
 40
1.0
176
     1
 40
1.0
176
     1
  0
VISUALSTYLE
  5
42
102
{ACAD_REACTORS
330
2A
102
}
330
2A
100
AcDbVisualStyle
  2
Shaded
 70
    27
177
     3
291
     0
 70
    58
 90
        2
176
     1
 90
        2
176
     1
 90
        1
176
     1
 90
        2
176
     1
 40
0.6
176
     1
 40
30.0
176
     1
 62
     7
420
 16777215
176
     1
 90
        0
176
     1
 90
        4
176
     1
 62
     7
176
     1
 62
   257
176
     1
 90
        1
176
     1
 90
        1
176
     1
 40
1.0
176
     1
 90
        8
176
     1
 62
   257
176
     1
 40
1.0
176
     1
 90
        1
176
     1
 90
        6
176
     1
 90
        2
176
     1
 62
     8
420
  7895160
176
     1
 90
        3
176
     1
 90
        0
176
     1
 90
        0
176
     1
290
     0
176
     1
 90
        5
176
     1
 40
0.0
176
     1
 90
        0
176
     1
290
     0
176
     1
290
     1
176
     1
290
     1
176
     1
290
     0
176
     1
290
     0
176
     1
290
     0
176
     1
290
     0
176
     1
290
     0
176
     1
290
     0
176
     1
 90
       50
176
     1
 40
0.0
176
     1
 40
1.0
176
     1
 90
        0
176
     1
 62
    18
420
        0
176
     1
 90
       50
176
     1
 90
        3
176
     1
 62
     5
420
      255
176
     1
290
     0
176
     1
 90
       50
176
     1
 90
       50
176
     1
 90
       50
176
     1
290
     0
176
     1
 90
       50
176
     1
 62
   256
176
     0
 40
1.0
176
     0
 90
        2
176
     1
  1
strokes_ogs.tif
176
     1
290
     0
176
     1
 40
1.0
176
     1
 40
1.0
176
     1
  0
VISUALSTYLE
  5
41
102
{ACAD_REACTORS
330
2A
102
}
330
2A
100
AcDbVisualStyle
  2
Shaded with edges
 70
    26
177
     3
291
     0
 70
    58
 90
        2
176
     1
 90
        2
176
     1
 90
        1
176
     1
 90
        2
176
     1
 40
0.6
176
     1
 40
30.0
176
     1
 62
     7
420
 16777215
176
     1
 90
        1
176
     1
 90
       10
176
     1
 62
     7
176
     1
 62
   257
176
     1
 90
        2
176
     1
 90
        1
176
     1
 40
1.0
176
     1
 90
        8
176
     1
 62
   257
176
     1
 40
1.0
176
     1
 90
        1
176
     1
 90
        6
176
     1
 90
        2
176
     1
 62
     7
176
     1
 90
        3
176
     1
 90
        0
176
     1
 90
        0
176
     1
290
     0
176
     1
 90
        5
176
     1
 40
0.0
176
     1
 90
        0
176
     1
290
     0
176
     1
290
     1
176
     1
290
     1
176
     1
290
     0
176
     1
290
     0
176
     1
290
     0
176
     1
290
     0
176
     1
290
     0
176
     1
290
     0
176
     1
 90
       50
176
     1
 40
0.0
176
     1
 40
1.0
176
     1
 90
        0
176
     1
 62
    18
420
        0
176
     1
 90
       50
176
     1
 90
        3
176
     1
 62
     5
420
      255
176
     1
290
     0
176
     1
 90
       50
176
     1
 90
       50
176
     1
 90
       50
176
     1
290
     0
176
     1
 90
       50
176
     1
 62
   256
176
     0
 40
1.0
176
     0
 90
        2
176
     1
  1
strokes_ogs.tif
176
     1
290
     0
176
     1
 40
1.0
176
     1
 40
1.0
176
     1
  0
VISUALSTYLE
  5
3E
102
{ACAD_REACTORS
330
2A
102
}
330
2A
100
AcDbVisualStyle
  2
Shades of Gray
 70
    23
177
     3
291
     0
 70
    58
 90
        2
176
     1
 90
        2
176
     1
 90
        3
176
     1
 90
        0
176
     1
 40
0.6
176
     1
 40
30.0
176
     1
 62
     7
420
 16777215
176
     1
 90
        2
176
     1
 90
        2
176
     1
 62
     7
176
     1
 62
     7
176
     1
 90
        1
176
     1
 90
        1
176
     1
 40
40.0
176
     1
 90
        8
176
     1
 62
     7
176
     1
 40
1.0
176
     1
 90
        1
176
     1
 90
        6
176
     1
 90
        2
176
     1
 62
     7
176
     1
 90
        3
176
     1
 90
        0
176
     1
 90
        0
176
     1
290
     0
176
     1
 90
        1
176
     1
 40
0.0
176
     1
 90
        0
176
     1
290
     0
176
     1
290
     1
176
     1
290
     1
176
     1
290
     0
176
     1
290
     0
176
     1
290
     0
176
     1
290
     0
176
     1
290
     0
176
     1
290
     0
176
     1
 90
       50
176
     1
 40
0.0
176
     1
 40
1.0
176
     1
 90
        0
176
     1
 62
    18
420
        0
176
     1
 90
       50
176
     1
 90
        3
176
     1
 62
     5
420
      255
176
     1
290
     0
176
     1
 90
       50
176
     1
 90
       50
176
     1
 90
       50
176
     1
290
     0
176
     1
 90
       50
176
     1
 62
   256
176
     0
 40
1.0
176
     0
 90
        2
176
     1
  1
strokes_ogs.tif
176
     1
290
     0
176
     1
 40
1.0
176
     1
 40
1.0
176
     1
  0
VISUALSTYLE
  5
3F
102
{ACAD_REACTORS
330
2A
102
}
330
2A
100
AcDbVisualStyle
  2
Sketchy
 70
    24
177
     3
291
     0
 70
    58
 90
        1
176
     1
 90
        2
176
     1
 90
        2
176
     1
 90
        0
176
     1
 40
0.6
176
     1
 40
30.0
176
     1
 62
     7
420
 16777215
176
     1
 90
        2
176
     1
 90
        2
176
     1
 62
     7
176
     1
 62
     7
176
     1
 90
        1
176
     1
 90
        1
176
     1
 40
40.0
176
     1
 90
       11
176
     1
 62
     7
176
     1
 40
1.0
176
     1
 90
        1
176
     1
 90
        6
176
     1
 90
        2
176
     1
 62
     7
176
     1
 90
        6
176
     1
 90
        0
176
     1
 90
        0
176
     1
290
     0
176
     1
 90
        1
176
     1
 40
0.0
176
     1
 90
        0
176
     1
290
     0
176
     1
290
     1
176
     1
290
     1
176
     1
290
     0
176
     1
290
     0
176
     1
290
     0
176
     1
290
     0
176
     1
290
     0
176
     1
290
     0
176
     1
 90
       50
176
     1
 40
0.0
176
     1
 40
1.0
176
     1
 90
        0
176
     1
 62
    18
420
        0
176
     1
 90
       50
176
     1
 90
        3
176
     1
 62
     5
420
      255
176
     1
290
     0
176
     1
 90
       50
176
     1
 90
       50
176
     1
 90
       50
176
     1
290
     0
176
     1
 90
       50
176
     1
 62
   256
176
     0
 40
1.0
176
     0
 90
        2
176
     1
  1
strokes_ogs.tif
176
     1
290
     0
176
     1
 40
1.0
176
     1
 40
1.0
176
     1
  0
VISUALSTYLE
  5
37
102
{ACAD_REACTORS
330
2A
102
}
330
2A
100
AcDbVisualStyle
  2
Thicken
 70
    13
177
     3
291
     1
 70
    58
 90
        2
176
     1
 90
        2
176
     1
 90
        0
176
     1
 90
        0
176
     1
 40
0.6
176
     1
 40
30.0
176
     1
 62
     7
420
 16777215
176
     1
 90
        1
176
     1
 90
        4
176
     1
 62
     7
176
     1
 62
   257
176
     1
 90
        1
176
     1
 90
        1
176
     1
 40
1.0
176
     1
 90
       12
176
     1
 62
     7
176
     1
 40
1.0
176
     1
 90
        1
176
     1
 90
        6
176
     1
 90
        2
176
     1
 62
     7
176
     1
 90
        5
176
     1
 90
        0
176
     1
 90
        0
176
     1
290
     0
176
     1
 90
        1
176
     1
 40
0.0
176
     1
 90
        0
176
     1
290
     0
176
     1
290
     1
176
     1
290
     1
176
     1
290
     0
176
     1
290
     0
176
     1
290
     0
176
     1
290
     0
176
     1
290
     0
176
     1
290
     0
176
     1
 90
       50
176
     1
 40
0.0
176
     1
 40
1.0
176
     1
 90
        0
176
     1
 62
    18
420
        0
176
     1
 90
       50
176
     1
 90
        3
176
     1
 62
     5
420
      255
176
     1
290
     0
176
     1
 90
       50
176
     1
 90
       50
176
     1
 90
       50
176
     1
290
     0
176
     1
 90
       50
176
     1
 62
   256
176
     0
 40
1.0
176
     0
 90
        2
176
     1
  1
strokes_ogs.tif
176
     1
290
     0
176
     1
 40
1.0
176
     1
 40
1.0
176
     1
  0
VISUALSTYLE
  5
30
102
{ACAD_REACTORS
330
2A
102
}
330
2A
100
AcDbVisualStyle
  2
Wireframe
 70
     5
177
     3
291
     0
 70
    58
 90
        0
176
     1
 90
        2
176
     1
 90
        0
176
     1
 90
        0
176
     1
 40
0.6
176
     1
 40
30.0
176
     1
 62
     7
420
 16777215
176
     1
 90
        1
176
     1
 90
        4
176
     1
 62
     7
176
     1
 62
   257
176
     1
 90
        1
176
     1
 90
        1
176
     1
 40
1.0
176
     1
 90
        0
176
     1
 62
   257
176
     1
 40
1.0
176
     1
 90
        1
176
     1
 90
        6
176
     1
 90
        2
176
     1
 62
     7
176
     1
 90
        3
176
     1
 90
        0
176
     1
 90
        0
176
     1
290
     0
176
     1
 90
        1
176
     1
 40
0.0
176
     1
 90
        0
176
     1
290
     0
176
     1
290
     1
176
     1
290
     1
176
     1
290
     0
176
     1
290
     0
176
     1
290
     0
176
     1
290
     0
176
     1
290
     0
176
     1
290
     0
176
     1
 90
       50
176
     1
 40
0.0
176
     1
 40
1.0
176
     1
 90
        0
176
     1
 62
    18
420
        0
176
     1
 90
       50
176
     1
 90
        3
176
     1
 62
     5
420
      255
176
     1
290
     0
176
     1
 90
       50
176
     1
 90
       50
176
     1
 90
       50
176
     1
290
     0
176
     1
 90
       50
176
     1
 62
   256
176
     0
 40
1.0
176
     0
 90
        2
176
     1
  1
strokes_ogs.tif
176
     1
290
     0
176
     1
 40
1.0
176
     1
 40
1.0
176
     1
  0
VISUALSTYLE
  5
40
102
{ACAD_REACTORS
330
2A
102
}
330
2A
100
AcDbVisualStyle
  2
X-Ray
 70
    25
177
     3
291
     0
 70
    58
 90
        2
176
     1
 90
        2
176
     1
 90
        1
176
     1
 90
        1
176
     1
 40
0.5
176
     1
 40
30.0
176
     1
 62
     7
420
 16777215
176
     1
 90
        1
176
     1
 90
        0
176
     1
 62
     7
176
     1
 62
   257
176
     1
 90
        1
176
     1
 90
        1
176
     1
 40
1.0
176
     1
 90
        8
176
     1
 62
     7
176
     1
 40
1.0
176
     1
 90
        1
176
     1
 90
        6
176
     1
 90
        2
176
     1
 62
     7
176
     1
 90
        3
176
     1
 90
        0
176
     1
 90
        0
176
     1
290
     0
176
     1
 90
       13
176
     1
 40
0.0
176
     1
 90
        0
176
     1
290
     0
176
     1
290
     1
176
     1
290
     1
176
     1
290
     0
176
     1
290
     0
176
     1
290
     0
176
     1
290
     0
176
     1
290
     0
176
     1
290
     0
176
     1
 90
       50
176
     1
 40
0.0
176
     1
 40
1.0
176
     1
 90
        0
176
     1
 62
    18
420
        0
176
     1
 90
       50
176
     1
 90
        3
176
     1
 62
     5
420
      255
176
     1
290
     0
176
     1
 90
       50
176
     1
 90
       50
176
     1
 90
       50
176
     1
290
     0
176
     1
 90
       50
176
     1
 62
   256
176
     0
 40
1.0
176
     0
 90
        2
176
     1
  1
strokes_ogs.tif
176
     1
290
     0
176
     1
 40
1.0
176
     1
 40
1.0
176
     1
  0
DICTIONARYVAR
  5
26F
102
{ACAD_REACTORS
330
26E
102
}
330
26E
100
DictionaryVariables
280
     0
  1
1:1
  0
DICTIONARYVAR
  5
274
102
{ACAD_REACTORS
330
26E
102
}
330
26E
100
DictionaryVariables
280
     0
  1
Standard
  0
DICTIONARYVAR
  5
273
102
{ACAD_REACTORS
330
26E
102
}
330
26E
100
DictionaryVariables
280
     0
  1
Standard
  0
DICTIONARY
  5
270
330
6A
100
AcDbDictionary
280
     1
281
     1
  3
ACAD_ROUNDTRIP_2008_TABLESTYLE_CELLSTYLEMAP
360
271
  0
CELLSTYLEMAP
  5
271
102
{ACAD_REACTORS
330
270
102
}
330
270
100
AcDbCellStyleMap
 90
        3
300
CELLSTYLE
  1
TABLEFORMAT_BEGIN
 90
        5
170
     1
 91
        0
 92
    32768
 62
   257
 93
        1
300
CONTENTFORMAT
  1
CONTENTFORMAT_BEGIN
 90
        0
 91
        0
 92
        4
 93
        0
300

 40
0.0
140
1.0
 94
        5
 62
     0
340
11
144
0.25
309
CONTENTFORMAT_END
171
     1
301
MARGIN
  1
CELLMARGIN_BEGIN
 40
0.06
 40
0.06
 40
0.06
 40
0.06
 40
0.06
 40
0.06
309
CELLMARGIN_END
 94
        6
 95
        1
302
GRIDFORMAT
  1
GRIDFORMAT_BEGIN
 90
        0
 91
        1
 62
     0
 92
       -2
340
14
 93
        0
 40
0.045
309
GRIDFORMAT_END
 95
        2
302
GRIDFORMAT
  1
GRIDFORMAT_BEGIN
 90
        0
 91
        1
 62
     0
 92
       -2
340
14
 93
        0
 40
0.045
309
GRIDFORMAT_END
 95
        4
302
GRIDFORMAT
  1
GRIDFORMAT_BEGIN
 90
        0
 91
        1
 62
     0
 92
       -2
340
14
 93
        0
 40
0.045
309
GRIDFORMAT_END
 95
        8
302
GRIDFORMAT
  1
GRIDFORMAT_BEGIN
 90
        0
 91
        1
 62
     0
 92
       -2
340
14
 93
        0
 40
0.045
309
GRIDFORMAT_END
 95
       16
302
GRIDFORMAT
  1
GRIDFORMAT_BEGIN
 90
        0
 91
        1
 62
     0
 92
       -2
340
14
 93
        0
 40
0.045
309
GRIDFORMAT_END
 95
       32
302
GRIDFORMAT
  1
GRIDFORMAT_BEGIN
 90
        0
 91
        1
 62
     0
 92
       -2
340
14
 93
        0
 40
0.045
309
GRIDFORMAT_END
309
TABLEFORMAT_END
  1
CELLSTYLE_BEGIN
 90
        1
 91
        1
300
_TITLE
309
CELLSTYLE_END
300
CELLSTYLE
  1
TABLEFORMAT_BEGIN
 90
        5
170
     1
 91
        0
 92
        0
 62
   257
 93
        1
300
CONTENTFORMAT
  1
CONTENTFORMAT_BEGIN
 90
        0
 91
        0
 92
        4
 93
        0
300

 40
0.0
140
1.0
 94
        5
 62
     0
340
11
144
0.18
309
CONTENTFORMAT_END
171
     1
301
MARGIN
  1
CELLMARGIN_BEGIN
 40
0.06
 40
0.06
 40
0.06
 40
0.06
 40
0.06
 40
0.06
309
CELLMARGIN_END
 94
        6
 95
        1
302
GRIDFORMAT
  1
GRIDFORMAT_BEGIN
 90
        0
 91
        1
 62
     0
 92
       -2
340
14
 93
        0
 40
0.045
309
GRIDFORMAT_END
 95
        2
302
GRIDFORMAT
  1
GRIDFORMAT_BEGIN
 90
        0
 91
        1
 62
     0
 92
       -2
340
14
 93
        0
 40
0.045
309
GRIDFORMAT_END
 95
        4
302
GRIDFORMAT
  1
GRIDFORMAT_BEGIN
 90
        0
 91
        1
 62
     0
 92
       -2
340
14
 93
        0
 40
0.045
309
GRIDFORMAT_END
 95
        8
302
GRIDFORMAT
  1
GRIDFORMAT_BEGIN
 90
        0
 91
        1
 62
     0
 92
       -2
340
14
 93
        0
 40
0.045
309
GRIDFORMAT_END
 95
       16
302
GRIDFORMAT
  1
GRIDFORMAT_BEGIN
 90
        0
 91
        1
 62
     0
 92
       -2
340
14
 93
        0
 40
0.045
309
GRIDFORMAT_END
 95
       32
302
GRIDFORMAT
  1
GRIDFORMAT_BEGIN
 90
        0
 91
        1
 62
     0
 92
       -2
340
14
 93
        0
 40
0.045
309
GRIDFORMAT_END
309
TABLEFORMAT_END
  1
CELLSTYLE_BEGIN
 90
        2
 91
        1
300
_HEADER
309
CELLSTYLE_END
300
CELLSTYLE
  1
TABLEFORMAT_BEGIN
 90
        5
170
     1
 91
        0
 92
        0
 62
   257
 93
        1
300
CONTENTFORMAT
  1
CONTENTFORMAT_BEGIN
 90
        0
 91
        0
 92
        4
 93
        0
300

 40
0.0
140
1.0
 94
        2
 62
     0
340
11
144
0.18
309
CONTENTFORMAT_END
171
     1
301
MARGIN
  1
CELLMARGIN_BEGIN
 40
0.06
 40
0.06
 40
0.06
 40
0.06
 40
0.06
 40
0.06
309
CELLMARGIN_END
 94
        6
 95
        1
302
GRIDFORMAT
  1
GRIDFORMAT_BEGIN
 90
        0
 91
        1
 62
     0
 92
       -2
340
14
 93
        0
 40
0.045
309
GRIDFORMAT_END
 95
        2
302
GRIDFORMAT
  1
GRIDFORMAT_BEGIN
 90
        0
 91
        1
 62
     0
 92
       -2
340
14
 93
        0
 40
0.045
309
GRIDFORMAT_END
 95
        4
302
GRIDFORMAT
  1
GRIDFORMAT_BEGIN
 90
        0
 91
        1
 62
     0
 92
       -2
340
14
 93
        0
 40
0.045
309
GRIDFORMAT_END
 95
        8
302
GRIDFORMAT
  1
GRIDFORMAT_BEGIN
 90
        0
 91
        1
 62
     0
 92
       -2
340
14
 93
        0
 40
0.045
309
GRIDFORMAT_END
 95
       16
302
GRIDFORMAT
  1
GRIDFORMAT_BEGIN
 90
        0
 91
        1
 62
     0
 92
       -2
340
14
 93
        0
 40
0.045
309
GRIDFORMAT_END
 95
       32
302
GRIDFORMAT
  1
GRIDFORMAT_BEGIN
 90
        0
 91
        1
 62
     0
 92
       -2
340
14
 93
        0
 40
0.045
309
GRIDFORMAT_END
309
TABLEFORMAT_END
  1
CELLSTYLE_BEGIN
 90
        3
 91
        2
300
_DATA
309
CELLSTYLE_END
  0
ENDSEC
  0
EOF