0
SECTION
  2
HEADER
  9
$ACADVER
  1
AC1027
  9
$ACADMAINTVER
 70
     8
  9
$DWGCODEPAGE
  3
ANSI_1252
  9
$REQUIREDVERSIONS
160
                 0
  9
$COMMENTS
  1
File was created by Cadenas
  9
$CUSTOMPROPERTYTAG
  1
NN
  9
$CUSTOMPROPERTY
  1
Imperial - IP Wide Slot Take-Up
  9
$CUSTOMPROPERTYTAG
  1
NT
  9
$CUSTOMPROPERTY
  1
Imperial Wide Slot Take-Up Bearings
  9
$CUSTOMPROPERTYTAG
  1
NB
  9
$CUSTOMPROPERTY
  1
069362
  9
$CUSTOMPROPERTYTAG
  1
NBSYN
  9
$CUSTOMPROPERTY
  1
$PN.
  9
$CUSTOMPROPERTYTAG
  1
LINA
  9
$CUSTOMPROPERTY
  1
069362
  9
$CUSTOMPROPERTYTAG
  1
SS
  9
$CUSTOMPROPERTY
  1
3-1/4
  9
$CUSTOMPROPERTYTAG
  1
PN
  9
$CUSTOMPROPERTY
  1
069362
  9
$CUSTOMPROPERTYTAG
  1
DESCRIPTION
  9
$CUSTOMPROPERTY
  1
WSTU-IP-304R
  9
$CUSTOMPROPERTYTAG
  1
EF
  9
$CUSTOMPROPERTY
  1
Non-Expansion
  9
$CUSTOMPROPERTYTAG
  1
ST
  9
$CUSTOMPROPERTY
  1
Contact Seal
  9
$CUSTOMPROPERTYTAG
  1
A
  9
$CUSTOMPROPERTY
  1
4-5/32
  9
$CUSTOMPROPERTYTAG
  1
B
  9
$CUSTOMPROPERTY
  1
10-1/16
  9
$CUSTOMPROPERTYTAG
  1
C
  9
$CUSTOMPROPERTY
  1
1-13/16
  9
$CUSTOMPROPERTYTAG
  1
D
  9
$CUSTOMPROPERTY
  1
5-1/2
  9
$CUSTOMPROPERTYTAG
  1
E
  9
$CUSTOMPROPERTY
  1
6-3/8
  9
$CUSTOMPROPERTYTAG
  1
F
  9
$CUSTOMPROPERTY
  1
1-7/8
  9
$CUSTOMPROPERTYTAG
  1
G
  9
$CUSTOMPROPERTY
  1
1-1/16
  9
$CUSTOMPROPERTYTAG
  1
H
  9
$CUSTOMPROPERTY
  1
1-5/8
  9
$CUSTOMPROPERTYTAG
  1
J
  9
$CUSTOMPROPERTY
  1
5-1/8
  9
$CUSTOMPROPERTYTAG
  1
K
  9
$CUSTOMPROPERTY
  1
2-7/8
  9
$CUSTOMPROPERTYTAG
  1
L
  9
$CUSTOMPROPERTY
  1
5
  9
$CUSTOMPROPERTYTAG
  1
M
  9
$CUSTOMPROPERTY
  1
6-13/16
  9
$CUSTOMPROPERTYTAG
  1
N
  9
$CUSTOMPROPERTY
  1
7-13/16
  9
$CUSTOMPROPERTYTAG
  1
R
  9
$CUSTOMPROPERTY
  1
4-7/32
  9
$CUSTOMPROPERTYTAG
  1
S
  9
$CUSTOMPROPERTY
  1
2-11/16
  9
$CUSTOMPROPERTYTAG
  1
T
  9
$CUSTOMPROPERTY
  1
3-1/16
  9
$CUSTOMPROPERTYTAG
  1
X
  9
$CUSTOMPROPERTY
  1
1/4
  9
$CUSTOMPROPERTYTAG
  1
Y
  9
$CUSTOMPROPERTY
  1
0.025
  9
$CUSTOMPROPERTYTAG
  1
Z
  9
$CUSTOMPROPERTY
  1
4-3/64
  9
$CUSTOMPROPERTYTAG
  1
COMPANY
  9
$CUSTOMPROPERTY
  1
baldor
  9
$INSBASE
 10
0.0
 20
0.0
 30
0.0
  9
$EXTMIN
 10
1.000000000000000E+20
 20
1.000000000000000E+20
 30
1.000000000000000E+20
  9
$EXTMAX
 10
-1.000000000000000E+20
 20
-1.000000000000000E+20
 30
-1.000000000000000E+20
  9
$LIMMIN
 10
0.0
 20
0.0
  9
$LIMMAX
 10
12.0
 20
9.0
  9
$ORTHOMODE
 70
     0
  9
$REGENMODE
 70
     1
  9
$FILLMODE
 70
     1
  9
$QTEXTMODE
 70
     0
  9
$MIRRTEXT
 70
     1
  9
$LTSCALE
 40
1.0
  9
$ATTMODE
 70
     1
  9
$TEXTSIZE
 40
0.2
  9
$TRACEWID
 40
0.05
  9
$TEXTSTYLE
  7
Standard
  9
$CLAYER
  8
0
  9
$CELTYPE
  6
ByLayer
  9
$CECOLOR
 62
   256
  9
$CELTSCALE
 40
1.0
  9
$DISPSILH
 70
     0
  9
$DIMSCALE
 40
1.0
  9
$DIMASZ
 40
0.18
  9
$DIMEXO
 40
0.0625
  9
$DIMDLI
 40
0.38
  9
$DIMRND
 40
0.0
  9
$DIMDLE
 40
0.0
  9
$DIMEXE
 40
0.18
  9
$DIMTP
 40
0.0
  9
$DIMTM
 40
0.0
  9
$DIMTXT
 40
0.18
  9
$DIMCEN
 40
0.09
  9
$DIMTSZ
 40
0.0
  9
$DIMTOL
 70
     0
  9
$DIMLIM
 70
     0
  9
$DIMTIH
 70
     1
  9
$DIMTOH
 70
     1
  9
$DIMSE1
 70
     0
  9
$DIMSE2
 70
     0
  9
$DIMTAD
 70
     0
  9
$DIMZIN
 70
     0
  9
$DIMBLK
  1

  9
$DIMASO
 70
     1
  9
$DIMSHO
 70
     1
  9
$DIMPOST
  1

  9
$DIMAPOST
  1

  9
$DIMALT
 70
     0
  9
$DIMALTD
 70
     2
  9
$DIMALTF
 40
25.4
  9
$DIMLFAC
 40
1.0
  9
$DIMTOFL
 70
     0
  9
$DIMTVP
 40
0.0
  9
$DIMTIX
 70
     0
  9
$DIMSOXD
 70
     0
  9
$DIMSAH
 70
     0
  9
$DIMBLK1
  1

  9
$DIMBLK2
  1

  9
$DIMSTYLE
  2
Standard
  9
$DIMCLRD
 70
     0
  9
$DIMCLRE
 70
     0
  9
$DIMCLRT
 70
     0
  9
$DIMTFAC
 40
1.0
  9
$DIMGAP
 40
0.09
  9
$DIMJUST
 70
     0
  9
$DIMSD1
 70
     0
  9
$DIMSD2
 70
     0
  9
$DIMTOLJ
 70
     1
  9
$DIMTZIN
 70
     0
  9
$DIMALTZ
 70
     0
  9
$DIMALTTZ
 70
     0
  9
$DIMUPT
 70
     0
  9
$DIMDEC
 70
     4
  9
$DIMTDEC
 70
     4
  9
$DIMALTU
 70
     2
  9
$DIMALTTD
 70
     2
  9
$DIMTXSTY
  7
Standard
  9
$DIMAUNIT
 70
     0
  9
$DIMADEC
 70
     0
  9
$DIMALTRND
 40
0.0
  9
$DIMAZIN
 70
     0
  9
$DIMDSEP
 70
    46
  9
$DIMATFIT
 70
     3
  9
$DIMFRAC
 70
     0
  9
$DIMLDRBLK
  1

  9
$DIMLUNIT
 70
     2
  9
$DIMLWD
 70
    -2
  9
$DIMLWE
 70
    -2
  9
$DIMTMOVE
 70
     0
  9
$DIMFXL
 40
1.0
  9
$DIMFXLON
 70
     0
  9
$DIMJOGANG
 40
0.7853981633974483
  9
$DIMTFILL
 70
     0
  9
$DIMTFILLCLR
 70
     0
  9
$DIMARCSYM
 70
     0
  9
$DIMLTYPE
  6

  9
$DIMLTEX1
  6

  9
$DIMLTEX2
  6

  9
$DIMTXTDIRECTION
 70
     0
  9
$LUNITS
 70
     2
  9
$LUPREC
 70
     4
  9
$SKETCHINC
 40
0.1
  9
$FILLETRAD
 40
0.5
  9
$AUNITS
 70
     0
  9
$AUPREC
 70
     0
  9
$MENU
  1
.
  9
$ELEVATION
 40
0.0
  9
$PELEVATION
 40
0.0
  9
$THICKNESS
 40
0.0
  9
$LIMCHECK
 70
     0
  9
$CHAMFERA
 40
0.0
  9
$CHAMFERB
 40
0.0
  9
$CHAMFERC
 40
0.0
  9
$CHAMFERD
 40
0.0
  9
$SKPOLY
 70
     0
  9
$TDCREATE
 40
2458168.989670833
  9
$TDUCREATE
 40
2458168.948004167
  9
$TDUPDATE
 40
2458168.989671007
  9
$TDUUPDATE
 40
2458168.94800434
  9
$TDINDWG
 40
0.0000000116
  9
$TDUSRTIMER
 40
0.0000000116
  9
$USRTIMER
 70
     1
  9
$ANGBASE
 50
0.0
  9
$ANGDIR
 70
     0
  9
$PDMODE
 70
     0
  9
$PDSIZE
 40
0.0
  9
$PLINEWID
 40
0.0
  9
$SPLFRAME
 70
     0
  9
$SPLINETYPE
 70
     6
  9
$SPLINESEGS
 70
     8
  9
$HANDSEED
  5
26D
  9
$SURFTAB1
 70
     6
  9
$SURFTAB2
 70
     6
  9
$SURFTYPE
 70
     6
  9
$SURFU
 70
     6
  9
$SURFV
 70
     6
  9
$UCSBASE
  2

  9
$UCSNAME
  2

  9
$UCSORG
 10
0.0
 20
0.0
 30
0.0
  9
$UCSXDIR
 10
1.0
 20
0.0
 30
0.0
  9
$UCSYDIR
 10
0.0
 20
1.0
 30
0.0
  9
$UCSORTHOREF
  2

  9
$UCSORTHOVIEW
 70
     0
  9
$UCSORGTOP
 10
0.0
 20
0.0
 30
0.0
  9
$UCSORGBOTTOM
 10
0.0
 20
0.0
 30
0.0
  9
$UCSORGLEFT
 10
0.0
 20
0.0
 30
0.0
  9
$UCSORGRIGHT
 10
0.0
 20
0.0
 30
0.0
  9
$UCSORGFRONT
 10
0.0
 20
0.0
 30
0.0
  9
$UCSORGBACK
 10
0.0
 20
0.0
 30
0.0
  9
$PUCSBASE
  2

  9
$PUCSNAME
  2

  9
$PUCSORG
 10
0.0
 20
0.0
 30
0.0
  9
$PUCSXDIR
 10
1.0
 20
0.0
 30
0.0
  9
$PUCSYDIR
 10
0.0
 20
1.0
 30
0.0
  9
$PUCSORTHOREF
  2

  9
$PUCSORTHOVIEW
 70
     0
  9
$PUCSORGTOP
 10
0.0
 20
0.0
 30
0.0
  9
$PUCSORGBOTTOM
 10
0.0
 20
0.0
 30
0.0
  9
$PUCSORGLEFT
 10
0.0
 20
0.0
 30
0.0
  9
$PUCSORGRIGHT
 10
0.0
 20
0.0
 30
0.0
  9
$PUCSORGFRONT
 10
0.0
 20
0.0
 30
0.0
  9
$PUCSORGBACK
 10
0.0
 20
0.0
 30
0.0
  9
$USERI1
 70
     0
  9
$USERI2
 70
     0
  9
$USERI3
 70
     0
  9
$USERI4
 70
     0
  9
$USERI5
 70
     0
  9
$USERR1
 40
0.0
  9
$USERR2
 40
0.0
  9
$USERR3
 40
0.0
  9
$USERR4
 40
0.0
  9
$USERR5
 40
0.0
  9
$WORLDVIEW
 70
     1
  9
$SHADEDGE
 70
     3
  9
$SHADEDIF
 70
    70
  9
$TILEMODE
 70
     1
  9
$MAXACTVP
 70
    64
  9
$PINSBASE
 10
0.0
 20
0.0
 30
0.0
  9
$PLIMCHECK
 70
     0
  9
$PEXTMIN
 10
1.000000000000000E+20
 20
1.000000000000000E+20
 30
1.000000000000000E+20
  9
$PEXTMAX
 10
-1.000000000000000E+20
 20
-1.000000000000000E+20
 30
-1.000000000000000E+20
  9
$PLIMMIN
 10
0.0
 20
0.0
  9
$PLIMMAX
 10
12.0
 20
9.0
  9
$UNITMODE
 70
     0
  9
$VISRETAIN
 70
     1
  9
$PLINEGEN
 70
     0
  9
$PSLTSCALE
 70
     1
  9
$TREEDEPTH
 70
  3020
  9
$CMLSTYLE
  2
Standard
  9
$CMLJUST
 70
     0
  9
$CMLSCALE
 40
1.0
  9
$PROXYGRAPHICS
 70
     1
  9
$MEASUREMENT
 70
     0
  9
$CELWEIGHT
370
    -1
  9
$ENDCAPS
280
     0
  9
$JOINSTYLE
280
     0
  9
$LWDISPLAY
290
     0
  9
$INSUNITS
 70
     1
  9
$HYPERLINKBASE
  1

  9
$STYLESHEET
  1

  9
$XEDIT
290
     1
  9
$CEPSNTYPE
380
     0
  9
$PSTYLEMODE
290
     1
  9
$FINGERPRINTGUID
  2
{E481312F-D4BA-4E31-B689-E083030175C2}
  9
$VERSIONGUID
  2
{FAEB1C32-E019-11D5-929B-00C0DF256EC4}
  9
$EXTNAMES
290
     1
  9
$PSVPSCALE
 40
0.0
  9
$OLESTARTUP
290
     0
  9
$SORTENTS
280
   127
  9
$INDEXCTL
280
     0
  9
$HIDETEXT
280
     1
  9
$XCLIPFRAME
280
     2
  9
$HALOGAP
280
     0
  9
$OBSCOLOR
 70
   257
  9
$OBSLTYPE
280
     0
  9
$INTERSECTIONDISPLAY
280
     0
  9
$INTERSECTIONCOLOR
 70
   257
  9
$DIMASSOC
280
     2
  9
$PROJECTNAME
  1

  9
$CAMERADISPLAY
290
     0
  9
$LENSLENGTH
 40
50.0
  9
$CAMERAHEIGHT
 40
0.0
  9
$STEPSPERSEC
 40
2.0
  9
$STEPSIZE
 40
6.0
  9
$3DDWFPREC
 40
2.0
  9
$PSOLWIDTH
 40
0.25
  9
$PSOLHEIGHT
 40
4.0
  9
$LOFTANG1
 40
1.570796326794897
  9
$LOFTANG2
 40
1.570796326794897
  9
$LOFTMAG1
 40
0.0
  9
$LOFTMAG2
 40
0.0
  9
$LOFTPARAM
 70
     7
  9
$LOFTNORMALS
280
     1
  9
$LATITUDE
 40
37.795
  9
$LONGITUDE
 40
-122.394
  9
$NORTHDIRECTION
 40
0.0
  9
$TIMEZONE
 70
 -8000
  9
$LIGHTGLYPHDISPLAY
280
     1
  9
$TILEMODELIGHTSYNCH
280
     1
  9
$CMATERIAL
347
44
  9
$SOLIDHIST
280
     0
  9
$SHOWHIST
280
     1
  9
$DWFFRAME
280
     2
  9
$DGNFRAME
280
     2
  9
$REALWORLDSCALE
290
     1
  9
$INTERFERECOLOR
 62
   256
  9
$CSHADOW
280
     0
  9
$SHADOWPLANELOCATION
 40
0.0
  0
ENDSEC
  0
SECTION
  2
CLASSES
  0
CLASS
  1
ACDBDICTIONARYWDFLT
  2
AcDbDictionaryWithDefault
  3
ObjectDBX Classes
 90
        0
 91
        4
280
     0
281
     0
  0
CLASS
  1
VISUALSTYLE
  2
AcDbVisualStyle
  3
ObjectDBX Classes
 90
     4095
 91
        4
280
     0
281
     0
  0
CLASS
  1
MATERIAL
  2
AcDbMaterial
  3
ObjectDBX Classes
 90
     1153
 91
        4
280
     0
281
     0
  0
CLASS
  1
SCALE
  2
AcDbScale
  3
ObjectDBX Classes
 90
     1153
 91
        4
280
     0
281
     0
  0
CLASS
  1
TABLESTYLE
  2
AcDbTableStyle
  3
ObjectDBX Classes
 90
     4095
 91
        4
280
     0
281
     0
  0
CLASS
  1
MLEADERSTYLE
  2
AcDbMLeaderStyle
  3
ACDB_MLEADERSTYLE_CLASS
 90
     4095
 91
        4
280
     0
281
     0
  0
CLASS
  1
SUN
  2
AcDbSun
  3
SCENEOE
 90
     1153
 91
        4
280
     0
281
     0
  0
CLASS
  1
DICTIONARYVAR
  2
AcDbDictionaryVar
  3
ObjectDBX Classes
 90
        0
 91
        4
280
     0
281
     0
  0
CLASS
  1
CELLSTYLEMAP
  2
AcDbCellStyleMap
  3
ObjectDBX Classes
 90
     1152
 91
        4
280
     0
281
     0
  0
ENDSEC
  0
SECTION
  2
TABLES
  0
TABLE
  2
VPORT
  5
8
330
0
100
AcDbSymbolTable
 70
     1
  0
VPORT
  5
29
330
8
100
AcDbSymbolTableRecord
100
AcDbViewportTableRecord
  2
*Active
 70
     0
 10
0.0
 20
0.0
 11
1.0
 21
1.0
 12
1.162918192307405
 22
-0.5222656250000002
 13
0.0
 23
0.0
 14
0.5
 24
0.5
 15
0.5
 25
0.5
 16
0.0
 26
0.0
 36
1.0
 17
0.0
 27
0.0
 37
0.0
 40
4.845159375000001
 41
2.216856259283089
 42
50.0
 43
0.0
 44
0.0
 50
0.0
 51
0.0
 71
     0
 72
   100
 73
     1
 74
     3
 75
     0
 76
     0
 77
     0
 78
     0
281
     0
 65
     1
110
0.0
120
0.0
130
0.0
111
1.0
121
0.0
131
0.0
112
0.0
122
1.0
132
0.0
 79
     0
146
0.0
348
2F
 60
     3
 61
     5
292
     1
282
     1
141
0.0
142
0.0
 63
   250
361
6D
  0
ENDTAB
  0
TABLE
  2
LTYPE
  5
5
330
0
100
AcDbSymbolTable
 70
     3
  0
LTYPE
  5
14
330
5
100
AcDbSymbolTableRecord
100
AcDbLinetypeTableRecord
  2
ByBlock
 70
     0
  3

 72
    65
 73
     0
 40
0.0
  0
LTYPE
  5
15
330
5
100
AcDbSymbolTableRecord
100
AcDbLinetypeTableRecord
  2
ByLayer
 70
     0
  3

 72
    65
 73
     0
 40
0.0
  0
LTYPE
  5
16
330
5
100
AcDbSymbolTableRecord
100
AcDbLinetypeTableRecord
  2
Continuous
 70
     0
  3
Solid line
 72
    65
 73
     0
 40
0.0
  0
LTYPE
  5
A2
330
5
100
AcDbSymbolTableRecord
100
AcDbLinetypeTableRecord
  2
Dashed
 70
     0
  3

 72
    65
 73
     2
 40
2.0
 49
1.0
 74
     0
 49
-1.0
 74
     0
  0
LTYPE
  5
230
330
5
100
AcDbSymbolTableRecord
100
AcDbLinetypeTableRecord
  2
Center
 70
     0
  3

 72
    65
 73
     4
 40
1.5
 49
0.45
 74
     0
 49
-0.5
 74
     0
 49
0.05
 74
     0
 49
-0.5
 74
     0
  0
ENDTAB
  0
TABLE
  2
LAYER
  5
2
330
0
100
AcDbSymbolTable
 70
     7
  0
LAYER
  5
10
330
2
100
AcDbSymbolTableRecord
100
AcDbLayerTableRecord
  2
0
 70
     0
 62
     7
  6
Continuous
370
    -3
390
F
347
46
348
0
  0
LAYER
  5
72
330
2
100
AcDbSymbolTableRecord
100
AcDbLayerTableRecord
  2
AM_6
 70
     0
 62
    -2
  6
Continuous
370
    35
390
F
347
46
348
0
  0
LAYER
  5
A3
330
2
100
AcDbSymbolTableRecord
100
AcDbLayerTableRecord
  2
AM_9
 70
     0
 62
     6
  6
Dashed
370
    25
390
F
347
46
348
0
  0
LAYER
  5
E2
330
2
100
AcDbSymbolTableRecord
100
AcDbLayerTableRecord
  2
AM_4
 70
     0
 62
     7
  6
Continuous
370
    50
390
F
347
46
348
0
  0
LAYER
  5
12A
330
2
100
AcDbSymbolTableRecord
100
AcDbLayerTableRecord
  2
AM_5
 70
     0
 62
     3
  6
Continuous
370
    25
390
F
347
46
348
0
  0
LAYER
  5
231
330
2
100
AcDbSymbolTableRecord
100
AcDbLayerTableRecord
  2
AM_7
 70
     0
 62
     7
  6
Center
370
    25
390
F
347
46
348
0
  0
LAYER
  5
256
330
2
100
AcDbSymbolTableRecord
100
AcDbLayerTableRecord
  2
ConnectionPoints
 70
     0
 62
     7
  6
Continuous
370
    50
390
F
347
46
348
0
  0
ENDTAB
  0
TABLE
  2
STYLE
  5
3
330
0
100
AcDbSymbolTable
 70
     1
  0
STYLE
  5
11
330
3
100
AcDbSymbolTableRecord
100
AcDbTextStyleTableRecord
  2
Standard
 70
     0
 40
0.0
 41
1.0
 50
0.0
 71
     0
 42
0.2
  3
txt
  4

  0
ENDTAB
  0
TABLE
  2
VIEW
  5
6
330
0
100
AcDbSymbolTable
 70
     0
  0
ENDTAB
  0
TABLE
  2
UCS
  5
7
330
0
100
AcDbSymbolTable
 70
     0
  0
ENDTAB
  0
TABLE
  2
APPID
  5
9
330
0
100
AcDbSymbolTable
 70
     1
  0
APPID
  5
12
330
9
100
AcDbSymbolTableRecord
100
AcDbRegAppTableRecord
  2
ACAD
 70
     0
  0
ENDTAB
  0
TABLE
  2
DIMSTYLE
  5
A
330
0
100
AcDbSymbolTable
 70
     1
100
AcDbDimStyleTable
  0
DIMSTYLE
105
27
330
A
100
AcDbSymbolTableRecord
100
AcDbDimStyleTableRecord
  2
Standard
 70
     0
178
     0
340
11
  0
ENDTAB
  0
TABLE
  2
BLOCK_RECORD
  5
1
330
0
100
AcDbSymbolTable
 70
     8
  0
BLOCK_RECORD
  5
1F
330
1
100
AcDbSymbolTableRecord
100
AcDbBlockTableRecord
  2
*Model_Space
340
22
 70
     0
280
     1
281
     0
  0
BLOCK_RECORD
  5
1B
330
1
100
AcDbSymbolTableRecord
100
AcDbBlockTableRecord
  2
*Paper_Space
340
1E
 70
     0
280
     1
281
     0
  0
BLOCK_RECORD
  5
23
330
1
100
AcDbSymbolTableRecord
100
AcDbBlockTableRecord
  2
*Paper_Space0
340
26
 70
     0
280
     1
281
     0
  0
BLOCK_RECORD
  5
6E
330
1
100
AcDbSymbolTableRecord
100
AcDbBlockTableRecord
  2
1_069362_4
340
0
102
{BLKREFS
331
6F
102
}
 70
     0
280
     1
281
     0
  0
BLOCK_RECORD
  5
91
330
1
100
AcDbSymbolTableRecord
100
AcDbBlockTableRecord
  2
2_405016_Inch_0_in_069362_4
340
0
102
{BLKREFS
331
92
102
}
 70
     0
280
     1
281
     0
  0
BLOCK_RECORD
  5
11A
330
1
100
AcDbSymbolTableRecord
100
AcDbBlockTableRecord
  2
3_ASME_B18_3_1_4_1_0_in_069362_4
340
0
102
{BLKREFS
331
11B
102
}
 70
     0
280
     1
281
     0
  0
BLOCK_RECORD
  5
12D
330
1
100
AcDbSymbolTableRecord
100
AcDbBlockTableRecord
  2
4_ASME_B18_3_1_4_2_0_in_069362_4
340
0
102
{BLKREFS
331
12E
102
}
 70
     0
280
     1
281
     0
  0
BLOCK_RECORD
  5
14F
330
1
100
AcDbSymbolTableRecord
100
AcDbBlockTableRecord
  2
5_070902LW_0_in_069362_4
340
0
102
{BLKREFS
331
150
102
}
 70
     0
280
     1
281
     0
  0
BLOCK_RECORD
  5
185
330
1
100
AcDbSymbolTableRecord
100
AcDbBlockTableRecord
  2
6_070902I_0_in_069362_4
340
0
102
{BLKREFS
331
186
102
}
 70
     0
280
     1
281
     0
  0
BLOCK_RECORD
  5
201
330
1
100
AcDbSymbolTableRecord
100
AcDbBlockTableRecord
  2
7_069362H_0_in_069362_4
340
0
102
{BLKREFS
331
202
102
}
 70
     0
280
     1
281
     0
  0
ENDTAB
  0
ENDSEC
  0
SECTION
  2
BLOCKS
  0
BLOCK
  5
20
330
1F
100
AcDbEntity
  8
0
100
AcDbBlockBegin
  2
*Model_Space
 70
     0
 10
0.0
 20
0.0
 30
0.0
  3
*Model_Space
  1

  0
ENDBLK
  5
21
330
1F
100
AcDbEntity
  8
0
100
AcDbBlockEnd
  0
BLOCK
  5
1C
330
1B
100
AcDbEntity
 67
     1
  8
0
100
AcDbBlockBegin
  2
*Paper_Space
 70
     0
 10
0.0
 20
0.0
 30
0.0
  3
*Paper_Space
  1

  0
ENDBLK
  5
1D
330
1B
100
AcDbEntity
 67
     1
  8
0
100
AcDbBlockEnd
  0
BLOCK
  5
24
330
23
100
AcDbEntity
  8
0
100
AcDbBlockBegin
  2
*Paper_Space0
 70
     0
 10
0.0
 20
0.0
 30
0.0
  3
*Paper_Space0
  1

  0
ENDBLK
  5
25
330
23
100
AcDbEntity
  8
0
100
AcDbBlockEnd
  0
BLOCK
  5
70
330
6E
100
AcDbEntity
  8
0
100
AcDbBlockBegin
  2
1_069362_4
 70
     2
 10
0.0
 20
0.0
 30
0.0
  3
1_069362_4
  1

  0
ATTDEF
  5
73
330
6E
100
AcDbEntity
  8
AM_6
100
AcDbText
 10
11.428125
 20
1.8528125
 30
0.0
 40
0.5
  1
Imperial - IP Wide Slot Take-Up
100
AcDbAttributeDefinition
  3

  2
NN
 70
     8
280
     0
  0
ATTDEF
  5
74
330
6E
100
AcDbEntity
  8
AM_6
100
AcDbText
 10
11.428125
 20
1.3528125
 30
0.0
 40
0.5
  1
Imperial Wide Slot Take-Up Bearings
100
AcDbAttributeDefinition
  3

  2
NT
 70
     8
280
     0
  0
ATTDEF
  5
75
330
6E
100
AcDbEntity
  8
AM_6
100
AcDbText
 10
11.428125
 20
0.8528125000000002
 30
0.0
 40
0.5
  1
069362
100
AcDbAttributeDefinition
  3

  2
NB
 70
     8
280
     0
  0
ATTDEF
  5
76
330
6E
100
AcDbEntity
  8
AM_6
100
AcDbText
 10
11.428125
 20
0.3528125000000002
 30
0.0
 40
0.5
  1
$PN.
100
AcDbAttributeDefinition
  3

  2
NBSYN
 70
     8
280
     0
  0
ATTDEF
  5
77
330
6E
100
AcDbEntity
  8
AM_6
100
AcDbText
 10
11.428125
 20
-0.1471874999999998
 30
0.0
 40
0.5
  1
069362
100
AcDbAttributeDefinition
  3

  2
LINA
 70
     8
280
     0
  0
ATTDEF
  5
78
330
6E
100
AcDbEntity
  8
AM_6
100
AcDbText
 10
11.428125
 20
-0.6471874999999998
 30
0.0
 40
0.5
  1
3-1/4
100
AcDbAttributeDefinition
  3

  2
SS
 70
     8
280
     0
  0
ATTDEF
  5
79
330
6E
100
AcDbEntity
  8
AM_6
100
AcDbText
 10
11.428125
 20
-1.1471875
 30
0.0
 40
0.5
  1
069362
100
AcDbAttributeDefinition
  3

  2
PN
 70
     8
280
     0
  0
ATTDEF
  5
7A
330
6E
100
AcDbEntity
  8
AM_6
100
AcDbText
 10
11.428125
 20
-1.6471875
 30
0.0
 40
0.5
  1
WSTU-IP-304R
100
AcDbAttributeDefinition
  3

  2
DESCRIPTION
 70
     8
280
     0
  0
ATTDEF
  5
7B
330
6E
100
AcDbEntity
  8
AM_6
100
AcDbText
 10
11.428125
 20
-2.1471875
 30
0.0
 40
0.5
  1
Non-Expansion
100
AcDbAttributeDefinition
  3

  2
EF
 70
     8
280
     0
  0
ATTDEF
  5
7C
330
6E
100
AcDbEntity
  8
AM_6
100
AcDbText
 10
11.428125
 20
-2.6471875
 30
0.0
 40
0.5
  1
Contact Seal
100
AcDbAttributeDefinition
  3

  2
ST
 70
     8
280
     0
  0
ATTDEF
  5
7D
330
6E
100
AcDbEntity
  8
AM_6
100
AcDbText
 10
11.428125
 20
-3.1471875
 30
0.0
 40
0.5
  1
4-5/32
100
AcDbAttributeDefinition
  3

  2
A
 70
     8
280
     0
  0
ATTDEF
  5
7E
330
6E
100
AcDbEntity
  8
AM_6
100
AcDbText
 10
11.428125
 20
-3.6471875
 30
0.0
 40
0.5
  1
10-1/16
100
AcDbAttributeDefinition
  3

  2
B
 70
     8
280
     0
  0
ATTDEF
  5
7F
330
6E
100
AcDbEntity
  8
AM_6
100
AcDbText
 10
11.428125
 20
-4.147187499999999
 30
0.0
 40
0.5
  1
1-13/16
100
AcDbAttributeDefinition
  3

  2
C
 70
     8
280
     0
  0
ATTDEF
  5
80
330
6E
100
AcDbEntity
  8
AM_6
100
AcDbText
 10
11.428125
 20
-4.647187499999999
 30
0.0
 40
0.5
  1
5-1/2
100
AcDbAttributeDefinition
  3

  2
D
 70
     8
280
     0
  0
ATTDEF
  5
81
330
6E
100
AcDbEntity
  8
AM_6
100
AcDbText
 10
11.428125
 20
-5.147187499999999
 30
0.0
 40
0.5
  1
6-3/8
100
AcDbAttributeDefinition
  3

  2
E
 70
     8
280
     0
  0
ATTDEF
  5
82
330
6E
100
AcDbEntity
  8
AM_6
100
AcDbText
 10
11.428125
 20
-5.647187499999999
 30
0.0
 40
0.5
  1
1-7/8
100
AcDbAttributeDefinition
  3

  2
F
 70
     8
280
     0
  0
ATTDEF
  5
83
330
6E
100
AcDbEntity
  8
AM_6
100
AcDbText
 10
11.428125
 20
-6.147187499999999
 30
0.0
 40
0.5
  1
1-1/16
100
AcDbAttributeDefinition
  3

  2
G
 70
     8
280
     0
  0
ATTDEF
  5
84
330
6E
100
AcDbEntity
  8
AM_6
100
AcDbText
 10
11.428125
 20
-6.647187499999999
 30
0.0
 40
0.5
  1
1-5/8
100
AcDbAttributeDefinition
  3

  2
H
 70
     8
280
     0
  0
ATTDEF
  5
85
330
6E
100
AcDbEntity
  8
AM_6
100
AcDbText
 10
11.428125
 20
-7.147187499999999
 30
0.0
 40
0.5
  1
5-1/8
100
AcDbAttributeDefinition
  3

  2
J
 70
     8
280
     0
  0
ATTDEF
  5
86
330
6E
100
AcDbEntity
  8
AM_6
100
AcDbText
 10
11.428125
 20
-7.647187499999999
 30
0.0
 40
0.5
  1
2-7/8
100
AcDbAttributeDefinition
  3

  2
K
 70
     8
280
     0
  0
ATTDEF
  5
87
330
6E
100
AcDbEntity
  8
AM_6
100
AcDbText
 10
11.428125
 20
-8.1471875
 30
0.0
 40
0.5
  1
5
100
AcDbAttributeDefinition
  3

  2
L
 70
     8
280
     0
  0
ATTDEF
  5
88
330
6E
100
AcDbEntity
  8
AM_6
100
AcDbText
 10
11.428125
 20
-8.6471875
 30
0.0
 40
0.5
  1
6-13/16
100
AcDbAttributeDefinition
  3

  2
M
 70
     8
280
     0
  0
ATTDEF
  5
89
330
6E
100
AcDbEntity
  8
AM_6
100
AcDbText
 10
11.428125
 20
-9.1471875
 30
0.0
 40
0.5
  1
7-13/16
100
AcDbAttributeDefinition
  3

  2
N
 70
     8
280
     0
  0
ATTDEF
  5
8A
330
6E
100
AcDbEntity
  8
AM_6
100
AcDbText
 10
11.428125
 20
-9.6471875
 30
0.0
 40
0.5
  1
4-7/32
100
AcDbAttributeDefinition
  3

  2
R
 70
     8
280
     0
  0
ATTDEF
  5
8B
330
6E
100
AcDbEntity
  8
AM_6
100
AcDbText
 10
11.428125
 20
-10.1471875
 30
0.0
 40
0.5
  1
2-11/16
100
AcDbAttributeDefinition
  3

  2
S
 70
     8
280
     0
  0
ATTDEF
  5
8C
330
6E
100
AcDbEntity
  8
AM_6
100
AcDbText
 10
11.428125
 20
-10.6471875
 30
0.0
 40
0.5
  1
3-1/16
100
AcDbAttributeDefinition
  3

  2
T
 70
     8
280
     0
  0
ATTDEF
  5
8D
330
6E
100
AcDbEntity
  8
AM_6
100
AcDbText
 10
11.428125
 20
-11.1471875
 30
0.0
 40
0.5
  1
1/4
100
AcDbAttributeDefinition
  3

  2
X
 70
     8
280
     0
  0
ATTDEF
  5
8E
330
6E
100
AcDbEntity
  8
AM_6
100
AcDbText
 10
11.428125
 20
-11.6471875
 30
0.0
 40
0.5
  1
0.025
100
AcDbAttributeDefinition
  3

  2
Y
 70
     8
280
     0
  0
ATTDEF
  5
8F
330
6E
100
AcDbEntity
  8
AM_6
100
AcDbText
 10
11.428125
 20
-12.1471875
 30
0.0
 40
0.5
  1
4-3/64
100
AcDbAttributeDefinition
  3

  2
Z
 70
     8
280
     0
  0
ATTDEF
  5
90
330
6E
100
AcDbEntity
  8
AM_6
100
AcDbText
 10
11.428125
 20
-12.6471875
 30
0.0
 40
0.5
  1
baldor
100
AcDbAttributeDefinition
  3

  2
COMPANY
 70
     8
280
     0
  0
INSERT
  5
92
330
6E
100
AcDbEntity
  8
0
100
AcDbBlockReference
  2
2_405016_Inch_0_in_069362_4
 10
0.0
 20
0.0
 30
0.0
  0
INSERT
  5
11B
330
6E
100
AcDbEntity
  8
0
100
AcDbBlockReference
  2
3_ASME_B18_3_1_4_1_0_in_069362_4
 10
0.0
 20
0.0
 30
0.0
  0
INSERT
  5
12E
330
6E
100
AcDbEntity
  8
0
100
AcDbBlockReference
  2
4_ASME_B18_3_1_4_2_0_in_069362_4
 10
0.0
 20
0.0
 30
0.0
  0
INSERT
  5
150
330
6E
100
AcDbEntity
  8
0
100
AcDbBlockReference
  2
5_070902LW_0_in_069362_4
 10
0.0
 20
0.0
 30
0.0
  0
INSERT
  5
186
330
6E
100
AcDbEntity
  8
0
100
AcDbBlockReference
  2
6_070902I_0_in_069362_4
 10
0.0
 20
0.0
 30
0.0
  0
INSERT
  5
202
330
6E
100
AcDbEntity
  8
0
100
AcDbBlockReference
  2
7_069362H_0_in_069362_4
 10
0.0
 20
0.0
 30
0.0
  0
ENDBLK
  5
71
330
6E
100
AcDbEntity
  8
0
100
AcDbBlockEnd
  0
BLOCK
  5
93
330
91
100
AcDbEntity
  8
0
100
AcDbBlockBegin
  2
2_405016_Inch_0_in_069362_4
 70
     2
 10
0.0
 20
0.0
 30
0.0
  3
2_405016_Inch_0_in_069362_4
  1

  0
ATTDEF
  5
95
330
91
100
AcDbEntity
  8
AM_6
100
AcDbText
 10
1.751672916644567
 20
0.2187500000000014
 30
0.0
 40
0.5
  1
405016 -Inch
100
AcDbAttributeDefinition
  3

  2
NN
 70
     8
280
     0
  0
ATTDEF
  5
96
330
91
100
AcDbEntity
  8
AM_6
100
AcDbText
 10
1.751672916644567
 20
-0.2812499999999986
 30
0.0
 40
0.5
  1
Grease Fitting
100
AcDbAttributeDefinition
  3

  2
NT
 70
     8
280
     0
  0
ATTDEF
  5
97
330
91
100
AcDbEntity
  8
AM_6
100
AcDbText
 10
1.751672916644567
 20
-0.7812499999999986
 30
0.0
 40
0.5
  1
405016-Inch
100
AcDbAttributeDefinition
  3

  2
NB
 70
     8
280
     0
  0
ATTDEF
  5
98
330
91
100
AcDbEntity
  8
AM_6
100
AcDbText
 10
1.751672916644567
 20
-1.281249999999999
 30
0.0
 40
0.5
  1
$MN.-Inch
100
AcDbAttributeDefinition
  3

  2
NBSYN
 70
     8
280
     0
  0
ATTDEF
  5
99
330
91
100
AcDbEntity
  8
AM_6
100
AcDbText
 10
1.751672916644567
 20
-1.781249999999999
 30
0.0
 40
0.5
  1
405016
100
AcDbAttributeDefinition
  3

  2
LINA
 70
     8
280
     0
  0
ATTDEF
  5
9A
330
91
100
AcDbEntity
  8
AM_6
100
AcDbText
 10
1.751672916644567
 20
-2.281249999999999
 30
0.0
 40
0.5
  1
405016
100
AcDbAttributeDefinition
  3

  2
MN
 70
     8
280
     0
  0
ATTDEF
  5
9B
330
91
100
AcDbEntity
  8
AM_6
100
AcDbText
 10
1.751672916644567
 20
-2.781249999999999
 30
0.0
 40
0.5
  1
7/16 HEX
100
AcDbAttributeDefinition
  3

  2
H
 70
     8
280
     0
  0
ATTDEF
  5
9C
330
91
100
AcDbEntity
  8
AM_6
100
AcDbText
 10
1.751672916644567
 20
-3.281249999999999
 30
0.0
 40
0.5
  1
0.383
100
AcDbAttributeDefinition
  3

  2
NDR
 70
     8
280
     0
  0
ATTDEF
  5
9D
330
91
100
AcDbEntity
  8
AM_6
100
AcDbText
 10
1.751672916644567
 20
-3.781249999999999
 30
0.0
 40
0.5
  1
0.337
100
AcDbAttributeDefinition
  3

  2
KDR
 70
     8
280
     0
  0
ATTDEF
  5
9E
330
91
100
AcDbEntity
  8
AM_6
100
AcDbText
 10
1.751672916644567
 20
-4.281249999999998
 30
0.0
 40
0.5
  1
0.1575
100
AcDbAttributeDefinition
  3

  2
BZE
 70
     8
280
     0
  0
ATTDEF
  5
9F
330
91
100
AcDbEntity
  8
AM_6
100
AcDbText
 10
1.751672916644567
 20
-4.781249999999998
 30
0.0
 40
0.5
  1
0.4375
100
AcDbAttributeDefinition
  3

  2
HEX
 70
     8
280
     0
  0
ATTDEF
  5
A0
330
91
100
AcDbEntity
  8
AM_6
100
AcDbText
 10
1.751672916644567
 20
-5.281249999999998
 30
0.0
 40
0.5
  1
0.281250
100
AcDbAttributeDefinition
  3

  2
HEX2
 70
     8
280
     0
  0
ATTDEF
  5
A1
330
91
100
AcDbEntity
  8
AM_6
100
AcDbText
 10
1.751672916644567
 20
-5.781249999999998
 30
0.0
 40
0.5
  1
baldor
100
AcDbAttributeDefinition
  3

  2
COMPANY
 70
     8
280
     0
  0
LWPOLYLINE
  5
A4
330
91
100
AcDbEntity
  8
AM_9
100
AcDbPolyline
 90
        3
 70
     0
 43
0.0
 10
-3.605896855008189
 20
0.1093749999999999
 10
-3.591849981276769
 20
0.0546874999999999
 10
-3.573833983550404
 20
-0.0000000000000001
  0
LWPOLYLINE
  5
A5
330
91
100
AcDbEntity
  8
AM_9
100
AcDbPolyline
 90
        3
 70
     0
 43
0.0
 10
-3.573833983550404
 20
-0.0000000000000001
 10
-3.591777195911237
 20
-0.0544416102741497
 10
-3.605896855008189
 20
-0.109375
  0
LINE
  5
A6
330
91
100
AcDbEntity
  8
AM_9
100
AcDbLine
 10
-3.981769506395719
 20
-0.151074129835757
 30
0.0
 11
-3.993890605679415
 21
-0.1791093260592887
 31
0.0
  0
LINE
  5
A7
330
91
100
AcDbEntity
  8
AM_9
100
AcDbLine
 10
-3.832966216895366
 20
-0.2099962668917054
 30
0.0
 11
-3.845478812890537
 21
-0.2389369657326277
 31
0.0
  0
LWPOLYLINE
  5
A8
330
91
100
AcDbEntity
  8
AM_9
100
AcDbPolyline
 90
        3
 70
     0
 43
0.0
 10
-3.497930262170477
 20
-0.0000000000000001
 10
-3.503536227554031
 20
0.0544416102741495
 10
-3.51317846955151
 20
0.1093749999999999
  0
LWPOLYLINE
  5
A9
330
91
100
AcDbEntity
  8
AM_9
100
AcDbPolyline
 90
        3
 70
     0
 43
0.0
 10
-3.51317846955151
 20
-0.1093750000000001
 10
-3.50356980386352
 20
-0.0546875000000001
 10
-3.497930262170477
 20
-0.0000000000000001
  0
LWPOLYLINE
  5
AA
330
91
100
AcDbEntity
  8
AM_9
100
AcDbPolyline
 90
        3
 70
     0
 43
0.0
 10
-3.757896831351084
 20
-0.2987675689889718
 10
-3.777540421514213
 20
-0.2912216284034025
 10
-3.796492984356715
 20
-0.2813919000363599
  0
LWPOLYLINE
  5
AB
330
91
100
AcDbEntity
  8
AM_9
100
AcDbPolyline
 90
        3
 70
     0
 43
0.0
 10
-3.605896855008189
 20
-0.109375
 10
-3.615505520696179
 20
-0.1640625000000001
 10
-3.621145062389223
 20
-0.2187500000000001
  0
LINE
  5
AC
330
91
100
AcDbEntity
  8
AM_9
100
AcDbLine
 10
-3.573833983550404
 20
-0.0000000000000001
 30
0.0
 11
-3.497930262170477
 21
-0.0000000000000001
 31
0.0
  0
LWPOLYLINE
  5
AD
330
91
100
AcDbEntity
  8
AM_9
100
AcDbPolyline
 90
        3
 70
     0
 43
0.0
 10
-3.621145062389223
 20
0.2187499999999999
 10
-3.615539097005668
 20
0.1643083897258503
 10
-3.605896855008189
 20
0.1093749999999999
  0
LWPOLYLINE
  5
AE
330
91
100
AcDbEntity
  8
AM_9
100
AcDbPolyline
 90
        3
 70
     0
 43
0.0
 10
-3.776900742910161
 20
-0.2360765106845278
 10
-3.765244107462993
 20
-0.2462091938631852
 10
-3.758731714925697
 20
-0.252796981496867
  0
LINE
  5
AF
330
91
100
AcDbEntity
  8
AM_9
100
AcDbLine
 10
-3.538691092305828
 20
0.2000413016192555
 30
0.0
 11
-3.545241341009295
 21
0.2187499999999999
 31
0.0
  0
LWPOLYLINE
  5
B0
330
91
100
AcDbEntity
  8
AM_9
100
AcDbPolyline
 90
        3
 70
     0
 43
0.0
 10
-3.51317846955151
 20
0.1093749999999999
 10
-3.527225343282929
 20
0.1640624999999999
 10
-3.538691092305828
 20
0.2000413016192555
  0
LWPOLYLINE
  5
B1
330
91
100
AcDbEntity
  8
AM_9
100
AcDbPolyline
 90
        3
 70
     0
 43
0.0
 10
-3.538690989615467
 20
-0.2000409996967265
 10
-3.527298128648462
 20
-0.1643083897258505
 10
-3.51317846955151
 20
-0.1093750000000001
  0
LINE
  5
B2
330
91
100
AcDbEntity
  8
AM_9
100
AcDbLine
 10
-3.545241341009295
 20
-0.2187500000000001
 30
0.0
 11
-3.538690989615467
 21
-0.2000409996967265
 31
0.0
  0
ELLIPSE
  5
B3
330
91
100
AcDbEntity
  8
AM_9
100
AcDbEllipse
 10
-4.00424085196041
 20
-0.4687500000000002
 30
0.0
 11
-0.09498502069410987
 21
0.04106705218388592
 31
0.0
210
0.0
220
0.0
230
1.0
 40
0.1583155873460457
 41
3.066756133314191
 42
6.358021827455172
  0
ELLIPSE
  5
B4
330
91
100
AcDbEntity
  8
AM_9
100
AcDbEllipse
 10
-3.974270285847359
 20
-0.3994303217889761
 30
0.0
 11
-0.127722180120792
 21
0.0552210590441607
 31
0.0
210
0.0
220
0.0
230
1.0
 40
0.1583155873460382
 41
3.06278217765808
 42
5.932176524882772
  0
ELLIPSE
  5
B5
330
91
100
AcDbEntity
  8
AM_9
100
AcDbEllipse
 10
-3.962841440422859
 20
-0.3729962569745955
 30
0.0
 11
-0.1222564956648115
 21
0.05285795434472675
 31
0.0
210
0.0
220
0.0
230
1.0
 40
0.1583155873459599
 41
3.320680975489386
 42
6.078898840795151
  0
LINE
  5
B6
330
91
100
AcDbEntity
  8
AM_9
100
AcDbLine
 10
-3.972558881322383
 20
-0.1182889283861136
 30
0.0
 11
-3.973205314501104
 21
-0.1197840799880168
 31
0.0
  0
LINE
  5
B7
330
91
100
AcDbEntity
  8
AM_9
100
AcDbLine
 10
-3.768205100319894
 20
-0.2
 30
0.0
 11
-3.766640359495548
 21
-0.1963808714851039
 31
0.0
  0
ELLIPSE
  5
B8
330
91
100
AcDbEntity
  8
AM_9
100
AcDbEllipse
 10
-3.888646627425737
 20
-0.2013892028242015
 30
0.0
 11
-0.1009671980072553
 21
0.0436534640843912
 31
0.0
210
0.0
220
0.0
230
1.0
 40
0.1583155873460453
 41
3.141592653589793
 42
6.283185307179586
  0
LWPOLYLINE
  5
B9
330
91
100
AcDbEntity
  8
AM_9
100
AcDbPolyline
 90
        3
 70
     0
 43
0.0
 10
-3.972561792090888
 20
-0.1182956618802584
 10
-3.972258026062198
 20
-0.1208367673933812
 10
-3.971375580606939
 20
-0.1221923783277444
  0
LWPOLYLINE
  5
BA
330
91
100
AcDbEntity
  8
AM_9
100
AcDbPolyline
 90
        4
 70
     0
 43
0.0
 10
-3.766645592679474
 20
-0.1963929740740921
 10
-3.767094913957996
 20
-0.1971856748420371
 10
-3.770623050056099
 20
-0.1994144431868155
 10
-3.775513539135975
 20
-0.1999999999699529
  0
LWPOLYLINE
  5
BB
330
91
100
AcDbEntity
  8
AM_9
100
AcDbPolyline
 90
        5
 70
     0
 43
0.0
 10
-3.993890605679415
 20
-0.1791093260592887
 10
-4.010937958910315
 20
-0.1842540823997054
 10
-4.026849017406447
 20
-0.1862220679364951
 10
-4.041536687389894
 20
-0.1844124966919382
 10
-4.054719135615039
 20
-0.1791093260592887
  0
LWPOLYLINE
  5
BC
330
91
100
AcDbEntity
  8
AM_9
100
AcDbPolyline
 90
        3
 70
     0
 43
0.0
 10
-3.922657327526587
 20
-0.2162150840763211
 10
-3.95843788248183
 20
-0.1996402057054678
 10
-3.993890605679415
 20
-0.1791093260592887
  0
LWPOLYLINE
  5
BD
330
91
100
AcDbEntity
  8
AM_9
100
AcDbPolyline
 90
        4
 70
     0
 43
0.0
 10
-3.870895615617731
 20
-0.2330731529818577
 10
-3.883883504738058
 20
-0.2295338871417796
 10
-3.921481041450776
 20
-0.2166871171046321
 10
-3.922657327526587
 20
-0.2162150840763211
  0
LINE
  5
BE
330
91
100
AcDbEntity
  8
AM_9
100
AcDbLine
 10
-3.845478812890537
 20
-0.2389369657326277
 30
0.0
 11
-3.870895615617731
 21
-0.2330731529818577
 31
0.0
  0
LWPOLYLINE
  5
BF
330
91
100
AcDbEntity
  8
AM_9
100
AcDbPolyline
 90
        3
 70
     0
 43
0.0
 10
-3.811611272579302
 20
-0.2711532636537957
 10
-3.829068571660936
 20
-0.2561815527589921
 10
-3.845478812890537
 20
-0.2389369657326277
  0
LINE
  5
C0
330
91
100
AcDbEntity
  8
AM_9
100
AcDbLine
 10
-3.840394244277602
 20
-0.2049327579747323
 30
0.0
 11
-3.832966216895366
 21
-0.2099962668917054
 31
0.0
  0
LWPOLYLINE
  5
C1
330
91
100
AcDbEntity
  8
AM_9
100
AcDbPolyline
 90
        6
 70
     0
 43
0.0
 10
-3.981769506395719
 20
-0.151074129835757
 10
-3.952841317297863
 20
-0.1564222384464443
 10
-3.924309624057221
 20
-0.1639940363880805
 10
-3.896047776152465
 20
-0.1744063212866123
 10
-3.868768667013538
 20
-0.1876759562813858
 10
-3.840394244277602
 20
-0.2049327579747323
  0
LWPOLYLINE
  5
C2
330
91
100
AcDbEntity
  8
AM_9
100
AcDbPolyline
 90
        3
 70
     0
 43
0.0
 10
-3.832966216895366
 20
-0.2099962668917054
 10
-3.812075458620205
 20
-0.2163479371246913
 10
-3.79201903113275
 20
-0.2258378743019629
  0
LWPOLYLINE
  5
C3
330
91
100
AcDbEntity
  8
AM_9
100
AcDbPolyline
 90
        4
 70
     0
 43
0.0
 10
-4.008240463100686
 20
-0.141958509815605
 10
-4.005349002211092
 20
-0.1420496512545706
 10
-3.994762803638296
 20
-0.1441228263802215
 10
-3.981769506395719
 20
-0.1510741298357571
  0
ELLIPSE
  5
C4
330
91
100
AcDbEntity
  8
AM_9
100
AcDbEllipse
 10
-3.888646627425749
 20
-0.201389202824188
 30
0.0
 11
-0.1290773838160786
 21
0.05580698533514238
 31
0.0
210
0.0
220
0.0
230
1.0
 40
0.1583155873460361
 41
3.937411257393414
 42
5.6106138257993
  0
LINE
  5
C5
330
91
100
AcDbEntity
  8
AM_9
100
AcDbLine
 10
-3.796492984356715
 20
-0.2813919000363599
 30
0.0
 11
-3.811611272579302
 21
-0.2711532636537957
 31
0.0
  0
ELLIPSE
  5
C6
330
91
100
AcDbEntity
  8
AM_9
100
AcDbEllipse
 10
-3.908238868872294
 20
-0.2467045921760255
 30
0.0
 11
-0.1290773838160711
 21
0.05580698533513717
 31
0.0
210
0.0
220
0.0
230
1.0
 40
0.1583155873460384
 41
2.931540131874916
 42
3.738151587585734
  0
LWPOLYLINE
  5
C7
330
91
100
AcDbEntity
  8
AM_9
100
AcDbPolyline
 90
        3
 70
     0
 43
0.0
 10
-4.035629059072599
 20
-0.1975252512440517
 10
-4.034270090448564
 20
-0.1998815732471156
 10
-4.032477110707797
 20
-0.2033610246269091
  0
ELLIPSE
  5
C8
330
91
100
AcDbEntity
  8
AM_9
100
AcDbEllipse
 10
-3.9082388688723
 20
-0.2467045921760202
 30
0.0
 11
-0.1290773838160754
 21
0.05580698533514149
 31
0.0
210
0.0
220
0.0
230
1.0
 40
0.1583155873460345
 41
3.9374112573934
 42
6.739367744568749
  0
LINE
  5
C9
330
91
100
AcDbEntity
  8
AM_9
100
AcDbLine
 10
-3.79201903113275
 20
-0.2258378743019629
 30
0.0
 11
-3.782239633670264
 21
-0.2324608261325394
 31
0.0
  0
LWPOLYLINE
  5
CA
330
91
100
AcDbEntity
  8
AM_9
100
AcDbPolyline
 90
       17
 70
     0
 43
0.0
 10
-3.779651844322862
 20
-0.1790373738501779
 10
-3.789700906245693
 20
-0.1733931390117467
 10
-3.802321323292706
 20
-0.1670729780242511
 10
-3.816455458648327
 20
-0.1606047421316796
 10
-3.832506254127524
 20
-0.1538031670974777
 10
-3.849140910972924
 20
-0.1472336073736393
 10
-3.866826947463034
 20
-0.1407130262602577
 10
-3.884072329384852
 20
-0.1347930597680667
 10
-3.901381417574638
 20
-0.1293028157827817
 10
-3.917271673980756
 20
-0.1247141396218193
 10
-3.932229958310633
 20
-0.1208880884981781
 10
-3.944969630569981
 20
-0.1181545989145989
 10
-3.955891057794219
 20
-0.1164278875396128
 10
-3.964061542402878
 20
-0.1158549073091554
 10
-3.969737704489043
 20
-0.1164156227038168
 10
-3.972441856249224
 20
-0.1180609686233502
 10
-3.972561792090888
 20
-0.1182956618802584
  0
LWPOLYLINE
  5
CB
330
91
100
AcDbEntity
  8
AM_9
100
AcDbPolyline
 90
        5
 70
     0
 43
0.0
 10
-3.779651844322862
 20
-0.1790373738501784
 10
-3.772519366138636
 20
-0.1842628795203941
 10
-3.768197326650944
 20
-0.1891729979031394
 10
-3.766338964935152
 20
-0.1936098952159724
 10
-3.766645592679474
 20
-0.1963929740740921
  0
LINE
  5
CC
330
91
100
AcDbEntity
  8
AM_9
100
AcDbLine
 10
-3.676863473266417
 20
0.1999999999999998
 30
0.0
 11
-3.721944133573042
 21
0.1999999999999998
 31
0.0
  0
LINE
  5
CD
330
91
100
AcDbEntity
  8
AM_9
100
AcDbLine
 10
-3.721946964385065
 20
-0.2
 30
0.0
 11
-3.676863473266417
 21
-0.2
 31
0.0
  0
LINE
  5
CE
330
91
100
AcDbEntity
  8
AM_9
100
AcDbLine
 10
-3.511708849171708
 20
0.1999999999999998
 30
0.0
 11
-3.584145087809738
 21
0.1999999999999998
 31
0.0
  0
LINE
  5
CF
330
91
100
AcDbEntity
  8
AM_9
100
AcDbLine
 10
-3.584145087809738
 20
-0.2
 30
0.0
 11
-3.511708849171708
 21
-0.2
 31
0.0
  0
LINE
  5
D0
330
91
100
AcDbEntity
  8
AM_9
100
AcDbLine
 10
-3.6875
 20
-0.2187500000000001
 30
0.0
 11
-3.545241341009295
 21
-0.2187500000000001
 31
0.0
  0
LINE
  5
D1
330
91
100
AcDbEntity
  8
AM_9
100
AcDbLine
 10
-3.666657928159158
 20
-0.0633109072695255
 30
0.0
 11
-3.655111706067966
 21
-0.109375
 31
0.0
  0
LWPOLYLINE
  5
D2
330
91
100
AcDbEntity
  8
AM_9
100
AcDbPolyline
 90
        3
 70
     0
 43
0.0
 10
-3.687174577525751
 20
-0.0000000000000001
 10
-3.669231365164917
 20
-0.0544416102741497
 10
-3.666657928159158
 20
-0.0633109072695255
  0
LINE
  5
D3
330
91
100
AcDbEntity
  8
AM_9
100
AcDbLine
 10
-3.6875
 20
0.2187499999999999
 30
0.0
 11
-3.545241341009295
 21
0.2187499999999999
 31
0.0
  0
LWPOLYLINE
  5
D4
330
91
100
AcDbEntity
  8
AM_9
100
AcDbPolyline
 90
        3
 70
     0
 43
0.0
 10
-3.666760475675241
 20
0.0629502170349178
 10
-3.669158579799385
 20
0.0546874999999999
 10
-3.687174577525751
 20
-0.0000000000000001
  0
LINE
  5
D5
330
91
100
AcDbEntity
  8
AM_9
100
AcDbLine
 10
-3.655111706067966
 20
0.1093749999999999
 30
0.0
 11
-3.666760475675241
 21
0.0629502170349178
 31
0.0
  0
LINE
  5
D6
330
91
100
AcDbEntity
  8
AM_9
100
AcDbLine
 10
-3.330034287986061
 20
0.1854025098511931
 30
0.0
 11
-3.510803010301146
 21
0.191495967186768
 31
0.0
  0
LINE
  5
D7
330
91
100
AcDbEntity
  8
AM_9
100
AcDbLine
 10
-3.510803010301146
 20
-0.1914959671867681
 30
0.0
 11
-3.330034287986061
 21
-0.1854025098511933
 31
0.0
  0
LINE
  5
D8
330
91
100
AcDbEntity
  8
AM_9
100
AcDbLine
 10
-3.284419432498405
 20
0.1478814731883059
 30
0.0
 11
-3.302848231178149
 21
0.1696099849128764
 31
0.0
  0
LINE
  5
D9
330
91
100
AcDbEntity
  8
AM_9
100
AcDbLine
 10
-3.302848231178149
 20
-0.1696099849128767
 30
0.0
 11
-3.284419432498405
 21
-0.147881473188306
 31
0.0
  0
ELLIPSE
  5
DA
330
91
100
AcDbEntity
  8
AM_9
100
AcDbEllipse
 10
-3.676863473266417
 20
0.0
 30
0.0
 11
1.339457436567426E-17
 21
0.2187500000000014
 31
0.0
210
0.0
220
0.0
230
1.0
 40
0.3746065934159085
 41
0.0
 42
6.283185307179586
  0
ELLIPSE
  5
DB
330
91
100
AcDbEntity
  8
AM_9
100
AcDbEllipse
 10
-3.676863473266417
 20
-0.0000000000000004
 30
0.0
 11
1.224646799147351E-17
 21
0.1999999999999997
 31
0.0
210
0.0
220
0.0
230
1.0
 40
0.3746065934159122
 41
0.0
 42
6.283185307179586
  0
ELLIPSE
  5
DC
330
91
100
AcDbEntity
  8
AM_9
100
AcDbEllipse
 10
-3.584145087809738
 20
-0.0000000000000002
 30
0.0
 11
1.339457436567418E-17
 21
0.2187500000000001
 31
0.0
210
0.0
220
0.0
230
1.0
 40
0.3746065934159128
 41
0.0
 42
6.283185307179586
  0
ELLIPSE
  5
DD
330
91
100
AcDbEntity
  8
AM_9
100
AcDbEllipse
 10
-3.584145087809738
 20
-0.0000000000000006
 30
0.0
 11
1.224646799147350E-17
 21
0.1999999999999995
 31
0.0
210
0.0
220
0.0
230
1.0
 40
0.3746065934159124
 41
0.0
 42
6.283185307179586
  0
ELLIPSE
  5
DE
330
91
100
AcDbEntity
  8
AM_9
100
AcDbEllipse
 10
-3.511708849171709
 20
0.0
 30
0.0
 11
1.224646799147352E-17
 21
0.1999999999999999
 31
0.0
210
0.0
220
0.0
230
1.0
 40
0.3746065934159184
 41
0.0
 42
6.283185307179586
  0
ELLIPSE
  5
DF
330
91
100
AcDbEntity
  8
AM_9
100
AcDbEllipse
 10
-3.511708849171708
 20
-0.0000000000000004
 30
0.0
 11
1.172668097677220E-17
 21
0.1915112338502297
 31
0.0
210
0.0
220
0.0
230
1.0
 40
0.3746065934159097
 41
0.0
 42
6.283185307179586
  0
ELLIPSE
  5
E0
330
91
100
AcDbEntity
  8
AM_9
100
AcDbEllipse
 10
-3.330911302800474
 20
-0.0000000000000012
 30
0.0
 11
1.135353457964631E-17
 21
0.1854172907249842
 31
0.0
210
0.0
220
0.0
230
1.0
 40
0.3746065934159188
 41
0.0
 42
6.283185307179586
  0
ELLIPSE
  5
E1
330
91
100
AcDbEntity
  8
AM_9
100
AcDbEllipse
 10
-3.308887380985224
 20
-0.0000000000000001
 30
0.0
 11
9.899048221688855E-18
 21
0.1616637258772237
 31
0.0
210
0.0
220
0.0
230
1.0
 40
0.3746065934159159
 41
0.0
 42
6.283185307179586
  0
LINE
  5
E3
330
91
100
AcDbEntity
  8
AM_4
100
AcDbLine
 10
-3.758701941607884
 20
-0.2528286444668461
 30
0.0
 11
-3.764401653369578
 21
-0.2467669665417466
 31
0.0
  0
LWPOLYLINE
  5
E4
330
91
100
AcDbEntity
  8
AM_4
100
AcDbPolyline
 90
        3
 70
     0
 43
0.0
 10
-3.758731714925697
 20
-0.252796981496867
 10
-3.754846581988392
 20
-0.2570505402207574
 10
-3.744989815750142
 20
-0.2689146070947222
  0
ELLIPSE
  5
E5
330
91
100
AcDbEntity
  8
AM_4
100
AcDbEllipse
 10
-3.888646627425758
 20
-0.2013892028241814
 30
0.0
 11
-0.1290773838160879
 21
0.05580698533514944
 31
0.0
210
0.0
220
0.0
230
1.0
 40
0.1583155873460358
 41
2.931540131874982
 42
3.738151587585663
  0
LWPOLYLINE
  5
E6
330
91
100
AcDbEntity
  8
AM_4
100
AcDbPolyline
 90
        3
 70
     0
 43
0.0
 10
-3.744989815750142
 20
-0.2689146070947223
 10
-3.754014742030629
 20
-0.2634308483997529
 10
-3.764248590226236
 20
-0.2602304684431306
  0
LWPOLYLINE
  5
E7
330
91
100
AcDbEntity
  8
AM_4
100
AcDbPolyline
 90
        3
 70
     0
 43
0.0
 10
-3.783840831672789
 20
-0.3055458577949631
 10
-3.77124659798495
 20
-0.3030753670497809
 10
-3.757896831351084
 20
-0.2987675689889718
  0
LINE
  5
E8
330
91
100
AcDbEntity
  8
AM_4
100
AcDbLine
 10
-3.744989815750142
 20
-0.2689146070947223
 30
0.0
 11
-3.757896831351084
 21
-0.2987675689889718
 31
0.0
  0
LINE
  5
E9
330
91
100
AcDbEntity
  8
AM_4
100
AcDbLine
 10
-3.91000778886755
 20
-0.5108264199512539
 30
0.0
 11
-3.84755923004373
 21
-0.456008633280415
 31
0.0
  0
LINE
  5
EA
330
91
100
AcDbEntity
  8
AM_4
100
AcDbLine
 10
-4.102288615385191
 20
-0.3458756366863984
 30
0.0
 11
-4.099446114420511
 21
-0.4289222044837946
 31
0.0
  0
ELLIPSE
  5
EB
330
91
100
AcDbEntity
  8
AM_4
100
AcDbEllipse
 10
-4.00424085196041
 20
-0.4687500000000001
 30
0.0
 11
-0.09498502069410984
 21
0.04106705218388612
 31
0.0
210
0.0
220
0.0
230
1.0
 40
0.1583155873460221
 41
0.0748365202755918
 42
3.066756133314186
  0
LWPOLYLINE
  5
EC
330
91
100
AcDbEntity
  8
AM_4
100
AcDbPolyline
 90
        7
 70
     0
 43
0.0
 10
-4.079339067139407
 20
-0.3168812159685608
 10
-4.081611327010902
 20
-0.3175229288470064
 10
-4.088690533710194
 20
-0.3207442414173197
 10
-4.095212496489244
 20
-0.3261954332215913
 10
-4.100034328785638
 20
-0.3337782834242269
 10
-4.102240694685111
 20
-0.3429632801392293
 10
-4.102249944884749
 20
-0.3466790504775511
  0
LWPOLYLINE
  5
ED
330
91
100
AcDbEntity
  8
AM_4
100
AcDbPolyline
 90
        7
 70
     0
 43
0.0
 10
-3.848066292487762
 20
-0.4564434869243454
 10
-3.845092301731963
 20
-0.4535637753399917
 10
-3.840253393307969
 20
-0.4459944236482518
 10
-3.838023804398227
 20
-0.4368041460509127
 10
-3.838591670399738
 20
-0.4287604382722062
 10
-3.840872145245989
 20
-0.4219389986861179
 10
-3.841428209304838
 20
-0.4207914831226893
  0
ELLIPSE
  5
EE
330
91
100
AcDbEntity
  8
AM_4
100
AcDbEllipse
 10
-3.97427028584736
 20
-0.399430321788976
 30
0.0
 11
-0.1277221801207924
 21
0.05522105904416089
 31
0.0
210
0.0
220
0.0
230
1.0
 40
0.1583155873460345
 41
0.0798262322359067
 42
3.062782177658079
  0
LWPOLYLINE
  5
EF
330
91
100
AcDbEntity
  8
AM_4
100
AcDbPolyline
 90
        3
 70
     0
 43
0.0
 10
-3.818725361286707
 20
-0.2987675689889718
 10
-3.80914327492813
 20
-0.3030606061861223
 10
-3.798642587042102
 20
-0.3055458577949631
  0
LINE
  5
F0
330
91
100
AcDbEntity
  8
AM_4
100
AcDbLine
 10
-4.042598036331342
 20
-0.151074129835757
 30
0.0
 11
-4.054719135615039
 21
-0.1791093260592887
 31
0.0
  0
LWPOLYLINE
  5
F1
330
91
100
AcDbEntity
  8
AM_4
100
AcDbPolyline
 90
        4
 70
     0
 43
0.0
 10
-3.779050345595547
 20
-0.2602304684431209
 10
-3.786169158755285
 20
-0.2616913382589204
 10
-3.795778348863434
 20
-0.2647402074337707
 10
-3.805818345685765
 20
-0.2689146070947223
  0
LINE
  5
F2
330
91
100
AcDbEntity
  8
AM_4
100
AcDbLine
 10
-3.973205314501104
 20
-0.1197840799880168
 30
0.0
 11
-3.989613825432992
 21
-0.1577357387398102
 31
0.0
  0
LINE
  5
F3
330
91
100
AcDbEntity
  8
AM_4
100
AcDbLine
 10
-3.787679429418505
 20
-0.245042666908566
 30
0.0
 11
-3.768205100319894
 21
-0.2
 31
0.0
  0
ELLIPSE
  5
F4
330
91
100
AcDbEntity
  8
AM_4
100
AcDbEllipse
 10
-3.888646627425748
 20
-0.2013892028241881
 30
0.0
 11
-0.1009671980072437
 21
0.04365346408437799
 31
0.0
210
0.0
220
0.0
230
1.0
 40
0.1583155873460377
 41
0.0
 42
3.141592653589793
  0
LWPOLYLINE
  5
F5
330
91
100
AcDbEntity
  8
AM_4
100
AcDbPolyline
 90
        3
 70
     0
 43
0.0
 10
-4.054719135615039
 20
-0.1791093260592887
 10
-4.035613245420056
 20
-0.1988355121406939
 10
-4.031478947664111
 20
-0.2025620431642225
  0
LINE
  5
F6
330
91
100
AcDbEntity
  8
AM_4
100
AcDbLine
 10
-4.031535072722456
 20
-0.2025128028333112
 30
0.0
 11
-4.028008979754069
 21
-0.2056064806068165
 31
0.0
  0
LWPOLYLINE
  5
F7
330
91
100
AcDbEntity
  8
AM_4
100
AcDbPolyline
 90
        4
 70
     0
 43
0.0
 10
-4.031478947664111
 20
-0.2025620431642225
 10
-4.014794182633999
 20
-0.2156330920108725
 10
-3.991735776455316
 20
-0.2290462109660021
 10
-3.967135872761786
 20
-0.2389369657326276
  0
LWPOLYLINE
  5
F8
330
91
100
AcDbEntity
  8
AM_4
100
AcDbPolyline
 90
        4
 70
     0
 43
0.0
 10
-4.042598036331342
 20
-0.151074129835757
 10
-4.029474773895068
 20
-0.145877822676052
 10
-4.017035772268131
 20
-0.1427138007556462
 10
-4.008240463100686
 20
-0.141958509815605
  0
LWPOLYLINE
  5
F9
330
91
100
AcDbEntity
  8
AM_4
100
AcDbPolyline
 90
        7
 70
     0
 43
0.0
 10
-3.954623276766614
 20
-0.2099962668917054
 10
-3.96797341657984
 20
-0.1943573015029059
 10
-3.982472407897693
 20
-0.1805491420332304
 10
-3.998507642169137
 20
-0.1688997677199809
 10
-4.015825392904473
 20
-0.1598729403210871
 10
-4.029016670329386
 20
-0.1549033058439656
 10
-4.042598036331342
 20
-0.151074129835757
  0
LINE
  5
FA
330
91
100
AcDbEntity
  8
AM_4
100
AcDbLine
 10
-4.006815776280074
 20
-0.1419585097669024
 30
0.0
 11
-4.008355837711887
 21
-0.1419585097669024
 31
0.0
  0
ELLIPSE
  5
FB
330
91
100
AcDbEntity
  8
AM_4
100
AcDbEllipse
 10
-3.888646627425754
 20
-0.2013892028241875
 30
0.0
 11
-0.1290773838160711
 21
0.0558069853351419
 31
0.0
210
0.0
220
0.0
230
1.0
 40
0.1583155873460412
 41
5.610613825799319
 42
7.926941792372141
  0
ELLIPSE
  5
FC
330
91
100
AcDbEntity
  8
AM_4
100
AcDbEllipse
 10
-3.908238868872301
 20
-0.2467045921760203
 30
0.0
 11
-0.1290773838160781
 21
0.05580698533514203
 31
0.0
210
0.0
220
0.0
230
1.0
 40
0.1583155873460414
 41
0.4561824373891152
 42
1.643756485192516
  0
LWPOLYLINE
  5
FD
330
91
100
AcDbEntity
  8
AM_4
100
AcDbPolyline
 90
        3
 70
     0
 43
0.0
 10
-3.798642587042102
 20
-0.3055458577949631
 10
-3.791683200131577
 20
-0.3064767622622302
 10
-3.783840831672789
 20
-0.3055458577949631
  0
ELLIPSE
  5
FE
330
91
100
AcDbEntity
  8
AM_4
100
AcDbEllipse
 10
-3.908238868872301
 20
-0.2467045921760201
 30
0.0
 11
-0.1290773838160781
 21
0.05580698533514265
 31
0.0
210
0.0
220
0.0
230
1.0
 40
0.1583155873460419
 41
1.843016155000213
 42
2.64962761071098
  0
LWPOLYLINE
  5
FF
330
91
100
AcDbEntity
  8
AM_4
100
AcDbPolyline
 90
       13
 70
     0
 43
0.0
 10
-3.841127193232476
 20
-0.4213980431630808
 10
-3.844709444129442
 20
-0.4123989616413681
 10
-3.847738097121623
 20
-0.3996886175711126
 10
-3.848678557513567
 20
-0.3851639227859669
 10
-3.846925065871009
 20
-0.3699248544183104
 10
-3.842309542729374
 20
-0.3549288779557788
 10
-3.83447023624001
 20
-0.3402243869937165
 10
-3.824765412683181
 20
-0.3282234102900965
 10
-3.814066405275497
 20
-0.3189570689144195
 10
-3.803244262329302
 20
-0.3123218548123113
 10
-3.793274186324924
 20
-0.3080897452602058
 10
-3.78504691564636
 20
-0.3058013792106287
 10
-3.784465797961675
 20
-0.3056802982371294
  0
LWPOLYLINE
  5
100
330
91
100
AcDbEntity
  8
AM_4
100
AcDbPolyline
 90
       12
 70
     0
 43
0.0
 10
-4.032477110707797
 20
-0.2033610246269091
 10
-4.030119439026508
 20
-0.208802144020966
 10
-4.026585311694232
 20
-0.2206045667568768
 10
-4.024797331279927
 20
-0.2346076193253806
 10
-4.025543648788472
 20
-0.2497085174368711
 10
-4.029132636608548
 20
-0.2648923870499062
 10
-4.036168582825399
 20
-0.2804292644817614
 10
-4.045374743576775
 20
-0.2933272010786903
 10
-4.055843122389758
 20
-0.3034697392525167
 10
-4.066727555424921
 20
-0.3109392869639476
 10
-4.077082584539993
 20
-0.3159110212195494
 10
-4.08089235951635
 20
-0.3172888002725098
  0
ELLIPSE
  5
101
330
91
100
AcDbEntity
  8
AM_4
100
AcDbEllipse
 10
-3.962841440422801
 20
-0.3729962569746641
 30
0.0
 11
-0.1222564956648755
 21
0.05285795434479287
 31
0.0
210
0.0
220
0.0
230
1.0
 40
0.158315587346034
 41
6.106751790806594
 42
9.603866282672474
  0
ELLIPSE
  5
102
330
91
100
AcDbEntity
  8
AM_4
100
AcDbEllipse
 10
-3.888646627425751
 20
-0.201389202824186
 30
0.0
 11
-0.1290773838160884
 21
0.05580698533513105
 31
0.0
210
0.0
220
0.0
230
1.0
 40
0.1583155873460667
 41
1.843016155000205
 42
2.649627610710902
  0
LINE
  5
103
330
91
100
AcDbEntity
  8
AM_4
100
AcDbLine
 10
-3.764248590226236
 20
-0.2602304684431306
 30
0.0
 11
-3.779050345595547
 21
-0.2602304684431209
 31
0.0
  0
LINE
  5
104
330
91
100
AcDbEntity
  8
AM_4
100
AcDbLine
 10
-3.782239633670264
 20
-0.2324608261325394
 30
0.0
 11
-3.776900742910162
 21
-0.2360765106845277
 31
0.0
  0
LWPOLYLINE
  5
105
330
91
100
AcDbEntity
  8
AM_4
100
AcDbPolyline
 90
        3
 70
     0
 43
0.0
 10
-3.805818345685765
 20
-0.2689146070947223
 10
-3.833238612512824
 20
-0.251275593729576
 10
-3.862451342655182
 20
-0.2360765106845275
  0
LINE
  5
106
330
91
100
AcDbEntity
  8
AM_4
100
AcDbLine
 10
-3.862451342655182
 20
-0.2360765106845275
 30
0.0
 11
-3.888049084635721
 21
-0.2258378743019627
 31
0.0
  0
LWPOLYLINE
  5
107
330
91
100
AcDbEntity
  8
AM_4
100
AcDbPolyline
 90
        4
 70
     0
 43
0.0
 10
-3.888049084635721
 20
-0.2258378743019627
 10
-3.910739908729131
 20
-0.2189176876709015
 10
-3.932506643252732
 20
-0.2138633349839128
 10
-3.954623276766614
 20
-0.2099962668917054
  0
LINE
  5
108
330
91
100
AcDbEntity
  8
AM_4
100
AcDbLine
 10
-3.954623276766614
 20
-0.2099962668917054
 30
0.0
 11
-3.967135872761784
 21
-0.2389369657326277
 31
0.0
  0
LWPOLYLINE
  5
109
330
91
100
AcDbEntity
  8
AM_4
100
AcDbPolyline
 90
        3
 70
     0
 43
0.0
 10
-3.967135872761784
 20
-0.2389369657326277
 10
-3.938089959171269
 20
-0.2560939713202353
 10
-3.907641326082273
 20
-0.2711532636537957
  0
LINE
  5
10A
330
91
100
AcDbEntity
  8
AM_4
100
AcDbLine
 10
-3.907641326082273
 20
-0.2711532636537957
 30
0.0
 11
-3.882043584101735
 21
-0.2813919000363599
 31
0.0
  0
LWPOLYLINE
  5
10B
330
91
100
AcDbEntity
  8
AM_4
100
AcDbPolyline
 90
        3
 70
     0
 43
0.0
 10
-3.882043584101735
 20
-0.2813919000363599
 10
-3.850812746844853
 20
-0.2911775952746243
 10
-3.818725361286707
 20
-0.2987675689889718
  0
LINE
  5
10C
330
91
100
AcDbEntity
  8
AM_4
100
AcDbLine
 10
-3.805818345685765
 20
-0.2689146070947223
 30
0.0
 11
-3.818725361286707
 21
-0.2987675689889718
 31
0.0
  0
ARC
  5
10D
330
91
100
AcDbEntity
  8
AM_4
100
AcDbCircle
 10
-3.813043601905913
 20
-0.0000000000000006
 30
0.0
 40
0.2000000000000004
100
AcDbArc
 50
90.0
 51
217.7418813482956
  0
LWPOLYLINE
  5
10E
330
91
100
AcDbEntity
  8
AM_4
100
AcDbPolyline
 90
       11
 70
     0
 43
0.0
 10
-3.971375580606939
 20
-0.1221923783277444
 10
-3.969200440103544
 20
-0.1245107513506023
 10
-3.963182739031978
 20
-0.1291842652280563
 10
-3.954694085205334
 20
-0.134472979061152
 10
-3.943500825971585
 20
-0.1405186270901959
 10
-3.930511110631205
 20
-0.1468270783017121
 10
-3.915374299406046
 20
-0.1535654953592165
 10
-3.899330355125838
 20
-0.1601799433259583
 10
-3.881942084913808
 20
-0.1668493358980661
 10
-3.864386477189419
 20
-0.1731116383367606
 10
-3.846435359488949
 20
-0.1790373738502115
  0
ELLIPSE
  5
10F
330
91
100
AcDbEntity
  8
AM_4
100
AcDbEllipse
 10
-3.813043601905914
 20
-0.0000000000000001
 30
0.0
 11
1.224646799147352E-17
 21
0.1999999999999998
 31
0.0
210
0.0
220
0.0
230
1.0
 40
0.3746065934159074
 41
0.0
 42
2.679646633022831
  0
LINE
  5
110
330
91
100
AcDbEntity
  8
AM_4
100
AcDbLine
 10
-3.721944133573042
 20
0.1999999999999998
 30
0.0
 11
-3.813043601905914
 21
0.1999999999999998
 31
0.0
  0
LINE
  5
111
330
91
100
AcDbEntity
  8
AM_4
100
AcDbLine
 10
-3.775672316970168
 20
-0.2
 30
0.0
 11
-3.721946964385065
 21
-0.2
 31
0.0
  0
LWPOLYLINE
  5
112
330
91
100
AcDbEntity
  8
AM_4
100
AcDbPolyline
 90
        8
 70
     0
 43
0.0
 10
-3.775513539135975
 20
-0.1999999999699529
 10
-3.776636850154973
 20
-0.1999786710855128
 10
-3.785279394107533
 20
-0.1988321115509053
 10
-3.795757656884388
 20
-0.196164942998426
 10
-3.808502581264968
 20
-0.1920694300574958
 10
-3.822713761127136
 20
-0.1870948030566195
 10
-3.838872115941682
 20
-0.181500594761393
 10
-3.846435359488965
 20
-0.1790373738501785
  0
LWPOLYLINE
  5
113
330
91
100
AcDbEntity
  8
AM_4
100
AcDbPolyline
 90
        3
 70
     0
 43
0.0
 10
-3.747830091524645
 20
-0.109375
 10
-3.757438757212635
 20
-0.0546875
 10
-3.763078298905679
 20
-0.0000000000000001
  0
LWPOLYLINE
  5
114
330
91
100
AcDbEntity
  8
AM_4
100
AcDbPolyline
 90
        3
 70
     0
 43
0.0
 10
-3.715767220066859
 20
-0.2187500000000001
 10
-3.733710432427694
 20
-0.1643083897258505
 10
-3.747830091524645
 20
-0.109375
  0
LINE
  5
115
330
91
100
AcDbEntity
  8
AM_4
100
AcDbLine
 10
-3.715767220066859
 20
-0.2187500000000001
 30
0.0
 11
-3.6875
 21
-0.2187500000000001
 31
0.0
  0
LINE
  5
116
330
91
100
AcDbEntity
  8
AM_4
100
AcDbLine
 10
-3.715767220066859
 20
0.2187499999999999
 30
0.0
 11
-3.6875
 21
0.2187499999999999
 31
0.0
  0
LWPOLYLINE
  5
117
330
91
100
AcDbEntity
  8
AM_4
100
AcDbPolyline
 90
        3
 70
     0
 43
0.0
 10
-3.747830091524645
 20
0.1093749999999999
 10
-3.733783217793226
 20
0.1640624999999999
 10
-3.715767220066859
 20
0.2187499999999999
  0
LWPOLYLINE
  5
118
330
91
100
AcDbEntity
  8
AM_4
100
AcDbPolyline
 90
        3
 70
     0
 43
0.0
 10
-3.763078298905679
 20
-0.0000000000000001
 10
-3.757472333522123
 20
0.0544416102741495
 10
-3.747830091524645
 20
0.1093749999999999
  0
LINE
  5
119
330
91
100
AcDbEntity
  8
AM_4
100
AcDbLine
 10
-3.763078298905679
 20
-0.0000000000000001
 30
0.0
 11
-3.6875
 21
-0.0000000000000001
 31
0.0
  0
ENDBLK
  5
94
330
91
100
AcDbEntity
  8
0
100
AcDbBlockEnd
  0
BLOCK
  5
11C
330
11A
100
AcDbEntity
  8
0
100
AcDbBlockBegin
  2
3_ASME_B18_3_1_4_1_0_in_069362_4
 70
     2
 10
0.0
 20
0.0
 30
0.0
  3
3_ASME_B18_3_1_4_1_0_in_069362_4
  1

  0
ATTDEF
  5
11E
330
11A
100
AcDbEntity
  8
AM_6
100
AcDbText
 10
5.125
 20
-2.360333333333333
 30
0.0
 40
0.5
  1
ANSI/ASME B18.3-1998
100
AcDbAttributeDefinition
  3

  2
NN
 70
     8
280
     0
  0
ATTDEF
  5
11F
330
11A
100
AcDbEntity
  8
AM_6
100
AcDbText
 10
5.125
 20
-2.860333333333333
 30
0.0
 40
0.5
  1
Socket Button Head Cap Screws
100
AcDbAttributeDefinition
  3

  2
NT
 70
     8
280
     0
  0
ATTDEF
  5
120
330
11A
100
AcDbEntity
  8
AM_6
100
AcDbText
 10
5.125
 20
-3.360333333333333
 30
0.0
 40
0.5
  1
ASME B18.3-1/4
100
AcDbAttributeDefinition
  3

  2
NB
 70
     8
280
     0
  0
ATTDEF
  5
121
330
11A
100
AcDbEntity
  8
AM_6
100
AcDbText
 10
5.125
 20
-3.860333333333333
 30
0.0
 40
0.5
  1
ASME B18.3-$NS.
100
AcDbAttributeDefinition
  3

  2
NBSYN
 70
     8
280
     0
  0
ATTDEF
  5
122
330
11A
100
AcDbEntity
  8
AM_6
100
AcDbText
 10
5.125
 20
-4.360333333333333
 30
0.0
 40
0.5
  1
ASME B18.3-1/4
100
AcDbAttributeDefinition
  3

  2
LINA
 70
     8
280
     0
  0
ATTDEF
  5
123
330
11A
100
AcDbEntity
  8
AM_6
100
AcDbText
 10
5.125
 20
-4.860333333333333
 30
0.0
 40
0.5
  1
1/4
100
AcDbAttributeDefinition
  3

  2
NS
 70
     8
280
     0
  0
ATTDEF
  5
124
330
11A
100
AcDbEntity
  8
AM_6
100
AcDbText
 10
5.125
 20
-5.360333333333333
 30
0.0
 40
0.5
  1
0.437
100
AcDbAttributeDefinition
  3

  2
A
 70
     8
280
     0
  0
ATTDEF
  5
125
330
11A
100
AcDbEntity
  8
AM_6
100
AcDbText
 10
5.125
 20
-5.860333333333333
 30
0.0
 40
0.5
  1
0.132
100
AcDbAttributeDefinition
  3

  2
H
 70
     8
280
     0
  0
ATTDEF
  5
126
330
11A
100
AcDbEntity
  8
AM_6
100
AcDbText
 10
5.125
 20
-6.360333333333333
 30
0.0
 40
0.5
  1
0.800
100
AcDbAttributeDefinition
  3

  2
L
 70
     8
280
     0
  0
ATTDEF
  5
127
330
11A
100
AcDbEntity
  8
AM_6
100
AcDbText
 10
5.125
 20
-6.860333333333333
 30
0.0
 40
0.5
  1
0.031
100
AcDbAttributeDefinition
  3

  2
S
 70
     8
280
     0
  0
ATTDEF
  5
128
330
11A
100
AcDbEntity
  8
AM_6
100
AcDbText
 10
5.125
 20
-7.360333333333333
 30
0.0
 40
0.5
  1
0.156250
100
AcDbAttributeDefinition
  3

  2
J
 70
     8
280
     0
  0
ATTDEF
  5
129
330
11A
100
AcDbEntity
  8
AM_6
100
AcDbText
 10
5.125
 20
-7.860333333333333
 30
0.0
 40
0.5
  1
baldor
100
AcDbAttributeDefinition
  3

  2
COMPANY
 70
     8
280
     0
  0
LINE
  5
12B
330
11A
100
AcDbEntity
  8
AM_5
100
AcDbLine
 10
0.125
 20
-2.360333333333333
 30
0.0
 11
-0.125
 21
-2.360333333333333
 31
0.0
  0
LINE
  5
12C
330
11A
100
AcDbEntity
  8
AM_5
100
AcDbLine
 10
0.1064
 20
-2.360333333333333
 30
0.0
 11
0.1250000000000001
 21
-2.392549478354114
 31
0.0
  0
ENDBLK
  5
11D
330
11A
100
AcDbEntity
  8
0
100
AcDbBlockEnd
  0
BLOCK
  5
12F
330
12D
100
AcDbEntity
  8
0
100
AcDbBlockBegin
  2
4_ASME_B18_3_1_4_2_0_in_069362_4
 70
     2
 10
0.0
 20
0.0
 30
0.0
  3
4_ASME_B18_3_1_4_2_0_in_069362_4
  1

  0
ATTDEF
  5
131
330
12D
100
AcDbEntity
  8
AM_6
100
AcDbText
 10
5.218500000000001
 20
-1.640333333333333
 30
0.0
 40
0.5
  1
ANSI/ASME B18.3-1998
100
AcDbAttributeDefinition
  3

  2
NN
 70
     8
280
     0
  0
ATTDEF
  5
132
330
12D
100
AcDbEntity
  8
AM_6
100
AcDbText
 10
5.218500000000001
 20
-2.140333333333333
 30
0.0
 40
0.5
  1
Socket Button Head Cap Screws
100
AcDbAttributeDefinition
  3

  2
NT
 70
     8
280
     0
  0
ATTDEF
  5
133
330
12D
100
AcDbEntity
  8
AM_6
100
AcDbText
 10
5.218500000000001
 20
-2.640333333333333
 30
0.0
 40
0.5
  1
ASME B18.3-1/4
100
AcDbAttributeDefinition
  3

  2
NB
 70
     8
280
     0
  0
ATTDEF
  5
134
330
12D
100
AcDbEntity
  8
AM_6
100
AcDbText
 10
5.218500000000001
 20
-3.140333333333333
 30
0.0
 40
0.5
  1
ASME B18.3-$NS.
100
AcDbAttributeDefinition
  3

  2
NBSYN
 70
     8
280
     0
  0
ATTDEF
  5
135
330
12D
100
AcDbEntity
  8
AM_6
100
AcDbText
 10
5.218500000000001
 20
-3.640333333333333
 30
0.0
 40
0.5
  1
ASME B18.3-1/4
100
AcDbAttributeDefinition
  3

  2
LINA
 70
     8
280
     0
  0
ATTDEF
  5
136
330
12D
100
AcDbEntity
  8
AM_6
100
AcDbText
 10
5.218500000000001
 20
-4.140333333333333
 30
0.0
 40
0.5
  1
1/4
100
AcDbAttributeDefinition
  3

  2
NS
 70
     8
280
     0
  0
ATTDEF
  5
137
330
12D
100
AcDbEntity
  8
AM_6
100
AcDbText
 10
5.218500000000001
 20
-4.640333333333333
 30
0.0
 40
0.5
  1
0.437
100
AcDbAttributeDefinition
  3

  2
A
 70
     8
280
     0
  0
ATTDEF
  5
138
330
12D
100
AcDbEntity
  8
AM_6
100
AcDbText
 10
5.218500000000001
 20
-5.140333333333333
 30
0.0
 40
0.5
  1
0.132
100
AcDbAttributeDefinition
  3

  2
H
 70
     8
280
     0
  0
ATTDEF
  5
139
330
12D
100
AcDbEntity
  8
AM_6
100
AcDbText
 10
5.218500000000001
 20
-5.640333333333333
 30
0.0
 40
0.5
  1
0.800
100
AcDbAttributeDefinition
  3

  2
L
 70
     8
280
     0
  0
ATTDEF
  5
13A
330
12D
100
AcDbEntity
  8
AM_6
100
AcDbText
 10
5.218500000000001
 20
-6.140333333333333
 30
0.0
 40
0.5
  1
0.031
100
AcDbAttributeDefinition
  3

  2
S
 70
     8
280
     0
  0
ATTDEF
  5
13B
330
12D
100
AcDbEntity
  8
AM_6
100
AcDbText
 10
5.218500000000001
 20
-6.640333333333333
 30
0.0
 40
0.5
  1
0.156250
100
AcDbAttributeDefinition
  3

  2
J
 70
     8
280
     0
  0
ATTDEF
  5
13C
330
12D
100
AcDbEntity
  8
AM_6
100
AcDbText
 10
5.218500000000001
 20
-7.140333333333333
 30
0.0
 40
0.5
  1
baldor
100
AcDbAttributeDefinition
  3

  2
COMPANY
 70
     8
280
     0
  0
LINE
  5
13D
330
12D
100
AcDbEntity
  8
AM_9
100
AcDbLine
 10
-0.078125
 20
-2.502333333333333
 30
0.0
 11
-0.078125
 21
-2.572333333333333
 31
0.0
  0
LINE
  5
13E
330
12D
100
AcDbEntity
  8
AM_9
100
AcDbLine
 10
0.078125
 20
-2.502333333333333
 30
0.0
 11
0.078125
 21
-2.572333333333333
 31
0.0
  0
LINE
  5
13F
330
12D
100
AcDbEntity
  8
AM_9
100
AcDbLine
 10
0.0
 20
-2.502333333333333
 30
0.0
 11
0.0
 21
-2.572333333333333
 31
0.0
  0
LINE
  5
140
330
12D
100
AcDbEntity
  8
AM_9
100
AcDbLine
 10
-0.078125
 20
-2.502333333333333
 30
0.0
 11
0.078125
 21
-2.502333333333333
 31
0.0
  0
LINE
  5
141
330
12D
100
AcDbEntity
  8
AM_9
100
AcDbLine
 10
-0.1064
 20
-1.640333333333333
 30
0.0
 11
-0.125
 21
-1.658933333333333
 31
0.0
  0
LINE
  5
142
330
12D
100
AcDbEntity
  8
AM_9
100
AcDbLine
 10
0.125
 20
-1.658933333333333
 30
0.0
 11
0.1064
 21
-1.640333333333333
 31
0.0
  0
LINE
  5
143
330
12D
100
AcDbEntity
  8
AM_9
100
AcDbLine
 10
-0.1064
 20
-1.640333333333333
 30
0.0
 11
0.1064
 21
-1.640333333333333
 31
0.0
  0
LINE
  5
144
330
12D
100
AcDbEntity
  8
AM_9
100
AcDbLine
 10
0.125
 20
-2.440333333333333
 30
0.0
 11
0.125
 21
-1.658933333333333
 31
0.0
  0
LINE
  5
145
330
12D
100
AcDbEntity
  8
AM_9
100
AcDbLine
 10
-0.125
 20
-1.658933333333333
 30
0.0
 11
-0.125
 21
-2.440333333333333
 31
0.0
  0
LINE
  5
146
330
12D
100
AcDbEntity
  8
AM_9
100
AcDbLine
 10
-0.125
 20
-1.658933333333333
 30
0.0
 11
0.125
 21
-1.658933333333333
 31
0.0
  0
LINE
  5
147
330
12D
100
AcDbEntity
  8
AM_5
100
AcDbLine
 10
-0.1250000001400762
 20
-2.360333333333333
 30
0.0
 11
0.125000000140076
 21
-2.360333333333333
 31
0.0
  0
LINE
  5
148
330
12D
100
AcDbEntity
  8
AM_5
100
AcDbLine
 10
-0.1064
 20
-2.360333333333333
 30
0.0
 11
-0.1250000111286593
 21
-2.392549497629517
 31
0.0
  0
LINE
  5
149
330
12D
100
AcDbEntity
  8
AM_4
100
AcDbLine
 10
0.2185
 20
-2.471333333333333
 30
0.0
 11
0.2185
 21
-2.440333333333333
 31
0.0
  0
LINE
  5
14A
330
12D
100
AcDbEntity
  8
AM_4
100
AcDbLine
 10
-0.2185
 20
-2.440333333333333
 30
0.0
 11
-0.2185
 21
-2.471333333333333
 31
0.0
  0
LINE
  5
14B
330
12D
100
AcDbEntity
  8
AM_4
100
AcDbLine
 10
-0.1174814824671506
 20
-2.572333333333333
 30
0.0
 11
0.1175
 21
-2.572333333333333
 31
0.0
  0
ARC
  5
14C
330
12D
100
AcDbEntity
  8
AM_4
100
AcDbCircle
 10
0.1175000000000002
 20
-2.471333333333333
 30
0.0
 40
0.101
100
AcDbArc
 50
270.0
 51
0.0000008537736463
  0
ARC
  5
14D
330
12D
100
AcDbEntity
  8
AM_4
100
AcDbCircle
 10
-0.1175000000000002
 20
-2.471333333333333
 30
0.0
 40
0.1009999999999998
100
AcDbArc
 50
179.9999991462263
 51
270.0
  0
LINE
  5
14E
330
12D
100
AcDbEntity
  8
AM_4
100
AcDbLine
 10
-0.2185
 20
-2.471333333333333
 30
0.0
 11
0.2185
 21
-2.471333333333333
 31
0.0
  0
ENDBLK
  5
130
330
12D
100
AcDbEntity
  8
0
100
AcDbBlockEnd
  0
BLOCK
  5
151
330
14F
100
AcDbEntity
  8
0
100
AcDbBlockBegin
  2
5_070902LW_0_in_069362_4
 70
     2
 10
0.0
 20
0.0
 30
0.0
  3
5_070902LW_0_in_069362_4
  1

  0
ATTDEF
  5
153
330
14F
100
AcDbEntity
  8
AM_6
100
AcDbText
 10
7.5
 20
-2.000333333333333
 30
0.0
 40
0.5
  1
Imperial Insert Lockwasher -Inch
100
AcDbAttributeDefinition
  3

  2
NN
 70
     8
280
     0
  0
ATTDEF
  5
154
330
14F
100
AcDbEntity
  8
AM_6
100
AcDbText
 10
7.5
 20
-2.500333333333333
 30
0.0
 40
0.5
  1
Imperial Bearings
100
AcDbAttributeDefinition
  3

  2
NT
 70
     8
280
     0
  0
ATTDEF
  5
155
330
14F
100
AcDbEntity
  8
AM_6
100
AcDbText
 10
7.5
 20
-3.000333333333333
 30
0.0
 40
0.5
  1
070902LW
100
AcDbAttributeDefinition
  3

  2
NB
 70
     8
280
     0
  0
ATTDEF
  5
156
330
14F
100
AcDbEntity
  8
AM_6
100
AcDbText
 10
7.5
 20
-3.500333333333333
 30
0.0
 40
0.5
  1
$PN.LW
100
AcDbAttributeDefinition
  3

  2
NBSYN
 70
     8
280
     0
  0
ATTDEF
  5
157
330
14F
100
AcDbEntity
  8
AM_6
100
AcDbText
 10
7.5
 20
-4.000333333333334
 30
0.0
 40
0.5
  1
070902
100
AcDbAttributeDefinition
  3

  2
LINA
 70
     8
280
     0
  0
ATTDEF
  5
158
330
14F
100
AcDbEntity
  8
AM_6
100
AcDbText
 10
7.5
 20
-4.500333333333334
 30
0.0
 40
0.5
  1
3-1/4
100
AcDbAttributeDefinition
  3

  2
SS
 70
     8
280
     0
  0
ATTDEF
  5
159
330
14F
100
AcDbEntity
  8
AM_6
100
AcDbText
 10
7.5
 20
-5.000333333333334
 30
0.0
 40
0.5
  1
3.250000
100
AcDbAttributeDefinition
  3

  2
SS1
 70
     8
280
     0
  0
ATTDEF
  5
15A
330
14F
100
AcDbEntity
  8
AM_6
100
AcDbText
 10
7.5
 20
-5.500333333333334
 30
0.0
 40
0.5
  1
070902
100
AcDbAttributeDefinition
  3

  2
PN
 70
     8
280
     0
  0
ATTDEF
  5
15B
330
14F
100
AcDbEntity
  8
AM_6
100
AcDbText
 10
7.5
 20
-6.000333333333334
 30
0.0
 40
0.5
  1
INS-IP-304R
100
AcDbAttributeDefinition
  3

  2
DESCRIPTION
 70
     8
280
     0
  0
ATTDEF
  5
15C
330
14F
100
AcDbEntity
  8
AM_6
100
AcDbText
 10
7.5
 20
-6.500333333333334
 30
0.0
 40
0.5
  1
6.2992
100
AcDbAttributeDefinition
  3

  2
A
 70
     8
280
     0
  0
ATTDEF
  5
15D
330
14F
100
AcDbEntity
  8
AM_6
100
AcDbText
 10
7.5
 20
-7.000333333333334
 30
0.0
 40
0.5
  1
1-5/8
100
AcDbAttributeDefinition
  3

  2
B
 70
     8
280
     0
  0
ATTDEF
  5
15E
330
14F
100
AcDbEntity
  8
AM_6
100
AcDbText
 10
7.5
 20
-7.500333333333334
 30
0.0
 40
0.5
  1
4-11/64
100
AcDbAttributeDefinition
  3

  2
C
 70
     8
280
     0
  0
ATTDEF
  5
15F
330
14F
100
AcDbEntity
  8
AM_6
100
AcDbText
 10
7.5
 20
-8.000333333333334
 30
0.0
 40
0.5
  1
1.483
100
AcDbAttributeDefinition
  3

  2
D
 70
     8
280
     0
  0
ATTDEF
  5
160
330
14F
100
AcDbEntity
  8
AM_6
100
AcDbText
 10
7.5
 20
-8.500333333333334
 30
0.0
 40
0.5
  1
5
100
AcDbAttributeDefinition
  3

  2
E
 70
     8
280
     0
  0
ATTDEF
  5
161
330
14F
100
AcDbEntity
  8
AM_6
100
AcDbText
 10
7.5
 20
-9.000333333333334
 30
0.0
 40
0.5
  1
0.2500
100
AcDbAttributeDefinition
  3

  2
NDM
 70
     8
280
     0
  0
ATTDEF
  5
162
330
14F
100
AcDbEntity
  8
AM_6
100
AcDbText
 10
7.5
 20
-9.500333333333334
 30
0.0
 40
0.5
  1
0.1960
100
AcDbAttributeDefinition
  3

  2
KDM
 70
     8
280
     0
  0
ATTDEF
  5
163
330
14F
100
AcDbEntity
  8
AM_6
100
AcDbText
 10
7.5
 20
-10.00033333333333
 30
0.0
 40
0.5
  1
4.28
100
AcDbAttributeDefinition
  3

  2
AL
 70
     8
280
     0
  0
ATTDEF
  5
164
330
14F
100
AcDbEntity
  8
AM_6
100
AcDbText
 10
7.5
 20
-10.50033333333333
 30
0.0
 40
0.5
  1
0.50
100
AcDbAttributeDefinition
  3

  2
BL
 70
     8
280
     0
  0
ATTDEF
  5
165
330
14F
100
AcDbEntity
  8
AM_6
100
AcDbText
 10
7.5
 20
-11.00033333333333
 30
0.0
 40
0.5
  1
0.07
100
AcDbAttributeDefinition
  3

  2
CL
 70
     8
280
     0
  0
ATTDEF
  5
166
330
14F
100
AcDbEntity
  8
AM_6
100
AcDbText
 10
7.5
 20
-11.50033333333333
 30
0.0
 40
0.5
  1
0.44
100
AcDbAttributeDefinition
  3

  2
DL
 70
     8
280
     0
  0
ATTDEF
  5
167
330
14F
100
AcDbEntity
  8
AM_6
100
AcDbText
 10
7.5
 20
-12.00033333333333
 30
0.0
 40
0.5
  1
baldor
100
AcDbAttributeDefinition
  3

  2
COMPANY
 70
     8
280
     0
  0
LINE
  5
168
330
14F
100
AcDbEntity
  8
AM_9
100
AcDbLine
 10
2.152777777777778
 20
-2.370333333333333
 30
0.0
 11
2.152777777777778
 21
-2.440333333333333
 31
0.0
  0
LINE
  5
169
330
14F
100
AcDbEntity
  8
AM_9
100
AcDbLine
 10
2.274198438901627
 20
-2.440333333333333
 30
0.0
 11
2.274198438901627
 21
-2.370333333333333
 31
0.0
  0
LINE
  5
16A
330
14F
100
AcDbEntity
  8
AM_9
100
AcDbLine
 10
-2.152777777777778
 20
-2.370333333333333
 30
0.0
 11
-2.152777777777778
 21
-2.440333333333333
 31
0.0
  0
LINE
  5
16B
330
14F
100
AcDbEntity
  8
AM_9
100
AcDbLine
 10
-2.281462631371696
 20
-2.370333333333333
 30
0.0
 11
-2.281462631371696
 21
-2.440333333333333
 31
0.0
  0
LINE
  5
16C
330
14F
100
AcDbEntity
  8
AM_9
100
AcDbLine
 10
-1.752303998286404
 20
-2.370333333333333
 30
0.0
 11
-1.752303998286404
 21
-2.440333333333333
 31
0.0
  0
LINE
  5
16D
330
14F
100
AcDbEntity
  8
AM_9
100
AcDbLine
 10
1.752303998286404
 20
-2.370333333333333
 30
0.0
 11
1.752303998286404
 21
-2.440333333333333
 31
0.0
  0
LINE
  5
16E
330
14F
100
AcDbEntity
  8
AM_9
100
AcDbLine
 10
-1.327454387536935
 20
-2.370333333333333
 30
0.0
 11
-1.327454387536935
 21
-2.440333333333333
 31
0.0
  0
LINE
  5
16F
330
14F
100
AcDbEntity
  8
AM_9
100
AcDbLine
 10
1.327454387536935
 20
-2.370333333333333
 30
0.0
 11
1.327454387536935
 21
-2.440333333333333
 31
0.0
  0
LINE
  5
170
330
14F
100
AcDbEntity
  8
AM_9
100
AcDbLine
 10
-0.7860626501752224
 20
-2.370333333333333
 30
0.0
 11
-0.7860626501752224
 21
-2.440333333333333
 31
0.0
  0
LINE
  5
171
330
14F
100
AcDbEntity
  8
AM_9
100
AcDbLine
 10
-0.7355029652476233
 20
-2.000333333333333
 30
0.0
 11
-0.7355029652476233
 21
-2.440333333333333
 31
0.0
  0
LINE
  5
172
330
14F
100
AcDbEntity
  8
AM_9
100
AcDbLine
 10
-1.150677692240298
 20
-2.370333333333333
 30
0.0
 11
-1.150677692240298
 21
-2.440333333333333
 31
0.0
  0
LINE
  5
173
330
14F
100
AcDbEntity
  8
AM_9
100
AcDbLine
 10
1.150677692240298
 20
-2.370333333333333
 30
0.0
 11
1.150677692240296
 21
-2.440333333333333
 31
0.0
  0
LINE
  5
174
330
14F
100
AcDbEntity
  8
AM_9
100
AcDbLine
 10
-0.555092767047401
 20
-2.370333333333333
 30
0.0
 11
-0.555092767047401
 21
-2.440333333333333
 31
0.0
  0
LINE
  5
175
330
14F
100
AcDbEntity
  8
AM_9
100
AcDbLine
 10
-0.5045330821198014
 20
-2.000333333333333
 30
0.0
 11
-0.7683248505447332
 21
-2.000333333333333
 31
0.0
  0
LINE
  5
176
330
14F
100
AcDbEntity
  8
AM_9
100
AcDbLine
 10
-0.5045330821198014
 20
-2.000333333333333
 30
0.0
 11
-0.5045330821198014
 21
-2.440333333333333
 31
0.0
  0
LINE
  5
177
330
14F
100
AcDbEntity
  8
AM_9
100
AcDbLine
 10
-0.5373549674169114
 20
-2.370333333333333
 30
0.0
 11
-0.5373549674169115
 21
-2.000333333333333
 31
0.0
  0
LINE
  5
178
330
14F
100
AcDbEntity
  8
AM_9
100
AcDbLine
 10
-0.7683248505447332
 20
-2.000333333333333
 30
0.0
 11
-0.7683248505447332
 21
-2.370333333333333
 31
0.0
  0
LINE
  5
179
330
14F
100
AcDbEntity
  8
AM_9
100
AcDbLine
 10
-1.610632112702692
 20
-2.370333333333333
 30
0.0
 11
-1.610632112702692
 21
-2.440333333333333
 31
0.0
  0
LINE
  5
17A
330
14F
100
AcDbEntity
  8
AM_9
100
AcDbLine
 10
-1.433855417406047
 20
-2.370333333333333
 30
0.0
 11
-1.433855417406047
 21
-2.440333333333333
 31
0.0
  0
LINE
  5
17B
330
14F
100
AcDbEntity
  8
AM_9
100
AcDbLine
 10
-1.647281073400108
 20
-2.370333333333333
 30
0.0
 11
-1.647281073400108
 21
-2.440333333333333
 31
0.0
  0
LINE
  5
17C
330
14F
100
AcDbEntity
  8
AM_9
100
AcDbLine
 10
1.433855417406054
 20
-2.370333333333333
 30
0.0
 11
1.433855417406054
 21
-2.440333333333333
 31
0.0
  0
LINE
  5
17D
330
14F
100
AcDbEntity
  8
AM_9
100
AcDbLine
 10
1.610632112702691
 20
-2.370333333333333
 30
0.0
 11
1.610632112702691
 21
-2.440333333333333
 31
0.0
  0
LINE
  5
17E
330
14F
100
AcDbEntity
  8
AM_9
100
AcDbLine
 10
1.647281073400107
 20
-2.440333333333333
 30
0.0
 11
1.647281073400107
 21
-2.370333333333333
 31
0.0
  0
LINE
  5
17F
330
14F
100
AcDbEntity
  8
AM_9
100
AcDbLine
 10
-0.1250000000000004
 20
-2.370333333333333
 30
0.0
 11
-0.1250000000000004
 21
-2.440333333333333
 31
0.0
  0
LINE
  5
180
330
14F
100
AcDbEntity
  8
AM_9
100
AcDbLine
 10
0.1249999999999998
 20
-2.370333333333333
 30
0.0
 11
0.1249999999999998
 21
-2.440333333333333
 31
0.0
  0
LINE
  5
181
330
14F
100
AcDbEntity
  8
AM_4
100
AcDbLine
 10
-2.5
 20
-2.370333333333333
 30
0.0
 11
-2.5
 21
-2.440333333333333
 31
0.0
  0
LINE
  5
182
330
14F
100
AcDbEntity
  8
AM_4
100
AcDbLine
 10
2.5
 20
-2.440333333333333
 30
0.0
 11
2.5
 21
-2.370333333333333
 31
0.0
  0
LINE
  5
183
330
14F
100
AcDbEntity
  8
AM_4
100
AcDbLine
 10
-2.5
 20
-2.440333333333333
 30
0.0
 11
2.5
 21
-2.440333333333333
 31
0.0
  0
LINE
  5
184
330
14F
100
AcDbEntity
  8
AM_4
100
AcDbLine
 10
-2.5
 20
-2.370333333333333
 30
0.0
 11
2.5
 21
-2.370333333333333
 31
0.0
  0
ENDBLK
  5
152
330
14F
100
AcDbEntity
  8
0
100
AcDbBlockEnd
  0
BLOCK
  5
187
330
185
100
AcDbEntity
  8
0
100
AcDbBlockBegin
  2
6_070902I_0_in_069362_4
 70
     2
 10
0.0
 20
0.0
 30
0.0
  3
6_070902I_0_in_069362_4
  1

  0
ATTDEF
  5
189
330
185
100
AcDbEntity
  8
AM_6
100
AcDbText
 10
8.1496
 20
1.509375
 30
0.0
 40
0.5
  1
Imperial Insert -Inch
100
AcDbAttributeDefinition
  3

  2
NN
 70
     8
280
     0
  0
ATTDEF
  5
18A
330
185
100
AcDbEntity
  8
AM_6
100
AcDbText
 10
8.1496
 20
1.009375
 30
0.0
 40
0.5
  1
Imperial Bearings
100
AcDbAttributeDefinition
  3

  2
NT
 70
     8
280
     0
  0
ATTDEF
  5
18B
330
185
100
AcDbEntity
  8
AM_6
100
AcDbText
 10
8.1496
 20
0.5093749999999997
 30
0.0
 40
0.5
  1
070902I
100
AcDbAttributeDefinition
  3

  2
NB
 70
     8
280
     0
  0
ATTDEF
  5
18C
330
185
100
AcDbEntity
  8
AM_6
100
AcDbText
 10
8.1496
 20
0.0093749999999997
 30
0.0
 40
0.5
  1
$PN.I
100
AcDbAttributeDefinition
  3

  2
NBSYN
 70
     8
280
     0
  0
ATTDEF
  5
18D
330
185
100
AcDbEntity
  8
AM_6
100
AcDbText
 10
8.1496
 20
-0.4906250000000003
 30
0.0
 40
0.5
  1
070902
100
AcDbAttributeDefinition
  3

  2
LINA
 70
     8
280
     0
  0
ATTDEF
  5
18E
330
185
100
AcDbEntity
  8
AM_6
100
AcDbText
 10
8.1496
 20
-0.9906250000000003
 30
0.0
 40
0.5
  1
3-1/4
100
AcDbAttributeDefinition
  3

  2
SS
 70
     8
280
     0
  0
ATTDEF
  5
18F
330
185
100
AcDbEntity
  8
AM_6
100
AcDbText
 10
8.1496
 20
-1.490625
 30
0.0
 40
0.5
  1
3.250000
100
AcDbAttributeDefinition
  3

  2
SS1
 70
     8
280
     0
  0
ATTDEF
  5
190
330
185
100
AcDbEntity
  8
AM_6
100
AcDbText
 10
8.1496
 20
-1.990625
 30
0.0
 40
0.5
  1
070902
100
AcDbAttributeDefinition
  3

  2
PN
 70
     8
280
     0
  0
ATTDEF
  5
191
330
185
100
AcDbEntity
  8
AM_6
100
AcDbText
 10
8.1496
 20
-2.490625000000001
 30
0.0
 40
0.5
  1
INS-IP-304R
100
AcDbAttributeDefinition
  3

  2
DESCRIPTION
 70
     8
280
     0
  0
ATTDEF
  5
192
330
185
100
AcDbEntity
  8
AM_6
100
AcDbText
 10
8.1496
 20
-2.990625000000001
 30
0.0
 40
0.5
  1
Contact Seal
100
AcDbAttributeDefinition
  3

  2
ST
 70
     8
280
     0
  0
ATTDEF
  5
193
330
185
100
AcDbEntity
  8
AM_6
100
AcDbText
 10
8.1496
 20
-3.490625000000001
 30
0.0
 40
0.5
  1
6.2992
100
AcDbAttributeDefinition
  3

  2
A
 70
     8
280
     0
  0
ATTDEF
  5
194
330
185
100
AcDbEntity
  8
AM_6
100
AcDbText
 10
8.1496
 20
-3.990625000000001
 30
0.0
 40
0.5
  1
1-5/8
100
AcDbAttributeDefinition
  3

  2
B
 70
     8
280
     0
  0
ATTDEF
  5
195
330
185
100
AcDbEntity
  8
AM_6
100
AcDbText
 10
8.1496
 20
-4.490625000000001
 30
0.0
 40
0.5
  1
4-11/64
100
AcDbAttributeDefinition
  3

  2
C
 70
     8
280
     0
  0
ATTDEF
  5
196
330
185
100
AcDbEntity
  8
AM_6
100
AcDbText
 10
8.1496
 20
-4.990625000000001
 30
0.0
 40
0.5
  1
1.483
100
AcDbAttributeDefinition
  3

  2
D
 70
     8
280
     0
  0
ATTDEF
  5
197
330
185
100
AcDbEntity
  8
AM_6
100
AcDbText
 10
8.1496
 20
-5.490625000000001
 30
0.0
 40
0.5
  1
5
100
AcDbAttributeDefinition
  3

  2
E
 70
     8
280
     0
  0
ATTDEF
  5
198
330
185
100
AcDbEntity
  8
AM_6
100
AcDbText
 10
8.1496
 20
-5.990625000000001
 30
0.0
 40
0.5
  1
0.2500
100
AcDbAttributeDefinition
  3

  2
NDM
 70
     8
280
     0
  0
ATTDEF
  5
199
330
185
100
AcDbEntity
  8
AM_6
100
AcDbText
 10
8.1496
 20
-6.490625000000001
 30
0.0
 40
0.5
  1
0.132
100
AcDbAttributeDefinition
  3

  2
H
 70
     8
280
     0
  0
ATTDEF
  5
19A
330
185
100
AcDbEntity
  8
AM_6
100
AcDbText
 10
8.1496
 20
-6.990625000000001
 30
0.0
 40
0.5
  1
0.1960
100
AcDbAttributeDefinition
  3

  2
KDM
 70
     8
280
     0
  0
ATTDEF
  5
19B
330
185
100
AcDbEntity
  8
AM_6
100
AcDbText
 10
8.1496
 20
-7.490625000000001
 30
0.0
 40
0.5
  1
4.28
100
AcDbAttributeDefinition
  3

  2
AL
 70
     8
280
     0
  0
ATTDEF
  5
19C
330
185
100
AcDbEntity
  8
AM_6
100
AcDbText
 10
8.1496
 20
-7.990625000000001
 30
0.0
 40
0.5
  1
0.50
100
AcDbAttributeDefinition
  3

  2
BL
 70
     8
280
     0
  0
ATTDEF
  5
19D
330
185
100
AcDbEntity
  8
AM_6
100
AcDbText
 10
8.1496
 20
-8.490625000000001
 30
0.0
 40
0.5
  1
0.07
100
AcDbAttributeDefinition
  3

  2
CL
 70
     8
280
     0
  0
ATTDEF
  5
19E
330
185
100
AcDbEntity
  8
AM_6
100
AcDbText
 10
8.1496
 20
-8.990625000000001
 30
0.0
 40
0.5
  1
0.44
100
AcDbAttributeDefinition
  3

  2
DL
 70
     8
280
     0
  0
ATTDEF
  5
19F
330
185
100
AcDbEntity
  8
AM_6
100
AcDbText
 10
8.1496
 20
-9.490625000000001
 30
0.0
 40
0.5
  1
0.8000
100
AcDbAttributeDefinition
  3

  2
LL
 70
     8
280
     0
  0
ATTDEF
  5
1A0
330
185
100
AcDbEntity
  8
AM_6
100
AcDbText
 10
8.1496
 20
-9.990625000000001
 30
0.0
 40
0.5
  1
0.025
100
AcDbAttributeDefinition
  3

  2
Y
 70
     8
280
     0
  0
ATTDEF
  5
1A1
330
185
100
AcDbEntity
  8
AM_6
100
AcDbText
 10
8.1496
 20
-10.490625
 30
0.0
 40
0.5
  1
0.025000
100
AcDbAttributeDefinition
  3

  2
Y1
 70
     8
280
     0
  0
ATTDEF
  5
1A2
330
185
100
AcDbEntity
  8
AM_6
100
AcDbText
 10
8.1496
 20
-10.990625
 30
0.0
 40
0.5
  1
4-3/64
100
AcDbAttributeDefinition
  3

  2
Z
 70
     8
280
     0
  0
ATTDEF
  5
1A3
330
185
100
AcDbEntity
  8
AM_6
100
AcDbText
 10
8.1496
 20
-11.490625
 30
0.0
 40
0.5
  1
4.046875
100
AcDbAttributeDefinition
  3

  2
Z1
 70
     8
280
     0
  0
ATTDEF
  5
1A4
330
185
100
AcDbEntity
  8
AM_6
100
AcDbText
 10
8.1496
 20
-11.990625
 30
0.0
 40
0.5
  1
baldor
100
AcDbAttributeDefinition
  3

  2
COMPANY
 70
     8
280
     0
  0
LINE
  5
1A5
330
185
100
AcDbEntity
  8
AM_9
100
AcDbLine
 10
-0.7700566191720563
 20
0.8138750000000002
 30
0.0
 11
-0.7700566191720563
 21
-2.370333333333333
 31
0.0
  0
LINE
  5
1A6
330
185
100
AcDbEntity
  8
AM_9
100
AcDbLine
 10
-0.5045330821198016
 20
0.8138750000000002
 30
0.0
 11
-0.5045330821198012
 21
-2.6875
 31
0.0
  0
LINE
  5
1A7
330
185
100
AcDbEntity
  8
AM_9
100
AcDbLine
 10
-0.7355029652476234
 20
-2.440333333333333
 30
0.0
 11
-0.7355029652476234
 21
0.8138750000000002
 31
0.0
  0
LINE
  5
1A8
330
185
100
AcDbEntity
  8
AM_9
100
AcDbLine
 10
-1.625
 20
0.8138750000000001
 30
0.0
 11
-1.625
 21
-2.6875
 31
0.0
  0
LINE
  5
1A9
330
185
100
AcDbEntity
  8
AM_9
100
AcDbLine
 10
1.625
 20
-2.6875
 30
0.0
 11
1.625
 21
0.8138750000000001
 31
0.0
  0
LINE
  5
1AA
330
185
100
AcDbEntity
  8
AM_9
100
AcDbLine
 10
-0.5390867360442345
 20
0.8138750000000002
 30
0.0
 11
-0.5390867360442345
 21
-2.370333333333333
 31
0.0
  0
LINE
  5
1AB
330
185
100
AcDbEntity
  8
AM_9
100
AcDbLine
 10
1.336431816442575
 20
-1.930333333333333
 30
0.0
 11
1.336431816442575
 21
-2.370333333333333
 31
0.0
  0
LINE
  5
1AC
330
185
100
AcDbEntity
  8
AM_9
100
AcDbLine
 10
-1.336431816442575
 20
-1.930333333333333
 30
0.0
 11
-1.336431816442575
 21
-2.370333333333333
 31
0.0
  0
LINE
  5
1AD
330
185
100
AcDbEntity
  8
AM_9
100
AcDbLine
 10
-1.710526315789474
 20
1.484375
 30
0.0
 11
-1.710526315789474
 21
0.8138750000000001
 31
0.0
  0
LINE
  5
1AE
330
185
100
AcDbEntity
  8
AM_9
100
AcDbLine
 10
1.710526315789474
 20
0.8138750000000001
 30
0.0
 11
1.710526315789474
 21
1.484375
 31
0.0
  0
LINE
  5
1AF
330
185
100
AcDbEntity
  8
AM_9
100
AcDbLine
 10
-0.5373549674169111
 20
-2.440333333333333
 30
0.0
 11
-0.5373549674169109
 21
-2.370333333333333
 31
0.0
  0
LINE
  5
1B0
330
185
100
AcDbEntity
  8
AM_9
100
AcDbLine
 10
-0.7683248505447328
 20
-2.370333333333333
 30
0.0
 11
-0.7683248505447329
 21
-2.440333333333333
 31
0.0
  0
LINE
  5
1B1
330
185
100
AcDbEntity
  8
AM_9
100
AcDbLine
 10
-1.710526315789474
 20
-2.370333333333333
 30
0.0
 11
-1.710526315789474
 21
-2.440333333333333
 31
0.0
  0
LINE
  5
1B2
330
185
100
AcDbEntity
  8
AM_9
100
AcDbLine
 10
1.710526315789474
 20
-2.440333333333333
 30
0.0
 11
1.710526315789474
 21
-2.370333333333333
 31
0.0
  0
LINE
  5
1B3
330
185
100
AcDbEntity
  8
AM_9
100
AcDbLine
 10
1.336431816442575
 20
-1.930333333333333
 30
0.0
 11
1.593048406283363
 21
-1.930333333333333
 31
0.0
  0
LINE
  5
1B4
330
185
100
AcDbEntity
  8
AM_9
100
AcDbLine
 10
-1.593048406283363
 20
-1.930333333333333
 30
0.0
 11
-1.336431816442575
 21
-1.930333333333333
 31
0.0
  0
LINE
  5
1B5
330
185
100
AcDbEntity
  8
AM_9
100
AcDbLine
 10
2.0234375
 20
1.484375
 30
0.0
 11
-2.0234375
 21
1.484375
 31
0.0
  0
LINE
  5
1B6
330
185
100
AcDbEntity
  8
AM_9
100
AcDbLine
 10
-2.0234375
 20
1.509374999999999
 30
0.0
 11
-2.0234375
 21
1.484375
 31
0.0
  0
LINE
  5
1B7
330
185
100
AcDbEntity
  8
AM_9
100
AcDbLine
 10
2.0234375
 20
1.484375
 30
0.0
 11
2.0234375
 21
1.509374999999999
 31
0.0
  0
LINE
  5
1B8
330
185
100
AcDbEntity
  8
AM_9
100
AcDbLine
 10
2.196380876068376
 20
1.509375
 30
0.0
 11
-2.196380876049879
 21
1.509375
 31
0.0
  0
ARC
  5
1B9
330
185
100
AcDbEntity
  8
AM_9
100
AcDbCircle
 10
-2.196380876068375
 20
1.457491987179486
 30
0.0
 40
0.0518830128205137
100
AcDbArc
 50
90.0
 51
180.0
  0
ARC
  5
1BA
330
185
100
AcDbEntity
  8
AM_9
100
AcDbCircle
 10
2.196380876068375
 20
1.457491987179486
 30
0.0
 40
0.0518830128205137
100
AcDbArc
 50
0.0
 51
90.0
  0
LINE
  5
1BB
330
185
100
AcDbEntity
  8
AM_9
100
AcDbLine
 10
2.248263888888889
 20
1.457491987179484
 30
0.0
 11
-2.248263888888889
 21
1.457491987179484
 31
0.0
  0
LINE
  5
1BC
330
185
100
AcDbEntity
  8
AM_9
100
AcDbLine
 10
-2.248263888888889
 20
1.457491987179484
 30
0.0
 11
-2.248263888888889
 21
1.138874999999999
 31
0.0
  0
LINE
  5
1BD
330
185
100
AcDbEntity
  8
AM_9
100
AcDbLine
 10
2.248263888888889
 20
1.138874999999999
 30
0.0
 11
2.248263888888889
 21
1.457491987179484
 31
0.0
  0
LINE
  5
1BE
330
185
100
AcDbEntity
  8
AM_9
100
AcDbLine
 10
0.0
 20
-1.530333333333333
 30
0.0
 11
-0.0979499999999999
 21
-1.576008168449615
 31
0.0
  0
LINE
  5
1BF
330
185
100
AcDbEntity
  8
AM_9
100
AcDbLine
 10
0.0979499999999999
 20
-1.576008168449615
 30
0.0
 11
0.0
 21
-1.530333333333333
 31
0.0
  0
LINE
  5
1C0
330
185
100
AcDbEntity
  8
AM_9
100
AcDbLine
 10
0.09795
 20
-1.576008168449615
 30
0.0
 11
-0.09795
 21
-1.576008168449615
 31
0.0
  0
LINE
  5
1C1
330
185
100
AcDbEntity
  8
AM_9
100
AcDbLine
 10
-0.09795
 20
-1.576008168449615
 30
0.0
 11
-0.09795
 21
-2.343283333333333
 31
0.0
  0
LINE
  5
1C2
330
185
100
AcDbEntity
  8
AM_9
100
AcDbLine
 10
0.09795
 20
-2.343283333333333
 30
0.0
 11
0.09795
 21
-1.576008168449615
 31
0.0
  0
LINE
  5
1C3
330
185
100
AcDbEntity
  8
AM_9
100
AcDbLine
 10
0.09795
 20
-2.343283333333333
 30
0.0
 11
-0.09795
 21
-2.343283333333333
 31
0.0
  0
LINE
  5
1C4
330
185
100
AcDbEntity
  8
AM_9
100
AcDbLine
 10
-0.09795
 20
-2.343283333333333
 30
0.0
 11
-0.1249999999999999
 21
-2.370333333333333
 31
0.0
  0
LINE
  5
1C5
330
185
100
AcDbEntity
  8
AM_9
100
AcDbLine
 10
0.1249999999999999
 20
-2.370333333333333
 30
0.0
 11
0.09795
 21
-2.343283333333333
 31
0.0
  0
LINE
  5
1C6
330
185
100
AcDbEntity
  8
AM_9
100
AcDbLine
 10
2.529301435667701
 20
-1.53125
 30
0.0
 11
2.554448754797947
 21
-0.811125
 31
0.0
  0
LINE
  5
1C7
330
185
100
AcDbEntity
  8
AM_9
100
AcDbLine
 10
-2.554448754797947
 20
-0.811125
 30
0.0
 11
-2.529301435667701
 21
-1.53125
 31
0.0
  0
LINE
  5
1C8
330
185
100
AcDbEntity
  8
AM_9
100
AcDbLine
 10
2.70422613559441
 20
1.138874999999999
 30
0.0
 11
-2.704226135594166
 21
1.138874999999999
 31
0.0
  0
ARC
  5
1C9
330
185
100
AcDbEntity
  8
AM_9
100
AcDbCircle
 10
-2.70422613559441
 20
1.038875
 30
0.0
 40
0.0999999999999994
100
AcDbArc
 50
90.0
 51
150.0
  0
ARC
  5
1CA
330
185
100
AcDbEntity
  8
AM_9
100
AcDbCircle
 10
2.70422613559441
 20
1.038875
 30
0.0
 40
0.0999999999999995
100
AcDbArc
 50
30.00000000000004
 51
90.0
  0
LINE
  5
1CB
330
185
100
AcDbEntity
  8
AM_9
100
AcDbLine
 10
2.790828675972853
 20
1.088875
 30
0.0
 11
-2.790828675972853
 21
1.088875
 31
0.0
  0
LINE
  5
1CC
330
185
100
AcDbEntity
  8
AM_9
100
AcDbLine
 10
-2.790828675972853
 20
1.088875
 30
0.0
 11
-2.9496
 21
0.8138750000000001
 31
0.0
  0
LINE
  5
1CD
330
185
100
AcDbEntity
  8
AM_9
100
AcDbLine
 10
2.9496
 20
0.8138750000000001
 30
0.0
 11
2.790828675972853
 21
1.088875
 31
0.0
  0
LINE
  5
1CE
330
185
100
AcDbEntity
  8
AM_9
100
AcDbLine
 10
-3.06835
 20
0.0482847093716568
 30
0.0
 11
-3.06835
 21
-0.045534709371657
 31
0.0
  0
LINE
  5
1CF
330
185
100
AcDbEntity
  8
AM_9
100
AcDbLine
 10
3.06835
 20
-0.045534709371657
 30
0.0
 11
3.06835
 21
0.0482847093716568
 31
0.0
  0
LINE
  5
1D0
330
185
100
AcDbEntity
  8
AM_9
100
AcDbLine
 10
-3.1496
 20
0.7638749999999997
 30
0.0
 11
-3.1496
 21
0.0951944187433138
 31
0.0
  0
LINE
  5
1D1
330
185
100
AcDbEntity
  8
AM_9
100
AcDbLine
 10
3.1496
 20
0.0951944187433138
 30
0.0
 11
3.1496
 21
0.7638749999999997
 31
0.0
  0
LINE
  5
1D2
330
185
100
AcDbEntity
  8
AM_9
100
AcDbLine
 10
3.0996
 20
0.8138750000000001
 30
0.0
 11
-3.099599999999539
 21
0.8138750000000001
 31
0.0
  0
LINE
  5
1D3
330
185
100
AcDbEntity
  8
AM_9
100
AcDbLine
 10
3.1496
 20
0.7638749999999997
 30
0.0
 11
-3.1496
 21
0.7638749999999997
 31
0.0
  0
ARC
  5
1D4
330
185
100
AcDbEntity
  8
AM_9
100
AcDbCircle
 10
-3.0996
 20
0.7638750000000009
 30
0.0
 40
0.0499999999999993
100
AcDbArc
 50
90.0
 51
180.0
  0
ARC
  5
1D5
330
185
100
AcDbEntity
  8
AM_9
100
AcDbCircle
 10
3.0996
 20
0.7638750000000009
 30
0.0
 40
0.0499999999999994
100
AcDbArc
 50
0.0
 51
90.0
  0
LINE
  5
1D6
330
185
100
AcDbEntity
  8
AM_9
100
AcDbLine
 10
3.0996
 20
-0.8111250000000002
 30
0.0
 11
-3.099599999999539
 21
-0.8111250000000002
 31
0.0
  0
ARC
  5
1D7
330
185
100
AcDbEntity
  8
AM_9
100
AcDbCircle
 10
-3.0996
 20
-0.7611250000000007
 30
0.0
 40
0.0499999999999994
100
AcDbArc
 50
180.0
 51
270.0
  0
ARC
  5
1D8
330
185
100
AcDbEntity
  8
AM_9
100
AcDbCircle
 10
3.0996
 20
-0.7611250000000007
 30
0.0
 40
0.0499999999999995
100
AcDbArc
 50
270.0
 51
0.0
  0
LINE
  5
1D9
330
185
100
AcDbEntity
  8
AM_9
100
AcDbLine
 10
3.06835
 20
-0.045534709371657
 30
0.0
 11
-3.06835
 21
-0.045534709371657
 31
0.0
  0
LINE
  5
1DA
330
185
100
AcDbEntity
  8
AM_9
100
AcDbLine
 10
-3.06835
 20
-0.045534709371657
 30
0.0
 11
-3.1496
 21
-0.092444418743314
 31
0.0
  0
LINE
  5
1DB
330
185
100
AcDbEntity
  8
AM_9
100
AcDbLine
 10
3.1496
 20
-0.092444418743314
 30
0.0
 11
3.06835
 21
-0.045534709371657
 31
0.0
  0
LINE
  5
1DC
330
185
100
AcDbEntity
  8
AM_9
100
AcDbLine
 10
3.1496
 20
0.0951944187433138
 30
0.0
 11
-3.1496
 21
0.0951944187433138
 31
0.0
  0
LINE
  5
1DD
330
185
100
AcDbEntity
  8
AM_9
100
AcDbLine
 10
3.06835
 20
0.0482847093716568
 30
0.0
 11
-3.06835
 21
0.0482847093716568
 31
0.0
  0
LINE
  5
1DE
330
185
100
AcDbEntity
  8
AM_9
100
AcDbLine
 10
3.06835
 20
0.0482847093716568
 30
0.0
 11
3.1496
 21
0.0951944187433138
 31
0.0
  0
LINE
  5
1DF
330
185
100
AcDbEntity
  8
AM_9
100
AcDbLine
 10
-3.1496
 20
0.0951944187433138
 30
0.0
 11
-3.06835
 21
0.0482847093716568
 31
0.0
  0
LINE
  5
1E0
330
185
100
AcDbEntity
  8
AM_9
100
AcDbLine
 10
3.1496
 20
-0.092444418743314
 30
0.0
 11
-3.1496
 21
-0.092444418743314
 31
0.0
  0
LINE
  5
1E1
330
185
100
AcDbEntity
  8
AM_9
100
AcDbLine
 10
3.1496
 20
-0.7611250000000005
 30
0.0
 11
-3.1496
 21
-0.7611250000000005
 31
0.0
  0
LINE
  5
1E2
330
185
100
AcDbEntity
  8
AM_9
100
AcDbLine
 10
-3.1496
 20
-0.092444418743314
 30
0.0
 11
-3.1496
 21
-0.7611250000000005
 31
0.0
  0
LINE
  5
1E3
330
185
100
AcDbEntity
  8
AM_9
100
AcDbLine
 10
3.1496
 20
-0.7611250000000005
 30
0.0
 11
3.1496
 21
-0.092444418743314
 31
0.0
  0
LINE
  5
1E4
330
185
100
AcDbEntity
  8
AM_5
100
AcDbLine
 10
0.1250000000000002
 20
-1.610333333333333
 30
0.0
 11
0.09795
 21
-1.594716008551754
 31
0.0
  0
LINE
  5
1E5
330
185
100
AcDbEntity
  8
AM_5
100
AcDbLine
 10
0.09795
 20
-1.610333333333346
 30
0.0
 11
0.1249999999999999
 21
-1.610333333333346
 31
0.0
  0
LINE
  5
1E6
330
185
100
AcDbEntity
  8
AM_5
100
AcDbLine
 10
-0.09795
 20
-1.610333333333346
 30
0.0
 11
-0.1250000000000002
 21
-1.610333333333346
 31
0.0
  0
LINE
  5
1E7
330
185
100
AcDbEntity
  8
AM_5
100
AcDbLine
 10
-0.1250000000000002
 20
-1.610333333333346
 30
0.0
 11
-0.09795
 21
-1.594716008551766
 31
0.0
  0
ARC
  5
1E8
330
185
100
AcDbEntity
  8
AM_4
100
AcDbCircle
 10
2.451715561259646
 20
-2.320333333333333
 30
0.0
 40
0.0500000000000007
100
AcDbArc
 50
270.0
 51
357.9999999999991
  0
ARC
  5
1E9
330
185
100
AcDbEntity
  8
AM_4
100
AcDbCircle
 10
-2.451715561259646
 20
-2.320333333333333
 30
0.0
 40
0.0500000000000003
100
AcDbArc
 50
182.0000000000008
 51
270.0
  0
LWPOLYLINE
  5
1EA
330
185
100
AcDbEntity
  8
AM_4
100
AcDbPolyline
 90
        6
 70
     0
 43
0.0
 10
1.936880151435482
 20
-2.322078308168459
 10
1.934486066876636
 20
-2.338454277847101
 10
1.928394861241001
 20
-2.352794505113438
 10
1.919278208205407
 20
-2.363517061431032
 10
1.908118701042668
 20
-2.369422213756794
 10
1.90136493504007
 20
-2.370333333333333
  0
LWPOLYLINE
  5
1EB
330
185
100
AcDbEntity
  8
AM_4
100
AcDbPolyline
 90
        6
 70
     0
 43
0.0
 10
-1.901364935040069
 20
-2.370333333333333
 10
-1.906574535217859
 20
-2.36979324476616
 10
-1.917978192677443
 20
-2.364533839127761
 10
-1.927485891094621
 20
-2.354235702644239
 10
-1.934003513616657
 20
-2.340111909572901
 10
-1.936880151435481
 20
-2.322078308168459
  0
LINE
  5
1EC
330
185
100
AcDbEntity
  8
AM_4
100
AcDbLine
 10
-0.7355029652476232
 20
-2.6875
 30
0.0
 11
-0.7355029652476234
 21
-2.440333333333333
 31
0.0
  0
LINE
  5
1ED
330
185
100
AcDbEntity
  8
AM_4
100
AcDbLine
 10
1.689985207035849
 20
-1.930333333333333
 30
0.0
 11
1.689985207035849
 21
-2.370333333333333
 31
0.0
  0
LINE
  5
1EE
330
185
100
AcDbEntity
  8
AM_4
100
AcDbLine
 10
-1.689985207035848
 20
-1.930333333333333
 30
0.0
 11
-1.689985207035848
 21
-2.370333333333333
 31
0.0
  0
LINE
  5
1EF
330
185
100
AcDbEntity
  8
AM_4
100
AcDbLine
 10
-0.5373549674169111
 20
-2.6875
 30
0.0
 11
-0.5373549674169111
 21
-2.440333333333333
 31
0.0
  0
LINE
  5
1F0
330
185
100
AcDbEntity
  8
AM_4
100
AcDbLine
 10
-0.7683248505447329
 20
-2.440333333333333
 30
0.0
 11
-0.7683248505447329
 21
-2.6875
 31
0.0
  0
LINE
  5
1F1
330
185
100
AcDbEntity
  8
AM_4
100
AcDbLine
 10
-1.710526315789474
 20
-2.440333333333333
 30
0.0
 11
-1.710526315789474
 21
-2.6875
 31
0.0
  0
LINE
  5
1F2
330
185
100
AcDbEntity
  8
AM_4
100
AcDbLine
 10
1.710526315789474
 20
-2.6875
 30
0.0
 11
1.710526315789474
 21
-2.440333333333333
 31
0.0
  0
LINE
  5
1F3
330
185
100
AcDbEntity
  8
AM_4
100
AcDbLine
 10
1.710526315789474
 20
-2.6875
 30
0.0
 11
-1.710526315789474
 21
-2.6875
 31
0.0
  0
LWPOLYLINE
  5
1F4
330
185
100
AcDbEntity
  8
AM_4
100
AcDbPolyline
 90
        6
 70
     0
 43
0.0
 10
1.547811544446796
 20
-2.370333333333333
 10
1.553021144624585
 20
-2.36979324476616
 10
1.56442480208417
 20
-2.364533839127761
 10
1.573932500501348
 20
-2.35423570264424
 10
1.580450123023384
 20
-2.340111909572901
 10
1.583326760842208
 20
-2.322078308168459
  0
LWPOLYLINE
  5
1F5
330
185
100
AcDbEntity
  8
AM_4
100
AcDbPolyline
 90
        6
 70
     0
 43
0.0
 10
-1.583326760842207
 20
-2.322078308168459
 10
-1.580932676283362
 20
-2.338454277847101
 10
-1.574841470647727
 20
-2.352794505113438
 10
-1.565724817612132
 20
-2.363517061431032
 10
-1.554565310449393
 20
-2.369422213756794
 10
-1.547811544446795
 20
-2.370333333333333
  0
LINE
  5
1F6
330
185
100
AcDbEntity
  8
AM_4
100
AcDbLine
 10
-1.936880151435481
 20
-2.322078308168459
 30
0.0
 11
-2.501685102610601
 21
-2.322078308168459
 31
0.0
  0
LINE
  5
1F7
330
185
100
AcDbEntity
  8
AM_4
100
AcDbLine
 10
-1.936880151435481
 20
-2.322078308168459
 30
0.0
 11
-1.946601796876636
 21
-1.930333333333333
 31
0.0
  0
LINE
  5
1F8
330
185
100
AcDbEntity
  8
AM_4
100
AcDbLine
 10
-1.946601796876636
 20
-1.930333333333333
 30
0.0
 11
-1.593048406283363
 21
-1.930333333333333
 31
0.0
  0
LINE
  5
1F9
330
185
100
AcDbEntity
  8
AM_4
100
AcDbLine
 10
-1.593048406283363
 20
-1.930333333333333
 30
0.0
 11
-1.583326760842207
 21
-2.322078308168459
 31
0.0
  0
LINE
  5
1FA
330
185
100
AcDbEntity
  8
AM_4
100
AcDbLine
 10
1.583326760842208
 20
-2.322078308168459
 30
0.0
 11
-1.583326760842207
 21
-2.322078308168459
 31
0.0
  0
LINE
  5
1FB
330
185
100
AcDbEntity
  8
AM_4
100
AcDbLine
 10
1.583326760842208
 20
-2.322078308168459
 30
0.0
 11
1.593048406283363
 21
-1.930333333333333
 31
0.0
  0
LINE
  5
1FC
330
185
100
AcDbEntity
  8
AM_4
100
AcDbLine
 10
1.593048406283363
 20
-1.930333333333333
 30
0.0
 11
1.946601796876637
 21
-1.930333333333333
 31
0.0
  0
LINE
  5
1FD
330
185
100
AcDbEntity
  8
AM_4
100
AcDbLine
 10
1.946601796876637
 20
-1.930333333333333
 30
0.0
 11
1.936880151435482
 21
-2.322078308168459
 31
0.0
  0
LINE
  5
1FE
330
185
100
AcDbEntity
  8
AM_4
100
AcDbLine
 10
2.501685102610601
 20
-2.322078308168459
 30
0.0
 11
2.529301435667701
 21
-1.53125
 31
0.0
  0
LINE
  5
1FF
330
185
100
AcDbEntity
  8
AM_4
100
AcDbLine
 10
-2.529301435667701
 20
-1.53125
 30
0.0
 11
-2.501685102610601
 21
-2.322078308168459
 31
0.0
  0
LINE
  5
200
330
185
100
AcDbEntity
  8
AM_4
100
AcDbLine
 10
2.501685102610601
 20
-2.322078308168459
 30
0.0
 11
1.936880151435482
 21
-2.322078308168459
 31
0.0
  0
ENDBLK
  5
188
330
185
100
AcDbEntity
  8
0
100
AcDbBlockEnd
  0
BLOCK
  5
203
330
201
100
AcDbEntity
  8
0
100
AcDbBlockBegin
  2
7_069362H_0_in_069362_4
 70
     2
 10
0.0
 20
0.0
 30
0.0
  3
7_069362H_0_in_069362_4
  1

  0
ATTDEF
  5
205
330
201
100
AcDbEntity
  8
AM_6
100
AcDbText
 10
11.428125
 20
1.8528125
 30
0.0
 40
0.5
  1
WSTU-IP -Housing -Inch
100
AcDbAttributeDefinition
  3

  2
NN
 70
     8
280
     0
  0
ATTDEF
  5
206
330
201
100
AcDbEntity
  8
AM_6
100
AcDbText
 10
11.428125
 20
1.3528125
 30
0.0
 40
0.5
  1
Imperial Wide Slot Take-Up Bearings
100
AcDbAttributeDefinition
  3

  2
NT
 70
     8
280
     0
  0
ATTDEF
  5
207
330
201
100
AcDbEntity
  8
AM_6
100
AcDbText
 10
11.428125
 20
0.8528125000000002
 30
0.0
 40
0.5
  1
069362H
100
AcDbAttributeDefinition
  3

  2
NB
 70
     8
280
     0
  0
ATTDEF
  5
208
330
201
100
AcDbEntity
  8
AM_6
100
AcDbText
 10
11.428125
 20
0.3528125000000002
 30
0.0
 40
0.5
  1
$PN.H
100
AcDbAttributeDefinition
  3

  2
NBSYN
 70
     8
280
     0
  0
ATTDEF
  5
209
330
201
100
AcDbEntity
  8
AM_6
100
AcDbText
 10
11.428125
 20
-0.1471874999999998
 30
0.0
 40
0.5
  1
069362
100
AcDbAttributeDefinition
  3

  2
LINA
 70
     8
280
     0
  0
ATTDEF
  5
20A
330
201
100
AcDbEntity
  8
AM_6
100
AcDbText
 10
11.428125
 20
-0.6471874999999998
 30
0.0
 40
0.5
  1
3-1/4
100
AcDbAttributeDefinition
  3

  2
SS
 70
     8
280
     0
  0
ATTDEF
  5
20B
330
201
100
AcDbEntity
  8
AM_6
100
AcDbText
 10
11.428125
 20
-1.1471875
 30
0.0
 40
0.5
  1
069362
100
AcDbAttributeDefinition
  3

  2
PN
 70
     8
280
     0
  0
ATTDEF
  5
20C
330
201
100
AcDbEntity
  8
AM_6
100
AcDbText
 10
11.428125
 20
-1.6471875
 30
0.0
 40
0.5
  1
WSTU-IP-304R
100
AcDbAttributeDefinition
  3

  2
DESCRIPTION
 70
     8
280
     0
  0
ATTDEF
  5
20D
330
201
100
AcDbEntity
  8
AM_6
100
AcDbText
 10
11.428125
 20
-2.1471875
 30
0.0
 40
0.5
  1
Non-Expansion
100
AcDbAttributeDefinition
  3

  2
EF
 70
     8
280
     0
  0
ATTDEF
  5
20E
330
201
100
AcDbEntity
  8
AM_6
100
AcDbText
 10
11.428125
 20
-2.6471875
 30
0.0
 40
0.5
  1
Contact Seal
100
AcDbAttributeDefinition
  3

  2
ST
 70
     8
280
     0
  0
ATTDEF
  5
20F
330
201
100
AcDbEntity
  8
AM_6
100
AcDbText
 10
11.428125
 20
-3.1471875
 30
0.0
 40
0.5
  1
4-5/32
100
AcDbAttributeDefinition
  3

  2
A
 70
     8
280
     0
  0
ATTDEF
  5
210
330
201
100
AcDbEntity
  8
AM_6
100
AcDbText
 10
11.428125
 20
-3.6471875
 30
0.0
 40
0.5
  1
10-1/16
100
AcDbAttributeDefinition
  3

  2
B
 70
     8
280
     0
  0
ATTDEF
  5
211
330
201
100
AcDbEntity
  8
AM_6
100
AcDbText
 10
11.428125
 20
-4.147187499999999
 30
0.0
 40
0.5
  1
1-13/16
100
AcDbAttributeDefinition
  3

  2
C
 70
     8
280
     0
  0
ATTDEF
  5
212
330
201
100
AcDbEntity
  8
AM_6
100
AcDbText
 10
11.428125
 20
-4.647187499999999
 30
0.0
 40
0.5
  1
5-1/2
100
AcDbAttributeDefinition
  3

  2
D
 70
     8
280
     0
  0
ATTDEF
  5
213
330
201
100
AcDbEntity
  8
AM_6
100
AcDbText
 10
11.428125
 20
-5.147187499999999
 30
0.0
 40
0.5
  1
6-3/8
100
AcDbAttributeDefinition
  3

  2
E
 70
     8
280
     0
  0
ATTDEF
  5
214
330
201
100
AcDbEntity
  8
AM_6
100
AcDbText
 10
11.428125
 20
-5.647187499999999
 30
0.0
 40
0.5
  1
1-7/8
100
AcDbAttributeDefinition
  3

  2
F
 70
     8
280
     0
  0
ATTDEF
  5
215
330
201
100
AcDbEntity
  8
AM_6
100
AcDbText
 10
11.428125
 20
-6.147187499999999
 30
0.0
 40
0.5
  1
1-1/16
100
AcDbAttributeDefinition
  3

  2
G
 70
     8
280
     0
  0
ATTDEF
  5
216
330
201
100
AcDbEntity
  8
AM_6
100
AcDbText
 10
11.428125
 20
-6.647187499999999
 30
0.0
 40
0.5
  1
1-5/8
100
AcDbAttributeDefinition
  3

  2
H
 70
     8
280
     0
  0
ATTDEF
  5
217
330
201
100
AcDbEntity
  8
AM_6
100
AcDbText
 10
11.428125
 20
-7.147187499999999
 30
0.0
 40
0.5
  1
5-1/8
100
AcDbAttributeDefinition
  3

  2
J
 70
     8
280
     0
  0
ATTDEF
  5
218
330
201
100
AcDbEntity
  8
AM_6
100
AcDbText
 10
11.428125
 20
-7.647187499999999
 30
0.0
 40
0.5
  1
2-7/8
100
AcDbAttributeDefinition
  3

  2
K
 70
     8
280
     0
  0
ATTDEF
  5
219
330
201
100
AcDbEntity
  8
AM_6
100
AcDbText
 10
11.428125
 20
-8.1471875
 30
0.0
 40
0.5
  1
5
100
AcDbAttributeDefinition
  3

  2
L
 70
     8
280
     0
  0
ATTDEF
  5
21A
330
201
100
AcDbEntity
  8
AM_6
100
AcDbText
 10
11.428125
 20
-8.6471875
 30
0.0
 40
0.5
  1
6-13/16
100
AcDbAttributeDefinition
  3

  2
M
 70
     8
280
     0
  0
ATTDEF
  5
21B
330
201
100
AcDbEntity
  8
AM_6
100
AcDbText
 10
11.428125
 20
-9.1471875
 30
0.0
 40
0.5
  1
7-13/16
100
AcDbAttributeDefinition
  3

  2
N
 70
     8
280
     0
  0
ATTDEF
  5
21C
330
201
100
AcDbEntity
  8
AM_6
100
AcDbText
 10
11.428125
 20
-9.6471875
 30
0.0
 40
0.5
  1
4-7/32
100
AcDbAttributeDefinition
  3

  2
R
 70
     8
280
     0
  0
ATTDEF
  5
21D
330
201
100
AcDbEntity
  8
AM_6
100
AcDbText
 10
11.428125
 20
-10.1471875
 30
0.0
 40
0.5
  1
2-11/16
100
AcDbAttributeDefinition
  3

  2
S
 70
     8
280
     0
  0
ATTDEF
  5
21E
330
201
100
AcDbEntity
  8
AM_6
100
AcDbText
 10
11.428125
 20
-10.6471875
 30
0.0
 40
0.5
  1
3-1/16
100
AcDbAttributeDefinition
  3

  2
T
 70
     8
280
     0
  0
ATTDEF
  5
21F
330
201
100
AcDbEntity
  8
AM_6
100
AcDbText
 10
11.428125
 20
-11.1471875
 30
0.0
 40
0.5
  1
1/4
100
AcDbAttributeDefinition
  3

  2
X
 70
     8
280
     0
  0
ATTDEF
  5
220
330
201
100
AcDbEntity
  8
AM_6
100
AcDbText
 10
11.428125
 20
-11.6471875
 30
0.0
 40
0.5
  1
0.025
100
AcDbAttributeDefinition
  3

  2
Y
 70
     8
280
     0
  0
ATTDEF
  5
221
330
201
100
AcDbEntity
  8
AM_6
100
AcDbText
 10
11.428125
 20
-12.1471875
 30
0.0
 40
0.5
  1
4-3/64
100
AcDbAttributeDefinition
  3

  2
Z
 70
     8
280
     0
  0
ATTDEF
  5
222
330
201
100
AcDbEntity
  8
AM_6
100
AcDbText
 10
11.428125
 20
-12.6471875
 30
0.0
 40
0.5
  1
baldor
100
AcDbAttributeDefinition
  3

  2
COMPANY
 70
     8
280
     0
  0
ELLIPSE
  5
223
330
201
100
AcDbEntity
  8
AM_9
100
AcDbEllipse
 10
-3.511708849171708
 20
-0.0000000000000001
 30
0.0
 11
-7.347880794884119E-17
 21
-0.4
 31
0.0
210
0.0
220
0.0
230
1.0
 40
0.3746065934159114
 41
0.0
 42
6.283185307179586
  0
LWPOLYLINE
  5
224
330
201
100
AcDbEntity
  8
AM_9
100
AcDbPolyline
 90
       41
 70
     0
 43
0.0
 10
-3.418995100217954
 20
0.4999999999311573
 10
-3.440579581294552
 20
0.4985024345632192
 10
-3.46231974212827
 20
0.4939063277715579
 10
-3.483079380956346
 20
0.4864488736010725
 10
-3.502823927492462
 20
0.4762972635967037
 10
-3.521607355131429
 20
0.4635030128896169
 10
-3.539546206223326
 20
0.4479655926425757
 10
-3.556765516317679
 20
0.4294300216404472
 10
-3.573309401269502
 20
0.4075746812884845
 10
-3.589039264387385
 20
0.3822486408253628
 10
-3.603632007929463
 20
0.3537418853220524
 10
-3.616741318674769
 20
0.3227887582930787
 10
-3.628234153644929
 20
0.2900690411786737
 10
-3.638172352522416
 20
0.2559039276593796
 10
-3.646637665035419
 20
0.2204928142117497
 10
-3.653693859726602
 20
0.1839974645381633
 10
-3.659382240190118
 20
0.1465801980994523
 10
-3.663726928283961
 20
0.1084161655067401
 10
-3.666741001091965
 20
0.0696949292437906
 10
-3.668431258350979
 20
0.030618091044316
 10
-3.668801398790155
 20
-0.0086044409447926
 10
-3.667853806871191
 20
-0.0477586147476561
 10
-3.665591131057276
 20
-0.0866173367133411
 10
-3.66201570475107
 20
-0.1249661379305333
 10
-3.657126950139924
 20
-0.1626043859739736
 10
-3.650918277208878
 20
-0.1993446180534478
 10
-3.643371917980833
 20
-0.2350170990280926
 10
-3.634450900135843
 20
-0.2694739629068937
 10
-3.624087023893647
 20
-0.3025916356633638
 10
-3.612163925375934
 20
-0.334267894957983
 10
-3.598497155313143
 20
-0.3644040073745897
 10
-3.582825789305646
 20
-0.3928495457878304
 10
-3.564869139349266
 20
-0.4192722295130014
 10
-3.547505257074221
 20
-0.4398798322072394
 10
-3.529406026549222
 20
-0.457178861164924
 10
-3.510626109077922
 20
-0.4713796525243785
 10
-3.491140162026925
 20
-0.4826844720249714
 10
-3.470959911125616
 20
-0.4911811619877522
 10
-3.450179657711813
 20
-0.4968631331341509
 10
-3.427092938330428
 20
-0.4997896631183831
 10
-3.418945878475461
 20
-0.499999993634095
  0
LINE
  5
225
330
201
100
AcDbEntity
  8
AM_9
100
AcDbLine
 10
6.375
 20
0.9375
 30
0.0
 11
5.3125
 21
0.9375
 31
0.0
  0
LINE
  5
226
330
201
100
AcDbEntity
  8
AM_9
100
AcDbLine
 10
5.3125
 20
-0.9375
 30
0.0
 11
6.375
 21
-0.9375
 31
0.0
  0
LINE
  5
227
330
201
100
AcDbEntity
  8
AM_9
100
AcDbLine
 10
3.84375
 20
-1.12546875
 30
0.0
 11
3.84375
 21
1.12546875
 31
0.0
  0
LINE
  5
228
330
201
100
AcDbEntity
  8
AM_9
100
AcDbLine
 10
3.6875
 20
-1.12546875
 30
0.0
 11
3.6875
 21
1.12546875
 31
0.0
  0
LINE
  5
229
330
201
100
AcDbEntity
  8
AM_9
100
AcDbLine
 10
5.156250000000001
 20
-1.12546875
 30
0.0
 11
5.156250000000001
 21
1.12546875
 31
0.0
  0
LINE
  5
22A
330
201
100
AcDbEntity
  8
AM_9
100
AcDbLine
 10
5.3125
 20
-1.12546875
 30
0.0
 11
5.3125
 21
1.12546875
 31
0.0
  0
LWPOLYLINE
  5
22B
330
201
100
AcDbEntity
  8
AM_9
100
AcDbPolyline
 90
       26
 70
     0
 43
0.0
 10
-3.418990463715029
 20
-0.5000000000000004
 10
-3.439462931878673
 20
-0.4968887731322551
 10
-3.468140913885027
 20
-0.4806449939529513
 10
-3.493916537401745
 20
-0.4511135982091773
 10
-3.516363340668818
 20
-0.4088153804399253
 10
-3.535216092282054
 20
-0.3551799504026647
 10
-3.545773086321379
 20
-0.3134487687849006
 10
-3.554691839861701
 20
-0.2676281297067793
 10
-3.561930732499745
 20
-0.218569133331481
 10
-3.567522306366218
 20
-0.166658356946282
 10
-3.571517218053087
 20
-0.1124492836185198
 10
-3.573909929424664
 20
-0.0569730452362484
 10
-3.574712574532787
 20
-0.0012004135389422
 10
-3.573966472576503
 20
0.0547640411075178
 10
-3.571671992283513
 20
0.1098600471325889
 10
-3.565295734983875
 20
0.189426765196691
 10
-3.555362291329291
 20
0.2637047415295028
 10
-3.541665334524648
 20
0.3309506751821
 10
-3.524258364579795
 20
0.3889441284801698
 10
-3.510490458351277
 20
0.421744079488685
 10
-3.495064681104775
 20
0.4493258193382558
 10
-3.478157201672047
 20
0.4711633810601427
 10
-3.459860895732517
 20
0.4869173622837175
 10
-3.440258719375738
 20
0.4965918836125934
 10
-3.419680139701474
 20
0.4999966062642485
 10
-3.418990463715028
 20
0.5000000000000002
  0
LWPOLYLINE
  5
22C
330
201
100
AcDbEntity
  8
AM_9
100
AcDbPolyline
 90
       26
 70
     0
 43
0.0
 10
-3.418990463715028
 20
0.5000000000000002
 10
-3.387245607702919
 20
0.4931095108371463
 10
-3.3547589213302
 20
0.4728267550051833
 10
-3.322269289782942
 20
0.4391333216299102
 10
-3.291338871563525
 20
0.393309227920413
 10
-3.27209121658703
 20
0.3562763608103782
 10
-3.25441562117827
 20
0.3146622886543657
 10
-3.238770320134926
 20
0.2692354647340168
 10
-3.225414725133745
 20
0.2201563928757827
 10
-3.214623735697418
 20
0.1681102523115081
 10
-3.206702783479652
 20
0.1140800862708483
 10
-3.201776281579543
 20
0.0574251702185687
 10
-3.200111398296477
 20
-0.0000000000000001
 10
-3.201698811650013
 20
-0.0557568049126982
 10
-3.20637135476261
 20
-0.1109834655049989
 10
-3.213994482212253
 20
-0.164638778624107
 10
-3.230707481595966
 20
-0.2410447622950982
 10
-3.252892588544329
 20
-0.310703845753902
 10
-3.270356922372744
 20
-0.3525575109993362
 10
-3.289541857697813
 20
-0.3901197760485587
 10
-3.309962667818938
 20
-0.4226941861558061
 10
-3.331400003880385
 20
-0.4499976939881012
 10
-3.35345699206353
 20
-0.4717026135185123
 10
-3.375622817299733
 20
-0.4873889473216028
 10
-3.397555740296116
 20
-0.4968262846510382
 10
-3.418990463715029
 20
-0.5000000000000004
  0
LINE
  5
22D
330
201
100
AcDbEntity
  8
AM_9
100
AcDbLine
 10
3.1496
 20
-1.53125
 30
0.0
 11
3.1496
 21
1.53125
 31
0.0
  0
LINE
  5
22E
330
201
100
AcDbEntity
  8
AM_9
100
AcDbLine
 10
-3.1496
 20
1.53125
 30
0.0
 11
-3.1496
 21
-1.53125
 31
0.0
  0
ELLIPSE
  5
22F
330
201
100
AcDbEntity
  8
AM_9
100
AcDbEllipse
 10
-3.418990463715028
 20
-0.0000000000000001
 30
0.0
 11
3.061616997868384E-17
 21
0.5000000000000002
 31
0.0
210
0.0
220
0.0
230
1.0
 40
0.3746065934159118
 41
0.0
 42
6.283185307179586
  0
LINE
  5
232
330
201
100
AcDbEntity
  8
AM_7
100
AcDbLine
 10
5.259375
 20
0.0
 30
0.0
 11
6.428125
 21
0.0
 31
0.0
  0
LINE
  5
233
330
201
100
AcDbEntity
  8
AM_7
100
AcDbLine
 10
0.0
 20
1.8528125
 30
0.0
 11
0.0
 21
-2.897343750000001
 31
0.0
  0
LINE
  5
234
330
201
100
AcDbEntity
  8
AM_4
100
AcDbLine
 10
6.375
 20
1.825674165130942
 30
0.0
 11
5.3125
 21
1.825674165130942
 31
0.0
  0
LINE
  5
235
330
201
100
AcDbEntity
  8
AM_4
100
AcDbLine
 10
5.3125
 20
1.825674165130942
 30
0.0
 11
5.3125
 21
1.12546875
 31
0.0
  0
LINE
  5
236
330
201
100
AcDbEntity
  8
AM_4
100
AcDbLine
 10
6.375
 20
1.825674165130942
 30
0.0
 11
6.375
 21
-1.825674165130942
 31
0.0
  0
LINE
  5
237
330
201
100
AcDbEntity
  8
AM_4
100
AcDbLine
 10
5.3125
 20
-1.12546875
 30
0.0
 11
5.3125
 21
-1.825674165130942
 31
0.0
  0
LINE
  5
238
330
201
100
AcDbEntity
  8
AM_4
100
AcDbLine
 10
5.3125
 20
-1.825674165130942
 30
0.0
 11
6.375
 21
-1.825674165130942
 31
0.0
  0
LINE
  5
239
330
201
100
AcDbEntity
  8
AM_4
100
AcDbLine
 10
3.6875
 20
1.12546875
 30
0.0
 11
3.6875
 21
1.34375
 31
0.0
  0
LINE
  5
23A
330
201
100
AcDbEntity
  8
AM_4
100
AcDbLine
 10
-3.6875
 20
1.34375
 30
0.0
 11
-3.6875
 21
-1.343750000000001
 31
0.0
  0
LINE
  5
23B
330
201
100
AcDbEntity
  8
AM_4
100
AcDbLine
 10
3.6875
 20
-1.343750000000001
 30
0.0
 11
3.6875
 21
-1.12546875
 31
0.0
  0
LWPOLYLINE
  5
23C
330
201
100
AcDbEntity
  8
AM_4
100
AcDbPolyline
 90
        4
 70
     0
 43
0.0
 10
2.820821024099189
 20
-1.12546875
 10
2.790402426579652
 20
-1.122045328298334
 10
2.759527879423469
 20
-1.111527432834633
 10
2.75
 20
-1.106754499327863
  0
LINE
  5
23D
330
201
100
AcDbEntity
  8
AM_4
100
AcDbLine
 10
6.375
 20
-1.12546875
 30
0.0
 11
2.820821024099189
 21
-1.12546875
 31
0.0
  0
LINE
  5
23E
330
201
100
AcDbEntity
  8
AM_4
100
AcDbLine
 10
6.375
 20
-0.9379687500000001
 30
0.0
 11
2.75
 21
-0.9379687500000001
 31
0.0
  0
LWPOLYLINE
  5
23F
330
201
100
AcDbEntity
  8
AM_4
100
AcDbPolyline
 90
        4
 70
     0
 43
0.0
 10
2.75
 20
1.106754499327863
 10
2.779974984858518
 20
1.119304168431033
 10
2.811108985668293
 20
1.125116519599512
 10
2.82082102409919
 20
1.12546875
  0
LINE
  5
240
330
201
100
AcDbEntity
  8
AM_4
100
AcDbLine
 10
6.375
 20
0.9379687500000012
 30
0.0
 11
2.75
 21
0.9379687500000012
 31
0.0
  0
LINE
  5
241
330
201
100
AcDbEntity
  8
AM_4
100
AcDbLine
 10
6.375
 20
1.12546875
 30
0.0
 11
2.82082102409919
 21
1.12546875
 31
0.0
  0
LINE
  5
242
330
201
100
AcDbEntity
  8
AM_4
100
AcDbLine
 10
2.75
 20
1.34375
 30
0.0
 11
3.6875
 21
1.34375
 31
0.0
  0
LINE
  5
243
330
201
100
AcDbEntity
  8
AM_4
100
AcDbLine
 10
-3.500000002793969
 20
1.53125
 30
0.0
 11
3.5000000027898
 21
1.53125
 31
0.0
  0
ARC
  5
244
330
201
100
AcDbEntity
  8
AM_4
100
AcDbCircle
 10
3.500000000000001
 20
1.343750000000001
 30
0.0
 40
0.1874999999999991
100
AcDbArc
 50
0.0
 51
90.0
  0
ARC
  5
245
330
201
100
AcDbEntity
  8
AM_4
100
AcDbCircle
 10
-3.500000000000001
 20
1.34375
 30
0.0
 40
0.1874999999999996
100
AcDbArc
 50
90.0
 51
180.0
  0
LINE
  5
246
330
201
100
AcDbEntity
  8
AM_4
100
AcDbLine
 10
-3.6875
 20
1.34375
 30
0.0
 11
-2.75
 21
1.34375
 31
0.0
  0
LINE
  5
247
330
201
100
AcDbEntity
  8
AM_4
100
AcDbLine
 10
-3.5
 20
-1.53125
 30
0.0
 11
3.499999999995831
 21
-1.53125
 31
0.0
  0
LINE
  5
248
330
201
100
AcDbEntity
  8
AM_4
100
AcDbLine
 10
2.75
 20
-1.343750000000001
 30
0.0
 11
3.6875
 21
-1.343750000000001
 31
0.0
  0
ARC
  5
249
330
201
100
AcDbEntity
  8
AM_4
100
AcDbCircle
 10
3.5
 20
-1.34375
 30
0.0
 40
0.1875
100
AcDbArc
 50
270.0
 51
0.0
  0
ARC
  5
24A
330
201
100
AcDbEntity
  8
AM_4
100
AcDbCircle
 10
-3.5
 20
-1.34375
 30
0.0
 40
0.1875
100
AcDbArc
 50
180.0
 51
270.0
  0
LINE
  5
24B
330
201
100
AcDbEntity
  8
AM_4
100
AcDbLine
 10
-3.6875
 20
-1.343750000000001
 30
0.0
 11
-2.75
 21
-1.343750000000001
 31
0.0
  0
LINE
  5
24C
330
201
100
AcDbEntity
  8
AM_4
100
AcDbLine
 10
2.75
 20
-1.378125
 30
0.0
 11
2.75
 21
1.378125
 31
0.0
  0
LINE
  5
24D
330
201
100
AcDbEntity
  8
AM_4
100
AcDbLine
 10
2.562500000000001
 20
0.9062500000000002
 30
0.0
 11
2.562500000000001
 21
1.378125
 31
0.0
  0
LINE
  5
24E
330
201
100
AcDbEntity
  8
AM_4
100
AcDbLine
 10
-2.75
 20
-0.9062499999999997
 30
0.0
 11
2.75
 21
-0.9062499999999997
 31
0.0
  0
LINE
  5
24F
330
201
100
AcDbEntity
  8
AM_4
100
AcDbLine
 10
2.562500000000001
 20
-1.378125
 30
0.0
 11
2.562500000000001
 21
-0.9062499999999997
 31
0.0
  0
LINE
  5
250
330
201
100
AcDbEntity
  8
AM_4
100
AcDbLine
 10
2.75
 20
0.9062500000000002
 30
0.0
 11
-2.75
 21
0.9062500000000002
 31
0.0
  0
LINE
  5
251
330
201
100
AcDbEntity
  8
AM_4
100
AcDbLine
 10
-2.5625
 20
0.9062500000000002
 30
0.0
 11
-2.5625
 21
1.378125
 31
0.0
  0
LINE
  5
252
330
201
100
AcDbEntity
  8
AM_4
100
AcDbLine
 10
2.75
 20
1.378125
 30
0.0
 11
-2.75
 21
1.378125
 31
0.0
  0
LINE
  5
253
330
201
100
AcDbEntity
  8
AM_4
100
AcDbLine
 10
-2.75
 20
-1.378125
 30
0.0
 11
-2.75
 21
1.378125
 31
0.0
  0
LINE
  5
254
330
201
100
AcDbEntity
  8
AM_4
100
AcDbLine
 10
2.75
 20
-1.378125
 30
0.0
 11
-2.75
 21
-1.378125
 31
0.0
  0
LINE
  5
255
330
201
100
AcDbEntity
  8
AM_4
100
AcDbLine
 10
-2.5625
 20
-1.378125
 30
0.0
 11
-2.5625
 21
-0.9062499999999997
 31
0.0
  0
ENDBLK
  5
204
330
201
100
AcDbEntity
  8
0
100
AcDbBlockEnd
  0
ENDSEC
  0
SECTION
  2
ENTITIES
  0
INSERT
  5
6F
330
1F
100
AcDbEntity
  8
0
100
AcDbBlockReference
  2
1_069362_4
 10
0.0
 20
0.0
 30
0.0
  0
POINT
  5
257
330
1F
100
AcDbEntity
  8
ConnectionPoints
100
AcDbPoint
 10
0.0
 20
-2.440333333333333
 30
-2.152777777777778
  0
POINT
  5
258
330
1F
100
AcDbEntity
  8
ConnectionPoints
100
AcDbPoint
 10
0.0
 20
-2.440333333333333
 30
2.152777777777778
  0
POINT
  5
259
330
1F
100
AcDbEntity
  8
ConnectionPoints
100
AcDbPoint
 10
0.0
 20
-2.370333333333333
 30
0.0000000000000002
  0
POINT
  5
25A
330
1F
100
AcDbEntity
  8
ConnectionPoints
100
AcDbPoint
 10
0.0
 20
-2.6875
 30
0.0000000000000002
  0
POINT
  5
25B
330
1F
100
AcDbEntity
  8
ConnectionPoints
100
AcDbPoint
 10
0.0
 20
-2.569333333333333
 30
0.0000000000000002
  0
POINT
  5
25C
330
1F
100
AcDbEntity
  8
ConnectionPoints
100
AcDbPoint
 10
0.0
 20
-2.370333333333333
 30
2.152777777777778
  0
POINT
  5
25D
330
1F
100
AcDbEntity
  8
ConnectionPoints
100
AcDbPoint
 10
0.0
 20
-2.5555
 30
2.152777777777778
  0
POINT
  5
25E
330
1F
100
AcDbEntity
  8
ConnectionPoints
100
AcDbPoint
 10
0.0
 20
-2.370333333333333
 30
-2.152777777777778
  0
POINT
  5
25F
330
1F
100
AcDbEntity
  8
ConnectionPoints
100
AcDbPoint
 10
0.0
 20
-2.5555
 30
-2.152777777777778
  0
POINT
  5
260
330
1F
100
AcDbEntity
  8
ConnectionPoints
100
AcDbPoint
 10
0.0
 20
-2.370333333333333
 30
0.0000000000000001
  0
POINT
  5
261
330
1F
100
AcDbEntity
  8
ConnectionPoints
100
AcDbPoint
 10
-3.511708849171708
 20
-0.0000000000000001
 30
-1.418822472562767
  0
POINT
  5
262
330
1F
100
AcDbEntity
  8
ConnectionPoints
100
AcDbPoint
 10
0.0
 20
-2.4375
 30
0.0000000000000001
  0
POINT
  5
263
330
1F
100
AcDbEntity
  8
ConnectionPoints
100
AcDbPoint
 10
0.0
 20
-2.6875
 30
0.0000000000000002
  0
ENDSEC
  0
SECTION
  2
OBJECTS
  0
DICTIONARY
  5
C
330
0
100
AcDbDictionary
281
     1
  3
ACAD_DETAILVIEWSTYLE
350
26B
  3
ACAD_GROUP
350
D
  3
ACAD_LAYOUT
350
1A
  3
ACAD_MATERIAL
350
43
  3
ACAD_MLEADERSTYLE
350
6B
  3
ACAD_MLINESTYLE
350
17
  3
ACAD_PLOTSETTINGS
350
19
  3
ACAD_PLOTSTYLENAME
350
E
  3
ACAD_SCALELIST
350
47
  3
ACAD_SECTIONVIEWSTYLE
350
26C
  3
ACAD_TABLESTYLE
350
69
  3
ACAD_VISUALSTYLE
350
2A
  3
ACDB_RECOMPOSE_DATA
350
268
  3
AcDbVariableDictionary
350
264
  0
SUN
  5
6D
330
29
100
AcDbSun
 90
        1
290
     0
 63
     7
421
 16777215
 40
1.0
291
     1
 91
  2455826
 92
 54000000
292
     0
 70
     2
 71
   256
280
     1
  0
DICTIONARY
  5
26B
102
{ACAD_REACTORS
330
C
102
}
330
C
100
AcDbDictionary
281
     1
  0
DICTIONARY
  5
D
102
{ACAD_REACTORS
330
C
102
}
330
C
100
AcDbDictionary
281
     1
  0
DICTIONARY
  5
1A
102
{ACAD_REACTORS
330
C
102
}
330
C
100
AcDbDictionary
281
     1
  3
Layout1
350
1E
  3
Layout2
350
26
  3
Model
350
22
  0
DICTIONARY
  5
43
102
{ACAD_REACTORS
330
C
102
}
330
C
100
AcDbDictionary
281
     1
  3
ByBlock
350
45
  3
ByLayer
350
44
  3
Global
350
46
  0
DICTIONARY
  5
6B
102
{ACAD_REACTORS
330
C
102
}
330
C
100
AcDbDictionary
281
     1
  3
Standard
350
6C
  0
DICTIONARY
  5
17
102
{ACAD_REACTORS
330
C
102
}
330
C
100
AcDbDictionary
281
     1
  3
Standard
350
18
  0
DICTIONARY
  5
19
102
{ACAD_REACTORS
330
C
102
}
330
C
100
AcDbDictionary
281
     1
  0
ACDBDICTIONARYWDFLT
  5
E
102
{ACAD_REACTORS
330
C
102
}
330
C
100
AcDbDictionary
281
     1
  3
Normal
350
F
100
AcDbDictionaryWithDefault
340
F
  0
DICTIONARY
  5
47
102
{ACAD_REACTORS
330
C
102
}
330
C
100
AcDbDictionary
281
     1
  3
A0
350
48
  3
A1
350
49
  3
A2
350
4A
  3
A3
350
4B
  3
A4
350
4C
  3
A5
350
4D
  3
A6
350
4E
  3
A7
350
4F
  3
A8
350
50
  3
A9
350
51
  3
B0
350
52
  3
B1
350
53
  3
B2
350
54
  3
B3
350
55
  3
B4
350
56
  3
B5
350
57
  3
B6
350
58
  3
B7
350
59
  3
B8
350
5A
  3
B9
350
5B
  3
C0
350
5C
  3
C1
350
5D
  3
C2
350
5E
  3
C3
350
5F
  3
C4
350
60
  3
C5
350
61
  3
C6
350
62
  3
C7
350
63
  3
C8
350
64
  3
C9
350
65
  3
D0
350
66
  3
D1
350
67
  3
D2
350
68
  0
DICTIONARY
  5
26C
102
{ACAD_REACTORS
330
C
102
}
330
C
100
AcDbDictionary
281
     1
  0
DICTIONARY
  5
69
102
{ACAD_REACTORS
330
C
102
}
330
C
100
AcDbDictionary
281
     1
  3
Standard
350
6A
  0
DICTIONARY
  5
2A
102
{ACAD_REACTORS
330
C
102
}
330
C
100
AcDbDictionary
281
     1
  3
2dWireframe
350
2F
  3
Basic
350
32
  3
Brighten
350
36
  3
ColorChange
350
3A
  3
Conceptual
350
34
  3
Dim
350
35
  3
EdgeColorOff
350
3D
  3
Facepattern
350
39
  3
Flat
350
2B
  3
FlatWithEdges
350
2C
  3
Gouraud
350
2D
  3
GouraudWithEdges
350
2E
  3
Hidden
350
31
  3
JitterOff
350
3B
  3
Linepattern
350
38
  3
OverhangOff
350
3C
  3
Realistic
350
33
  3
Shaded
350
42
  3
Shaded with edges
350
41
  3
Shades of Gray
350
3E
  3
Sketchy
350
3F
  3
Thicken
350
37
  3
Wireframe
350
30
  3
X-Ray
350
40
  0
XRECORD
  5
268
102
{ACAD_REACTORS
330
C
102
}
330
C
100
AcDbXrecord
280
     1
 90
        1
330
6A
  0
DICTIONARY
  5
264
102
{ACAD_REACTORS
330
C
102
}
330
C
100
AcDbDictionary
281
     1
  3
CANNOSCALE
350
265
  3
CMLEADERSTYLE
350
26A
  3
CTABLESTYLE
350
269
  0
LAYOUT
  5
1E
102
{ACAD_REACTORS
330
1A
102
}
330
1A
100
AcDbPlotSettings
  1

  2
none_device
  4

  6

 40
0.0
 41
0.0
 42
0.0
 43
0.0
 44
0.0
 45
0.0
 46
0.0
 47
0.0
 48
0.0
 49
0.0
140
0.0
141
0.0
142
1.0
143
1.0
 70
   688
 72
     0
 73
     0
 74
     5
  7

 75
    16
 76
     0
 77
     2
 78
   300
147
1.0
148
0.0
149
0.0
100
AcDbLayout
  1
Layout1
 70
     1
 71
     1
 10
0.0
 20
0.0
 11
12.0
 21
9.0
 12
0.0
 22
0.0
 32
0.0
 14
1.000000000000000E+20
 24
1.000000000000000E+20
 34
1.000000000000000E+20
 15
-1.000000000000000E+20
 25
-1.000000000000000E+20
 35
-1.000000000000000E+20
146
0.0
 13
0.0
 23
0.0
 33
0.0
 16
1.0
 26
0.0
 36
0.0
 17
0.0
 27
1.0
 37
0.0
 76
     0
330
1B
  0
LAYOUT
  5
26
102
{ACAD_REACTORS
330
1A
102
}
330
1A
100
AcDbPlotSettings
  1

  2
none_device
  4

  6

 40
0.0
 41
0.0
 42
0.0
 43
0.0
 44
0.0
 45
0.0
 46
0.0
 47
0.0
 48
0.0
 49
0.0
140
0.0
141
0.0
142
1.0
143
1.0
 70
   688
 72
     0
 73
     0
 74
     5
  7

 75
    16
 76
     0
 77
     2
 78
   300
147
1.0
148
0.0
149
0.0
100
AcDbLayout
  1
Layout2
 70
     1
 71
     2
 10
0.0
 20
0.0
 11
0.0
 21
0.0
 12
0.0
 22
0.0
 32
0.0
 14
0.0
 24
0.0
 34
0.0
 15
0.0
 25
0.0
 35
0.0
146
0.0
 13
0.0
 23
0.0
 33
0.0
 16
1.0
 26
0.0
 36
0.0
 17
0.0
 27
1.0
 37
0.0
 76
     0
330
23
  0
LAYOUT
  5
22
102
{ACAD_REACTORS
330
1A
102
}
330
1A
100
AcDbPlotSettings
  1

  2
none_device
  4
Letter_(8.50_x_11.00_Inches)
  6

 40
6.35
 41
6.35
 42
6.35000508
 43
6.35000508
 44
215.9
 45
279.4
 46
0.0
 47
0.0
 48
0.0
 49
0.0
140
0.0
141
0.0
142
1.0
143
1.0
 70
  1712
 72
     0
 73
     0
 74
     0
  7

 75
     0
 76
     0
 77
     2
 78
   300
147
1.0
148
0.0
149
0.0
100
AcDbLayout
  1
Model
 70
     1
 71
     0
 10
0.0
 20
0.0
 11
12.0
 21
9.0
 12
0.0
 22
0.0
 32
0.0
 14
1.000000000000000E+20
 24
1.000000000000000E+20
 34
1.000000000000000E+20
 15
-1.000000000000000E+20
 25
-1.000000000000000E+20
 35
-1.000000000000000E+20
146
0.0
 13
0.0
 23
0.0
 33
0.0
 16
1.0
 26
0.0
 36
0.0
 17
0.0
 27
1.0
 37
0.0
 76
     0
330
1F
331
29
  0
MATERIAL
  5
45
102
{ACAD_REACTORS
330
43
102
}
330
43
100
AcDbMaterial
  1
ByBlock
 72
     1
 94
      127
  0
MATERIAL
  5
44
102
{ACAD_REACTORS
330
43
102
}
330
43
100
AcDbMaterial
  1
ByLayer
 72
     1
 94
      127
  0
MATERIAL
  5
46
102
{ACAD_REACTORS
330
43
102
}
330
43
100
AcDbMaterial
  1
Global
 72
     1
 94
      127
  0
MLEADERSTYLE
  5
6C
102
{ACAD_REACTORS
330
6B
102
}
330
6B
100
AcDbMLeaderStyle
179
     2
170
     2
171
     1
172
     0
 90
        2
 40
0.0
 41
0.0
173
     1
 91
-1056964608
340
14
 92
       -2
290
     1
 42
0.09
291
     1
 43
0.36
  3
Standard
341
0
 44
0.18
300

342
11
174
     1
178
     6
175
     1
176
     0
 93
-1056964608
 45
0.18
292
     0
297
     0
 46
0.18
343
0
 94
-1056964608
 47
1.0
 49
1.0
140
1.0
293
     1
141
0.0
294
     1
177
     0
142
1.0
295
     0
296
     0
143
0.125
271
     0
272
     9
273
     9
298
     0
  0
MLINESTYLE
  5
18
102
{ACAD_REACTORS
330
17
102
}
330
17
100
AcDbMlineStyle
  2
Standard
 70
     0
  3

 62
   256
 51
90.0
 52
90.0
 71
     2
 49
0.5
 62
   256
  6
BYLAYER
 49
-0.5
 62
   256
  6
BYLAYER
  0
ACDBPLACEHOLDER
  5
F
102
{ACAD_REACTORS
330
E
102
}
330
E
  0
SCALE
  5
48
102
{ACAD_REACTORS
330
47
102
}
330
47
100
AcDbScale
 70
     0
300
1:1
140
1.0
141
1.0
290
     1
  0
SCALE
  5
49
102
{ACAD_REACTORS
330
47
102
}
330
47
100
AcDbScale
 70
     0
300
1:2
140
1.0
141
2.0
290
     0
  0
SCALE
  5
4A
102
{ACAD_REACTORS
330
47
102
}
330
47
100
AcDbScale
 70
     0
300
1:4
140
1.0
141
4.0
290
     0
  0
SCALE
  5
4B
102
{ACAD_REACTORS
330
47
102
}
330
47
100
AcDbScale
 70
     0
300
1:5
140
1.0
141
5.0
290
     0
  0
SCALE
  5
4C
102
{ACAD_REACTORS
330
47
102
}
330
47
100
AcDbScale
 70
     0
300
1:8
140
1.0
141
8.0
290
     0
  0
SCALE
  5
4D
102
{ACAD_REACTORS
330
47
102
}
330
47
100
AcDbScale
 70
     0
300
1:10
140
1.0
141
10.0
290
     0
  0
SCALE
  5
4E
102
{ACAD_REACTORS
330
47
102
}
330
47
100
AcDbScale
 70
     0
300
1:16
140
1.0
141
16.0
290
     0
  0
SCALE
  5
4F
102
{ACAD_REACTORS
330
47
102
}
330
47
100
AcDbScale
 70
     0
300
1:20
140
1.0
141
20.0
290
     0
  0
SCALE
  5
50
102
{ACAD_REACTORS
330
47
102
}
330
47
100
AcDbScale
 70
     0
300
1:30
140
1.0
141
30.0
290
     0
  0
SCALE
  5
51
102
{ACAD_REACTORS
330
47
102
}
330
47
100
AcDbScale
 70
     0
300
1:40
140
1.0
141
40.0
290
     0
  0
SCALE
  5
52
102
{ACAD_REACTORS
330
47
102
}
330
47
100
AcDbScale
 70
     0
300
1:50
140
1.0
141
50.0
290
     0
  0
SCALE
  5
53
102
{ACAD_REACTORS
330
47
102
}
330
47
100
AcDbScale
 70
     0
300
1:100
140
1.0
141
100.0
290
     0
  0
SCALE
  5
54
102
{ACAD_REACTORS
330
47
102
}
330
47
100
AcDbScale
 70
     0
300
2:1
140
2.0
141
1.0
290
     0
  0
SCALE
  5
55
102
{ACAD_REACTORS
330
47
102
}
330
47
100
AcDbScale
 70
     0
300
4:1
140
4.0
141
1.0
290
     0
  0
SCALE
  5
56
102
{ACAD_REACTORS
330
47
102
}
330
47
100
AcDbScale
 70
     0
300
8:1
140
8.0
141
1.0
290
     0
  0
SCALE
  5
57
102
{ACAD_REACTORS
330
47
102
}
330
47
100
AcDbScale
 70
     0
300
10:1
140
10.0
141
1.0
290
     0
  0
SCALE
  5
58
102
{ACAD_REACTORS
330
47
102
}
330
47
100
AcDbScale
 70
     0
300
100:1
140
100.0
141
1.0
290
     0
  0
SCALE
  5
59
102
{ACAD_REACTORS
330
47
102
}
330
47
100
AcDbScale
 70
     0
300
1/128" = 1'-0"
140
0.0078125
141
12.0
290
     0
  0
SCALE
  5
5A
102
{ACAD_REACTORS
330
47
102
}
330
47
100
AcDbScale
 70
     0
300
1/64" = 1'-0"
140
0.015625
141
12.0
290
     0
  0
SCALE
  5
5B
102
{ACAD_REACTORS
330
47
102
}
330
47
100
AcDbScale
 70
     0
300
1/32" = 1'-0"
140
0.03125
141
12.0
290
     0
  0
SCALE
  5
5C
102
{ACAD_REACTORS
330
47
102
}
330
47
100
AcDbScale
 70
     0
300
1/16" = 1'-0"
140
0.0625
141
12.0
290
     0
  0
SCALE
  5
5D
102
{ACAD_REACTORS
330
47
102
}
330
47
100
AcDbScale
 70
     0
300
3/32" = 1'-0"
140
0.09375
141
12.0
290
     0
  0
SCALE
  5
5E
102
{ACAD_REACTORS
330
47
102
}
330
47
100
AcDbScale
 70
     0
300
1/8" = 1'-0"
140
0.125
141
12.0
290
     0
  0
SCALE
  5
5F
102
{ACAD_REACTORS
330
47
102
}
330
47
100
AcDbScale
 70
     0
300
3/16" = 1'-0"
140
0.1875
141
12.0
290
     0
  0
SCALE
  5
60
102
{ACAD_REACTORS
330
47
102
}
330
47
100
AcDbScale
 70
     0
300
1/4" = 1'-0"
140
0.25
141
12.0
290
     0
  0
SCALE
  5
61
102
{ACAD_REACTORS
330
47
102
}
330
47
100
AcDbScale
 70
     0
300
3/8" = 1'-0"
140
0.375
141
12.0
290
     0
  0
SCALE
  5
62
102
{ACAD_REACTORS
330
47
102
}
330
47
100
AcDbScale
 70
     0
300
1/2" = 1'-0"
140
0.5
141
12.0
290
     0
  0
SCALE
  5
63
102
{ACAD_REACTORS
330
47
102
}
330
47
100
AcDbScale
 70
     0
300
3/4" = 1'-0"
140
0.75
141
12.0
290
     0
  0
SCALE
  5
64
102
{ACAD_REACTORS
330
47
102
}
330
47
100
AcDbScale
 70
     0
300
1" = 1'-0"
140
1.0
141
12.0
290
     0
  0
SCALE
  5
65
102
{ACAD_REACTORS
330
47
102
}
330
47
100
AcDbScale
 70
     0
300
1-1/2" = 1'-0"
140
1.5
141
12.0
290
     0
  0
SCALE
  5
66
102
{ACAD_REACTORS
330
47
102
}
330
47
100
AcDbScale
 70
     0
300
3" = 1'-0"
140
3.0
141
12.0
290
     0
  0
SCALE
  5
67
102
{ACAD_REACTORS
330
47
102
}
330
47
100
AcDbScale
 70
     0
300
6" = 1'-0"
140
6.0
141
12.0
290
     0
  0
SCALE
  5
68
102
{ACAD_REACTORS
330
47
102
}
330
47
100
AcDbScale
 70
     0
300
1'-0" = 1'-0"
140
12.0
141
12.0
290
     0
  0
TABLESTYLE
  5
6A
102
{ACAD_REACTORS
330
69
102
}
102
{ACAD_XDICTIONARY
360
266
102
}
330
69
100
AcDbTableStyle
  3
Standard
 70
     0
 71
     0
 40
0.06
 41
0.06
280
     0
281
     0
  7
Standard
140
0.18
170
     2
 62
     0
 63
   257
283
     0
 90
        4
 91
        0
  1

274
    -2
284
     1
 64
     0
275
    -2
285
     1
 65
     0
276
    -2
286
     1
 66
     0
277
    -2
287
     1
 67
     0
278
    -2
288
     1
 68
     0
279
    -2
289
     1
 69
     0
  7
Standard
140
0.25
170
     5
 62
     0
 63
   257
283
     0
 90
        4
 91
        0
  1

274
    -2
284
     1
 64
     0
275
    -2
285
     1
 65
     0
276
    -2
286
     1
 66
     0
277
    -2
287
     1
 67
     0
278
    -2
288
     1
 68
     0
279
    -2
289
     1
 69
     0
  7
Standard
140
0.18
170
     5
 62
     0
 63
   257
283
     0
 90
        4
 91
        0
  1

274
    -2
284
     1
 64
     0
275
    -2
285
     1
 65
     0
276
    -2
286
     1
 66
     0
277
    -2
287
     1
 67
     0
278
    -2
288
     1
 68
     0
279
    -2
289
     1
 69
     0
  0
VISUALSTYLE
  5
2F
102
{ACAD_REACTORS
330
2A
102
}
330
2A
100
AcDbVisualStyle
  2
2dWireframe
 70
     4
177
     3
291
     0
 70
    58
 90
        0
176
     1
 90
        2
176
     1
 90
        0
176
     1
 90
        0
176
     1
 40
0.6
176
     1
 40
30.0
176
     1
 62
     7
420
 16777215
176
     1
 90
        1
176
     1
 90
        4
176
     1
 62
     7
176
     1
 62
   257
176
     1
 90
        1
176
     1
 90
        1
176
     1
 40
1.0
176
     1
 90
        0
176
     1
 62
   257
176
     1
 40
1.0
176
     1
 90
        1
176
     1
 90
        6
176
     1
 90
        2
176
     1
 62
     7
176
     1
 90
        5
176
     1
 90
        0
176
     1
 90
        0
176
     1
290
     0
176
     1
 90
        1
176
     1
 40
0.0
176
     1
 90
        0
176
     1
290
     1
176
     1
290
     1
176
     1
290
     0
176
     1
290
     0
176
     1
290
     0
176
     1
290
     0
176
     1
290
     0
176
     1
290
     0
176
     1
290
     0
176
     1
 90
       50
176
     1
 40
0.0
176
     1
 40
1.0
176
     1
 90
        0
176
     1
 62
    18
420
        0
176
     1
 90
       50
176
     1
 90
        3
176
     1
 62
     5
420
      255
176
     1
290
     0
176
     1
 90
       50
176
     1
 90
       50
176
     1
 90
       50
176
     1
290
     0
176
     1
 90
       50
176
     1
 62
   256
176
     0
 40
1.0
176
     0
 90
        2
176
     1
  1
strokes_ogs.tif
176
     1
290
     0
176
     1
 40
1.0
176
     1
 40
1.0
176
     1
  0
VISUALSTYLE
  5
32
102
{ACAD_REACTORS
330
2A
102
}
330
2A
100
AcDbVisualStyle
  2
Basic
 70
     7
177
     3
291
     1
 70
    58
 90
        1
176
     1
 90
        0
176
     1
 90
        1
176
     1
 90
        0
176
     1
 40
0.6
176
     1
 40
30.0
176
     1
 62
     7
420
 16777215
176
     1
 90
        0
176
     1
 90
        4
176
     1
 62
     7
176
     1
 62
   257
176
     1
 90
        1
176
     1
 90
        1
176
     1
 40
1.0
176
     1
 90
        8
176
     1
 62
     7
176
     1
 40
1.0
176
     1
 90
        1
176
     1
 90
        6
176
     1
 90
        2
176
     1
 62
     7
176
     1
 90
        5
176
     1
 90
        0
176
     1
 90
        0
176
     1
290
     0
176
     1
 90
        1
176
     1
 40
0.0
176
     1
 90
        0
176
     1
290
     0
176
     1
290
     1
176
     1
290
     1
176
     1
290
     0
176
     1
290
     0
176
     1
290
     0
176
     1
290
     0
176
     1
290
     0
176
     1
290
     0
176
     1
 90
       50
176
     1
 40
0.0
176
     1
 40
1.0
176
     1
 90
        0
176
     1
 62
    18
420
        0
176
     1
 90
       50
176
     1
 90
        3
176
     1
 62
     5
420
      255
176
     1
290
     0
176
     1
 90
       50
176
     1
 90
       50
176
     1
 90
       50
176
     1
290
     0
176
     1
 90
       50
176
     1
 62
   256
176
     0
 40
1.0
176
     0
 90
        2
176
     1
  1
strokes_ogs.tif
176
     1
290
     0
176
     1
 40
1.0
176
     1
 40
1.0
176
     1
  0
VISUALSTYLE
  5
36
102
{ACAD_REACTORS
330
2A
102
}
330
2A
100
AcDbVisualStyle
  2
Brighten
 70
    12
177
     3
291
     1
 70
    58
 90
        2
176
     1
 90
        2
176
     1
 90
        0
176
     1
 90
        0
176
     1
 40
0.6
176
     1
 40
30.0
176
     1
 62
     7
420
 16777215
176
     1
 90
        1
176
     1
 90
        4
176
     1
 62
     7
176
     1
 62
   257
176
     1
 90
        1
176
     1
 90
        1
176
     1
 40
1.0
176
     1
 90
        8
176
     1
 62
     7
176
     1
 40
1.0
176
     1
 90
        1
176
     1
 90
        6
176
     1
 90
        2
176
     1
 62
     7
176
     1
 90
        5
176
     1
 90
        0
176
     1
 90
        0
176
     1
290
     0
176
     1
 90
        1
176
     1
 40
50.0
176
     1
 90
        0
176
     1
290
     0
176
     1
290
     1
176
     1
290
     1
176
     1
290
     0
176
     1
290
     0
176
     1
290
     0
176
     1
290
     0
176
     1
290
     0
176
     1
290
     0
176
     1
 90
       50
176
     1
 40
0.0
176
     1
 40
1.0
176
     1
 90
        0
176
     1
 62
    18
420
        0
176
     1
 90
       50
176
     1
 90
        3
176
     1
 62
     5
420
      255
176
     1
290
     0
176
     1
 90
       50
176
     1
 90
       50
176
     1
 90
       50
176
     1
290
     0
176
     1
 90
       50
176
     1
 62
   256
176
     0
 40
1.0
176
     0
 90
        2
176
     1
  1
strokes_ogs.tif
176
     1
290
     0
176
     1
 40
1.0
176
     1
 40
1.0
176
     1
  0
VISUALSTYLE
  5
3A
102
{ACAD_REACTORS
330
2A
102
}
330
2A
100
AcDbVisualStyle
  2
ColorChange
 70
    16
177
     3
291
     1
 70
    58
 90
        2
176
     1
 90
        2
176
     1
 90
        3
176
     1
 90
        0
176
     1
 40
0.6
176
     1
 40
30.0
176
     1
 62
     8
420
  8421504
176
     1
 90
        1
176
     1
 90
        4
176
     1
 62
     7
176
     1
 62
   257
176
     1
 90
        1
176
     1
 90
        1
176
     1
 40
1.0
176
     1
 90
        8
176
     1
 62
     8
420
  8421504
176
     1
 40
1.0
176
     1
 90
        1
176
     1
 90
        6
176
     1
 90
        2
176
     1
 62
     7
176
     1
 90
        5
176
     1
 90
        0
176
     1
 90
        0
176
     1
290
     0
176
     1
 90
        1
176
     1
 40
0.0
176
     1
 90
        0
176
     1
290
     0
176
     1
290
     1
176
     1
290
     1
176
     1
290
     0
176
     1
290
     0
176
     1
290
     0
176
     1
290
     0
176
     1
290
     0
176
     1
290
     0
176
     1
 90
       50
176
     1
 40
0.0
176
     1
 40
1.0
176
     1
 90
        0
176
     1
 62
    18
420
        0
176
     1
 90
       50
176
     1
 90
        3
176
     1
 62
     5
420
      255
176
     1
290
     0
176
     1
 90
       50
176
     1
 90
       50
176
     1
 90
       50
176
     1
290
     0
176
     1
 90
       50
176
     1
 62
   256
176
     0
 40
1.0
176
     0
 90
        2
176
     1
  1
strokes_ogs.tif
176
     1
290
     0
176
     1
 40
1.0
176
     1
 40
1.0
176
     1
  0
VISUALSTYLE
  5
34
102
{ACAD_REACTORS
330
2A
102
}
330
2A
100
AcDbVisualStyle
  2
Conceptual
 70
     9
177
     3
291
     0
 70
    58
 90
        3
176
     1
 90
        2
176
     1
 90
        0
176
     1
 90
        0
176
     1
 40
0.6
176
     1
 40
30.0
176
     1
 62
     7
420
 16777215
176
     1
 90
        2
176
     1
 90
        2
176
     1
 62
     7
176
     1
 62
   257
176
     1
 90
        1
176
     1
 90
        1
176
     1
 40
179.0
176
     1
 90
        8
176
     1
 62
     7
176
     1
 40
1.0
176
     1
 90
        1
176
     1
 90
        6
176
     1
 90
        2
176
     1
 62
     7
176
     1
 90
        3
176
     1
 90
        0
176
     1
 90
        0
176
     1
290
     0
176
     1
 90
        1
176
     1
 40
0.0
176
     1
 90
        0
176
     1
290
     0
176
     1
290
     1
176
     1
290
     1
176
     1
290
     0
176
     1
290
     0
176
     1
290
     0
176
     1
290
     0
176
     1
290
     0
176
     1
290
     0
176
     1
 90
       50
176
     1
 40
0.0
176
     1
 40
1.0
176
     1
 90
        0
176
     1
 62
    18
420
        0
176
     1
 90
       50
176
     1
 90
        3
176
     1
 62
     5
420
      255
176
     1
290
     0
176
     1
 90
       50
176
     1
 90
       50
176
     1
 90
       50
176
     1
290
     0
176
     1
 90
       50
176
     1
 62
   256
176
     0
 40
1.0
176
     0
 90
        2
176
     1
  1
strokes_ogs.tif
176
     1
290
     0
176
     1
 40
1.0
176
     1
 40
1.0
176
     1
  0
VISUALSTYLE
  5
35
102
{ACAD_REACTORS
330
2A
102
}
330
2A
100
AcDbVisualStyle
  2
Dim
 70
    11
177
     3
291
     1
 70
    58
 90
        2
176
     1
 90
        2
176
     1
 90
        0
176
     1
 90
        0
176
     1
 40
0.6
176
     1
 40
30.0
176
     1
 62
     7
420
 16777215
176
     1
 90
        1
176
     1
 90
        4
176
     1
 62
     7
176
     1
 62
   257
176
     1
 90
        1
176
     1
 90
        1
176
     1
 40
1.0
176
     1
 90
        8
176
     1
 62
     7
176
     1
 40
1.0
176
     1
 90
        1
176
     1
 90
        6
176
     1
 90
        2
176
     1
 62
     7
176
     1
 90
        5
176
     1
 90
        0
176
     1
 90
        0
176
     1
290
     0
176
     1
 90
        1
176
     1
 40
-50.0
176
     1
 90
        0
176
     1
290
     0
176
     1
290
     1
176
     1
290
     1
176
     1
290
     0
176
     1
290
     0
176
     1
290
     0
176
     1
290
     0
176
     1
290
     0
176
     1
290
     0
176
     1
 90
       50
176
     1
 40
0.0
176
     1
 40
1.0
176
     1
 90
        0
176
     1
 62
    18
420
        0
176
     1
 90
       50
176
     1
 90
        3
176
     1
 62
     5
420
      255
176
     1
290
     0
176
     1
 90
       50
176
     1
 90
       50
176
     1
 90
       50
176
     1
290
     0
176
     1
 90
       50
176
     1
 62
   256
176
     0
 40
1.0
176
     0
 90
        2
176
     1
  1
strokes_ogs.tif
176
     1
290
     0
176
     1
 40
1.0
176
     1
 40
1.0
176
     1
  0
VISUALSTYLE
  5
3D
102
{ACAD_REACTORS
330
2A
102
}
330
2A
100
AcDbVisualStyle
  2
EdgeColorOff
 70
    22
177
     3
291
     1
 70
    58
 90
        2
176
     0
 90
        2
176
     0
 90
        0
176
     0
 90
        0
176
     0
 40
0.6
176
     0
 40
30.0
176
     0
 62
     7
420
 16777215
176
     0
 90
        1
176
     0
 90
        4
176
     0
 62
     7
176
     0
 62
   257
176
     0
 90
        1
176
     0
 90
        1
176
     0
 40
1.0
176
     0
 90
        8
176
     2
 62
     7
176
     0
 40
1.0
176
     0
 90
        1
176
     0
 90
        6
176
     0
 90
        2
176
     0
 62
     7
176
     0
 90
        5
176
     0
 90
        0
176
     0
 90
        0
176
     0
290
     0
176
     0
 90
        1
176
     0
 40
0.0
176
     0
 90
        0
176
     0
290
     0
176
     0
290
     1
176
     0
290
     1
176
     0
290
     0
176
     0
290
     0
176
     0
290
     0
176
     0
290
     0
176
     0
290
     0
176
     0
290
     0
176
     0
 90
       50
176
     0
 40
0.0
176
     0
 40
1.0
176
     0
 90
        0
176
     0
 62
    18
420
        0
176
     0
 90
       50
176
     0
 90
        3
176
     0
 62
     5
420
      255
176
     0
290
     0
176
     0
 90
       50
176
     0
 90
       50
176
     0
 90
       50
176
     0
290
     0
176
     0
 90
       50
176
     0
 62
   256
176
     0
 40
1.0
176
     0
 90
        2
176
     0
  1
strokes_ogs.tif
176
     0
290
     0
176
     0
 40
1.0
176
     0
 40
1.0
176
     0
  0
VISUALSTYLE
  5
39
102
{ACAD_REACTORS
330
2A
102
}
330
2A
100
AcDbVisualStyle
  2
Facepattern
 70
    15
177
     3
291
     1
 70
    58
 90
        2
176
     1
 90
        2
176
     1
 90
        0
176
     1
 90
        0
176
     1
 40
0.6
176
     1
 40
30.0
176
     1
 62
     7
420
 16777215
176
     1
 90
        1
176
     1
 90
        4
176
     1
 62
     7
176
     1
 62
   257
176
     1
 90
        1
176
     1
 90
        1
176
     1
 40
1.0
176
     1
 90
        8
176
     1
 62
     7
176
     1
 40
1.0
176
     1
 90
        1
176
     1
 90
        6
176
     1
 90
        2
176
     1
 62
     7
176
     1
 90
        5
176
     1
 90
        0
176
     1
 90
        0
176
     1
290
     0
176
     1
 90
        1
176
     1
 40
0.0
176
     1
 90
        0
176
     1
290
     0
176
     1
290
     1
176
     1
290
     1
176
     1
290
     0
176
     1
290
     0
176
     1
290
     0
176
     1
290
     0
176
     1
290
     0
176
     1
290
     0
176
     1
 90
       50
176
     1
 40
0.0
176
     1
 40
1.0
176
     1
 90
        0
176
     1
 62
    18
420
        0
176
     1
 90
       50
176
     1
 90
        3
176
     1
 62
     5
420
      255
176
     1
290
     0
176
     1
 90
       50
176
     1
 90
       50
176
     1
 90
       50
176
     1
290
     0
176
     1
 90
       50
176
     1
 62
   256
176
     0
 40
1.0
176
     0
 90
        2
176
     1
  1
strokes_ogs.tif
176
     1
290
     0
176
     1
 40
1.0
176
     1
 40
1.0
176
     1
  0
VISUALSTYLE
  5
2B
102
{ACAD_REACTORS
330
2A
102
}
330
2A
100
AcDbVisualStyle
  2
Flat
 70
     0
177
     3
291
     1
 70
    58
 90
        2
176
     1
 90
        1
176
     1
 90
        1
176
     1
 90
        2
176
     1
 40
0.6
176
     1
 40
30.0
176
     1
 62
     7
420
 16777215
176
     1
 90
        0
176
     1
 90
        0
176
     1
 62
     7
176
     1
 62
   257
176
     1
 90
        1
176
     1
 90
        1
176
     1
 40
1.0
176
     1
 90
        8
176
     1
 62
     7
176
     1
 40
1.0
176
     1
 90
        1
176
     1
 90
        6
176
     1
 90
        2
176
     1
 62
     7
176
     1
 90
        5
176
     1
 90
        0
176
     1
 90
        0
176
     1
290
     0
176
     1
 90
       13
176
     1
 40
0.0
176
     1
 90
        0
176
     1
290
     0
176
     1
290
     1
176
     1
290
     1
176
     1
290
     0
176
     1
290
     0
176
     1
290
     0
176
     1
290
     0
176
     1
290
     0
176
     1
290
     0
176
     1
 90
       50
176
     1
 40
0.0
176
     1
 40
1.0
176
     1
 90
        0
176
     1
 62
    18
420
        0
176
     1
 90
       50
176
     1
 90
        3
176
     1
 62
     5
420
      255
176
     1
290
     0
176
     1
 90
       50
176
     1
 90
       50
176
     1
 90
       50
176
     1
290
     0
176
     1
 90
       50
176
     1
 62
   256
176
     0
 40
1.0
176
     0
 90
        2
176
     1
  1
strokes_ogs.tif
176
     1
290
     0
176
     1
 40
1.0
176
     1
 40
1.0
176
     1
  0
VISUALSTYLE
  5
2C
102
{ACAD_REACTORS
330
2A
102
}
330
2A
100
AcDbVisualStyle
  2
FlatWithEdges
 70
     1
177
     3
291
     1
 70
    58
 90
        2
176
     1
 90
        1
176
     1
 90
        1
176
     1
 90
        2
176
     1
 40
0.6
176
     1
 40
30.0
176
     1
 62
     7
420
 16777215
176
     1
 90
        1
176
     1
 90
        0
176
     1
 62
     7
176
     1
 62
   257
176
     1
 90
        1
176
     1
 90
        1
176
     1
 40
1.0
176
     1
 90
        0
176
     1
 62
   257
176
     1
 40
1.0
176
     1
 90
        1
176
     1
 90
        6
176
     1
 90
        2
176
     1
 62
     7
176
     1
 90
        5
176
     1
 90
        0
176
     1
 90
        0
176
     1
290
     0
176
     1
 90
       13
176
     1
 40
0.0
176
     1
 90
        0
176
     1
290
     0
176
     1
290
     1
176
     1
290
     1
176
     1
290
     0
176
     1
290
     0
176
     1
290
     0
176
     1
290
     0
176
     1
290
     0
176
     1
290
     0
176
     1
 90
       50
176
     1
 40
0.0
176
     1
 40
1.0
176
     1
 90
        0
176
     1
 62
    18
420
        0
176
     1
 90
       50
176
     1
 90
        3
176
     1
 62
     5
420
      255
176
     1
290
     0
176
     1
 90
       50
176
     1
 90
       50
176
     1
 90
       50
176
     1
290
     0
176
     1
 90
       50
176
     1
 62
   256
176
     0
 40
1.0
176
     0
 90
        2
176
     1
  1
strokes_ogs.tif
176
     1
290
     0
176
     1
 40
1.0
176
     1
 40
1.0
176
     1
  0
VISUALSTYLE
  5
2D
102
{ACAD_REACTORS
330
2A
102
}
330
2A
100
AcDbVisualStyle
  2
Gouraud
 70
     2
177
     3
291
     1
 70
    58
 90
        2
176
     1
 90
        2
176
     1
 90
        1
176
     1
 90
        2
176
     1
 40
0.6
176
     1
 40
30.0
176
     1
 62
     7
420
 16777215
176
     1
 90
        0
176
     1
 90
        0
176
     1
 62
     7
176
     1
 62
   257
176
     1
 90
        1
176
     1
 90
        1
176
     1
 40
1.0
176
     1
 90
        0
176
     1
 62
     7
176
     1
 40
1.0
176
     1
 90
        1
176
     1
 90
        6
176
     1
 90
        2
176
     1
 62
     7
176
     1
 90
        5
176
     1
 90
        0
176
     1
 90
        0
176
     1
290
     0
176
     1
 90
       13
176
     1
 40
0.0
176
     1
 90
        0
176
     1
290
     0
176
     1
290
     1
176
     1
290
     1
176
     1
290
     0
176
     1
290
     0
176
     1
290
     0
176
     1
290
     0
176
     1
290
     0
176
     1
290
     0
176
     1
 90
       50
176
     1
 40
0.0
176
     1
 40
1.0
176
     1
 90
        0
176
     1
 62
    18
420
        0
176
     1
 90
       50
176
     1
 90
        3
176
     1
 62
     5
420
      255
176
     1
290
     0
176
     1
 90
       50
176
     1
 90
       50
176
     1
 90
       50
176
     1
290
     0
176
     1
 90
       50
176
     1
 62
   256
176
     0
 40
1.0
176
     0
 90
        2
176
     1
  1
strokes_ogs.tif
176
     1
290
     0
176
     1
 40
1.0
176
     1
 40
1.0
176
     1
  0
VISUALSTYLE
  5
2E
102
{ACAD_REACTORS
330
2A
102
}
330
2A
100
AcDbVisualStyle
  2
GouraudWithEdges
 70
     3
177
     3
291
     1
 70
    58
 90
        2
176
     1
 90
        2
176
     1
 90
        1
176
     1
 90
        2
176
     1
 40
0.6
176
     1
 40
30.0
176
     1
 62
     7
420
 16777215
176
     1
 90
        1
176
     1
 90
        0
176
     1
 62
     7
176
     1
 62
   257
176
     1
 90
        1
176
     1
 90
        1
176
     1
 40
1.0
176
     1
 90
        0
176
     1
 62
   257
176
     1
 40
1.0
176
     1
 90
        1
176
     1
 90
        6
176
     1
 90
        2
176
     1
 62
     7
176
     1
 90
        5
176
     1
 90
        0
176
     1
 90
        0
176
     1
290
     0
176
     1
 90
       13
176
     1
 40
0.0
176
     1
 90
        0
176
     1
290
     0
176
     1
290
     1
176
     1
290
     1
176
     1
290
     0
176
     1
290
     0
176
     1
290
     0
176
     1
290
     0
176
     1
290
     0
176
     1
290
     0
176
     1
 90
       50
176
     1
 40
0.0
176
     1
 40
1.0
176
     1
 90
        0
176
     1
 62
    18
420
        0
176
     1
 90
       50
176
     1
 90
        3
176
     1
 62
     5
420
      255
176
     1
290
     0
176
     1
 90
       50
176
     1
 90
       50
176
     1
 90
       50
176
     1
290
     0
176
     1
 90
       50
176
     1
 62
   256
176
     0
 40
1.0
176
     0
 90
        2
176
     1
  1
strokes_ogs.tif
176
     1
290
     0
176
     1
 40
1.0
176
     1
 40
1.0
176
     1
  0
VISUALSTYLE
  5
31
102
{ACAD_REACTORS
330
2A
102
}
330
2A
100
AcDbVisualStyle
  2
Hidden
 70
     6
177
     3
291
     0
 70
    58
 90
        1
176
     1
 90
        2
176
     1
 90
        2
176
     1
 90
        0
176
     1
 40
0.6
176
     1
 40
30.0
176
     1
 62
     7
420
 16777215
176
     1
 90
        2
176
     1
 90
        2
176
     1
 62
     7
176
     1
 62
   257
176
     1
 90
        2
176
     1
 90
        1
176
     1
 40
40.0
176
     1
 90
        0
176
     1
 62
   257
176
     1
 40
1.0
176
     1
 90
        1
176
     1
 90
        6
176
     1
 90
        2
176
     1
 62
     7
176
     1
 90
        3
176
     1
 90
        0
176
     1
 90
        0
176
     1
290
     0
176
     1
 90
        1
176
     1
 40
0.0
176
     1
 90
        0
176
     1
290
     0
176
     1
290
     1
176
     1
290
     1
176
     1
290
     0
176
     1
290
     0
176
     1
290
     0
176
     1
290
     0
176
     1
290
     0
176
     1
290
     0
176
     1
 90
       50
176
     1
 40
0.0
176
     1
 40
1.0
176
     1
 90
        0
176
     1
 62
    18
420
        0
176
     1
 90
       50
176
     1
 90
        3
176
     1
 62
     5
420
      255
176
     1
290
     0
176
     1
 90
       50
176
     1
 90
       50
176
     1
 90
       50
176
     1
290
     0
176
     1
 90
       50
176
     1
 62
   256
176
     0
 40
1.0
176
     0
 90
        2
176
     1
  1
strokes_ogs.tif
176
     1
290
     0
176
     1
 40
1.0
176
     1
 40
1.0
176
     1
  0
VISUALSTYLE
  5
3B
102
{ACAD_REACTORS
330
2A
102
}
330
2A
100
AcDbVisualStyle
  2
JitterOff
 70
    20
177
     3
291
     1
 70
    58
 90
        2
176
     0
 90
        2
176
     0
 90
        0
176
     0
 90
        0
176
     0
 40
0.6
176
     0
 40
30.0
176
     0
 62
     7
420
 16777215
176
     0
 90
        1
176
     0
 90
        4
176
     0
 62
     7
176
     0
 62
   257
176
     0
 90
        1
176
     0
 90
        1
176
     0
 40
1.0
176
     0
 90
       10
176
     2
 62
     7
176
     0
 40
1.0
176
     0
 90
        1
176
     0
 90
        6
176
     0
 90
        2
176
     0
 62
     7
176
     0
 90
        5
176
     0
 90
        0
176
     0
 90
        0
176
     0
290
     0
176
     0
 90
        1
176
     0
 40
0.0
176
     0
 90
        0
176
     0
290
     0
176
     0
290
     1
176
     0
290
     1
176
     0
290
     0
176
     0
290
     0
176
     0
290
     0
176
     0
290
     0
176
     0
290
     0
176
     0
290
     0
176
     0
 90
       50
176
     0
 40
0.0
176
     0
 40
1.0
176
     0
 90
        0
176
     0
 62
    18
420
        0
176
     0
 90
       50
176
     0
 90
        3
176
     0
 62
     5
420
      255
176
     0
290
     0
176
     0
 90
       50
176
     0
 90
       50
176
     0
 90
       50
176
     0
290
     0
176
     0
 90
       50
176
     0
 62
   256
176
     0
 40
1.0
176
     0
 90
        2
176
     0
  1
strokes_ogs.tif
176
     0
290
     0
176
     0
 40
1.0
176
     0
 40
1.0
176
     0
  0
VISUALSTYLE
  5
38
102
{ACAD_REACTORS
330
2A
102
}
330
2A
100
AcDbVisualStyle
  2
Linepattern
 70
    14
177
     3
291
     1
 70
    58
 90
        2
176
     1
 90
        2
176
     1
 90
        0
176
     1
 90
        0
176
     1
 40
0.6
176
     1
 40
30.0
176
     1
 62
     7
420
 16777215
176
     1
 90
        1
176
     1
 90
        4
176
     1
 62
     7
176
     1
 62
   257
176
     1
 90
        7
176
     1
 90
        7
176
     1
 40
1.0
176
     1
 90
        8
176
     1
 62
     7
176
     1
 40
1.0
176
     1
 90
        1
176
     1
 90
        6
176
     1
 90
        2
176
     1
 62
     7
176
     1
 90
        5
176
     1
 90
        0
176
     1
 90
        0
176
     1
290
     0
176
     1
 90
        1
176
     1
 40
0.0
176
     1
 90
        0
176
     1
290
     0
176
     1
290
     1
176
     1
290
     1
176
     1
290
     0
176
     1
290
     0
176
     1
290
     0
176
     1
290
     0
176
     1
290
     0
176
     1
290
     0
176
     1
 90
       50
176
     1
 40
0.0
176
     1
 40
1.0
176
     1
 90
        0
176
     1
 62
    18
420
        0
176
     1
 90
       50
176
     1
 90
        3
176
     1
 62
     5
420
      255
176
     1
290
     0
176
     1
 90
       50
176
     1
 90
       50
176
     1
 90
       50
176
     1
290
     0
176
     1
 90
       50
176
     1
 62
   256
176
     0
 40
1.0
176
     0
 90
        2
176
     1
  1
strokes_ogs.tif
176
     1
290
     0
176
     1
 40
1.0
176
     1
 40
1.0
176
     1
  0
VISUALSTYLE
  5
3C
102
{ACAD_REACTORS
330
2A
102
}
330
2A
100
AcDbVisualStyle
  2
OverhangOff
 70
    21
177
     3
291
     1
 70
    58
 90
        2
176
     0
 90
        2
176
     0
 90
        0
176
     0
 90
        0
176
     0
 40
0.6
176
     0
 40
30.0
176
     0
 62
     7
420
 16777215
176
     0
 90
        1
176
     0
 90
        4
176
     0
 62
     7
176
     0
 62
   257
176
     0
 90
        1
176
     0
 90
        1
176
     0
 40
1.0
176
     0
 90
        9
176
     2
 62
     7
176
     0
 40
1.0
176
     0
 90
        1
176
     0
 90
        6
176
     0
 90
        2
176
     0
 62
     7
176
     0
 90
        5
176
     0
 90
        0
176
     0
 90
        0
176
     0
290
     0
176
     0
 90
        1
176
     0
 40
0.0
176
     0
 90
        0
176
     0
290
     0
176
     0
290
     1
176
     0
290
     1
176
     0
290
     0
176
     0
290
     0
176
     0
290
     0
176
     0
290
     0
176
     0
290
     0
176
     0
290
     0
176
     0
 90
       50
176
     0
 40
0.0
176
     0
 40
1.0
176
     0
 90
        0
176
     0
 62
    18
420
        0
176
     0
 90
       50
176
     0
 90
        3
176
     0
 62
     5
420
      255
176
     0
290
     0
176
     0
 90
       50
176
     0
 90
       50
176
     0
 90
       50
176
     0
290
     0
176
     0
 90
       50
176
     0
 62
   256
176
     0
 40
1.0
176
     0
 90
        2
176
     0
  1
strokes_ogs.tif
176
     0
290
     0
176
     0
 40
1.0
176
     0
 40
1.0
176
     0
  0
VISUALSTYLE
  5
33
102
{ACAD_REACTORS
330
2A
102
}
330
2A
100
AcDbVisualStyle
  2
Realistic
 70
     8
177
     3
291
     0
 70
    58
 90
        2
176
     1
 90
        3
176
     1
 90
        0
176
     1
 90
        2
176
     1
 40
0.6
176
     1
 40
30.0
176
     1
 62
     7
420
 16777215
176
     1
 90
        0
176
     1
 90
        0
176
     1
 62
     7
176
     1
 62
   257
176
     1
 90
        1
176
     1
 90
        1
176
     1
 40
1.0
176
     1
 90
        8
176
     1
 62
   257
176
     1
 40
1.0
176
     1
 90
        1
176
     1
 90
        6
176
     1
 90
        2
176
     1
 62
     7
176
     1
 90
        3
176
     1
 90
        0
176
     1
 90
        0
176
     1
290
     0
176
     1
 90
       13
176
     1
 40
0.0
176
     1
 90
        0
176
     1
290
     0
176
     1
290
     1
176
     1
290
     1
176
     1
290
     0
176
     1
290
     0
176
     1
290
     0
176
     1
290
     0
176
     1
290
     0
176
     1
290
     0
176
     1
 90
       50
176
     1
 40
0.0
176
     1
 40
1.0
176
     1
 90
        0
176
     1
 62
    18
420
        0
176
     1
 90
       50
176
     1
 90
        3
176
     1
 62
     5
420
      255
176
     1
290
     0
176
     1
 90
       50
176
     1
 90
       50
176
     1
 90
       50
176
     1
290
     0
176
     1
 90
       50
176
     1
 62
   256
176
     0
 40
1.0
176
     0
 90
        2
176
     1
  1
strokes_ogs.tif
176
     1
290
     0
176
     1
 40
1.0
176
     1
 40
1.0
176
     1
  0
VISUALSTYLE
  5
42
102
{ACAD_REACTORS
330
2A
102
}
330
2A
100
AcDbVisualStyle
  2
Shaded
 70
    27
177
     3
291
     0
 70
    58
 90
        2
176
     1
 90
        2
176
     1
 90
        1
176
     1
 90
        2
176
     1
 40
0.6
176
     1
 40
30.0
176
     1
 62
     7
420
 16777215
176
     1
 90
        0
176
     1
 90
        4
176
     1
 62
     7
176
     1
 62
   257
176
     1
 90
        1
176
     1
 90
        1
176
     1
 40
1.0
176
     1
 90
        8
176
     1
 62
   257
176
     1
 40
1.0
176
     1
 90
        1
176
     1
 90
        6
176
     1
 90
        2
176
     1
 62
     8
420
  7895160
176
     1
 90
        3
176
     1
 90
        0
176
     1
 90
        0
176
     1
290
     0
176
     1
 90
        5
176
     1
 40
0.0
176
     1
 90
        0
176
     1
290
     0
176
     1
290
     1
176
     1
290
     1
176
     1
290
     0
176
     1
290
     0
176
     1
290
     0
176
     1
290
     0
176
     1
290
     0
176
     1
290
     0
176
     1
 90
       50
176
     1
 40
0.0
176
     1
 40
1.0
176
     1
 90
        0
176
     1
 62
    18
420
        0
176
     1
 90
       50
176
     1
 90
        3
176
     1
 62
     5
420
      255
176
     1
290
     0
176
     1
 90
       50
176
     1
 90
       50
176
     1
 90
       50
176
     1
290
     0
176
     1
 90
       50
176
     1
 62
   256
176
     0
 40
1.0
176
     0
 90
        2
176
     1
  1
strokes_ogs.tif
176
     1
290
     0
176
     1
 40
1.0
176
     1
 40
1.0
176
     1
  0
VISUALSTYLE
  5
41
102
{ACAD_REACTORS
330
2A
102
}
330
2A
100
AcDbVisualStyle
  2
Shaded with edges
 70
    26
177
     3
291
     0
 70
    58
 90
        2
176
     1
 90
        2
176
     1
 90
        1
176
     1
 90
        2
176
     1
 40
0.6
176
     1
 40
30.0
176
     1
 62
     7
420
 16777215
176
     1
 90
        1
176
     1
 90
       10
176
     1
 62
     7
176
     1
 62
   257
176
     1
 90
        2
176
     1
 90
        1
176
     1
 40
1.0
176
     1
 90
        8
176
     1
 62
   257
176
     1
 40
1.0
176
     1
 90
        1
176
     1
 90
        6
176
     1
 90
        2
176
     1
 62
     7
176
     1
 90
        3
176
     1
 90
        0
176
     1
 90
        0
176
     1
290
     0
176
     1
 90
        5
176
     1
 40
0.0
176
     1
 90
        0
176
     1
290
     0
176
     1
290
     1
176
     1
290
     1
176
     1
290
     0
176
     1
290
     0
176
     1
290
     0
176
     1
290
     0
176
     1
290
     0
176
     1
290
     0
176
     1
 90
       50
176
     1
 40
0.0
176
     1
 40
1.0
176
     1
 90
        0
176
     1
 62
    18
420
        0
176
     1
 90
       50
176
     1
 90
        3
176
     1
 62
     5
420
      255
176
     1
290
     0
176
     1
 90
       50
176
     1
 90
       50
176
     1
 90
       50
176
     1
290
     0
176
     1
 90
       50
176
     1
 62
   256
176
     0
 40
1.0
176
     0
 90
        2
176
     1
  1
strokes_ogs.tif
176
     1
290
     0
176
     1
 40
1.0
176
     1
 40
1.0
176
     1
  0
VISUALSTYLE
  5
3E
102
{ACAD_REACTORS
330
2A
102
}
330
2A
100
AcDbVisualStyle
  2
Shades of Gray
 70
    23
177
     3
291
     0
 70
    58
 90
        2
176
     1
 90
        2
176
     1
 90
        3
176
     1
 90
        0
176
     1
 40
0.6
176
     1
 40
30.0
176
     1
 62
     7
420
 16777215
176
     1
 90
        2
176
     1
 90
        2
176
     1
 62
     7
176
     1
 62
     7
176
     1
 90
        1
176
     1
 90
        1
176
     1
 40
40.0
176
     1
 90
        8
176
     1
 62
     7
176
     1
 40
1.0
176
     1
 90
        1
176
     1
 90
        6
176
     1
 90
        2
176
     1
 62
     7
176
     1
 90
        3
176
     1
 90
        0
176
     1
 90
        0
176
     1
290
     0
176
     1
 90
        1
176
     1
 40
0.0
176
     1
 90
        0
176
     1
290
     0
176
     1
290
     1
176
     1
290
     1
176
     1
290
     0
176
     1
290
     0
176
     1
290
     0
176
     1
290
     0
176
     1
290
     0
176
     1
290
     0
176
     1
 90
       50
176
     1
 40
0.0
176
     1
 40
1.0
176
     1
 90
        0
176
     1
 62
    18
420
        0
176
     1
 90
       50
176
     1
 90
        3
176
     1
 62
     5
420
      255
176
     1
290
     0
176
     1
 90
       50
176
     1
 90
       50
176
     1
 90
       50
176
     1
290
     0
176
     1
 90
       50
176
     1
 62
   256
176
     0
 40
1.0
176
     0
 90
        2
176
     1
  1
strokes_ogs.tif
176
     1
290
     0
176
     1
 40
1.0
176
     1
 40
1.0
176
     1
  0
VISUALSTYLE
  5
3F
102
{ACAD_REACTORS
330
2A
102
}
330
2A
100
AcDbVisualStyle
  2
Sketchy
 70
    24
177
     3
291
     0
 70
    58
 90
        1
176
     1
 90
        2
176
     1
 90
        2
176
     1
 90
        0
176
     1
 40
0.6
176
     1
 40
30.0
176
     1
 62
     7
420
 16777215
176
     1
 90
        2
176
     1
 90
        2
176
     1
 62
     7
176
     1
 62
     7
176
     1
 90
        1
176
     1
 90
        1
176
     1
 40
40.0
176
     1
 90
       11
176
     1
 62
     7
176
     1
 40
1.0
176
     1
 90
        1
176
     1
 90
        6
176
     1
 90
        2
176
     1
 62
     7
176
     1
 90
        6
176
     1
 90
        0
176
     1
 90
        0
176
     1
290
     0
176
     1
 90
        1
176
     1
 40
0.0
176
     1
 90
        0
176
     1
290
     0
176
     1
290
     1
176
     1
290
     1
176
     1
290
     0
176
     1
290
     0
176
     1
290
     0
176
     1
290
     0
176
     1
290
     0
176
     1
290
     0
176
     1
 90
       50
176
     1
 40
0.0
176
     1
 40
1.0
176
     1
 90
        0
176
     1
 62
    18
420
        0
176
     1
 90
       50
176
     1
 90
        3
176
     1
 62
     5
420
      255
176
     1
290
     0
176
     1
 90
       50
176
     1
 90
       50
176
     1
 90
       50
176
     1
290
     0
176
     1
 90
       50
176
     1
 62
   256
176
     0
 40
1.0
176
     0
 90
        2
176
     1
  1
strokes_ogs.tif
176
     1
290
     0
176
     1
 40
1.0
176
     1
 40
1.0
176
     1
  0
VISUALSTYLE
  5
37
102
{ACAD_REACTORS
330
2A
102
}
330
2A
100
AcDbVisualStyle
  2
Thicken
 70
    13
177
     3
291
     1
 70
    58
 90
        2
176
     1
 90
        2
176
     1
 90
        0
176
     1
 90
        0
176
     1
 40
0.6
176
     1
 40
30.0
176
     1
 62
     7
420
 16777215
176
     1
 90
        1
176
     1
 90
        4
176
     1
 62
     7
176
     1
 62
   257
176
     1
 90
        1
176
     1
 90
        1
176
     1
 40
1.0
176
     1
 90
       12
176
     1
 62
     7
176
     1
 40
1.0
176
     1
 90
        1
176
     1
 90
        6
176
     1
 90
        2
176
     1
 62
     7
176
     1
 90
        5
176
     1
 90
        0
176
     1
 90
        0
176
     1
290
     0
176
     1
 90
        1
176
     1
 40
0.0
176
     1
 90
        0
176
     1
290
     0
176
     1
290
     1
176
     1
290
     1
176
     1
290
     0
176
     1
290
     0
176
     1
290
     0
176
     1
290
     0
176
     1
290
     0
176
     1
290
     0
176
     1
 90
       50
176
     1
 40
0.0
176
     1
 40
1.0
176
     1
 90
        0
176
     1
 62
    18
420
        0
176
     1
 90
       50
176
     1
 90
        3
176
     1
 62
     5
420
      255
176
     1
290
     0
176
     1
 90
       50
176
     1
 90
       50
176
     1
 90
       50
176
     1
290
     0
176
     1
 90
       50
176
     1
 62
   256
176
     0
 40
1.0
176
     0
 90
        2
176
     1
  1
strokes_ogs.tif
176
     1
290
     0
176
     1
 40
1.0
176
     1
 40
1.0
176
     1
  0
VISUALSTYLE
  5
30
102
{ACAD_REACTORS
330
2A
102
}
330
2A
100
AcDbVisualStyle
  2
Wireframe
 70
     5
177
     3
291
     0
 70
    58
 90
        0
176
     1
 90
        2
176
     1
 90
        0
176
     1
 90
        0
176
     1
 40
0.6
176
     1
 40
30.0
176
     1
 62
     7
420
 16777215
176
     1
 90
        1
176
     1
 90
        4
176
     1
 62
     7
176
     1
 62
   257
176
     1
 90
        1
176
     1
 90
        1
176
     1
 40
1.0
176
     1
 90
        0
176
     1
 62
   257
176
     1
 40
1.0
176
     1
 90
        1
176
     1
 90
        6
176
     1
 90
        2
176
     1
 62
     7
176
     1
 90
        3
176
     1
 90
        0
176
     1
 90
        0
176
     1
290
     0
176
     1
 90
        1
176
     1
 40
0.0
176
     1
 90
        0
176
     1
290
     0
176
     1
290
     1
176
     1
290
     1
176
     1
290
     0
176
     1
290
     0
176
     1
290
     0
176
     1
290
     0
176
     1
290
     0
176
     1
290
     0
176
     1
 90
       50
176
     1
 40
0.0
176
     1
 40
1.0
176
     1
 90
        0
176
     1
 62
    18
420
        0
176
     1
 90
       50
176
     1
 90
        3
176
     1
 62
     5
420
      255
176
     1
290
     0
176
     1
 90
       50
176
     1
 90
       50
176
     1
 90
       50
176
     1
290
     0
176
     1
 90
       50
176
     1
 62
   256
176
     0
 40
1.0
176
     0
 90
        2
176
     1
  1
strokes_ogs.tif
176
     1
290
     0
176
     1
 40
1.0
176
     1
 40
1.0
176
     1
  0
VISUALSTYLE
  5
40
102
{ACAD_REACTORS
330
2A
102
}
330
2A
100
AcDbVisualStyle
  2
X-Ray
 70
    25
177
     3
291
     0
 70
    58
 90
        2
176
     1
 90
        2
176
     1
 90
        1
176
     1
 90
        1
176
     1
 40
0.5
176
     1
 40
30.0
176
     1
 62
     7
420
 16777215
176
     1
 90
        1
176
     1
 90
        0
176
     1
 62
     7
176
     1
 62
   257
176
     1
 90
        1
176
     1
 90
        1
176
     1
 40
1.0
176
     1
 90
        8
176
     1
 62
     7
176
     1
 40
1.0
176
     1
 90
        1
176
     1
 90
        6
176
     1
 90
        2
176
     1
 62
     7
176
     1
 90
        3
176
     1
 90
        0
176
     1
 90
        0
176
     1
290
     0
176
     1
 90
       13
176
     1
 40
0.0
176
     1
 90
        0
176
     1
290
     0
176
     1
290
     1
176
     1
290
     1
176
     1
290
     0
176
     1
290
     0
176
     1
290
     0
176
     1
290
     0
176
     1
290
     0
176
     1
290
     0
176
     1
 90
       50
176
     1
 40
0.0
176
     1
 40
1.0
176
     1
 90
        0
176
     1
 62
    18
420
        0
176
     1
 90
       50
176
     1
 90
        3
176
     1
 62
     5
420
      255
176
     1
290
     0
176
     1
 90
       50
176
     1
 90
       50
176
     1
 90
       50
176
     1
290
     0
176
     1
 90
       50
176
     1
 62
   256
176
     0
 40
1.0
176
     0
 90
        2
176
     1
  1
strokes_ogs.tif
176
     1
290
     0
176
     1
 40
1.0
176
     1
 40
1.0
176
     1
  0
DICTIONARYVAR
  5
265
102
{ACAD_REACTORS
330
264
102
}
330
264
100
DictionaryVariables
280
     0
  1
1:1
  0
DICTIONARYVAR
  5
26A
102
{ACAD_REACTORS
330
264
102
}
330
264
100
DictionaryVariables
280
     0
  1
Standard
  0
DICTIONARYVAR
  5
269
102
{ACAD_REACTORS
330
264
102
}
330
264
100
DictionaryVariables
280
     0
  1
Standard
  0
DICTIONARY
  5
266
330
6A
100
AcDbDictionary
280
     1
281
     1
  3
ACAD_ROUNDTRIP_2008_TABLESTYLE_CELLSTYLEMAP
360
267
  0
CELLSTYLEMAP
  5
267
102
{ACAD_REACTORS
330
266
102
}
330
266
100
AcDbCellStyleMap
 90
        3
300
CELLSTYLE
  1
TABLEFORMAT_BEGIN
 90
        5
170
     1
 91
        0
 92
    32768
 62
   257
 93
        1
300
CONTENTFORMAT
  1
CONTENTFORMAT_BEGIN
 90
        0
 91
        0
 92
        4
 93
        0
300

 40
0.0
140
1.0
 94
        5
 62
     0
340
11
144
0.25
309
CONTENTFORMAT_END
171
     1
301
MARGIN
  1
CELLMARGIN_BEGIN
 40
0.06
 40
0.06
 40
0.06
 40
0.06
 40
0.06
 40
0.06
309
CELLMARGIN_END
 94
        6
 95
        1
302
GRIDFORMAT
  1
GRIDFORMAT_BEGIN
 90
        0
 91
        1
 62
     0
 92
       -2
340
14
 93
        0
 40
0.045
309
GRIDFORMAT_END
 95
        2
302
GRIDFORMAT
  1
GRIDFORMAT_BEGIN
 90
        0
 91
        1
 62
     0
 92
       -2
340
14
 93
        0
 40
0.045
309
GRIDFORMAT_END
 95
        4
302
GRIDFORMAT
  1
GRIDFORMAT_BEGIN
 90
        0
 91
        1
 62
     0
 92
       -2
340
14
 93
        0
 40
0.045
309
GRIDFORMAT_END
 95
        8
302
GRIDFORMAT
  1
GRIDFORMAT_BEGIN
 90
        0
 91
        1
 62
     0
 92
       -2
340
14
 93
        0
 40
0.045
309
GRIDFORMAT_END
 95
       16
302
GRIDFORMAT
  1
GRIDFORMAT_BEGIN
 90
        0
 91
        1
 62
     0
 92
       -2
340
14
 93
        0
 40
0.045
309
GRIDFORMAT_END
 95
       32
302
GRIDFORMAT
  1
GRIDFORMAT_BEGIN
 90
        0
 91
        1
 62
     0
 92
       -2
340
14
 93
        0
 40
0.045
309
GRIDFORMAT_END
309
TABLEFORMAT_END
  1
CELLSTYLE_BEGIN
 90
        1
 91
        1
300
_TITLE
309
CELLSTYLE_END
300
CELLSTYLE
  1
TABLEFORMAT_BEGIN
 90
        5
170
     1
 91
        0
 92
        0
 62
   257
 93
        1
300
CONTENTFORMAT
  1
CONTENTFORMAT_BEGIN
 90
        0
 91
        0
 92
        4
 93
        0
300

 40
0.0
140
1.0
 94
        5
 62
     0
340
11
144
0.18
309
CONTENTFORMAT_END
171
     1
301
MARGIN
  1
CELLMARGIN_BEGIN
 40
0.06
 40
0.06
 40
0.06
 40
0.06
 40
0.06
 40
0.06
309
CELLMARGIN_END
 94
        6
 95
        1
302
GRIDFORMAT
  1
GRIDFORMAT_BEGIN
 90
        0
 91
        1
 62
     0
 92
       -2
340
14
 93
        0
 40
0.045
309
GRIDFORMAT_END
 95
        2
302
GRIDFORMAT
  1
GRIDFORMAT_BEGIN
 90
        0
 91
        1
 62
     0
 92
       -2
340
14
 93
        0
 40
0.045
309
GRIDFORMAT_END
 95
        4
302
GRIDFORMAT
  1
GRIDFORMAT_BEGIN
 90
        0
 91
        1
 62
     0
 92
       -2
340
14
 93
        0
 40
0.045
309
GRIDFORMAT_END
 95
        8
302
GRIDFORMAT
  1
GRIDFORMAT_BEGIN
 90
        0
 91
        1
 62
     0
 92
       -2
340
14
 93
        0
 40
0.045
309
GRIDFORMAT_END
 95
       16
302
GRIDFORMAT
  1
GRIDFORMAT_BEGIN
 90
        0
 91
        1
 62
     0
 92
       -2
340
14
 93
        0
 40
0.045
309
GRIDFORMAT_END
 95
       32
302
GRIDFORMAT
  1
GRIDFORMAT_BEGIN
 90
        0
 91
        1
 62
     0
 92
       -2
340
14
 93
        0
 40
0.045
309
GRIDFORMAT_END
309
TABLEFORMAT_END
  1
CELLSTYLE_BEGIN
 90
        2
 91
        1
300
_HEADER
309
CELLSTYLE_END
300
CELLSTYLE
  1
TABLEFORMAT_BEGIN
 90
        5
170
     1
 91
        0
 92
        0
 62
   257
 93
        1
300
CONTENTFORMAT
  1
CONTENTFORMAT_BEGIN
 90
        0
 91
        0
 92
        4
 93
        0
300

 40
0.0
140
1.0
 94
        2
 62
     0
340
11
144
0.18
309
CONTENTFORMAT_END
171
     1
301
MARGIN
  1
CELLMARGIN_BEGIN
 40
0.06
 40
0.06
 40
0.06
 40
0.06
 40
0.06
 40
0.06
309
CELLMARGIN_END
 94
        6
 95
        1
302
GRIDFORMAT
  1
GRIDFORMAT_BEGIN
 90
        0
 91
        1
 62
     0
 92
       -2
340
14
 93
        0
 40
0.045
309
GRIDFORMAT_END
 95
        2
302
GRIDFORMAT
  1
GRIDFORMAT_BEGIN
 90
        0
 91
        1
 62
     0
 92
       -2
340
14
 93
        0
 40
0.045
309
GRIDFORMAT_END
 95
        4
302
GRIDFORMAT
  1
GRIDFORMAT_BEGIN
 90
        0
 91
        1
 62
     0
 92
       -2
340
14
 93
        0
 40
0.045
309
GRIDFORMAT_END
 95
        8
302
GRIDFORMAT
  1
GRIDFORMAT_BEGIN
 90
        0
 91
        1
 62
     0
 92
       -2
340
14
 93
        0
 40
0.045
309
GRIDFORMAT_END
 95
       16
302
GRIDFORMAT
  1
GRIDFORMAT_BEGIN
 90
        0
 91
        1
 62
     0
 92
       -2
340
14
 93
        0
 40
0.045
309
GRIDFORMAT_END
 95
       32
302
GRIDFORMAT
  1
GRIDFORMAT_BEGIN
 90
        0
 91
        1
 62
     0
 92
       -2
340
14
 93
        0
 40
0.045
309
GRIDFORMAT_END
309
TABLEFORMAT_END
  1
CELLSTYLE_BEGIN
 90
        3
 91
        2
300
_DATA
309
CELLSTYLE_END
  0
ENDSEC
  0
EOF