0
SECTION
  2
HEADER
  9
$ACADVER
  1
AC1027
  9
$ACADMAINTVER
 70
     8
  9
$DWGCODEPAGE
  3
ANSI_1252
  9
$REQUIREDVERSIONS
160
                 0
  9
$COMMENTS
  1
File was created by Cadenas
  9
$CUSTOMPROPERTYTAG
  1
NN
  9
$CUSTOMPROPERTY
  1
Imperial - IP Wide Slot Take-Up
  9
$CUSTOMPROPERTYTAG
  1
NT
  9
$CUSTOMPROPERTY
  1
Imperial Wide Slot Take-Up Bearings
  9
$CUSTOMPROPERTYTAG
  1
NB
  9
$CUSTOMPROPERTY
  1
069361
  9
$CUSTOMPROPERTYTAG
  1
NBSYN
  9
$CUSTOMPROPERTY
  1
$PN.
  9
$CUSTOMPROPERTYTAG
  1
LINA
  9
$CUSTOMPROPERTY
  1
069361
  9
$CUSTOMPROPERTYTAG
  1
SS
  9
$CUSTOMPROPERTY
  1
3-3/16
  9
$CUSTOMPROPERTYTAG
  1
PN
  9
$CUSTOMPROPERTY
  1
069361
  9
$CUSTOMPROPERTYTAG
  1
DESCRIPTION
  9
$CUSTOMPROPERTY
  1
WSTU-IP-303R
  9
$CUSTOMPROPERTYTAG
  1
EF
  9
$CUSTOMPROPERTY
  1
Non-Expansion
  9
$CUSTOMPROPERTYTAG
  1
ST
  9
$CUSTOMPROPERTY
  1
Contact Seal
  9
$CUSTOMPROPERTYTAG
  1
A
  9
$CUSTOMPROPERTY
  1
4-5/32
  9
$CUSTOMPROPERTYTAG
  1
B
  9
$CUSTOMPROPERTY
  1
10-1/16
  9
$CUSTOMPROPERTYTAG
  1
C
  9
$CUSTOMPROPERTY
  1
1-13/16
  9
$CUSTOMPROPERTYTAG
  1
D
  9
$CUSTOMPROPERTY
  1
5-1/2
  9
$CUSTOMPROPERTYTAG
  1
E
  9
$CUSTOMPROPERTY
  1
6-3/8
  9
$CUSTOMPROPERTYTAG
  1
F
  9
$CUSTOMPROPERTY
  1
1-7/8
  9
$CUSTOMPROPERTYTAG
  1
G
  9
$CUSTOMPROPERTY
  1
1-1/16
  9
$CUSTOMPROPERTYTAG
  1
H
  9
$CUSTOMPROPERTY
  1
1-5/8
  9
$CUSTOMPROPERTYTAG
  1
J
  9
$CUSTOMPROPERTY
  1
5-1/8
  9
$CUSTOMPROPERTYTAG
  1
K
  9
$CUSTOMPROPERTY
  1
2-7/8
  9
$CUSTOMPROPERTYTAG
  1
L
  9
$CUSTOMPROPERTY
  1
5
  9
$CUSTOMPROPERTYTAG
  1
M
  9
$CUSTOMPROPERTY
  1
6-13/16
  9
$CUSTOMPROPERTYTAG
  1
N
  9
$CUSTOMPROPERTY
  1
7-13/16
  9
$CUSTOMPROPERTYTAG
  1
R
  9
$CUSTOMPROPERTY
  1
4-7/32
  9
$CUSTOMPROPERTYTAG
  1
S
  9
$CUSTOMPROPERTY
  1
2-11/16
  9
$CUSTOMPROPERTYTAG
  1
T
  9
$CUSTOMPROPERTY
  1
3-1/16
  9
$CUSTOMPROPERTYTAG
  1
X
  9
$CUSTOMPROPERTY
  1
1/4
  9
$CUSTOMPROPERTYTAG
  1
Y
  9
$CUSTOMPROPERTY
  1
0.025
  9
$CUSTOMPROPERTYTAG
  1
Z
  9
$CUSTOMPROPERTY
  1
4-3/64
  9
$CUSTOMPROPERTYTAG
  1
COMPANY
  9
$CUSTOMPROPERTY
  1
baldor
  9
$INSBASE
 10
0.0
 20
0.0
 30
0.0
  9
$EXTMIN
 10
1.000000000000000E+20
 20
1.000000000000000E+20
 30
1.000000000000000E+20
  9
$EXTMAX
 10
-1.000000000000000E+20
 20
-1.000000000000000E+20
 30
-1.000000000000000E+20
  9
$LIMMIN
 10
0.0
 20
0.0
  9
$LIMMAX
 10
12.0
 20
9.0
  9
$ORTHOMODE
 70
     0
  9
$REGENMODE
 70
     1
  9
$FILLMODE
 70
     1
  9
$QTEXTMODE
 70
     0
  9
$MIRRTEXT
 70
     1
  9
$LTSCALE
 40
1.0
  9
$ATTMODE
 70
     1
  9
$TEXTSIZE
 40
0.2
  9
$TRACEWID
 40
0.05
  9
$TEXTSTYLE
  7
Standard
  9
$CLAYER
  8
0
  9
$CELTYPE
  6
ByLayer
  9
$CECOLOR
 62
   256
  9
$CELTSCALE
 40
1.0
  9
$DISPSILH
 70
     0
  9
$DIMSCALE
 40
1.0
  9
$DIMASZ
 40
0.18
  9
$DIMEXO
 40
0.0625
  9
$DIMDLI
 40
0.38
  9
$DIMRND
 40
0.0
  9
$DIMDLE
 40
0.0
  9
$DIMEXE
 40
0.18
  9
$DIMTP
 40
0.0
  9
$DIMTM
 40
0.0
  9
$DIMTXT
 40
0.18
  9
$DIMCEN
 40
0.09
  9
$DIMTSZ
 40
0.0
  9
$DIMTOL
 70
     0
  9
$DIMLIM
 70
     0
  9
$DIMTIH
 70
     1
  9
$DIMTOH
 70
     1
  9
$DIMSE1
 70
     0
  9
$DIMSE2
 70
     0
  9
$DIMTAD
 70
     0
  9
$DIMZIN
 70
     0
  9
$DIMBLK
  1

  9
$DIMASO
 70
     1
  9
$DIMSHO
 70
     1
  9
$DIMPOST
  1

  9
$DIMAPOST
  1

  9
$DIMALT
 70
     0
  9
$DIMALTD
 70
     2
  9
$DIMALTF
 40
25.4
  9
$DIMLFAC
 40
1.0
  9
$DIMTOFL
 70
     0
  9
$DIMTVP
 40
0.0
  9
$DIMTIX
 70
     0
  9
$DIMSOXD
 70
     0
  9
$DIMSAH
 70
     0
  9
$DIMBLK1
  1

  9
$DIMBLK2
  1

  9
$DIMSTYLE
  2
Standard
  9
$DIMCLRD
 70
     0
  9
$DIMCLRE
 70
     0
  9
$DIMCLRT
 70
     0
  9
$DIMTFAC
 40
1.0
  9
$DIMGAP
 40
0.09
  9
$DIMJUST
 70
     0
  9
$DIMSD1
 70
     0
  9
$DIMSD2
 70
     0
  9
$DIMTOLJ
 70
     1
  9
$DIMTZIN
 70
     0
  9
$DIMALTZ
 70
     0
  9
$DIMALTTZ
 70
     0
  9
$DIMUPT
 70
     0
  9
$DIMDEC
 70
     4
  9
$DIMTDEC
 70
     4
  9
$DIMALTU
 70
     2
  9
$DIMALTTD
 70
     2
  9
$DIMTXSTY
  7
Standard
  9
$DIMAUNIT
 70
     0
  9
$DIMADEC
 70
     0
  9
$DIMALTRND
 40
0.0
  9
$DIMAZIN
 70
     0
  9
$DIMDSEP
 70
    46
  9
$DIMATFIT
 70
     3
  9
$DIMFRAC
 70
     0
  9
$DIMLDRBLK
  1

  9
$DIMLUNIT
 70
     2
  9
$DIMLWD
 70
    -2
  9
$DIMLWE
 70
    -2
  9
$DIMTMOVE
 70
     0
  9
$DIMFXL
 40
1.0
  9
$DIMFXLON
 70
     0
  9
$DIMJOGANG
 40
0.7853981633974483
  9
$DIMTFILL
 70
     0
  9
$DIMTFILLCLR
 70
     0
  9
$DIMARCSYM
 70
     0
  9
$DIMLTYPE
  6

  9
$DIMLTEX1
  6

  9
$DIMLTEX2
  6

  9
$DIMTXTDIRECTION
 70
     0
  9
$LUNITS
 70
     2
  9
$LUPREC
 70
     4
  9
$SKETCHINC
 40
0.1
  9
$FILLETRAD
 40
0.5
  9
$AUNITS
 70
     0
  9
$AUPREC
 70
     0
  9
$MENU
  1
.
  9
$ELEVATION
 40
0.0
  9
$PELEVATION
 40
0.0
  9
$THICKNESS
 40
0.0
  9
$LIMCHECK
 70
     0
  9
$CHAMFERA
 40
0.0
  9
$CHAMFERB
 40
0.0
  9
$CHAMFERC
 40
0.0
  9
$CHAMFERD
 40
0.0
  9
$SKPOLY
 70
     0
  9
$TDCREATE
 40
2458168.989679329
  9
$TDUCREATE
 40
2458168.948012662
  9
$TDUPDATE
 40
2458168.989679514
  9
$TDUUPDATE
 40
2458168.948012847
  9
$TDINDWG
 40
0.0000000116
  9
$TDUSRTIMER
 40
0.0000000116
  9
$USRTIMER
 70
     1
  9
$ANGBASE
 50
0.0
  9
$ANGDIR
 70
     0
  9
$PDMODE
 70
     0
  9
$PDSIZE
 40
0.0
  9
$PLINEWID
 40
0.0
  9
$SPLFRAME
 70
     0
  9
$SPLINETYPE
 70
     6
  9
$SPLINESEGS
 70
     8
  9
$HANDSEED
  5
258
  9
$SURFTAB1
 70
     6
  9
$SURFTAB2
 70
     6
  9
$SURFTYPE
 70
     6
  9
$SURFU
 70
     6
  9
$SURFV
 70
     6
  9
$UCSBASE
  2

  9
$UCSNAME
  2

  9
$UCSORG
 10
0.0
 20
0.0
 30
0.0
  9
$UCSXDIR
 10
1.0
 20
0.0
 30
0.0
  9
$UCSYDIR
 10
0.0
 20
1.0
 30
0.0
  9
$UCSORTHOREF
  2

  9
$UCSORTHOVIEW
 70
     0
  9
$UCSORGTOP
 10
0.0
 20
0.0
 30
0.0
  9
$UCSORGBOTTOM
 10
0.0
 20
0.0
 30
0.0
  9
$UCSORGLEFT
 10
0.0
 20
0.0
 30
0.0
  9
$UCSORGRIGHT
 10
0.0
 20
0.0
 30
0.0
  9
$UCSORGFRONT
 10
0.0
 20
0.0
 30
0.0
  9
$UCSORGBACK
 10
0.0
 20
0.0
 30
0.0
  9
$PUCSBASE
  2

  9
$PUCSNAME
  2

  9
$PUCSORG
 10
0.0
 20
0.0
 30
0.0
  9
$PUCSXDIR
 10
1.0
 20
0.0
 30
0.0
  9
$PUCSYDIR
 10
0.0
 20
1.0
 30
0.0
  9
$PUCSORTHOREF
  2

  9
$PUCSORTHOVIEW
 70
     0
  9
$PUCSORGTOP
 10
0.0
 20
0.0
 30
0.0
  9
$PUCSORGBOTTOM
 10
0.0
 20
0.0
 30
0.0
  9
$PUCSORGLEFT
 10
0.0
 20
0.0
 30
0.0
  9
$PUCSORGRIGHT
 10
0.0
 20
0.0
 30
0.0
  9
$PUCSORGFRONT
 10
0.0
 20
0.0
 30
0.0
  9
$PUCSORGBACK
 10
0.0
 20
0.0
 30
0.0
  9
$USERI1
 70
     0
  9
$USERI2
 70
     0
  9
$USERI3
 70
     0
  9
$USERI4
 70
     0
  9
$USERI5
 70
     0
  9
$USERR1
 40
0.0
  9
$USERR2
 40
0.0
  9
$USERR3
 40
0.0
  9
$USERR4
 40
0.0
  9
$USERR5
 40
0.0
  9
$WORLDVIEW
 70
     1
  9
$SHADEDGE
 70
     3
  9
$SHADEDIF
 70
    70
  9
$TILEMODE
 70
     1
  9
$MAXACTVP
 70
    64
  9
$PINSBASE
 10
0.0
 20
0.0
 30
0.0
  9
$PLIMCHECK
 70
     0
  9
$PEXTMIN
 10
1.000000000000000E+20
 20
1.000000000000000E+20
 30
1.000000000000000E+20
  9
$PEXTMAX
 10
-1.000000000000000E+20
 20
-1.000000000000000E+20
 30
-1.000000000000000E+20
  9
$PLIMMIN
 10
0.0
 20
0.0
  9
$PLIMMAX
 10
12.0
 20
9.0
  9
$UNITMODE
 70
     0
  9
$VISRETAIN
 70
     1
  9
$PLINEGEN
 70
     0
  9
$PSLTSCALE
 70
     1
  9
$TREEDEPTH
 70
  3020
  9
$CMLSTYLE
  2
Standard
  9
$CMLJUST
 70
     0
  9
$CMLSCALE
 40
1.0
  9
$PROXYGRAPHICS
 70
     1
  9
$MEASUREMENT
 70
     0
  9
$CELWEIGHT
370
    -1
  9
$ENDCAPS
280
     0
  9
$JOINSTYLE
280
     0
  9
$LWDISPLAY
290
     0
  9
$INSUNITS
 70
     1
  9
$HYPERLINKBASE
  1

  9
$STYLESHEET
  1

  9
$XEDIT
290
     1
  9
$CEPSNTYPE
380
     0
  9
$PSTYLEMODE
290
     1
  9
$FINGERPRINTGUID
  2
{C29BE4BD-0632-4EFA-99E5-79628524AD71}
  9
$VERSIONGUID
  2
{FAEB1C32-E019-11D5-929B-00C0DF256EC4}
  9
$EXTNAMES
290
     1
  9
$PSVPSCALE
 40
0.0
  9
$OLESTARTUP
290
     0
  9
$SORTENTS
280
   127
  9
$INDEXCTL
280
     0
  9
$HIDETEXT
280
     1
  9
$XCLIPFRAME
280
     2
  9
$HALOGAP
280
     0
  9
$OBSCOLOR
 70
   257
  9
$OBSLTYPE
280
     0
  9
$INTERSECTIONDISPLAY
280
     0
  9
$INTERSECTIONCOLOR
 70
   257
  9
$DIMASSOC
280
     2
  9
$PROJECTNAME
  1

  9
$CAMERADISPLAY
290
     0
  9
$LENSLENGTH
 40
50.0
  9
$CAMERAHEIGHT
 40
0.0
  9
$STEPSPERSEC
 40
2.0
  9
$STEPSIZE
 40
6.0
  9
$3DDWFPREC
 40
2.0
  9
$PSOLWIDTH
 40
0.25
  9
$PSOLHEIGHT
 40
4.0
  9
$LOFTANG1
 40
1.570796326794897
  9
$LOFTANG2
 40
1.570796326794897
  9
$LOFTMAG1
 40
0.0
  9
$LOFTMAG2
 40
0.0
  9
$LOFTPARAM
 70
     7
  9
$LOFTNORMALS
280
     1
  9
$LATITUDE
 40
37.795
  9
$LONGITUDE
 40
-122.394
  9
$NORTHDIRECTION
 40
0.0
  9
$TIMEZONE
 70
 -8000
  9
$LIGHTGLYPHDISPLAY
280
     1
  9
$TILEMODELIGHTSYNCH
280
     1
  9
$CMATERIAL
347
44
  9
$SOLIDHIST
280
     0
  9
$SHOWHIST
280
     1
  9
$DWFFRAME
280
     2
  9
$DGNFRAME
280
     2
  9
$REALWORLDSCALE
290
     1
  9
$INTERFERECOLOR
 62
   256
  9
$CSHADOW
280
     0
  9
$SHADOWPLANELOCATION
 40
0.0
  0
ENDSEC
  0
SECTION
  2
CLASSES
  0
CLASS
  1
ACDBDICTIONARYWDFLT
  2
AcDbDictionaryWithDefault
  3
ObjectDBX Classes
 90
        0
 91
        4
280
     0
281
     0
  0
CLASS
  1
VISUALSTYLE
  2
AcDbVisualStyle
  3
ObjectDBX Classes
 90
     4095
 91
        4
280
     0
281
     0
  0
CLASS
  1
MATERIAL
  2
AcDbMaterial
  3
ObjectDBX Classes
 90
     1153
 91
        4
280
     0
281
     0
  0
CLASS
  1
SCALE
  2
AcDbScale
  3
ObjectDBX Classes
 90
     1153
 91
        4
280
     0
281
     0
  0
CLASS
  1
TABLESTYLE
  2
AcDbTableStyle
  3
ObjectDBX Classes
 90
     4095
 91
        4
280
     0
281
     0
  0
CLASS
  1
MLEADERSTYLE
  2
AcDbMLeaderStyle
  3
ACDB_MLEADERSTYLE_CLASS
 90
     4095
 91
        4
280
     0
281
     0
  0
CLASS
  1
SUN
  2
AcDbSun
  3
SCENEOE
 90
     1153
 91
        4
280
     0
281
     0
  0
CLASS
  1
DICTIONARYVAR
  2
AcDbDictionaryVar
  3
ObjectDBX Classes
 90
        0
 91
        4
280
     0
281
     0
  0
CLASS
  1
CELLSTYLEMAP
  2
AcDbCellStyleMap
  3
ObjectDBX Classes
 90
     1152
 91
        4
280
     0
281
     0
  0
ENDSEC
  0
SECTION
  2
TABLES
  0
TABLE
  2
VPORT
  5
8
330
0
100
AcDbSymbolTable
 70
     1
  0
VPORT
  5
29
330
8
100
AcDbSymbolTableRecord
100
AcDbViewportTableRecord
  2
*Active
 70
     0
 10
0.0
 20
0.0
 11
1.0
 21
1.0
 12
1.162916842207274
 22
0.0
 13
0.0
 23
0.0
 14
0.5
 24
0.5
 15
0.5
 25
0.5
 16
0.0
 26
0.0
 36
1.0
 17
0.0
 27
0.0
 37
0.0
 40
7.96875
 41
1.347893288394938
 42
50.0
 43
0.0
 44
0.0
 50
0.0
 51
0.0
 71
     0
 72
   100
 73
     1
 74
     3
 75
     0
 76
     0
 77
     0
 78
     0
281
     0
 65
     1
110
0.0
120
0.0
130
0.0
111
1.0
121
0.0
131
0.0
112
0.0
122
1.0
132
0.0
 79
     0
146
0.0
348
2F
 60
     3
 61
     5
292
     1
282
     1
141
0.0
142
0.0
 63
   250
361
6D
  0
ENDTAB
  0
TABLE
  2
LTYPE
  5
5
330
0
100
AcDbSymbolTable
 70
     3
  0
LTYPE
  5
14
330
5
100
AcDbSymbolTableRecord
100
AcDbLinetypeTableRecord
  2
ByBlock
 70
     0
  3

 72
    65
 73
     0
 40
0.0
  0
LTYPE
  5
15
330
5
100
AcDbSymbolTableRecord
100
AcDbLinetypeTableRecord
  2
ByLayer
 70
     0
  3

 72
    65
 73
     0
 40
0.0
  0
LTYPE
  5
16
330
5
100
AcDbSymbolTableRecord
100
AcDbLinetypeTableRecord
  2
Continuous
 70
     0
  3
Solid line
 72
    65
 73
     0
 40
0.0
  0
LTYPE
  5
A2
330
5
100
AcDbSymbolTableRecord
100
AcDbLinetypeTableRecord
  2
Dashed
 70
     0
  3

 72
    65
 73
     2
 40
2.0
 49
1.0
 74
     0
 49
-1.0
 74
     0
  0
LTYPE
  5
CB
330
5
100
AcDbSymbolTableRecord
100
AcDbLinetypeTableRecord
  2
Center
 70
     0
  3

 72
    65
 73
     4
 40
1.5
 49
0.45
 74
     0
 49
-0.5
 74
     0
 49
0.05
 74
     0
 49
-0.5
 74
     0
  0
ENDTAB
  0
TABLE
  2
LAYER
  5
2
330
0
100
AcDbSymbolTable
 70
     7
  0
LAYER
  5
10
330
2
100
AcDbSymbolTableRecord
100
AcDbLayerTableRecord
  2
0
 70
     0
 62
     7
  6
Continuous
370
    -3
390
F
347
46
348
0
  0
LAYER
  5
72
330
2
100
AcDbSymbolTableRecord
100
AcDbLayerTableRecord
  2
AM_6
 70
     0
 62
    -2
  6
Continuous
370
    35
390
F
347
46
348
0
  0
LAYER
  5
A3
330
2
100
AcDbSymbolTableRecord
100
AcDbLayerTableRecord
  2
AM_9
 70
     0
 62
     6
  6
Dashed
370
    25
390
F
347
46
348
0
  0
LAYER
  5
C4
330
2
100
AcDbSymbolTableRecord
100
AcDbLayerTableRecord
  2
AM_5
 70
     0
 62
     3
  6
Continuous
370
    25
390
F
347
46
348
0
  0
LAYER
  5
CC
330
2
100
AcDbSymbolTableRecord
100
AcDbLayerTableRecord
  2
AM_7
 70
     0
 62
     7
  6
Center
370
    25
390
F
347
46
348
0
  0
LAYER
  5
CF
330
2
100
AcDbSymbolTableRecord
100
AcDbLayerTableRecord
  2
AM_4
 70
     0
 62
     7
  6
Continuous
370
    50
390
F
347
46
348
0
  0
LAYER
  5
241
330
2
100
AcDbSymbolTableRecord
100
AcDbLayerTableRecord
  2
ConnectionPoints
 70
     0
 62
     7
  6
Continuous
370
    50
390
F
347
46
348
0
  0
ENDTAB
  0
TABLE
  2
STYLE
  5
3
330
0
100
AcDbSymbolTable
 70
     1
  0
STYLE
  5
11
330
3
100
AcDbSymbolTableRecord
100
AcDbTextStyleTableRecord
  2
Standard
 70
     0
 40
0.0
 41
1.0
 50
0.0
 71
     0
 42
0.2
  3
txt
  4

  0
ENDTAB
  0
TABLE
  2
VIEW
  5
6
330
0
100
AcDbSymbolTable
 70
     0
  0
ENDTAB
  0
TABLE
  2
UCS
  5
7
330
0
100
AcDbSymbolTable
 70
     0
  0
ENDTAB
  0
TABLE
  2
APPID
  5
9
330
0
100
AcDbSymbolTable
 70
     1
  0
APPID
  5
12
330
9
100
AcDbSymbolTableRecord
100
AcDbRegAppTableRecord
  2
ACAD
 70
     0
  0
ENDTAB
  0
TABLE
  2
DIMSTYLE
  5
A
330
0
100
AcDbSymbolTable
 70
     1
100
AcDbDimStyleTable
  0
DIMSTYLE
105
27
330
A
100
AcDbSymbolTableRecord
100
AcDbDimStyleTableRecord
  2
Standard
 70
     0
178
     0
340
11
  0
ENDTAB
  0
TABLE
  2
BLOCK_RECORD
  5
1
330
0
100
AcDbSymbolTable
 70
     8
  0
BLOCK_RECORD
  5
1F
330
1
100
AcDbSymbolTableRecord
100
AcDbBlockTableRecord
  2
*Model_Space
340
22
 70
     0
280
     1
281
     0
  0
BLOCK_RECORD
  5
1B
330
1
100
AcDbSymbolTableRecord
100
AcDbBlockTableRecord
  2
*Paper_Space
340
1E
 70
     0
280
     1
281
     0
  0
BLOCK_RECORD
  5
23
330
1
100
AcDbSymbolTableRecord
100
AcDbBlockTableRecord
  2
*Paper_Space0
340
26
 70
     0
280
     1
281
     0
  0
BLOCK_RECORD
  5
6E
330
1
100
AcDbSymbolTableRecord
100
AcDbBlockTableRecord
  2
1_069361_0
340
0
102
{BLKREFS
331
6F
102
}
 70
     0
280
     1
281
     0
  0
BLOCK_RECORD
  5
91
330
1
100
AcDbSymbolTableRecord
100
AcDbBlockTableRecord
  2
2_405016_Inch_0_in_069361_0
340
0
102
{BLKREFS
331
92
102
}
 70
     0
280
     1
281
     0
  0
BLOCK_RECORD
  5
111
330
1
100
AcDbSymbolTableRecord
100
AcDbBlockTableRecord
  2
3_ASME_B18_3_1_4_1_0_in_069361_0
340
0
102
{BLKREFS
331
112
102
}
 70
     0
280
     1
281
     0
  0
BLOCK_RECORD
  5
12D
330
1
100
AcDbSymbolTableRecord
100
AcDbBlockTableRecord
  2
4_ASME_B18_3_1_4_2_0_in_069361_0
340
0
102
{BLKREFS
331
12E
102
}
 70
     0
280
     1
281
     0
  0
BLOCK_RECORD
  5
149
330
1
100
AcDbSymbolTableRecord
100
AcDbBlockTableRecord
  2
5_070901LW_0_in_069361_0
340
0
102
{BLKREFS
331
14A
102
}
 70
     0
280
     1
281
     0
  0
BLOCK_RECORD
  5
194
330
1
100
AcDbSymbolTableRecord
100
AcDbBlockTableRecord
  2
6_070901I_0_in_069361_0
340
0
102
{BLKREFS
331
195
102
}
 70
     0
280
     1
281
     0
  0
BLOCK_RECORD
  5
1F2
330
1
100
AcDbSymbolTableRecord
100
AcDbBlockTableRecord
  2
7_069361H_0_in_069361_0
340
0
102
{BLKREFS
331
1F3
102
}
 70
     0
280
     1
281
     0
  0
ENDTAB
  0
ENDSEC
  0
SECTION
  2
BLOCKS
  0
BLOCK
  5
20
330
1F
100
AcDbEntity
  8
0
100
AcDbBlockBegin
  2
*Model_Space
 70
     0
 10
0.0
 20
0.0
 30
0.0
  3
*Model_Space
  1

  0
ENDBLK
  5
21
330
1F
100
AcDbEntity
  8
0
100
AcDbBlockEnd
  0
BLOCK
  5
1C
330
1B
100
AcDbEntity
 67
     1
  8
0
100
AcDbBlockBegin
  2
*Paper_Space
 70
     0
 10
0.0
 20
0.0
 30
0.0
  3
*Paper_Space
  1

  0
ENDBLK
  5
1D
330
1B
100
AcDbEntity
 67
     1
  8
0
100
AcDbBlockEnd
  0
BLOCK
  5
24
330
23
100
AcDbEntity
  8
0
100
AcDbBlockBegin
  2
*Paper_Space0
 70
     0
 10
0.0
 20
0.0
 30
0.0
  3
*Paper_Space0
  1

  0
ENDBLK
  5
25
330
23
100
AcDbEntity
  8
0
100
AcDbBlockEnd
  0
BLOCK
  5
70
330
6E
100
AcDbEntity
  8
0
100
AcDbBlockBegin
  2
1_069361_0
 70
     2
 10
0.0
 20
0.0
 30
0.0
  3
1_069361_0
  1

  0
ATTDEF
  5
73
330
6E
100
AcDbEntity
  8
AM_6
100
AcDbText
 10
11.428125
 20
3.90625
 30
0.0
 40
0.5
  1
Imperial - IP Wide Slot Take-Up
100
AcDbAttributeDefinition
  3

  2
NN
 70
     8
280
     0
  0
ATTDEF
  5
74
330
6E
100
AcDbEntity
  8
AM_6
100
AcDbText
 10
11.428125
 20
3.40625
 30
0.0
 40
0.5
  1
Imperial Wide Slot Take-Up Bearings
100
AcDbAttributeDefinition
  3

  2
NT
 70
     8
280
     0
  0
ATTDEF
  5
75
330
6E
100
AcDbEntity
  8
AM_6
100
AcDbText
 10
11.428125
 20
2.90625
 30
0.0
 40
0.5
  1
069361
100
AcDbAttributeDefinition
  3

  2
NB
 70
     8
280
     0
  0
ATTDEF
  5
76
330
6E
100
AcDbEntity
  8
AM_6
100
AcDbText
 10
11.428125
 20
2.40625
 30
0.0
 40
0.5
  1
$PN.
100
AcDbAttributeDefinition
  3

  2
NBSYN
 70
     8
280
     0
  0
ATTDEF
  5
77
330
6E
100
AcDbEntity
  8
AM_6
100
AcDbText
 10
11.428125
 20
1.90625
 30
0.0
 40
0.5
  1
069361
100
AcDbAttributeDefinition
  3

  2
LINA
 70
     8
280
     0
  0
ATTDEF
  5
78
330
6E
100
AcDbEntity
  8
AM_6
100
AcDbText
 10
11.428125
 20
1.40625
 30
0.0
 40
0.5
  1
3-3/16
100
AcDbAttributeDefinition
  3

  2
SS
 70
     8
280
     0
  0
ATTDEF
  5
79
330
6E
100
AcDbEntity
  8
AM_6
100
AcDbText
 10
11.428125
 20
0.90625
 30
0.0
 40
0.5
  1
069361
100
AcDbAttributeDefinition
  3

  2
PN
 70
     8
280
     0
  0
ATTDEF
  5
7A
330
6E
100
AcDbEntity
  8
AM_6
100
AcDbText
 10
11.428125
 20
0.40625
 30
0.0
 40
0.5
  1
WSTU-IP-303R
100
AcDbAttributeDefinition
  3

  2
DESCRIPTION
 70
     8
280
     0
  0
ATTDEF
  5
7B
330
6E
100
AcDbEntity
  8
AM_6
100
AcDbText
 10
11.428125
 20
-0.09375
 30
0.0
 40
0.5
  1
Non-Expansion
100
AcDbAttributeDefinition
  3

  2
EF
 70
     8
280
     0
  0
ATTDEF
  5
7C
330
6E
100
AcDbEntity
  8
AM_6
100
AcDbText
 10
11.428125
 20
-0.59375
 30
0.0
 40
0.5
  1
Contact Seal
100
AcDbAttributeDefinition
  3

  2
ST
 70
     8
280
     0
  0
ATTDEF
  5
7D
330
6E
100
AcDbEntity
  8
AM_6
100
AcDbText
 10
11.428125
 20
-1.09375
 30
0.0
 40
0.5
  1
4-5/32
100
AcDbAttributeDefinition
  3

  2
A
 70
     8
280
     0
  0
ATTDEF
  5
7E
330
6E
100
AcDbEntity
  8
AM_6
100
AcDbText
 10
11.428125
 20
-1.59375
 30
0.0
 40
0.5
  1
10-1/16
100
AcDbAttributeDefinition
  3

  2
B
 70
     8
280
     0
  0
ATTDEF
  5
7F
330
6E
100
AcDbEntity
  8
AM_6
100
AcDbText
 10
11.428125
 20
-2.09375
 30
0.0
 40
0.5
  1
1-13/16
100
AcDbAttributeDefinition
  3

  2
C
 70
     8
280
     0
  0
ATTDEF
  5
80
330
6E
100
AcDbEntity
  8
AM_6
100
AcDbText
 10
11.428125
 20
-2.59375
 30
0.0
 40
0.5
  1
5-1/2
100
AcDbAttributeDefinition
  3

  2
D
 70
     8
280
     0
  0
ATTDEF
  5
81
330
6E
100
AcDbEntity
  8
AM_6
100
AcDbText
 10
11.428125
 20
-3.09375
 30
0.0
 40
0.5
  1
6-3/8
100
AcDbAttributeDefinition
  3

  2
E
 70
     8
280
     0
  0
ATTDEF
  5
82
330
6E
100
AcDbEntity
  8
AM_6
100
AcDbText
 10
11.428125
 20
-3.59375
 30
0.0
 40
0.5
  1
1-7/8
100
AcDbAttributeDefinition
  3

  2
F
 70
     8
280
     0
  0
ATTDEF
  5
83
330
6E
100
AcDbEntity
  8
AM_6
100
AcDbText
 10
11.428125
 20
-4.09375
 30
0.0
 40
0.5
  1
1-1/16
100
AcDbAttributeDefinition
  3

  2
G
 70
     8
280
     0
  0
ATTDEF
  5
84
330
6E
100
AcDbEntity
  8
AM_6
100
AcDbText
 10
11.428125
 20
-4.59375
 30
0.0
 40
0.5
  1
1-5/8
100
AcDbAttributeDefinition
  3

  2
H
 70
     8
280
     0
  0
ATTDEF
  5
85
330
6E
100
AcDbEntity
  8
AM_6
100
AcDbText
 10
11.428125
 20
-5.09375
 30
0.0
 40
0.5
  1
5-1/8
100
AcDbAttributeDefinition
  3

  2
J
 70
     8
280
     0
  0
ATTDEF
  5
86
330
6E
100
AcDbEntity
  8
AM_6
100
AcDbText
 10
11.428125
 20
-5.59375
 30
0.0
 40
0.5
  1
2-7/8
100
AcDbAttributeDefinition
  3

  2
K
 70
     8
280
     0
  0
ATTDEF
  5
87
330
6E
100
AcDbEntity
  8
AM_6
100
AcDbText
 10
11.428125
 20
-6.09375
 30
0.0
 40
0.5
  1
5
100
AcDbAttributeDefinition
  3

  2
L
 70
     8
280
     0
  0
ATTDEF
  5
88
330
6E
100
AcDbEntity
  8
AM_6
100
AcDbText
 10
11.428125
 20
-6.59375
 30
0.0
 40
0.5
  1
6-13/16
100
AcDbAttributeDefinition
  3

  2
M
 70
     8
280
     0
  0
ATTDEF
  5
89
330
6E
100
AcDbEntity
  8
AM_6
100
AcDbText
 10
11.428125
 20
-7.09375
 30
0.0
 40
0.5
  1
7-13/16
100
AcDbAttributeDefinition
  3

  2
N
 70
     8
280
     0
  0
ATTDEF
  5
8A
330
6E
100
AcDbEntity
  8
AM_6
100
AcDbText
 10
11.428125
 20
-7.59375
 30
0.0
 40
0.5
  1
4-7/32
100
AcDbAttributeDefinition
  3

  2
R
 70
     8
280
     0
  0
ATTDEF
  5
8B
330
6E
100
AcDbEntity
  8
AM_6
100
AcDbText
 10
11.428125
 20
-8.09375
 30
0.0
 40
0.5
  1
2-11/16
100
AcDbAttributeDefinition
  3

  2
S
 70
     8
280
     0
  0
ATTDEF
  5
8C
330
6E
100
AcDbEntity
  8
AM_6
100
AcDbText
 10
11.428125
 20
-8.59375
 30
0.0
 40
0.5
  1
3-1/16
100
AcDbAttributeDefinition
  3

  2
T
 70
     8
280
     0
  0
ATTDEF
  5
8D
330
6E
100
AcDbEntity
  8
AM_6
100
AcDbText
 10
11.428125
 20
-9.09375
 30
0.0
 40
0.5
  1
1/4
100
AcDbAttributeDefinition
  3

  2
X
 70
     8
280
     0
  0
ATTDEF
  5
8E
330
6E
100
AcDbEntity
  8
AM_6
100
AcDbText
 10
11.428125
 20
-9.59375
 30
0.0
 40
0.5
  1
0.025
100
AcDbAttributeDefinition
  3

  2
Y
 70
     8
280
     0
  0
ATTDEF
  5
8F
330
6E
100
AcDbEntity
  8
AM_6
100
AcDbText
 10
11.428125
 20
-10.09375
 30
0.0
 40
0.5
  1
4-3/64
100
AcDbAttributeDefinition
  3

  2
Z
 70
     8
280
     0
  0
ATTDEF
  5
90
330
6E
100
AcDbEntity
  8
AM_6
100
AcDbText
 10
11.428125
 20
-10.59375
 30
0.0
 40
0.5
  1
baldor
100
AcDbAttributeDefinition
  3

  2
COMPANY
 70
     8
280
     0
  0
INSERT
  5
92
330
6E
100
AcDbEntity
  8
0
100
AcDbBlockReference
  2
2_405016_Inch_0_in_069361_0
 10
0.0
 20
0.0
 30
0.0
  0
INSERT
  5
112
330
6E
100
AcDbEntity
  8
0
100
AcDbBlockReference
  2
3_ASME_B18_3_1_4_1_0_in_069361_0
 10
0.0
 20
0.0
 30
0.0
  0
INSERT
  5
12E
330
6E
100
AcDbEntity
  8
0
100
AcDbBlockReference
  2
4_ASME_B18_3_1_4_2_0_in_069361_0
 10
0.0
 20
0.0
 30
0.0
  0
INSERT
  5
14A
330
6E
100
AcDbEntity
  8
0
100
AcDbBlockReference
  2
5_070901LW_0_in_069361_0
 10
0.0
 20
0.0
 30
0.0
  0
INSERT
  5
195
330
6E
100
AcDbEntity
  8
0
100
AcDbBlockReference
  2
6_070901I_0_in_069361_0
 10
0.0
 20
0.0
 30
0.0
  0
INSERT
  5
1F3
330
6E
100
AcDbEntity
  8
0
100
AcDbBlockReference
  2
7_069361H_0_in_069361_0
 10
0.0
 20
0.0
 30
0.0
  0
ENDBLK
  5
71
330
6E
100
AcDbEntity
  8
0
100
AcDbBlockEnd
  0
BLOCK
  5
93
330
91
100
AcDbEntity
  8
0
100
AcDbBlockBegin
  2
2_405016_Inch_0_in_069361_0
 70
     2
 10
0.0
 20
0.0
 30
0.0
  3
2_405016_Inch_0_in_069361_0
  1

  0
ATTDEF
  5
95
330
91
100
AcDbEntity
  8
AM_6
100
AcDbText
 10
1.751672916644567
 20
-1.173859603944417
 30
0.0
 40
0.5
  1
405016 -Inch
100
AcDbAttributeDefinition
  3

  2
NN
 70
     8
280
     0
  0
ATTDEF
  5
96
330
91
100
AcDbEntity
  8
AM_6
100
AcDbText
 10
1.751672916644567
 20
-1.673859603944417
 30
0.0
 40
0.5
  1
Grease Fitting
100
AcDbAttributeDefinition
  3

  2
NT
 70
     8
280
     0
  0
ATTDEF
  5
97
330
91
100
AcDbEntity
  8
AM_6
100
AcDbText
 10
1.751672916644567
 20
-2.173859603944417
 30
0.0
 40
0.5
  1
405016-Inch
100
AcDbAttributeDefinition
  3

  2
NB
 70
     8
280
     0
  0
ATTDEF
  5
98
330
91
100
AcDbEntity
  8
AM_6
100
AcDbText
 10
1.751672916644567
 20
-2.673859603944417
 30
0.0
 40
0.5
  1
$MN.-Inch
100
AcDbAttributeDefinition
  3

  2
NBSYN
 70
     8
280
     0
  0
ATTDEF
  5
99
330
91
100
AcDbEntity
  8
AM_6
100
AcDbText
 10
1.751672916644567
 20
-3.173859603944417
 30
0.0
 40
0.5
  1
405016
100
AcDbAttributeDefinition
  3

  2
LINA
 70
     8
280
     0
  0
ATTDEF
  5
9A
330
91
100
AcDbEntity
  8
AM_6
100
AcDbText
 10
1.751672916644567
 20
-3.673859603944417
 30
0.0
 40
0.5
  1
405016
100
AcDbAttributeDefinition
  3

  2
MN
 70
     8
280
     0
  0
ATTDEF
  5
9B
330
91
100
AcDbEntity
  8
AM_6
100
AcDbText
 10
1.751672916644567
 20
-4.173859603944417
 30
0.0
 40
0.5
  1
7/16 HEX
100
AcDbAttributeDefinition
  3

  2
H
 70
     8
280
     0
  0
ATTDEF
  5
9C
330
91
100
AcDbEntity
  8
AM_6
100
AcDbText
 10
1.751672916644567
 20
-4.673859603944417
 30
0.0
 40
0.5
  1
0.383
100
AcDbAttributeDefinition
  3

  2
NDR
 70
     8
280
     0
  0
ATTDEF
  5
9D
330
91
100
AcDbEntity
  8
AM_6
100
AcDbText
 10
1.751672916644567
 20
-5.173859603944417
 30
0.0
 40
0.5
  1
0.337
100
AcDbAttributeDefinition
  3

  2
KDR
 70
     8
280
     0
  0
ATTDEF
  5
9E
330
91
100
AcDbEntity
  8
AM_6
100
AcDbText
 10
1.751672916644567
 20
-5.673859603944417
 30
0.0
 40
0.5
  1
0.1575
100
AcDbAttributeDefinition
  3

  2
BZE
 70
     8
280
     0
  0
ATTDEF
  5
9F
330
91
100
AcDbEntity
  8
AM_6
100
AcDbText
 10
1.751672916644567
 20
-6.173859603944417
 30
0.0
 40
0.5
  1
0.4375
100
AcDbAttributeDefinition
  3

  2
HEX
 70
     8
280
     0
  0
ATTDEF
  5
A0
330
91
100
AcDbEntity
  8
AM_6
100
AcDbText
 10
1.751672916644567
 20
-6.673859603944417
 30
0.0
 40
0.5
  1
0.281250
100
AcDbAttributeDefinition
  3

  2
HEX2
 70
     8
280
     0
  0
ATTDEF
  5
A1
330
91
100
AcDbEntity
  8
AM_6
100
AcDbText
 10
1.751672916644567
 20
-7.173859603944417
 30
0.0
 40
0.5
  1
baldor
100
AcDbAttributeDefinition
  3

  2
COMPANY
 70
     8
280
     0
  0
LINE
  5
A4
330
91
100
AcDbEntity
  8
AM_9
100
AcDbLine
 10
-3.248327083355433
 20
-1.486769276755509
 30
0.0
 11
-3.369447678615014
 21
-1.186985283750563
 31
0.0
  0
LINE
  5
A5
330
91
100
AcDbEntity
  8
AM_9
100
AcDbLine
 10
-3.369447678615014
 20
-1.186985283750563
 30
0.0
 11
-3.400369842439368
 21
-1.173859603944417
 31
0.0
  0
LINE
  5
A6
330
91
100
AcDbEntity
  8
AM_9
100
AcDbLine
 10
-3.261452763161579
 20
-1.517691440579864
 30
0.0
 11
-3.248327083355433
 21
-1.486769276755509
 31
0.0
  0
ARC
  5
A7
330
91
100
AcDbEntity
  8
AM_9
100
AcDbCircle
 10
-3.813043601905914
 20
-1.540569615422938
 30
0.0
 40
0.1999999999999994
100
AcDbArc
 50
157.7601294002137
 51
246.8126656143409
  0
LINE
  5
A8
330
91
100
AcDbEntity
  8
AM_9
100
AcDbLine
 10
-3.261452763161579
 20
-1.517691440579864
 30
0.0
 11
-3.400369842439368
 21
-1.173859603944417
 31
0.0
  0
LINE
  5
A9
330
91
100
AcDbEntity
  8
AM_9
100
AcDbLine
 10
-3.400369842439368
 20
-1.173859603944417
 30
0.0
 11
-3.58345022008522
 21
-1.24125634856867
 31
0.0
  0
LINE
  5
AA
330
91
100
AcDbEntity
  8
AM_9
100
AcDbLine
 10
-3.439967478258195
 20
-1.596388596556864
 30
0.0
 11
-3.261452763161579
 21
-1.517691440579864
 31
0.0
  0
LINE
  5
AB
330
91
100
AcDbEntity
  8
AM_9
100
AcDbLine
 10
-4.042598036331342
 20
-1.545749519122921
 30
0.0
 11
-4.054719135615039
 21
-1.550646761119486
 31
0.0
  0
LINE
  5
AC
330
91
100
AcDbEntity
  8
AM_9
100
AcDbLine
 10
-3.981769506395719
 20
-1.696305413879224
 30
0.0
 11
-3.993890605679415
 21
-1.701202655875789
 31
0.0
  0
LWPOLYLINE
  5
AD
330
91
100
AcDbEntity
  8
AM_9
100
AcDbPolyline
 90
        6
 70
     0
 43
0.0
 10
-4.042598036331342
 20
-1.545749519122921
 10
-4.029474773895068
 20
-1.571762406772876
 10
-4.017035772268131
 20
-1.598611463890787
 10
-4.005349002211092
 20
-1.626710506180531
 10
-3.994762803638296
 20
-1.655492940940698
 10
-3.981769506395719
 20
-1.696305413879224
  0
LINE
  5
AE
330
91
100
AcDbEntity
  8
AM_9
100
AcDbLine
 10
-3.771577480739664
 20
-1.643201866783692
 30
0.0
 11
-3.854642665126806
 21
-1.437608320930476
 31
0.0
  0
ELLIPSE
  5
AF
330
91
100
AcDbEntity
  8
AM_9
100
AcDbEllipse
 10
-3.888646627425748
 20
-1.571115220485436
 30
0.0
 11
-0.0526790521991125
 21
0.1303852295484546
 31
0.0
210
0.0
220
0.0
230
1.0
 40
0.906307787036649
 41
5.859216366485147
 42
9.848746901463826
  0
LWPOLYLINE
  5
B0
330
91
100
AcDbEntity
  8
AM_9
100
AcDbPolyline
 90
        6
 70
     0
 43
0.0
 10
-3.954623276766614
 20
-1.422639300982582
 10
-3.96797341657984
 20
-1.443556279858974
 10
-3.982472407897693
 20
-1.465213204049268
 10
-3.998507642169137
 20
-1.487956147011379
 10
-4.015825392904473
 20
-1.511331995961316
 10
-4.042598036331342
 20
-1.545749519122921
  0
LWPOLYLINE
  5
B1
330
91
100
AcDbEntity
  8
AM_9
100
AcDbPolyline
 90
        3
 70
     0
 43
0.0
 10
-3.87876080736529
 20
-1.713256059041051
 10
-3.868768667013538
 20
-1.715378534867939
 10
-3.832966216895366
 20
-1.723751090495187
  0
LINE
  5
B2
330
91
100
AcDbEntity
  8
AM_9
100
AcDbLine
 10
-3.981769506395719
 20
-1.696305413879224
 30
0.0
 11
-3.961695561464871
 21
-1.699040153623035
 31
0.0
  0
LWPOLYLINE
  5
B3
330
91
100
AcDbEntity
  8
AM_9
100
AcDbPolyline
 90
        5
 70
     0
 43
0.0
 10
-3.779651844322862
 20
-1.623217115629213
 10
-3.789700906245693
 20
-1.637471307373942
 10
-3.802321323292706
 20
-1.649984663544523
 10
-3.816455458648327
 20
-1.659710188018447
 10
-3.827730735559114
 20
-1.665142423599205
  0
LWPOLYLINE
  5
B4
330
91
100
AcDbEntity
  8
AM_9
100
AcDbPolyline
 90
        7
 70
     0
 43
0.0
 10
-3.783575353269201
 20
-1.508921527949531
 10
-3.785279394107533
 20
-1.506074993326021
 10
-3.795757656884388
 20
-1.491546088988688
 10
-3.808502581264968
 20
-1.478594313818459
 10
-3.822713761127136
 20
-1.468246752298057
 10
-3.838872115941682
 20
-1.460398245918632
 10
-3.846435359488965
 20
-1.457922115216663
  0
LWPOLYLINE
  5
B5
330
91
100
AcDbEntity
  8
AM_9
100
AcDbPolyline
 90
        4
 70
     0
 43
0.0
 10
-3.769776845657418
 20
-1.543209826351872
 10
-3.770623050056099
 20
-1.539924772811944
 10
-3.776636850154973
 20
-1.522710141582848
 10
-3.783575353269201
 20
-1.508921527949531
  0
LWPOLYLINE
  5
B6
330
91
100
AcDbEntity
  8
AM_9
100
AcDbPolyline
 90
        6
 70
     0
 43
0.0
 10
-3.779651844322862
 20
-1.623217115629213
 10
-3.772519366138636
 20
-1.608067601030326
 10
-3.768197326650944
 20
-1.592460467074306
 10
-3.766338964935152
 20
-1.57579023432672
 10
-3.767094913957996
 20
-1.558064504593734
 10
-3.769776845657418
 20
-1.543209826351872
  0
LINE
  5
B7
330
91
100
AcDbEntity
  8
AM_9
100
AcDbLine
 10
-3.91013370553323
 20
-1.461157741862893
 30
0.0
 11
-3.929853352701499
 21
-1.469124996483089
 31
0.0
  0
LINE
  5
B8
330
91
100
AcDbEntity
  8
AM_9
100
AcDbLine
 10
-3.847439902149998
 20
-1.673105444487783
 30
0.0
 11
-3.827720331379913
 21
-1.665138220734456
 31
0.0
  0
LWPOLYLINE
  5
B9
330
91
100
AcDbEntity
  8
AM_9
100
AcDbPolyline
 90
       21
 70
     0
 43
0.0
 10
-3.827730735559114
 20
-1.665142423599205
 10
-3.832506254127524
 20
-1.66692542636682
 10
-3.849140910972924
 20
-1.671027459717046
 10
-3.866826947463034
 20
-1.672126431975192
 10
-3.884072329384852
 20
-1.670129450677098
 10
-3.901381417574638
 20
-1.664977059547165
 10
-3.917271673980756
 20
-1.65711528188013
 10
-3.932229958310633
 20
-1.646308361898504
 10
-3.944969630569981
 20
-1.633494389924995
 10
-3.955891057794219
 20
-1.618281592294602
 10
-3.964061542402878
 20
-1.601979892253794
 10
-3.969737704489043
 20
-1.584093873097829
 10
-3.972441856249224
 20
-1.566139210648942
 10
-3.972258026062198
 20
-1.547586935887372
 10
-3.969200440103544
 20
-1.529981193339002
 10
-3.963182739031978
 20
-1.512826776337366
 10
-3.954694085205334
 20
-1.497532904541883
 10
-3.943500825971585
 20
-1.4836887915034
 10
-3.930511110631205
 20
-1.472428633104979
 10
-3.915374299406046
 20
-1.463458870489337
 10
-3.910141939093259
 20
-1.461161068863556
  0
LWPOLYLINE
  5
BA
330
91
100
AcDbEntity
  8
AM_9
100
AcDbPolyline
 90
        5
 70
     0
 43
0.0
 10
-3.910141939093259
 20
-1.461161068863556
 10
-3.899330355125838
 20
-1.457521545157239
 10
-3.881942084913808
 20
-1.454463296551528
 10
-3.864386477189419
 20
-1.454568046658265
 10
-3.846435359488949
 20
-1.457922115216673
  0
ELLIPSE
  5
BB
330
91
100
AcDbEntity
  8
AM_9
100
AcDbEllipse
 10
-3.88864662742575
 20
-1.571115220485435
 30
0.0
 11
-0.05267905219911159
 21
0.1303852295484562
 31
0.0
210
0.0
220
0.0
230
1.0
 40
0.906307787036648
 41
3.764821264091958
 42
4.571432719802703
  0
ELLIPSE
  5
BC
330
91
100
AcDbEntity
  8
AM_9
100
AcDbEllipse
 10
-3.888646627425751
 20
-1.571115220485441
 30
0.0
 11
-0.05267905219913384
 21
0.1303852295484514
 31
0.0
210
0.0
220
0.0
230
1.0
 40
0.9063077870366875
 41
4.853345240966588
 42
5.659956696677296
  0
LWPOLYLINE
  5
BD
330
91
100
AcDbEntity
  8
AM_9
100
AcDbPolyline
 90
        5
 70
     0
 43
0.0
 10
-3.993890605679415
 20
-1.701202655875789
 10
-4.010937958910315
 20
-1.665413132590424
 10
-4.026849017406447
 20
-1.628481615465796
 10
-4.041536687389894
 20
-1.589875814998438
 10
-4.054719135615039
 20
-1.550646761119486
  0
LWPOLYLINE
  5
BE
330
91
100
AcDbEntity
  8
AM_9
100
AcDbPolyline
 90
        4
 70
     0
 43
0.0
 10
-3.890667282295484
 20
-1.72187800273892
 10
-3.921481041450776
 20
-1.716492667391585
 10
-3.95843788248183
 20
-1.709152062349915
 10
-3.993890605679415
 20
-1.701202655875789
  0
LWPOLYLINE
  5
BF
330
91
100
AcDbEntity
  8
AM_9
100
AcDbPolyline
 90
        4
 70
     0
 43
0.0
 10
-4.054719135615039
 20
-1.550646761119486
 10
-4.035613245420056
 20
-1.521597793222609
 10
-4.014794182633999
 20
-1.491511657133089
 10
-3.996022072163558
 20
-1.465676037991672
  0
ELLIPSE
  5
C0
330
91
100
AcDbEntity
  8
AM_9
100
AcDbEllipse
 10
-3.908238868872301
 20
-1.579030999852738
 30
0.0
 11
-0.05267905219911253
 21
0.1303852295484544
 31
0.0
210
0.0
220
0.0
230
1.0
 40
0.9063077870366495
 41
0.2261246455842674
 42
2.915869513393853
  0
LWPOLYLINE
  5
C1
330
91
100
AcDbEntity
  8
AM_9
100
AcDbPolyline
 90
       14
 70
     0
 43
0.0
 10
-3.849229496173153
 20
-1.592520236850101
 10
-3.848793383569256
 20
-1.60813610785521
 10
-3.851781539497946
 20
-1.629421312418638
 10
-3.858664554791694
 20
-1.64852689084889
 10
-3.868937696921544
 20
-1.66471805124704
 10
-3.882193023974992
 20
-1.67753693157026
 10
-3.898333533936906
 20
-1.686604625212521
 10
-3.917395445116885
 20
-1.691203822648055
 10
-3.935808041801022
 20
-1.690728176060257
 10
-3.954112969466333
 20
-1.685892811146488
 10
-3.973443040442481
 20
-1.675785400773984
 10
-3.99072041024483
 20
-1.661308593606833
 10
-4.005100510289887
 20
-1.643231849145737
 10
-4.015861156722215
 20
-1.622513226628483
  0
LWPOLYLINE
  5
C2
330
91
100
AcDbEntity
  8
AM_9
100
AcDbPolyline
 90
       14
 70
     0
 43
0.0
 10
-4.015861156722215
 20
-1.622513226628483
 10
-4.019231506670273
 20
-1.613086762413024
 10
-4.023985508812123
 20
-1.590586928603113
 10
-4.024347898379919
 20
-1.568284581993262
 10
-4.020494765693231
 20
-1.547385541966135
 10
-4.01284996226248
 20
-1.528847067827335
 10
-4.001918140614968
 20
-1.513340388573544
 10
-3.988055001246363
 20
-1.501281247540078
 10
-3.97128774204278
 20
-1.493082424212565
 10
-3.951668170048436
 20
-1.489571515266728
 10
-3.933238350560195
 20
-1.491105935831231
 10
-3.915036795995208
 20
-1.496946936532181
 10
-3.896084168621514
 20
-1.508039873650382
 10
-3.882082737902742
 20
-1.520409723397055
  0
ELLIPSE
  5
C3
330
91
100
AcDbEntity
  8
AM_9
100
AcDbEllipse
 10
-3.9628414404228
 20
-1.60109187075718
 30
0.0
 11
0.04989531183857375
 21
-0.1234952303787614
 31
0.0
210
0.0
220
0.0
230
1.0
 40
0.9063077870366509
 41
0.0
 42
6.283185307179586
  0
LINE
  5
C5
330
91
100
AcDbEntity
  8
AM_5
100
AcDbLine
 10
-3.410011741192946
 20
-1.558047001564022
 30
0.0
 11
-3.248327083355433
 21
-1.486769276755509
 31
0.0
  0
LINE
  5
C6
330
91
100
AcDbEntity
  8
AM_5
100
AcDbLine
 10
-3.439967478258195
 20
-1.596388596556864
 30
0.0
 11
-3.410011741192946
 21
-1.558047001564023
 31
0.0
  0
LINE
  5
C7
330
91
100
AcDbEntity
  8
AM_5
100
AcDbLine
 10
-3.401391583143048
 20
-1.579382641427695
 30
0.0
 11
-3.543887714317078
 21
-1.226692340496169
 31
0.0
  0
LINE
  5
C8
330
91
100
AcDbEntity
  8
AM_5
100
AcDbLine
 10
-3.53526755626718
 20
-1.248027980359842
 30
0.0
 11
-3.369447678615014
 21
-1.186985283750563
 31
0.0
  0
LINE
  5
C9
330
91
100
AcDbEntity
  8
AM_5
100
AcDbLine
 10
-3.583450220085221
 20
-1.241256348568669
 30
0.0
 11
-3.53526755626718
 21
-1.248027980359842
 31
0.0
  0
ELLIPSE
  5
CA
330
91
100
AcDbEntity
  8
AM_9
100
AcDbEllipse
 10
-3.888646627425749
 20
-1.571115220485436
 30
0.0
 11
-0.04120672527575045
 21
0.1019902240023469
 31
0.0
210
0.0
220
0.0
230
1.0
 40
0.9063077870366507
 41
0.0
 42
6.283185307179586
  0
LINE
  5
CD
330
91
100
AcDbEntity
  8
AM_7
100
AcDbLine
 10
-4.023043601905913
 20
-1.540569615422939
 30
0.0
 11
-3.603043601905916
 21
-1.540569615422939
 31
0.0
  0
LINE
  5
CE
330
91
100
AcDbEntity
  8
AM_7
100
AcDbLine
 10
-3.813043601905914
 20
-1.750569615422938
 30
0.0
 11
-3.813043601905914
 21
-1.330569615422941
 31
0.0
  0
LINE
  5
D0
330
91
100
AcDbEntity
  8
AM_4
100
AcDbLine
 10
-3.594918280956686
 20
-1.688370740201461
 30
0.0
 11
-3.573833983550404
 21
-1.716350547891973
 31
0.0
  0
LINE
  5
D1
330
91
100
AcDbEntity
  8
AM_4
100
AcDbLine
 10
-3.594918280956686
 20
-1.688370740201461
 30
0.0
 11
-3.758808665576147
 21
-1.282727803828491
 31
0.0
  0
LINE
  5
D2
330
91
100
AcDbEntity
  8
AM_4
100
AcDbLine
 10
-3.763078298905679
 20
-1.247954430872364
 30
0.0
 11
-3.758808665576147
 21
-1.282727803828491
 31
0.0
  0
LINE
  5
D3
330
91
100
AcDbEntity
  8
AM_4
100
AcDbLine
 10
-3.502199895500007
 20
-1.65091008085987
 30
0.0
 11
-3.666090280119469
 21
-1.2452671444869
 31
0.0
  0
LINE
  5
D4
330
91
100
AcDbEntity
  8
AM_4
100
AcDbLine
 10
-3.666090280119469
 20
-1.2452671444869
 30
0.0
 11
-3.687174577525751
 21
-1.217287336796389
 31
0.0
  0
LINE
  5
D5
330
91
100
AcDbEntity
  8
AM_4
100
AcDbLine
 10
-3.497930262170477
 20
-1.685683453815997
 30
0.0
 11
-3.502199895500007
 21
-1.65091008085987
 31
0.0
  0
ARC
  5
D6
330
91
100
AcDbEntity
  8
AM_4
100
AcDbCircle
 10
-3.813043601905914
 20
-1.540569615422939
 30
0.0
 40
0.1999999999999991
100
AcDbArc
 50
246.8126656143405
 51
292.0
  0
ARC
  5
D7
330
91
100
AcDbEntity
  8
AM_4
100
AcDbCircle
 10
-3.813043601905917
 20
-1.540569615422936
 30
0.0
 40
0.1999999999999962
100
AcDbArc
 50
111.9999999999993
 51
157.760129400214
  0
LINE
  5
D8
330
91
100
AcDbEntity
  8
AM_4
100
AcDbLine
 10
-3.854642665126806
 20
-1.437608320930476
 30
0.0
 11
-3.887964920589096
 21
-1.355132844509581
 31
0.0
  0
LINE
  5
D9
330
91
100
AcDbEntity
  8
AM_4
100
AcDbLine
 10
-3.751784791949599
 20
-1.300112501101619
 30
0.0
 11
-3.887964920589096
 21
-1.355132844509581
 31
0.0
  0
LINE
  5
DA
330
91
100
AcDbEntity
  8
AM_4
100
AcDbLine
 10
-3.738122283222732
 20
-1.726006386336296
 30
0.0
 11
-3.601942154583235
 21
-1.670986042928334
 31
0.0
  0
LINE
  5
DB
330
91
100
AcDbEntity
  8
AM_4
100
AcDbLine
 10
-3.738122283222732
 20
-1.726006386336296
 30
0.0
 11
-3.771577480739664
 21
-1.643201866783692
 31
0.0
  0
LINE
  5
DC
330
91
100
AcDbEntity
  8
AM_4
100
AcDbLine
 10
-3.58663016785489
 20
-1.233385701649409
 30
0.0
 11
-3.65906640649292
 21
-1.262651841760027
 31
0.0
  0
LINE
  5
DD
330
91
100
AcDbEntity
  8
AM_4
100
AcDbLine
 10
-3.509223769126556
 20
-1.633525383586742
 30
0.0
 11
-3.436787530488525
 21
-1.604259243476124
 31
0.0
  0
LWPOLYLINE
  5
DE
330
91
100
AcDbEntity
  8
AM_4
100
AcDbPolyline
 90
        3
 70
     0
 43
0.0
 10
-3.605896855008189
 20
-1.661197815897329
 10
-3.615505520696179
 20
-1.631026482360975
 10
-3.621145062389223
 20
-1.59925151863707
  0
LWPOLYLINE
  5
DF
330
91
100
AcDbEntity
  8
AM_4
100
AcDbPolyline
 90
        3
 70
     0
 43
0.0
 10
-3.573833983550404
 20
-1.716350547891973
 10
-3.591777195911237
 20
-1.689699703436735
 10
-3.605896855008189
 20
-1.661197815897329
  0
LINE
  5
E0
330
91
100
AcDbEntity
  8
AM_4
100
AcDbLine
 10
-3.573833983550404
 20
-1.716350547891973
 30
0.0
 11
-3.497930262170477
 21
-1.685683453815997
 31
0.0
  0
LWPOLYLINE
  5
E1
330
91
100
AcDbEntity
  8
AM_4
100
AcDbPolyline
 90
        3
 70
     0
 43
0.0
 10
-3.51317846955151
 20
-1.623737156555738
 10
-3.50356980386352
 20
-1.653908490092093
 10
-3.497930262170477
 20
-1.685683453815997
  0
LINE
  5
E2
330
91
100
AcDbEntity
  8
AM_4
100
AcDbLine
 10
-3.763078298905679
 20
-1.247954430872364
 30
0.0
 11
-3.687174577525751
 21
-1.217287336796389
 31
0.0
  0
LWPOLYLINE
  5
E3
330
91
100
AcDbEntity
  8
AM_4
100
AcDbPolyline
 90
        3
 70
     0
 43
0.0
 10
-3.747830091524645
 20
-1.309900728132623
 10
-3.757438757212635
 20
-1.279729394596269
 10
-3.763078298905679
 20
-1.247954430872364
  0
LWPOLYLINE
  5
E4
330
91
100
AcDbEntity
  8
AM_4
100
AcDbPolyline
 90
        3
 70
     0
 43
0.0
 10
-3.715767220066859
 20
-1.365053460127266
 10
-3.733710432427694
 20
-1.338402615672029
 10
-3.747830091524645
 20
-1.309900728132623
  0
LWPOLYLINE
  5
E5
330
91
100
AcDbEntity
  8
AM_4
100
AcDbPolyline
 90
        3
 70
     0
 43
0.0
 10
-3.655111706067966
 20
-1.272440068791032
 10
-3.645503040379976
 20
-1.302611402327386
 10
-3.639863498686932
 20
-1.334386366051291
  0
LWPOLYLINE
  5
E6
330
91
100
AcDbEntity
  8
AM_4
100
AcDbPolyline
 90
        3
 70
     0
 43
0.0
 10
-3.687174577525751
 20
-1.217287336796389
 10
-3.669231365164917
 20
-1.243938181251626
 10
-3.655111706067966
 20
-1.272440068791032
  0
LWPOLYLINE
  5
E7
330
91
100
AcDbEntity
  8
AM_4
100
AcDbPolyline
 90
        3
 70
     0
 43
0.0
 10
-3.545241341009295
 20
-1.568584424561095
 10
-3.527298128648462
 20
-1.595235269016332
 10
-3.51317846955151
 20
-1.623737156555738
  0
LINE
  5
E8
330
91
100
AcDbEntity
  8
AM_4
100
AcDbLine
 10
-3.715767220066859
 20
-1.365053460127266
 30
0.0
 11
-3.639863498686932
 21
-1.334386366051291
 31
0.0
  0
LWPOLYLINE
  5
E9
330
91
100
AcDbEntity
  8
AM_4
100
AcDbPolyline
 90
        4
 70
     0
 43
0.0
 10
-3.676863473266417
 20
-1.485549272014976
 10
-3.693680024071276
 20
-1.440142716412737
 10
-3.708042049325111
 20
-1.393744468115902
 10
-3.715767220066859
 20
-1.365053460127266
  0
LWPOLYLINE
  5
EA
330
91
100
AcDbEntity
  8
AM_4
100
AcDbPolyline
 90
        3
 70
     0
 43
0.0
 10
-3.621145062389223
 20
-1.59925151863707
 10
-3.650862863622251
 20
-1.543457544059883
 10
-3.676863473266417
 20
-1.485549272014976
  0
LINE
  5
EB
330
91
100
AcDbEntity
  8
AM_4
100
AcDbLine
 10
-3.621145062389223
 20
-1.59925151863707
 30
0.0
 11
-3.545241341009295
 21
-1.568584424561095
 31
0.0
  0
LWPOLYLINE
  5
EC
330
91
100
AcDbEntity
  8
AM_4
100
AcDbPolyline
 90
        3
 70
     0
 43
0.0
 10
-3.584145087809738
 20
-1.448088612673385
 10
-3.562708652412043
 20
-1.507534703523465
 10
-3.545241341009295
 20
-1.568584424561095
  0
LWPOLYLINE
  5
ED
330
91
100
AcDbEntity
  8
AM_4
100
AcDbPolyline
 90
        4
 70
     0
 43
0.0
 10
-3.639863498686932
 20
-1.334386366051291
 10
-3.625490072609672
 20
-1.360391304528332
 10
-3.603651411288013
 20
-1.403614969548144
 10
-3.584145087809738
 20
-1.448088612673385
  0
LINE
  5
EE
330
91
100
AcDbEntity
  8
AM_4
100
AcDbLine
 10
-3.845478812890537
 20
-1.728806507430516
 30
0.0
 11
-3.890667282295484
 21
-1.72187800273892
 31
0.0
  0
LINE
  5
EF
330
91
100
AcDbEntity
  8
AM_4
100
AcDbLine
 10
-3.996022072163558
 20
-1.465676037991672
 30
0.0
 11
-3.967135872761784
 21
-1.42769471791791
 31
0.0
  0
LWPOLYLINE
  5
F0
330
91
100
AcDbEntity
  8
AM_4
100
AcDbPolyline
 90
        3
 70
     0
 43
0.0
 10
-3.805818345685765
 20
-1.450084314356973
 10
-3.833238612512824
 20
-1.443553704006522
 10
-3.862451342655182
 20
-1.437376713113061
  0
LINE
  5
F1
330
91
100
AcDbEntity
  8
AM_4
100
AcDbLine
 10
-3.862451342655182
 20
-1.437376713113061
 30
0.0
 11
-3.888049084635721
 21
-1.432633106006396
 31
0.0
  0
LWPOLYLINE
  5
F2
330
91
100
AcDbEntity
  8
AM_4
100
AcDbPolyline
 90
        3
 70
     0
 43
0.0
 10
-3.888049084635721
 20
-1.432633106006396
 10
-3.910739908729131
 20
-1.428896492138369
 10
-3.954623276766614
 20
-1.422639300982582
  0
LINE
  5
F3
330
91
100
AcDbEntity
  8
AM_4
100
AcDbLine
 10
-3.954623276766614
 20
-1.422639300982582
 30
0.0
 11
-3.967135872761784
 21
-1.42769471791791
 31
0.0
  0
LWPOLYLINE
  5
F4
330
91
100
AcDbEntity
  8
AM_4
100
AcDbPolyline
 90
        3
 70
     0
 43
0.0
 10
-3.967135872761784
 20
-1.42769471791791
 10
-3.938089959171269
 20
-1.434280620447668
 10
-3.907641326082273
 20
-1.440548885373698
  0
LWPOLYLINE
  5
F5
330
91
100
AcDbEntity
  8
AM_4
100
AcDbPolyline
 90
        3
 70
     0
 43
0.0
 10
-3.832966216895366
 20
-1.723751090495187
 10
-3.812075458620205
 20
-1.697066562432299
 10
-3.79201903113275
 20
-1.670315828964462
  0
LINE
  5
F6
330
91
100
AcDbEntity
  8
AM_4
100
AcDbLine
 10
-3.79201903113275
 20
-1.670315828964462
 30
0.0
 11
-3.776900742910162
 21
-1.649121877843838
 31
0.0
  0
LWPOLYLINE
  5
F7
330
91
100
AcDbEntity
  8
AM_4
100
AcDbPolyline
 90
        3
 70
     0
 43
0.0
 10
-3.776900742910162
 20
-1.649121877843838
 10
-3.765244107462993
 20
-1.63203375320388
 10
-3.744989815750142
 20
-1.600640209113275
  0
LWPOLYLINE
  5
F8
330
91
100
AcDbEntity
  8
AM_4
100
AcDbPolyline
 90
        3
 70
     0
 43
0.0
 10
-3.811611272579302
 20
-1.678231608331764
 10
-3.829068571660936
 20
-1.703755420461664
 10
-3.845478812890537
 20
-1.728806507430516
  0
LINE
  5
F9
330
91
100
AcDbEntity
  8
AM_4
100
AcDbLine
 10
-3.832966216895366
 20
-1.723751090495187
 30
0.0
 11
-3.845478812890537
 21
-1.728806507430516
 31
0.0
  0
LWPOLYLINE
  5
FA
330
91
100
AcDbEntity
  8
AM_4
100
AcDbPolyline
 90
        3
 70
     0
 43
0.0
 10
-3.757896831351084
 20
-1.60585498191332
 10
-3.777540421514213
 20
-1.631471537887881
 10
-3.796492984356715
 20
-1.65703765721114
  0
LWPOLYLINE
  5
FB
330
91
100
AcDbEntity
  8
AM_4
100
AcDbPolyline
 90
        3
 70
     0
 43
0.0
 10
-3.882043584101735
 20
-1.445292492480363
 10
-3.850812746844853
 20
-1.450492132019017
 10
-3.818725361286707
 20
-1.455299087157017
  0
LWPOLYLINE
  5
FC
330
91
100
AcDbEntity
  8
AM_4
100
AcDbPolyline
 90
        3
 70
     0
 43
0.0
 10
-3.744989815750142
 20
-1.600640209113275
 10
-3.754014742030629
 20
-1.571476588389887
 10
-3.764248590226236
 20
-1.542163114754251
  0
LINE
  5
FD
330
91
100
AcDbEntity
  8
AM_4
100
AcDbLine
 10
-3.764248590226236
 20
-1.542163114754251
 30
0.0
 11
-3.779050345595547
 21
-1.505527484632174
 31
0.0
  0
LWPOLYLINE
  5
FE
330
91
100
AcDbEntity
  8
AM_4
100
AcDbPolyline
 90
        3
 70
     0
 43
0.0
 10
-3.779050345595547
 20
-1.505527484632174
 10
-3.786169158755285
 20
-1.489726284261575
 10
-3.805818345685765
 20
-1.450084314356973
  0
LINE
  5
FF
330
91
100
AcDbEntity
  8
AM_4
100
AcDbLine
 10
-3.805818345685765
 20
-1.450084314356973
 30
0.0
 11
-3.818725361286707
 21
-1.455299087157017
 31
0.0
  0
LINE
  5
100
330
91
100
AcDbEntity
  8
AM_4
100
AcDbLine
 10
-3.818725361286707
 20
-1.455299087157017
 30
0.0
 11
-3.798642587042102
 21
-1.513443263999481
 31
0.0
  0
LINE
  5
101
330
91
100
AcDbEntity
  8
AM_4
100
AcDbLine
 10
-3.783840831672789
 20
-1.550078894121553
 30
0.0
 11
-3.757896831351084
 21
-1.60585498191332
 31
0.0
  0
LINE
  5
102
330
91
100
AcDbEntity
  8
AM_4
100
AcDbLine
 10
-3.744989815750142
 20
-1.600640209113275
 30
0.0
 11
-3.757896831351084
 21
-1.60585498191332
 31
0.0
  0
LINE
  5
103
330
91
100
AcDbEntity
  8
AM_4
100
AcDbLine
 10
-3.907641326082273
 20
-1.440548885373698
 30
0.0
 11
-3.882043584101735
 21
-1.445292492480363
 31
0.0
  0
ELLIPSE
  5
104
330
91
100
AcDbEntity
  8
AM_4
100
AcDbEllipse
 10
-3.9082388688723
 20
-1.579030999852742
 30
0.0
 11
-0.05267905219911297
 21
0.1303852295484498
 31
0.0
210
0.0
220
0.0
230
1.0
 40
0.9063077870366485
 41
2.915869513393834
 42
3.565561594284243
  0
ELLIPSE
  5
105
330
91
100
AcDbEntity
  8
AM_4
100
AcDbEllipse
 10
-3.9082388688723
 20
-1.579030999852745
 30
0.0
 11
-0.05267905219911118
 21
0.1303852295484622
 31
0.0
210
0.0
220
0.0
230
1.0
 40
0.9063077870366524
 41
5.859216366485182
 42
6.509309952763862
  0
LINE
  5
106
330
91
100
AcDbEntity
  8
AM_4
100
AcDbLine
 10
-3.796492984356715
 20
-1.65703765721114
 30
0.0
 11
-3.811611272579302
 21
-1.678231608331764
 31
0.0
  0
ELLIPSE
  5
107
330
91
100
AcDbEntity
  8
AM_4
100
AcDbEllipse
 10
-3.908238868872294
 20
-1.579030999852739
 30
0.0
 11
-0.05267905219911072
 21
0.1303852295484462
 31
0.0
210
0.0
220
0.0
230
1.0
 40
0.9063077870366528
 41
3.764821264091903
 42
4.571432719802718
  0
LINE
  5
108
330
91
100
AcDbEntity
  8
AM_4
100
AcDbLine
 10
-3.798642587042102
 20
-1.513443263999481
 30
0.0
 11
-3.783840831672789
 21
-1.550078894121553
 31
0.0
  0
ELLIPSE
  5
109
330
91
100
AcDbEntity
  8
AM_4
100
AcDbEllipse
 10
-3.908238868872301
 20
-1.579030999852738
 30
0.0
 11
-0.0526790521991134
 21
0.1303852295484538
 31
0.0
210
0.0
220
0.0
230
1.0
 40
0.9063077870366477
 41
4.85334524096667
 42
5.659956696677434
  0
LINE
  5
10A
330
91
100
AcDbEntity
  8
AM_4
100
AcDbLine
 10
-4.097606918563502
 20
-1.559524173393911
 30
0.0
 11
-4.098586561691323
 21
-1.563478913040937
 31
0.0
  0
LWPOLYLINE
  5
10B
330
91
100
AcDbEntity
  8
AM_4
100
AcDbPolyline
 90
        4
 70
     0
 43
0.0
 10
-4.075960429956372
 20
-1.514021761392769
 10
-4.083700221504628
 20
-1.525790524890991
 10
-4.094827865694038
 20
-1.550280942022789
 10
-4.097606918563502
 20
-1.559524173393911
  0
LWPOLYLINE
  5
10C
330
91
100
AcDbEntity
  8
AM_4
100
AcDbPolyline
 90
       24
 70
     0
 43
0.0
 10
-4.016025430096306
 20
-1.732447145803178
 10
-4.001296578754196
 20
-1.738071323140008
 10
-3.974872025716842
 20
-1.743475502975918
 10
-3.94830709350574
 20
-1.74320524965393
 10
-3.922711467750307
 20
-1.737322117712502
 10
-3.899112334731351
 20
-1.726128420858326
 10
-3.878417750946328
 20
-1.710123226104401
 10
-3.861402923161531
 20
-1.68996608750928
 10
-3.848690794731706
 20
-1.666430042012383
 10
-3.840766763668975
 20
-1.640402752784421
 10
-3.837958330922918
 20
-1.612879916784544
 10
-3.840407017075101
 20
-1.584938966404166
 10
-3.848049258225089
 20
-1.557694412096802
 10
-3.860613116327411
 20
-1.532247367715678
 10
-3.877624735809443
 20
-1.509641530886171
 10
-3.898420448736503
 20
-1.490819778815828
 10
-3.922166924597086
 20
-1.476579254746717
 10
-3.947883148705918
 20
-1.467530247093107
 10
-3.974482574979568
 20
-1.464050336168308
 10
-4.000838942961489
 20
-1.466253291198963
 10
-4.025863846733819
 20
-1.473990901268633
 10
-4.048569466867583
 20
-1.486889603929576
 10
-4.068088355521897
 20
-1.50438935927428
 10
-4.075960429956372
 20
-1.514021761392769
  0
LWPOLYLINE
  5
10D
330
91
100
AcDbEntity
  8
AM_4
100
AcDbPolyline
 90
        6
 70
     0
 43
0.0
 10
-4.09119875827595
 20
-1.652951593447711
 10
-4.084441454498282
 20
-1.667450847475622
 10
-4.068895152814656
 20
-1.691108651952877
 10
-4.04930373742401
 20
-1.71131742165299
 10
-4.02645942644073
 20
-1.727198114823213
 10
-4.016025430096306
 20
-1.732447145803178
  0
ELLIPSE
  5
10E
330
91
100
AcDbEntity
  8
AM_4
100
AcDbEllipse
 10
-3.974270285847368
 20
-1.605709424039718
 30
0.0
 11
-0.05212596656866399
 21
0.1290162945757097
 31
0.0
210
0.0
220
0.0
230
1.0
 40
0.9063077870366646
 41
0.9110454776046586
 42
1.570796326794897
  0
ELLIPSE
  5
10F
330
91
100
AcDbEntity
  8
AM_4
100
AcDbEllipse
 10
-4.004240851960411
 20
-1.617818318752517
 30
0.0
 11
0.03876527951952143
 21
-0.0959474337077755
 31
0.0
210
0.0
220
0.0
230
1.0
 40
0.9063077870366512
 41
0.0
 42
6.283185307179586
  0
ELLIPSE
  5
110
330
91
100
AcDbEntity
  8
AM_4
100
AcDbEllipse
 10
-3.97427028584736
 20
-1.605709424039719
 30
0.0
 11
-0.05212596656866528
 21
0.1290162945757212
 31
0.0
210
0.0
220
0.0
230
1.0
 40
0.9063077870366477
 41
1.570796326794897
 42
7.194230784784293
  0
ENDBLK
  5
94
330
91
100
AcDbEntity
  8
0
100
AcDbBlockEnd
  0
BLOCK
  5
113
330
111
100
AcDbEntity
  8
0
100
AcDbBlockBegin
  2
3_ASME_B18_3_1_4_1_0_in_069361_0
 70
     2
 10
0.0
 20
0.0
 30
0.0
  3
3_ASME_B18_3_1_4_1_0_in_069361_0
  1

  0
ATTDEF
  5
115
330
111
100
AcDbEntity
  8
AM_6
100
AcDbText
 10
5.229425
 20
-1.916916666666666
 30
0.0
 40
0.5
  1
ANSI/ASME B18.3-1998
100
AcDbAttributeDefinition
  3

  2
NN
 70
     8
280
     0
  0
ATTDEF
  5
116
330
111
100
AcDbEntity
  8
AM_6
100
AcDbText
 10
5.229425
 20
-2.416916666666666
 30
0.0
 40
0.5
  1
Socket Button Head Cap Screws
100
AcDbAttributeDefinition
  3

  2
NT
 70
     8
280
     0
  0
ATTDEF
  5
117
330
111
100
AcDbEntity
  8
AM_6
100
AcDbText
 10
5.229425
 20
-2.916916666666666
 30
0.0
 40
0.5
  1
ASME B18.3-1/4
100
AcDbAttributeDefinition
  3

  2
NB
 70
     8
280
     0
  0
ATTDEF
  5
118
330
111
100
AcDbEntity
  8
AM_6
100
AcDbText
 10
5.229425
 20
-3.416916666666666
 30
0.0
 40
0.5
  1
ASME B18.3-$NS.
100
AcDbAttributeDefinition
  3

  2
NBSYN
 70
     8
280
     0
  0
ATTDEF
  5
119
330
111
100
AcDbEntity
  8
AM_6
100
AcDbText
 10
5.229425
 20
-3.916916666666666
 30
0.0
 40
0.5
  1
ASME B18.3-1/4
100
AcDbAttributeDefinition
  3

  2
LINA
 70
     8
280
     0
  0
ATTDEF
  5
11A
330
111
100
AcDbEntity
  8
AM_6
100
AcDbText
 10
5.229425
 20
-4.416916666666666
 30
0.0
 40
0.5
  1
1/4
100
AcDbAttributeDefinition
  3

  2
NS
 70
     8
280
     0
  0
ATTDEF
  5
11B
330
111
100
AcDbEntity
  8
AM_6
100
AcDbText
 10
5.229425
 20
-4.916916666666666
 30
0.0
 40
0.5
  1
0.437
100
AcDbAttributeDefinition
  3

  2
A
 70
     8
280
     0
  0
ATTDEF
  5
11C
330
111
100
AcDbEntity
  8
AM_6
100
AcDbText
 10
5.229425
 20
-5.416916666666666
 30
0.0
 40
0.5
  1
0.132
100
AcDbAttributeDefinition
  3

  2
H
 70
     8
280
     0
  0
ATTDEF
  5
11D
330
111
100
AcDbEntity
  8
AM_6
100
AcDbText
 10
5.229425
 20
-5.916916666666666
 30
0.0
 40
0.5
  1
0.800
100
AcDbAttributeDefinition
  3

  2
L
 70
     8
280
     0
  0
ATTDEF
  5
11E
330
111
100
AcDbEntity
  8
AM_6
100
AcDbText
 10
5.229425
 20
-6.416916666666666
 30
0.0
 40
0.5
  1
0.031
100
AcDbAttributeDefinition
  3

  2
S
 70
     8
280
     0
  0
ATTDEF
  5
11F
330
111
100
AcDbEntity
  8
AM_6
100
AcDbText
 10
5.229425
 20
-6.916916666666666
 30
0.0
 40
0.5
  1
0.156250
100
AcDbAttributeDefinition
  3

  2
J
 70
     8
280
     0
  0
ATTDEF
  5
120
330
111
100
AcDbEntity
  8
AM_6
100
AcDbText
 10
5.229425
 20
-7.416916666666666
 30
0.0
 40
0.5
  1
baldor
100
AcDbAttributeDefinition
  3

  2
COMPANY
 70
     8
280
     0
  0
ARC
  5
121
330
111
100
AcDbEntity
  8
AM_5
100
AcDbCircle
 10
0.0
 20
-2.135416666666667
 30
0.0
 40
0.0952500000000001
100
AcDbArc
 50
75.00000000000001
 51
15.00000000000004
  0
LINE
  5
122
330
111
100
AcDbEntity
  8
AM_7
100
AcDbLine
 10
-0.2294250000000002
 20
-2.135416666666667
 30
0.0
 11
0.2294250000000002
 21
-2.135416666666667
 31
0.0
  0
LINE
  5
123
330
111
100
AcDbEntity
  8
AM_4
100
AcDbLine
 10
-0.078125
 20
-2.090311176886227
 30
0.0
 11
0.0
 21
-2.045205687105788
 31
0.0
  0
LINE
  5
124
330
111
100
AcDbEntity
  8
AM_4
100
AcDbLine
 10
0.0
 20
-2.045205687105788
 30
0.0
 11
0.078125
 21
-2.090311176886227
 31
0.0
  0
LINE
  5
125
330
111
100
AcDbEntity
  8
AM_4
100
AcDbLine
 10
0.078125
 20
-2.090311176886227
 30
0.0
 11
0.078125
 21
-2.180522156447106
 31
0.0
  0
LINE
  5
126
330
111
100
AcDbEntity
  8
AM_4
100
AcDbLine
 10
0.078125
 20
-2.180522156447106
 30
0.0
 11
0.0
 21
-2.225627646227545
 31
0.0
  0
LINE
  5
127
330
111
100
AcDbEntity
  8
AM_4
100
AcDbLine
 10
0.0
 20
-2.225627646227545
 30
0.0
 11
-0.078125
 21
-2.180522156447106
 31
0.0
  0
LINE
  5
128
330
111
100
AcDbEntity
  8
AM_4
100
AcDbLine
 10
-0.078125
 20
-2.180522156447106
 30
0.0
 11
-0.078125
 21
-2.090311176886227
 31
0.0
  0
CIRCLE
  5
129
330
111
100
AcDbEntity
  8
AM_4
100
AcDbCircle
 10
0.0
 20
-2.135416666666667
 30
0.0
 40
0.1175
  0
ARC
  5
12A
330
111
100
AcDbEntity
  8
AM_5
100
AcDbCircle
 10
0.0
 20
-2.135416666666667
 30
0.0
 40
0.09525
100
AcDbArc
 50
345.0
 51
285.0
  0
CIRCLE
  5
12B
330
111
100
AcDbEntity
  8
AM_4
100
AcDbCircle
 10
0.0
 20
-2.135416666666667
 30
0.0
 40
0.2185000000000001
  0
CIRCLE
  5
12C
330
111
100
AcDbEntity
  8
AM_5
100
AcDbCircle
 10
0.0000000000000005
 20
-2.135416666666667
 30
0.0
 40
0.1063999999999998
  0
ENDBLK
  5
114
330
111
100
AcDbEntity
  8
0
100
AcDbBlockEnd
  0
BLOCK
  5
12F
330
12D
100
AcDbEntity
  8
0
100
AcDbBlockBegin
  2
4_ASME_B18_3_1_4_2_0_in_069361_0
 70
     2
 10
0.0
 20
0.0
 30
0.0
  3
4_ASME_B18_3_1_4_2_0_in_069361_0
  1

  0
ATTDEF
  5
131
330
12D
100
AcDbEntity
  8
AM_6
100
AcDbText
 10
5.229425
 20
2.353916666666667
 30
0.0
 40
0.5
  1
ANSI/ASME B18.3-1998
100
AcDbAttributeDefinition
  3

  2
NN
 70
     8
280
     0
  0
ATTDEF
  5
132
330
12D
100
AcDbEntity
  8
AM_6
100
AcDbText
 10
5.229425
 20
1.853916666666667
 30
0.0
 40
0.5
  1
Socket Button Head Cap Screws
100
AcDbAttributeDefinition
  3

  2
NT
 70
     8
280
     0
  0
ATTDEF
  5
133
330
12D
100
AcDbEntity
  8
AM_6
100
AcDbText
 10
5.229425
 20
1.353916666666667
 30
0.0
 40
0.5
  1
ASME B18.3-1/4
100
AcDbAttributeDefinition
  3

  2
NB
 70
     8
280
     0
  0
ATTDEF
  5
134
330
12D
100
AcDbEntity
  8
AM_6
100
AcDbText
 10
5.229425
 20
0.8539166666666667
 30
0.0
 40
0.5
  1
ASME B18.3-$NS.
100
AcDbAttributeDefinition
  3

  2
NBSYN
 70
     8
280
     0
  0
ATTDEF
  5
135
330
12D
100
AcDbEntity
  8
AM_6
100
AcDbText
 10
5.229425
 20
0.3539166666666667
 30
0.0
 40
0.5
  1
ASME B18.3-1/4
100
AcDbAttributeDefinition
  3

  2
LINA
 70
     8
280
     0
  0
ATTDEF
  5
136
330
12D
100
AcDbEntity
  8
AM_6
100
AcDbText
 10
5.229425
 20
-0.1460833333333333
 30
0.0
 40
0.5
  1
1/4
100
AcDbAttributeDefinition
  3

  2
NS
 70
     8
280
     0
  0
ATTDEF
  5
137
330
12D
100
AcDbEntity
  8
AM_6
100
AcDbText
 10
5.229425
 20
-0.6460833333333333
 30
0.0
 40
0.5
  1
0.437
100
AcDbAttributeDefinition
  3

  2
A
 70
     8
280
     0
  0
ATTDEF
  5
138
330
12D
100
AcDbEntity
  8
AM_6
100
AcDbText
 10
5.229425
 20
-1.146083333333333
 30
0.0
 40
0.5
  1
0.132
100
AcDbAttributeDefinition
  3

  2
H
 70
     8
280
     0
  0
ATTDEF
  5
139
330
12D
100
AcDbEntity
  8
AM_6
100
AcDbText
 10
5.229425
 20
-1.646083333333333
 30
0.0
 40
0.5
  1
0.800
100
AcDbAttributeDefinition
  3

  2
L
 70
     8
280
     0
  0
ATTDEF
  5
13A
330
12D
100
AcDbEntity
  8
AM_6
100
AcDbText
 10
5.229425
 20
-2.146083333333333
 30
0.0
 40
0.5
  1
0.031
100
AcDbAttributeDefinition
  3

  2
S
 70
     8
280
     0
  0
ATTDEF
  5
13B
330
12D
100
AcDbEntity
  8
AM_6
100
AcDbText
 10
5.229425
 20
-2.646083333333333
 30
0.0
 40
0.5
  1
0.156250
100
AcDbAttributeDefinition
  3

  2
J
 70
     8
280
     0
  0
ATTDEF
  5
13C
330
12D
100
AcDbEntity
  8
AM_6
100
AcDbText
 10
5.229425
 20
-3.146083333333333
 30
0.0
 40
0.5
  1
baldor
100
AcDbAttributeDefinition
  3

  2
COMPANY
 70
     8
280
     0
  0
ARC
  5
13D
330
12D
100
AcDbEntity
  8
AM_5
100
AcDbCircle
 10
-0.0000000000000001
 20
2.135416666666667
 30
0.0
 40
0.0952500000000001
100
AcDbArc
 50
75.00000000000001
 51
15.00000000000004
  0
LINE
  5
13E
330
12D
100
AcDbEntity
  8
AM_7
100
AcDbLine
 10
-0.2294250000000002
 20
2.135416666666667
 30
0.0
 11
0.2294250000000002
 21
2.135416666666667
 31
0.0
  0
LINE
  5
13F
330
12D
100
AcDbEntity
  8
AM_4
100
AcDbLine
 10
0.0
 20
2.045205687105788
 30
0.0
 11
-0.078125
 21
2.090311176886227
 31
0.0
  0
CIRCLE
  5
140
330
12D
100
AcDbEntity
  8
AM_4
100
AcDbCircle
 10
0.0
 20
2.135416666666667
 30
0.0
 40
0.1175
  0
LINE
  5
141
330
12D
100
AcDbEntity
  8
AM_4
100
AcDbLine
 10
-0.078125
 20
2.090311176886227
 30
0.0
 11
-0.078125
 21
2.180522156447106
 31
0.0
  0
LINE
  5
142
330
12D
100
AcDbEntity
  8
AM_4
100
AcDbLine
 10
-0.078125
 20
2.180522156447106
 30
0.0
 11
0.0
 21
2.225627646227545
 31
0.0
  0
LINE
  5
143
330
12D
100
AcDbEntity
  8
AM_4
100
AcDbLine
 10
0.0
 20
2.225627646227545
 30
0.0
 11
0.078125
 21
2.180522156447106
 31
0.0
  0
LINE
  5
144
330
12D
100
AcDbEntity
  8
AM_4
100
AcDbLine
 10
0.078125
 20
2.180522156447106
 30
0.0
 11
0.078125
 21
2.090311176886227
 31
0.0
  0
LINE
  5
145
330
12D
100
AcDbEntity
  8
AM_4
100
AcDbLine
 10
0.078125
 20
2.090311176886227
 30
0.0
 11
0.0
 21
2.045205687105788
 31
0.0
  0
ARC
  5
146
330
12D
100
AcDbEntity
  8
AM_5
100
AcDbCircle
 10
0.0
 20
2.135416666666667
 30
0.0
 40
0.09525
100
AcDbArc
 50
345.0
 51
285.0
  0
CIRCLE
  5
147
330
12D
100
AcDbEntity
  8
AM_4
100
AcDbCircle
 10
0.0
 20
2.135416666666667
 30
0.0
 40
0.2185000000000001
  0
CIRCLE
  5
148
330
12D
100
AcDbEntity
  8
AM_5
100
AcDbCircle
 10
0.0000000000000005
 20
2.135416666666666
 30
0.0
 40
0.1063999999999998
  0
ENDBLK
  5
130
330
12D
100
AcDbEntity
  8
0
100
AcDbBlockEnd
  0
BLOCK
  5
14B
330
149
100
AcDbEntity
  8
0
100
AcDbBlockBegin
  2
5_070901LW_0_in_069361_0
 70
     2
 10
0.0
 20
0.0
 30
0.0
  3
5_070901LW_0_in_069361_0
  1

  0
ATTDEF
  5
14D
330
149
100
AcDbEntity
  8
AM_6
100
AcDbText
 10
7.5
 20
2.5
 30
0.0
 40
0.5
  1
Imperial Insert Lockwasher -Inch
100
AcDbAttributeDefinition
  3

  2
NN
 70
     8
280
     0
  0
ATTDEF
  5
14E
330
149
100
AcDbEntity
  8
AM_6
100
AcDbText
 10
7.5
 20
2.0
 30
0.0
 40
0.5
  1
Imperial Bearings
100
AcDbAttributeDefinition
  3

  2
NT
 70
     8
280
     0
  0
ATTDEF
  5
14F
330
149
100
AcDbEntity
  8
AM_6
100
AcDbText
 10
7.5
 20
1.5
 30
0.0
 40
0.5
  1
070901LW
100
AcDbAttributeDefinition
  3

  2
NB
 70
     8
280
     0
  0
ATTDEF
  5
150
330
149
100
AcDbEntity
  8
AM_6
100
AcDbText
 10
7.5
 20
1.0
 30
0.0
 40
0.5
  1
$PN.LW
100
AcDbAttributeDefinition
  3

  2
NBSYN
 70
     8
280
     0
  0
ATTDEF
  5
151
330
149
100
AcDbEntity
  8
AM_6
100
AcDbText
 10
7.5
 20
0.5
 30
0.0
 40
0.5
  1
070901
100
AcDbAttributeDefinition
  3

  2
LINA
 70
     8
280
     0
  0
ATTDEF
  5
152
330
149
100
AcDbEntity
  8
AM_6
100
AcDbText
 10
7.5
 20
0.0
 30
0.0
 40
0.5
  1
3-3/16
100
AcDbAttributeDefinition
  3

  2
SS
 70
     8
280
     0
  0
ATTDEF
  5
153
330
149
100
AcDbEntity
  8
AM_6
100
AcDbText
 10
7.5
 20
-0.5
 30
0.0
 40
0.5
  1
3.187500
100
AcDbAttributeDefinition
  3

  2
SS1
 70
     8
280
     0
  0
ATTDEF
  5
154
330
149
100
AcDbEntity
  8
AM_6
100
AcDbText
 10
7.5
 20
-1.0
 30
0.0
 40
0.5
  1
070901
100
AcDbAttributeDefinition
  3

  2
PN
 70
     8
280
     0
  0
ATTDEF
  5
155
330
149
100
AcDbEntity
  8
AM_6
100
AcDbText
 10
7.5
 20
-1.5
 30
0.0
 40
0.5
  1
INS-IP-303R
100
AcDbAttributeDefinition
  3

  2
DESCRIPTION
 70
     8
280
     0
  0
ATTDEF
  5
156
330
149
100
AcDbEntity
  8
AM_6
100
AcDbText
 10
7.5
 20
-2.0
 30
0.0
 40
0.5
  1
6.2992
100
AcDbAttributeDefinition
  3

  2
A
 70
     8
280
     0
  0
ATTDEF
  5
157
330
149
100
AcDbEntity
  8
AM_6
100
AcDbText
 10
7.5
 20
-2.5
 30
0.0
 40
0.5
  1
1-5/8
100
AcDbAttributeDefinition
  3

  2
B
 70
     8
280
     0
  0
ATTDEF
  5
158
330
149
100
AcDbEntity
  8
AM_6
100
AcDbText
 10
7.5
 20
-3.0
 30
0.0
 40
0.5
  1
4-11/64
100
AcDbAttributeDefinition
  3

  2
C
 70
     8
280
     0
  0
ATTDEF
  5
159
330
149
100
AcDbEntity
  8
AM_6
100
AcDbText
 10
7.5
 20
-3.5
 30
0.0
 40
0.5
  1
1.483
100
AcDbAttributeDefinition
  3

  2
D
 70
     8
280
     0
  0
ATTDEF
  5
15A
330
149
100
AcDbEntity
  8
AM_6
100
AcDbText
 10
7.5
 20
-4.0
 30
0.0
 40
0.5
  1
5
100
AcDbAttributeDefinition
  3

  2
E
 70
     8
280
     0
  0
ATTDEF
  5
15B
330
149
100
AcDbEntity
  8
AM_6
100
AcDbText
 10
7.5
 20
-4.5
 30
0.0
 40
0.5
  1
0.2500
100
AcDbAttributeDefinition
  3

  2
NDM
 70
     8
280
     0
  0
ATTDEF
  5
15C
330
149
100
AcDbEntity
  8
AM_6
100
AcDbText
 10
7.5
 20
-5.0
 30
0.0
 40
0.5
  1
0.1960
100
AcDbAttributeDefinition
  3

  2
KDM
 70
     8
280
     0
  0
ATTDEF
  5
15D
330
149
100
AcDbEntity
  8
AM_6
100
AcDbText
 10
7.5
 20
-5.5
 30
0.0
 40
0.5
  1
4.28
100
AcDbAttributeDefinition
  3

  2
AL
 70
     8
280
     0
  0
ATTDEF
  5
15E
330
149
100
AcDbEntity
  8
AM_6
100
AcDbText
 10
7.5
 20
-6.0
 30
0.0
 40
0.5
  1
0.50
100
AcDbAttributeDefinition
  3

  2
BL
 70
     8
280
     0
  0
ATTDEF
  5
15F
330
149
100
AcDbEntity
  8
AM_6
100
AcDbText
 10
7.5
 20
-6.5
 30
0.0
 40
0.5
  1
0.07
100
AcDbAttributeDefinition
  3

  2
CL
 70
     8
280
     0
  0
ATTDEF
  5
160
330
149
100
AcDbEntity
  8
AM_6
100
AcDbText
 10
7.5
 20
-7.0
 30
0.0
 40
0.5
  1
0.44
100
AcDbAttributeDefinition
  3

  2
DL
 70
     8
280
     0
  0
ATTDEF
  5
161
330
149
100
AcDbEntity
  8
AM_6
100
AcDbText
 10
7.5
 20
-7.5
 30
0.0
 40
0.5
  1
baldor
100
AcDbAttributeDefinition
  3

  2
COMPANY
 70
     8
280
     0
  0
ARC
  5
162
330
149
100
AcDbEntity
  8
AM_9
100
AcDbCircle
 10
0.0000000000000459
 20
-0.0000000000001164
 30
0.0
 40
1.677631578947494
100
AcDbArc
 50
108.2269426693964
 51
116.7730573306035
  0
LINE
  5
163
330
149
100
AcDbEntity
  8
AM_9
100
AcDbLine
 10
0.1249999999999998
 20
2.135416666666667
 30
0.0
 11
0.1249999999999998
 21
1.956203804405053
 31
0.0
  0
LINE
  5
164
330
149
100
AcDbEntity
  8
AM_9
100
AcDbLine
 10
-0.1250000000000004
 20
1.956203804405053
 30
0.0
 11
-0.1250000000000003
 21
2.135416666666667
 31
0.0
  0
LINE
  5
165
330
149
100
AcDbEntity
  8
AM_9
100
AcDbLine
 10
-0.1249999999999988
 20
-2.135416666666667
 30
0.0
 11
-0.1249999999999991
 21
-1.956203804405052
 31
0.0
  0
LINE
  5
166
330
149
100
AcDbEntity
  8
AM_9
100
AcDbLine
 10
0.1250000000000009
 20
-1.956203804405054
 30
0.0
 11
0.125000000000001
 21
-2.135416666666667
 31
0.0
  0
LINE
  5
167
330
149
100
AcDbEntity
  8
AM_7
100
AcDbLine
 10
1.378755500514135
 20
-1.510005512584387
 30
0.0
 11
1.641255524654642
 21
-1.510005512584387
 31
0.0
  0
LINE
  5
168
330
149
100
AcDbEntity
  8
AM_7
100
AcDbLine
 10
1.510005512584389
 20
-1.641255524654641
 30
0.0
 11
1.510005512584389
 21
-1.378755500514134
 31
0.0
  0
LINE
  5
169
330
149
100
AcDbEntity
  8
AM_7
100
AcDbLine
 10
1.378755500514135
 20
1.510005512584389
 30
0.0
 11
1.641255524654642
 21
1.510005512584389
 31
0.0
  0
LINE
  5
16A
330
149
100
AcDbEntity
  8
AM_7
100
AcDbLine
 10
1.510005512584388
 20
1.378755500514135
 30
0.0
 11
1.510005512584388
 21
1.641255524654642
 31
0.0
  0
LINE
  5
16B
330
149
100
AcDbEntity
  8
AM_7
100
AcDbLine
 10
-2.135470275154979
 20
-0.1312500120702553
 30
0.0
 11
-2.135470275154979
 21
0.1312500120702527
 31
0.0
  0
LINE
  5
16C
330
149
100
AcDbEntity
  8
AM_7
100
AcDbLine
 10
-1.641255524654642
 20
1.510005512584388
 30
0.0
 11
-1.378755500514135
 21
1.510005512584388
 31
0.0
  0
LINE
  5
16D
330
149
100
AcDbEntity
  8
AM_7
100
AcDbLine
 10
-1.510005512584389
 20
1.378755500514135
 30
0.0
 11
-1.510005512584389
 21
1.641255524654642
 31
0.0
  0
LINE
  5
16E
330
149
100
AcDbEntity
  8
AM_7
100
AcDbLine
 10
2.135470275154979
 20
-0.1312500120702535
 30
0.0
 11
2.135470275154979
 21
0.1312500120702545
 31
0.0
  0
LINE
  5
16F
330
149
100
AcDbEntity
  8
AM_7
100
AcDbLine
 10
-1.641255524654641
 20
-1.510005512584389
 30
0.0
 11
-1.378755500514134
 21
-1.510005512584389
 31
0.0
  0
LINE
  5
170
330
149
100
AcDbEntity
  8
AM_7
100
AcDbLine
 10
-1.510005512584388
 20
-1.641255524654643
 30
0.0
 11
-1.510005512584388
 21
-1.378755500514136
 31
0.0
  0
LINE
  5
171
330
149
100
AcDbEntity
  8
AM_4
100
AcDbLine
 10
0.1249999999999998
 20
1.956203804405053
 30
0.0
 11
0.1249999999999998
 21
1.718432677062248
 31
0.0
  0
ARC
  5
172
330
149
100
AcDbEntity
  8
AM_4
100
AcDbCircle
 10
-2.135470275154979
 20
-0.0000000000000013
 30
0.0
 40
0.1250000114954797
100
AcDbArc
 50
89.97542768049524
 51
270.0245723195048
  0
ARC
  5
173
330
149
100
AcDbEntity
  8
AM_4
100
AcDbCircle
 10
0.0
 20
-0.0000000000000004
 30
0.0
 40
1.722972972972972
100
AcDbArc
 50
229.1604077094988
 51
265.8395922905013
  0
ARC
  5
174
330
149
100
AcDbEntity
  8
AM_4
100
AcDbCircle
 10
-0.0000000000000032
 20
-0.0000000000000089
 30
0.0
 40
1.722972972972982
100
AcDbArc
 50
49.16040770949893
 51
85.83959229050123
  0
ARC
  5
175
330
149
100
AcDbEntity
  8
AM_4
100
AcDbCircle
 10
-0.0000000000000044
 20
-0.000000000000003
 30
0.0
 40
1.722972972972978
100
AcDbArc
 50
4.160407709498943
 51
40.8395922905013
  0
LINE
  5
176
330
149
100
AcDbEntity
  8
AM_4
100
AcDbLine
 10
1.598355953307092
 20
1.421579258010455
 30
0.0
 11
1.303503746611586
 21
1.12672705131495
 31
0.0
  0
LINE
  5
177
330
149
100
AcDbEntity
  8
AM_4
100
AcDbLine
 10
-0.1250000000000006
 20
1.718432677062248
 30
0.0
 11
-0.1250000000000004
 21
1.956203804405053
 31
0.0
  0
LINE
  5
178
330
149
100
AcDbEntity
  8
AM_4
100
AcDbLine
 10
-0.1249999999999991
 20
-1.956203804405052
 30
0.0
 11
-0.1249999999999992
 21
-1.718432677062248
 31
0.0
  0
ARC
  5
179
330
149
100
AcDbEntity
  8
AM_4
100
AcDbCircle
 10
0.0000000000000055
 20
-0.000000000000026
 30
0.0
 40
1.722972972972999
100
AcDbArc
 50
94.16040770949884
 51
108.3395922905012
  0
LINE
  5
17A
330
149
100
AcDbEntity
  8
AM_4
100
AcDbLine
 10
-0.5247322847707349
 20
1.593456539727622
 30
0.0
 11
-0.5421307735826004
 21
1.635460207382025
 31
0.0
  0
ARC
  5
17B
330
149
100
AcDbEntity
  8
AM_4
100
AcDbCircle
 10
-0.0000000000000119
 20
0.0000000000000397
 30
0.0
 40
1.593749999999959
100
AcDbArc
 50
108.0015933311115
 51
116.9984066688889
  0
LINE
  5
17C
330
149
100
AcDbEntity
  8
AM_4
100
AcDbLine
 10
-0.7731006567104224
 20
1.539789349290752
 30
0.0
 11
-0.7557021678985563
 21
1.497785681636349
 31
0.0
  0
LINE
  5
17D
330
149
100
AcDbEntity
  8
AM_4
100
AcDbLine
 10
1.126727051314947
 20
1.303503746611589
 30
0.0
 11
1.421579258010454
 21
1.598355953307092
 31
0.0
  0
ARC
  5
17E
330
149
100
AcDbEntity
  8
AM_4
100
AcDbCircle
 10
1.510005512584388
 20
1.510005512584389
 30
0.0
 40
0.1250000114954796
100
AcDbArc
 50
314.9754276804954
 51
135.0245723195046
  0
LINE
  5
17F
330
149
100
AcDbEntity
  8
AM_4
100
AcDbLine
 10
1.718432677062248
 20
0.1250000000000015
 30
0.0
 11
2.135416666666667
 21
0.1250000000000007
 31
0.0
  0
ARC
  5
180
330
149
100
AcDbEntity
  8
AM_4
100
AcDbCircle
 10
2.135470275154979
 20
0.0000000000000005
 30
0.0
 40
0.1250000114954797
100
AcDbArc
 50
269.9754276804953
 51
90.02457231950477
  0
LINE
  5
181
330
149
100
AcDbEntity
  8
AM_4
100
AcDbLine
 10
2.135416666666667
 20
-0.1249999999999996
 30
0.0
 11
1.718432677062248
 21
-0.1249999999999993
 31
0.0
  0
ARC
  5
182
330
149
100
AcDbEntity
  8
AM_4
100
AcDbCircle
 10
0.0000000000000038
 20
-0.0000000000000021
 30
0.0
 40
1.722972972972968
100
AcDbArc
 50
319.1604077094988
 51
355.8395922905013
  0
LINE
  5
183
330
149
100
AcDbEntity
  8
AM_4
100
AcDbLine
 10
1.303503746611587
 20
-1.126727051314949
 30
0.0
 11
1.598355953307092
 21
-1.421579258010454
 31
0.0
  0
ARC
  5
184
330
149
100
AcDbEntity
  8
AM_4
100
AcDbCircle
 10
1.510005512584389
 20
-1.510005512584387
 30
0.0
 40
0.1250000114954798
100
AcDbArc
 50
224.9754276805157
 51
45.02457231950446
  0
LINE
  5
185
330
149
100
AcDbEntity
  8
AM_4
100
AcDbLine
 10
1.421579258010486
 20
-1.598355953307122
 30
0.0
 11
1.12672705131495
 21
-1.303503746611586
 31
0.0
  0
ARC
  5
186
330
149
100
AcDbEntity
  8
AM_4
100
AcDbCircle
 10
0.0000000000000014
 20
-0.0000000000000056
 30
0.0
 40
1.722972972972967
100
AcDbArc
 50
274.1604077094987
 51
310.8395922905014
  0
LINE
  5
187
330
149
100
AcDbEntity
  8
AM_4
100
AcDbLine
 10
0.1250000000000011
 20
-1.718432677062248
 30
0.0
 11
0.1250000000000009
 21
-1.956203804405054
 31
0.0
  0
LINE
  5
188
330
149
100
AcDbEntity
  8
AM_4
100
AcDbLine
 10
-1.126727051314946
 20
-1.30350374661159
 30
0.0
 11
-1.421579258010454
 21
-1.598355953307092
 31
0.0
  0
ARC
  5
189
330
149
100
AcDbEntity
  8
AM_4
100
AcDbCircle
 10
-1.510005512584388
 20
-1.510005512584389
 30
0.0
 40
0.1250000114954795
100
AcDbArc
 50
134.9754276804953
 51
315.0245723195048
  0
LINE
  5
18A
330
149
100
AcDbEntity
  8
AM_4
100
AcDbLine
 10
-1.598355953307091
 20
-1.421579258010456
 30
0.0
 11
-1.303503746611586
 21
-1.12672705131495
 31
0.0
  0
ARC
  5
18B
330
149
100
AcDbEntity
  8
AM_4
100
AcDbCircle
 10
0.0000000000000049
 20
0.0000000000000032
 30
0.0
 40
1.722972972972978
100
AcDbArc
 50
184.1604077094988
 51
220.8395922905013
  0
LINE
  5
18C
330
149
100
AcDbEntity
  8
AM_4
100
AcDbLine
 10
-1.718432677062248
 20
-0.1250000000000011
 30
0.0
 11
-2.135416666666667
 21
-0.1250000000000014
 31
0.0
  0
LINE
  5
18D
330
149
100
AcDbEntity
  8
AM_4
100
AcDbLine
 10
-2.135416666666667
 20
0.1249999999999988
 30
0.0
 11
-1.718432677062248
 21
0.1249999999999989
 31
0.0
  0
ARC
  5
18E
330
149
100
AcDbEntity
  8
AM_4
100
AcDbCircle
 10
0.0000000000000033
 20
-0.0000000000000012
 30
0.0
 40
1.722972972972976
100
AcDbArc
 50
139.1604077094988
 51
175.8395922905013
  0
LINE
  5
18F
330
149
100
AcDbEntity
  8
AM_4
100
AcDbLine
 10
-1.303503746611587
 20
1.126727051314949
 30
0.0
 11
-1.598355953307092
 21
1.421579258010455
 31
0.0
  0
ARC
  5
190
330
149
100
AcDbEntity
  8
AM_4
100
AcDbCircle
 10
-1.510005512584389
 20
1.510005512584388
 30
0.0
 40
0.1250000114954796
100
AcDbArc
 50
44.97542768051576
 51
225.0245723195047
  0
LINE
  5
191
330
149
100
AcDbEntity
  8
AM_4
100
AcDbLine
 10
-1.421579258010486
 20
1.598355953307123
 30
0.0
 11
-1.126727051314949
 21
1.303503746611586
 31
0.0
  0
ARC
  5
192
330
149
100
AcDbEntity
  8
AM_4
100
AcDbCircle
 10
0.0000000000000191
 20
-0.0000000000000258
 30
0.0
 40
1.722972972973004
100
AcDbArc
 50
116.6604077094989
 51
130.8395922905013
  0
CIRCLE
  5
193
330
149
100
AcDbEntity
  8
AM_4
100
AcDbCircle
 10
0.0
 20
0.0
 30
0.0
 40
2.5
  0
ENDBLK
  5
14C
330
149
100
AcDbEntity
  8
0
100
AcDbBlockEnd
  0
BLOCK
  5
196
330
194
100
AcDbEntity
  8
0
100
AcDbBlockBegin
  2
6_070901I_0_in_069361_0
 70
     2
 10
0.0
 20
0.0
 30
0.0
  3
6_070901I_0_in_069361_0
  1

  0
ATTDEF
  5
198
330
194
100
AcDbEntity
  8
AM_6
100
AcDbText
 10
8.099599999999999
 20
3.0996
 30
0.0
 40
0.5
  1
Imperial Insert -Inch
100
AcDbAttributeDefinition
  3

  2
NN
 70
     8
280
     0
  0
ATTDEF
  5
199
330
194
100
AcDbEntity
  8
AM_6
100
AcDbText
 10
8.099599999999999
 20
2.5996
 30
0.0
 40
0.5
  1
Imperial Bearings
100
AcDbAttributeDefinition
  3

  2
NT
 70
     8
280
     0
  0
ATTDEF
  5
19A
330
194
100
AcDbEntity
  8
AM_6
100
AcDbText
 10
8.099599999999999
 20
2.0996
 30
0.0
 40
0.5
  1
070901I
100
AcDbAttributeDefinition
  3

  2
NB
 70
     8
280
     0
  0
ATTDEF
  5
19B
330
194
100
AcDbEntity
  8
AM_6
100
AcDbText
 10
8.099599999999999
 20
1.5996
 30
0.0
 40
0.5
  1
$PN.I
100
AcDbAttributeDefinition
  3

  2
NBSYN
 70
     8
280
     0
  0
ATTDEF
  5
19C
330
194
100
AcDbEntity
  8
AM_6
100
AcDbText
 10
8.099599999999999
 20
1.0996
 30
0.0
 40
0.5
  1
070901
100
AcDbAttributeDefinition
  3

  2
LINA
 70
     8
280
     0
  0
ATTDEF
  5
19D
330
194
100
AcDbEntity
  8
AM_6
100
AcDbText
 10
8.099599999999999
 20
0.5995999999999997
 30
0.0
 40
0.5
  1
3-3/16
100
AcDbAttributeDefinition
  3

  2
SS
 70
     8
280
     0
  0
ATTDEF
  5
19E
330
194
100
AcDbEntity
  8
AM_6
100
AcDbText
 10
8.099599999999999
 20
0.0995999999999997
 30
0.0
 40
0.5
  1
3.187500
100
AcDbAttributeDefinition
  3

  2
SS1
 70
     8
280
     0
  0
ATTDEF
  5
19F
330
194
100
AcDbEntity
  8
AM_6
100
AcDbText
 10
8.099599999999999
 20
-0.4004000000000003
 30
0.0
 40
0.5
  1
070901
100
AcDbAttributeDefinition
  3

  2
PN
 70
     8
280
     0
  0
ATTDEF
  5
1A0
330
194
100
AcDbEntity
  8
AM_6
100
AcDbText
 10
8.099599999999999
 20
-0.9004000000000003
 30
0.0
 40
0.5
  1
INS-IP-303R
100
AcDbAttributeDefinition
  3

  2
DESCRIPTION
 70
     8
280
     0
  0
ATTDEF
  5
1A1
330
194
100
AcDbEntity
  8
AM_6
100
AcDbText
 10
8.099599999999999
 20
-1.4004
 30
0.0
 40
0.5
  1
Contact Seal
100
AcDbAttributeDefinition
  3

  2
ST
 70
     8
280
     0
  0
ATTDEF
  5
1A2
330
194
100
AcDbEntity
  8
AM_6
100
AcDbText
 10
8.099599999999999
 20
-1.9004
 30
0.0
 40
0.5
  1
6.2992
100
AcDbAttributeDefinition
  3

  2
A
 70
     8
280
     0
  0
ATTDEF
  5
1A3
330
194
100
AcDbEntity
  8
AM_6
100
AcDbText
 10
8.099599999999999
 20
-2.4004
 30
0.0
 40
0.5
  1
1-5/8
100
AcDbAttributeDefinition
  3

  2
B
 70
     8
280
     0
  0
ATTDEF
  5
1A4
330
194
100
AcDbEntity
  8
AM_6
100
AcDbText
 10
8.099599999999999
 20
-2.9004
 30
0.0
 40
0.5
  1
4-11/64
100
AcDbAttributeDefinition
  3

  2
C
 70
     8
280
     0
  0
ATTDEF
  5
1A5
330
194
100
AcDbEntity
  8
AM_6
100
AcDbText
 10
8.099599999999999
 20
-3.4004
 30
0.0
 40
0.5
  1
1.483
100
AcDbAttributeDefinition
  3

  2
D
 70
     8
280
     0
  0
ATTDEF
  5
1A6
330
194
100
AcDbEntity
  8
AM_6
100
AcDbText
 10
8.099599999999999
 20
-3.9004
 30
0.0
 40
0.5
  1
5
100
AcDbAttributeDefinition
  3

  2
E
 70
     8
280
     0
  0
ATTDEF
  5
1A7
330
194
100
AcDbEntity
  8
AM_6
100
AcDbText
 10
8.099599999999999
 20
-4.4004
 30
0.0
 40
0.5
  1
0.2500
100
AcDbAttributeDefinition
  3

  2
NDM
 70
     8
280
     0
  0
ATTDEF
  5
1A8
330
194
100
AcDbEntity
  8
AM_6
100
AcDbText
 10
8.099599999999999
 20
-4.9004
 30
0.0
 40
0.5
  1
0.132
100
AcDbAttributeDefinition
  3

  2
H
 70
     8
280
     0
  0
ATTDEF
  5
1A9
330
194
100
AcDbEntity
  8
AM_6
100
AcDbText
 10
8.099599999999999
 20
-5.4004
 30
0.0
 40
0.5
  1
0.1960
100
AcDbAttributeDefinition
  3

  2
KDM
 70
     8
280
     0
  0
ATTDEF
  5
1AA
330
194
100
AcDbEntity
  8
AM_6
100
AcDbText
 10
8.099599999999999
 20
-5.9004
 30
0.0
 40
0.5
  1
4.28
100
AcDbAttributeDefinition
  3

  2
AL
 70
     8
280
     0
  0
ATTDEF
  5
1AB
330
194
100
AcDbEntity
  8
AM_6
100
AcDbText
 10
8.099599999999999
 20
-6.4004
 30
0.0
 40
0.5
  1
0.50
100
AcDbAttributeDefinition
  3

  2
BL
 70
     8
280
     0
  0
ATTDEF
  5
1AC
330
194
100
AcDbEntity
  8
AM_6
100
AcDbText
 10
8.099599999999999
 20
-6.9004
 30
0.0
 40
0.5
  1
0.07
100
AcDbAttributeDefinition
  3

  2
CL
 70
     8
280
     0
  0
ATTDEF
  5
1AD
330
194
100
AcDbEntity
  8
AM_6
100
AcDbText
 10
8.099599999999999
 20
-7.4004
 30
0.0
 40
0.5
  1
0.44
100
AcDbAttributeDefinition
  3

  2
DL
 70
     8
280
     0
  0
ATTDEF
  5
1AE
330
194
100
AcDbEntity
  8
AM_6
100
AcDbText
 10
8.099599999999999
 20
-7.9004
 30
0.0
 40
0.5
  1
0.8000
100
AcDbAttributeDefinition
  3

  2
LL
 70
     8
280
     0
  0
ATTDEF
  5
1AF
330
194
100
AcDbEntity
  8
AM_6
100
AcDbText
 10
8.099599999999999
 20
-8.400400000000001
 30
0.0
 40
0.5
  1
0.025
100
AcDbAttributeDefinition
  3

  2
Y
 70
     8
280
     0
  0
ATTDEF
  5
1B0
330
194
100
AcDbEntity
  8
AM_6
100
AcDbText
 10
8.099599999999999
 20
-8.900400000000001
 30
0.0
 40
0.5
  1
0.025000
100
AcDbAttributeDefinition
  3

  2
Y1
 70
     8
280
     0
  0
ATTDEF
  5
1B1
330
194
100
AcDbEntity
  8
AM_6
100
AcDbText
 10
8.099599999999999
 20
-9.400400000000001
 30
0.0
 40
0.5
  1
4-3/64
100
AcDbAttributeDefinition
  3

  2
Z
 70
     8
280
     0
  0
ATTDEF
  5
1B2
330
194
100
AcDbEntity
  8
AM_6
100
AcDbText
 10
8.099599999999999
 20
-9.900400000000001
 30
0.0
 40
0.5
  1
4.046875
100
AcDbAttributeDefinition
  3

  2
Z1
 70
     8
280
     0
  0
ATTDEF
  5
1B3
330
194
100
AcDbEntity
  8
AM_6
100
AcDbText
 10
8.099599999999999
 20
-10.4004
 30
0.0
 40
0.5
  1
baldor
100
AcDbAttributeDefinition
  3

  2
COMPANY
 70
     8
280
     0
  0
CIRCLE
  5
1B4
330
194
100
AcDbEntity
  8
AM_9
100
AcDbCircle
 10
0.0
 20
0.0
 30
0.0
 40
2.0234375
  0
CIRCLE
  5
1B5
330
194
100
AcDbEntity
  8
AM_9
100
AcDbCircle
 10
0.0
 20
0.0
 30
0.0
 40
2.196380876068376
  0
CIRCLE
  5
1B6
330
194
100
AcDbEntity
  8
AM_9
100
AcDbCircle
 10
0.0
 20
0.0
 30
0.0
 40
2.248263888888889
  0
CIRCLE
  5
1B7
330
194
100
AcDbEntity
  8
AM_9
100
AcDbCircle
 10
0.0
 20
0.0
 30
0.0
 40
2.704226135594408
  0
CIRCLE
  5
1B8
330
194
100
AcDbEntity
  8
AM_9
100
AcDbCircle
 10
0.0
 20
0.0
 30
0.0
 40
2.790828675972853
  0
CIRCLE
  5
1B9
330
194
100
AcDbEntity
  8
AM_9
100
AcDbCircle
 10
0.0
 20
0.0
 30
0.0
 40
2.9496
  0
CIRCLE
  5
1BA
330
194
100
AcDbEntity
  8
AM_9
100
AcDbCircle
 10
0.0
 20
0.0
 30
0.0
 40
3.06835
  0
CIRCLE
  5
1BB
330
194
100
AcDbEntity
  8
AM_9
100
AcDbCircle
 10
0.0
 20
-2.135416666666667
 30
0.0
 40
0.09795
  0
LINE
  5
1BC
330
194
100
AcDbEntity
  8
AM_9
100
AcDbLine
 10
1.583326760842207
 20
-1.936880151435481
 30
0.0
 11
1.336431816442575
 21
-1.689985207035849
 31
0.0
  0
LINE
  5
1BD
330
194
100
AcDbEntity
  8
AM_9
100
AcDbLine
 10
-1.336431816442575
 20
-1.689985207035848
 30
0.0
 11
-1.583326760842208
 21
-1.936880151435481
 31
0.0
  0
LINE
  5
1BE
330
194
100
AcDbEntity
  8
AM_9
100
AcDbLine
 10
1.936880151435482
 20
1.583326760842206
 30
0.0
 11
1.689985207035849
 21
1.336431816442574
 31
0.0
  0
LINE
  5
1BF
330
194
100
AcDbEntity
  8
AM_9
100
AcDbLine
 10
1.689985207035848
 20
-1.336431816442575
 30
0.0
 11
1.936880151435481
 21
-1.583326760842207
 31
0.0
  0
LINE
  5
1C0
330
194
100
AcDbEntity
  8
AM_9
100
AcDbLine
 10
-1.689985207035848
 20
1.336431816442575
 30
0.0
 11
-1.936880151435481
 21
1.583326760842207
 31
0.0
  0
LINE
  5
1C1
330
194
100
AcDbEntity
  8
AM_9
100
AcDbLine
 10
-1.936880151435481
 20
-1.583326760842207
 30
0.0
 11
-1.689985207035849
 21
-1.336431816442575
 31
0.0
  0
CIRCLE
  5
1C2
330
194
100
AcDbEntity
  8
AM_9
100
AcDbCircle
 10
0.0
 20
2.135416666666667
 30
0.0
 40
0.09795
  0
LINE
  5
1C3
330
194
100
AcDbEntity
  8
AM_9
100
AcDbLine
 10
1.336431816442575
 20
1.689985207035848
 30
0.0
 11
1.583326760842208
 21
1.936880151435481
 31
0.0
  0
LINE
  5
1C4
330
194
100
AcDbEntity
  8
AM_9
100
AcDbLine
 10
-1.583326760842207
 20
1.936880151435481
 30
0.0
 11
-1.336431816442575
 21
1.689985207035849
 31
0.0
  0
LINE
  5
1C5
330
194
100
AcDbEntity
  8
AM_9
100
AcDbLine
 10
-1.601538813636971
 20
1.424878209841453
 30
0.0
 11
-1.689985207035848
 21
1.336431816442575
 31
0.0
  0
LINE
  5
1C6
330
194
100
AcDbEntity
  8
AM_9
100
AcDbLine
 10
-1.336431816442575
 20
1.689985207035849
 30
0.0
 11
-1.424878209841453
 21
1.60153881363697
 31
0.0
  0
ARC
  5
1C7
330
194
100
AcDbEntity
  8
AM_9
100
AcDbCircle
 10
-0.0000000000000004
 20
0.0000000000000001
 30
0.0
 40
2.451715561259646
100
AcDbArc
 50
140.8525894283245
 51
219.1474105716755
  0
LINE
  5
1C8
330
194
100
AcDbEntity
  8
AM_9
100
AcDbLine
 10
-1.424878209841452
 20
-1.601538813636971
 30
0.0
 11
-1.336431816442575
 21
-1.689985207035848
 31
0.0
  0
LINE
  5
1C9
330
194
100
AcDbEntity
  8
AM_9
100
AcDbLine
 10
-1.689985207035849
 20
-1.336431816442575
 30
0.0
 11
-1.60153881363697
 21
-1.424878209841454
 31
0.0
  0
ARC
  5
1CA
330
194
100
AcDbEntity
  8
AM_9
100
AcDbCircle
 10
-0.0000000000000001
 20
-0.0000000000000004
 30
0.0
 40
2.451715561259646
100
AcDbArc
 50
230.8525894283245
 51
309.1474105716755
  0
LINE
  5
1CB
330
194
100
AcDbEntity
  8
AM_9
100
AcDbLine
 10
1.601538813636971
 20
-1.424878209841452
 30
0.0
 11
1.689985207035848
 21
-1.336431816442575
 31
0.0
  0
LINE
  5
1CC
330
194
100
AcDbEntity
  8
AM_9
100
AcDbLine
 10
1.336431816442575
 20
-1.689985207035849
 30
0.0
 11
1.424878209841454
 21
-1.60153881363697
 31
0.0
  0
ARC
  5
1CD
330
194
100
AcDbEntity
  8
AM_9
100
AcDbCircle
 10
0.0
 20
-0.0000000000000006
 30
0.0
 40
2.451715561259646
100
AcDbArc
 50
320.8525894283245
 51
39.14741057167548
  0
LINE
  5
1CE
330
194
100
AcDbEntity
  8
AM_9
100
AcDbLine
 10
1.424878209841453
 20
1.601538813636971
 30
0.0
 11
1.336431816442575
 21
1.689985207035848
 31
0.0
  0
LINE
  5
1CF
330
194
100
AcDbEntity
  8
AM_9
100
AcDbLine
 10
1.689985207035849
 20
1.336431816442574
 30
0.0
 11
1.60153881363697
 21
1.424878209841453
 31
0.0
  0
ARC
  5
1D0
330
194
100
AcDbEntity
  8
AM_9
100
AcDbCircle
 10
0.000000000000041
 20
-0.0000000000000964
 30
0.0
 40
1.682058047493508
100
AcDbArc
 50
108.2382083689943
 51
116.7617916310058
  0
ARC
  5
1D1
330
194
100
AcDbEntity
  8
AM_9
100
AcDbCircle
 10
0.0000000000000003
 20
0.0000000000000004
 30
0.0
 40
2.451715561259646
100
AcDbArc
 50
50.85258942832449
 51
129.1474105716756
  0
ARC
  5
1D2
330
194
100
AcDbEntity
  8
AM_5
100
AcDbCircle
 10
0.0000000000000003
 20
2.135416666666667
 30
0.0
 40
0.1250000000000001
100
AcDbArc
 50
75.0000000000001
 51
14.99999999999994
  0
ARC
  5
1D3
330
194
100
AcDbEntity
  8
AM_5
100
AcDbCircle
 10
0.0000000000000003
 20
-2.135416666666667
 30
0.0
 40
0.1250000000000001
100
AcDbArc
 50
75.0000000000001
 51
14.99999999999994
  0
CIRCLE
  5
1D4
330
194
100
AcDbEntity
  8
AM_4
100
AcDbCircle
 10
0.0
 20
0.0
 30
0.0
 40
3.0996
  0
LINE
  5
1D5
330
194
100
AcDbEntity
  8
AM_4
100
AcDbLine
 10
-1.593048406283363
 20
1.946601796876637
 30
0.0
 11
-1.583326760842207
 21
1.936880151435481
 31
0.0
  0
LINE
  5
1D6
330
194
100
AcDbEntity
  8
AM_4
100
AcDbLine
 10
1.593048406283363
 20
-1.946601796876637
 30
0.0
 11
1.583326760842207
 21
-1.936880151435481
 31
0.0
  0
LINE
  5
1D7
330
194
100
AcDbEntity
  8
AM_4
100
AcDbLine
 10
-1.936880151435481
 20
1.583326760842207
 30
0.0
 11
-1.946601796876636
 21
1.593048406283363
 31
0.0
  0
LINE
  5
1D8
330
194
100
AcDbEntity
  8
AM_4
100
AcDbLine
 10
1.583326760842208
 20
1.936880151435481
 30
0.0
 11
1.593048406283363
 21
1.946601796876636
 31
0.0
  0
LINE
  5
1D9
330
194
100
AcDbEntity
  8
AM_4
100
AcDbLine
 10
1.936880151435481
 20
-1.583326760842207
 30
0.0
 11
1.946601796876636
 21
-1.593048406283363
 31
0.0
  0
LINE
  5
1DA
330
194
100
AcDbEntity
  8
AM_4
100
AcDbLine
 10
-1.583326760842208
 20
-1.936880151435481
 30
0.0
 11
-1.593048406283363
 21
-1.946601796876636
 31
0.0
  0
LINE
  5
1DB
330
194
100
AcDbEntity
  8
AM_4
100
AcDbLine
 10
1.946601796876637
 20
1.593048406283362
 30
0.0
 11
1.936880151435482
 21
1.583326760842206
 31
0.0
  0
LINE
  5
1DC
330
194
100
AcDbEntity
  8
AM_4
100
AcDbLine
 10
-1.946601796876637
 20
-1.593048406283362
 30
0.0
 11
-1.936880151435481
 21
-1.583326760842207
 31
0.0
  0
CIRCLE
  5
1DD
330
194
100
AcDbEntity
  8
AM_4
100
AcDbCircle
 10
0.0
 20
0.0
 30
0.0
 40
2.554448754797947
  0
ARC
  5
1DE
330
194
100
AcDbEntity
  8
AM_4
100
AcDbCircle
 10
0.0000000000001026
 20
-0.0000000000001008
 30
0.0
 40
2.515365138576225
100
AcDbArc
 50
309.2960039559734
 51
320.7039960440265
  0
ARC
  5
1DF
330
194
100
AcDbEntity
  8
AM_4
100
AcDbCircle
 10
-0.0000000000000979
 20
-0.0000000000000973
 30
0.0
 40
2.515365138576231
100
AcDbArc
 50
219.2960039559734
 51
230.7039960440265
  0
ARC
  5
1E0
330
194
100
AcDbEntity
  8
AM_4
100
AcDbCircle
 10
-0.0000000000001126
 20
0.0000000000001119
 30
0.0
 40
2.51536513857621
100
AcDbArc
 50
129.2960039559734
 51
140.7039960440266
  0
ARC
  5
1E1
330
194
100
AcDbEntity
  8
AM_4
100
AcDbCircle
 10
0.0000000000000826
 20
0.0000000000000848
 30
0.0
 40
2.515365138576251
100
AcDbArc
 50
39.29600395597348
 51
50.70399604402642
  0
ARC
  5
1E2
330
194
100
AcDbEntity
  8
AM_4
100
AcDbCircle
 10
0.0000000000000002
 20
-0.0000000000000013
 30
0.0
 40
2.501685102610599
100
AcDbArc
 50
230.7352916783375
 51
309.2647083216625
  0
ARC
  5
1E3
330
194
100
AcDbEntity
  8
AM_4
100
AcDbCircle
 10
0.0000000000000022
 20
0.0000000000000001
 30
0.0
 40
2.501685102610598
100
AcDbArc
 50
320.7352916783375
 51
39.26470832166245
  0
ARC
  5
1E4
330
194
100
AcDbEntity
  8
AM_4
100
AcDbCircle
 10
-0.0000000000000022
 20
0.0
 30
0.0
 40
2.501685102610598
100
AcDbArc
 50
140.7352916783375
 51
219.2647083216625
  0
LINE
  5
1E5
330
194
100
AcDbEntity
  8
AM_4
100
AcDbLine
 10
-1.424878209841453
 20
1.60153881363697
 30
0.0
 11
-1.601538813636971
 21
1.424878209841453
 31
0.0
  0
LINE
  5
1E6
330
194
100
AcDbEntity
  8
AM_4
100
AcDbLine
 10
-1.60153881363697
 20
-1.424878209841454
 30
0.0
 11
-1.424878209841452
 21
-1.601538813636971
 31
0.0
  0
LINE
  5
1E7
330
194
100
AcDbEntity
  8
AM_4
100
AcDbLine
 10
1.424878209841454
 20
-1.60153881363697
 30
0.0
 11
1.601538813636971
 21
-1.424878209841452
 31
0.0
  0
LINE
  5
1E8
330
194
100
AcDbEntity
  8
AM_4
100
AcDbLine
 10
1.60153881363697
 20
1.424878209841453
 30
0.0
 11
1.424878209841453
 21
1.601538813636971
 31
0.0
  0
ARC
  5
1E9
330
194
100
AcDbEntity
  8
AM_4
100
AcDbCircle
 10
0.0000000000000001
 20
0.0000000000000022
 30
0.0
 40
2.501685102610598
100
AcDbArc
 50
50.73529167833751
 51
129.2647083216625
  0
ARC
  5
1EA
330
194
100
AcDbEntity
  8
AM_4
100
AcDbCircle
 10
0.0000000000000027
 20
0.0000000000000012
 30
0.0
 40
1.677631578947369
100
AcDbArc
 50
116.7730573306039
 51
108.2269426693963
  0
ARC
  5
1EB
330
194
100
AcDbEntity
  8
AM_4
100
AcDbCircle
 10
0.000000000000002
 20
0.0000000000000011
 30
0.0
 40
1.59375
100
AcDbArc
 50
116.9984066688886
 51
108.0015933311115
  0
LINE
  5
1EC
330
194
100
AcDbEntity
  8
AM_4
100
AcDbLine
 10
-0.4925379857930965
 20
1.515732626504714
 30
0.0
 11
-0.5247322847707345
 21
1.593456539727622
 31
0.0
  0
LINE
  5
1ED
330
194
100
AcDbEntity
  8
AM_4
100
AcDbLine
 10
-0.7557021678985558
 20
1.49778568163635
 30
0.0
 11
-0.7235078689209181
 21
1.420061768413442
 31
0.0
  0
ARC
  5
1EE
330
194
100
AcDbEntity
  8
AM_5
100
AcDbCircle
 10
-0.0000000000000002
 20
2.135416666666667
 30
0.0
 40
0.1249999999999998
100
AcDbArc
 50
165.0000000000001
 51
104.9999999999999
  0
ARC
  5
1EF
330
194
100
AcDbEntity
  8
AM_5
100
AcDbCircle
 10
-0.0000000000000002
 20
-2.135416666666667
 30
0.0
 40
0.1249999999999998
100
AcDbArc
 50
165.0
 51
104.9999999999999
  0
ARC
  5
1F0
330
194
100
AcDbEntity
  8
AM_5
100
AcDbCircle
 10
0.0000000000000001
 20
2.135416666666667
 30
0.0
 40
0.1250000000000002
100
AcDbArc
 50
105.0
 51
14.99999999999992
  0
ARC
  5
1F1
330
194
100
AcDbEntity
  8
AM_5
100
AcDbCircle
 10
0.0000000000000001
 20
-2.135416666666667
 30
0.0
 40
0.1250000000000002
100
AcDbArc
 50
105.0
 51
14.99999999999992
  0
ENDBLK
  5
197
330
194
100
AcDbEntity
  8
0
100
AcDbBlockEnd
  0
BLOCK
  5
1F4
330
1F2
100
AcDbEntity
  8
0
100
AcDbBlockBegin
  2
7_069361H_0_in_069361_0
 70
     2
 10
0.0
 20
0.0
 30
0.0
  3
7_069361H_0_in_069361_0
  1

  0
ATTDEF
  5
1F6
330
1F2
100
AcDbEntity
  8
AM_6
100
AcDbText
 10
11.428125
 20
3.90625
 30
0.0
 40
0.5
  1
WSTU-IP -Housing -Inch
100
AcDbAttributeDefinition
  3

  2
NN
 70
     8
280
     0
  0
ATTDEF
  5
1F7
330
1F2
100
AcDbEntity
  8
AM_6
100
AcDbText
 10
11.428125
 20
3.40625
 30
0.0
 40
0.5
  1
Imperial Wide Slot Take-Up Bearings
100
AcDbAttributeDefinition
  3

  2
NT
 70
     8
280
     0
  0
ATTDEF
  5
1F8
330
1F2
100
AcDbEntity
  8
AM_6
100
AcDbText
 10
11.428125
 20
2.90625
 30
0.0
 40
0.5
  1
069361H
100
AcDbAttributeDefinition
  3

  2
NB
 70
     8
280
     0
  0
ATTDEF
  5
1F9
330
1F2
100
AcDbEntity
  8
AM_6
100
AcDbText
 10
11.428125
 20
2.40625
 30
0.0
 40
0.5
  1
$PN.H
100
AcDbAttributeDefinition
  3

  2
NBSYN
 70
     8
280
     0
  0
ATTDEF
  5
1FA
330
1F2
100
AcDbEntity
  8
AM_6
100
AcDbText
 10
11.428125
 20
1.90625
 30
0.0
 40
0.5
  1
069361
100
AcDbAttributeDefinition
  3

  2
LINA
 70
     8
280
     0
  0
ATTDEF
  5
1FB
330
1F2
100
AcDbEntity
  8
AM_6
100
AcDbText
 10
11.428125
 20
1.40625
 30
0.0
 40
0.5
  1
3-3/16
100
AcDbAttributeDefinition
  3

  2
SS
 70
     8
280
     0
  0
ATTDEF
  5
1FC
330
1F2
100
AcDbEntity
  8
AM_6
100
AcDbText
 10
11.428125
 20
0.90625
 30
0.0
 40
0.5
  1
069361
100
AcDbAttributeDefinition
  3

  2
PN
 70
     8
280
     0
  0
ATTDEF
  5
1FD
330
1F2
100
AcDbEntity
  8
AM_6
100
AcDbText
 10
11.428125
 20
0.40625
 30
0.0
 40
0.5
  1
WSTU-IP-303R
100
AcDbAttributeDefinition
  3

  2
DESCRIPTION
 70
     8
280
     0
  0
ATTDEF
  5
1FE
330
1F2
100
AcDbEntity
  8
AM_6
100
AcDbText
 10
11.428125
 20
-0.09375
 30
0.0
 40
0.5
  1
Non-Expansion
100
AcDbAttributeDefinition
  3

  2
EF
 70
     8
280
     0
  0
ATTDEF
  5
1FF
330
1F2
100
AcDbEntity
  8
AM_6
100
AcDbText
 10
11.428125
 20
-0.59375
 30
0.0
 40
0.5
  1
Contact Seal
100
AcDbAttributeDefinition
  3

  2
ST
 70
     8
280
     0
  0
ATTDEF
  5
200
330
1F2
100
AcDbEntity
  8
AM_6
100
AcDbText
 10
11.428125
 20
-1.09375
 30
0.0
 40
0.5
  1
4-5/32
100
AcDbAttributeDefinition
  3

  2
A
 70
     8
280
     0
  0
ATTDEF
  5
201
330
1F2
100
AcDbEntity
  8
AM_6
100
AcDbText
 10
11.428125
 20
-1.59375
 30
0.0
 40
0.5
  1
10-1/16
100
AcDbAttributeDefinition
  3

  2
B
 70
     8
280
     0
  0
ATTDEF
  5
202
330
1F2
100
AcDbEntity
  8
AM_6
100
AcDbText
 10
11.428125
 20
-2.09375
 30
0.0
 40
0.5
  1
1-13/16
100
AcDbAttributeDefinition
  3

  2
C
 70
     8
280
     0
  0
ATTDEF
  5
203
330
1F2
100
AcDbEntity
  8
AM_6
100
AcDbText
 10
11.428125
 20
-2.59375
 30
0.0
 40
0.5
  1
5-1/2
100
AcDbAttributeDefinition
  3

  2
D
 70
     8
280
     0
  0
ATTDEF
  5
204
330
1F2
100
AcDbEntity
  8
AM_6
100
AcDbText
 10
11.428125
 20
-3.09375
 30
0.0
 40
0.5
  1
6-3/8
100
AcDbAttributeDefinition
  3

  2
E
 70
     8
280
     0
  0
ATTDEF
  5
205
330
1F2
100
AcDbEntity
  8
AM_6
100
AcDbText
 10
11.428125
 20
-3.59375
 30
0.0
 40
0.5
  1
1-7/8
100
AcDbAttributeDefinition
  3

  2
F
 70
     8
280
     0
  0
ATTDEF
  5
206
330
1F2
100
AcDbEntity
  8
AM_6
100
AcDbText
 10
11.428125
 20
-4.09375
 30
0.0
 40
0.5
  1
1-1/16
100
AcDbAttributeDefinition
  3

  2
G
 70
     8
280
     0
  0
ATTDEF
  5
207
330
1F2
100
AcDbEntity
  8
AM_6
100
AcDbText
 10
11.428125
 20
-4.59375
 30
0.0
 40
0.5
  1
1-5/8
100
AcDbAttributeDefinition
  3

  2
H
 70
     8
280
     0
  0
ATTDEF
  5
208
330
1F2
100
AcDbEntity
  8
AM_6
100
AcDbText
 10
11.428125
 20
-5.09375
 30
0.0
 40
0.5
  1
5-1/8
100
AcDbAttributeDefinition
  3

  2
J
 70
     8
280
     0
  0
ATTDEF
  5
209
330
1F2
100
AcDbEntity
  8
AM_6
100
AcDbText
 10
11.428125
 20
-5.59375
 30
0.0
 40
0.5
  1
2-7/8
100
AcDbAttributeDefinition
  3

  2
K
 70
     8
280
     0
  0
ATTDEF
  5
20A
330
1F2
100
AcDbEntity
  8
AM_6
100
AcDbText
 10
11.428125
 20
-6.09375
 30
0.0
 40
0.5
  1
5
100
AcDbAttributeDefinition
  3

  2
L
 70
     8
280
     0
  0
ATTDEF
  5
20B
330
1F2
100
AcDbEntity
  8
AM_6
100
AcDbText
 10
11.428125
 20
-6.59375
 30
0.0
 40
0.5
  1
6-13/16
100
AcDbAttributeDefinition
  3

  2
M
 70
     8
280
     0
  0
ATTDEF
  5
20C
330
1F2
100
AcDbEntity
  8
AM_6
100
AcDbText
 10
11.428125
 20
-7.09375
 30
0.0
 40
0.5
  1
7-13/16
100
AcDbAttributeDefinition
  3

  2
N
 70
     8
280
     0
  0
ATTDEF
  5
20D
330
1F2
100
AcDbEntity
  8
AM_6
100
AcDbText
 10
11.428125
 20
-7.59375
 30
0.0
 40
0.5
  1
4-7/32
100
AcDbAttributeDefinition
  3

  2
R
 70
     8
280
     0
  0
ATTDEF
  5
20E
330
1F2
100
AcDbEntity
  8
AM_6
100
AcDbText
 10
11.428125
 20
-8.09375
 30
0.0
 40
0.5
  1
2-11/16
100
AcDbAttributeDefinition
  3

  2
S
 70
     8
280
     0
  0
ATTDEF
  5
20F
330
1F2
100
AcDbEntity
  8
AM_6
100
AcDbText
 10
11.428125
 20
-8.59375
 30
0.0
 40
0.5
  1
3-1/16
100
AcDbAttributeDefinition
  3

  2
T
 70
     8
280
     0
  0
ATTDEF
  5
210
330
1F2
100
AcDbEntity
  8
AM_6
100
AcDbText
 10
11.428125
 20
-9.09375
 30
0.0
 40
0.5
  1
1/4
100
AcDbAttributeDefinition
  3

  2
X
 70
     8
280
     0
  0
ATTDEF
  5
211
330
1F2
100
AcDbEntity
  8
AM_6
100
AcDbText
 10
11.428125
 20
-9.59375
 30
0.0
 40
0.5
  1
0.025
100
AcDbAttributeDefinition
  3

  2
Y
 70
     8
280
     0
  0
ATTDEF
  5
212
330
1F2
100
AcDbEntity
  8
AM_6
100
AcDbText
 10
11.428125
 20
-10.09375
 30
0.0
 40
0.5
  1
4-3/64
100
AcDbAttributeDefinition
  3

  2
Z
 70
     8
280
     0
  0
ATTDEF
  5
213
330
1F2
100
AcDbEntity
  8
AM_6
100
AcDbText
 10
11.428125
 20
-10.59375
 30
0.0
 40
0.5
  1
baldor
100
AcDbAttributeDefinition
  3

  2
COMPANY
 70
     8
280
     0
  0
LINE
  5
214
330
1F2
100
AcDbEntity
  8
AM_9
100
AcDbLine
 10
2.75
 20
3.40625
 30
0.0
 11
-2.75
 21
3.40625
 31
0.0
  0
LINE
  5
215
330
1F2
100
AcDbEntity
  8
AM_9
100
AcDbLine
 10
2.75
 20
-3.40625
 30
0.0
 11
-2.75
 21
-3.40625
 31
0.0
  0
LINE
  5
216
330
1F2
100
AcDbEntity
  8
AM_9
100
AcDbLine
 10
6.375
 20
0.9375
 30
0.0
 11
5.3125
 21
0.9375
 31
0.0
  0
LINE
  5
217
330
1F2
100
AcDbEntity
  8
AM_9
100
AcDbLine
 10
5.3125
 20
-0.9375
 30
0.0
 11
6.375
 21
-0.9375
 31
0.0
  0
LINE
  5
218
330
1F2
100
AcDbEntity
  8
AM_7
100
AcDbLine
 10
-3.675
 20
0.0
 30
0.0
 11
3.675
 21
0.0
 31
0.0
  0
LINE
  5
219
330
1F2
100
AcDbEntity
  8
AM_7
100
AcDbLine
 10
0.0
 20
-3.675
 30
0.0
 11
0.0
 21
3.675
 31
0.0
  0
LINE
  5
21A
330
1F2
100
AcDbEntity
  8
AM_7
100
AcDbLine
 10
-4.032960022410974
 20
-1.629421616798775
 30
0.0
 11
0.3521814960917751
 21
0.1422905606749389
 31
0.0
  0
LINE
  5
21B
330
1F2
100
AcDbEntity
  8
AM_7
100
AcDbLine
 10
5.259375
 20
0.0
 30
0.0
 11
6.428125
 21
0.0
 31
0.0
  0
LINE
  5
21C
330
1F2
100
AcDbEntity
  8
AM_4
100
AcDbLine
 10
-3.361866211805343
 20
-1.789696014389482
 30
0.0
 11
-3.661551486432682
 21
-1.047948930996903
 31
0.0
  0
ARC
  5
21D
330
1F2
100
AcDbEntity
  8
AM_4
100
AcDbCircle
 10
-3.568833101081396
 20
-1.010488271394459
 30
0.0
 40
0.0999999999999981
100
AcDbArc
 50
111.9999999999986
 51
202.0000000000013
  0
ARC
  5
21E
330
1F2
100
AcDbEntity
  8
AM_4
100
AcDbCircle
 10
-3.269147826348664
 20
-1.752235355047892
 30
0.0
 40
0.1000000000000001
100
AcDbArc
 50
201.9999999999996
 51
292.0000000000005
  0
LINE
  5
21F
330
1F2
100
AcDbEntity
  8
AM_4
100
AcDbLine
 10
-3.231687167007072
 20
-1.84495374050457
 30
0.0
 11
-3.606293760422985
 21
-0.9177698859377815
 31
0.0
  0
LINE
  5
220
330
1F2
100
AcDbEntity
  8
AM_4
100
AcDbLine
 10
-3.574920380226513
 20
-0.9050942175453095
 30
0.0
 11
-3.606293760422985
 21
-0.9177698859377815
 31
0.0
  0
LINE
  5
221
330
1F2
100
AcDbEntity
  8
AM_4
100
AcDbLine
 10
-3.231687167007072
 20
-1.84495374050457
 30
0.0
 11
-3.200111398296477
 21
-1.832196301844584
 31
0.0
  0
ARC
  5
222
330
1F2
100
AcDbEntity
  8
AM_4
100
AcDbCircle
 10
5.156249999999998
 20
1.281249999999998
 30
0.0
 40
0.1562500000000018
100
AcDbArc
 50
0.0
 51
90.0
  0
LINE
  5
223
330
1F2
100
AcDbEntity
  8
AM_4
100
AcDbLine
 10
3.6875
 20
1.281250000000001
 30
0.0
 11
3.6875
 21
-1.281250000000001
 31
0.0
  0
ARC
  5
224
330
1F2
100
AcDbEntity
  8
AM_4
100
AcDbCircle
 10
3.843749999999999
 20
1.281250000000001
 30
0.0
 40
0.1562499999999991
100
AcDbArc
 50
90.0
 51
180.0
  0
LINE
  5
225
330
1F2
100
AcDbEntity
  8
AM_4
100
AcDbLine
 10
5.156250000000001
 20
1.4375
 30
0.0
 11
3.84375
 21
1.4375
 31
0.0
  0
LINE
  5
226
330
1F2
100
AcDbEntity
  8
AM_4
100
AcDbLine
 10
3.843749999999999
 20
-1.4375
 30
0.0
 11
5.15625
 21
-1.4375
 31
0.0
  0
ARC
  5
227
330
1F2
100
AcDbEntity
  8
AM_4
100
AcDbCircle
 10
3.84375
 20
-1.28125
 30
0.0
 40
0.15625
100
AcDbArc
 50
180.0
 51
270.0
  0
ARC
  5
228
330
1F2
100
AcDbEntity
  8
AM_4
100
AcDbCircle
 10
5.15625
 20
-1.28125
 30
0.0
 40
0.1562500000000002
100
AcDbArc
 50
270.0
 51
0.0
  0
LINE
  5
229
330
1F2
100
AcDbEntity
  8
AM_4
100
AcDbLine
 10
6.375
 20
2.5625
 30
0.0
 11
6.375
 21
-2.5625
 31
0.0
  0
LINE
  5
22A
330
1F2
100
AcDbEntity
  8
AM_4
100
AcDbLine
 10
6.375
 20
-2.5625
 30
0.0
 11
2.75
 21
-2.5625
 31
0.0
  0
LINE
  5
22B
330
1F2
100
AcDbEntity
  8
AM_4
100
AcDbLine
 10
6.375
 20
-2.375
 30
0.0
 11
2.82082102409919
 21
-2.375
 31
0.0
  0
LINE
  5
22C
330
1F2
100
AcDbEntity
  8
AM_4
100
AcDbLine
 10
6.375
 20
2.375
 30
0.0
 11
2.820821024099189
 21
2.375
 31
0.0
  0
LINE
  5
22D
330
1F2
100
AcDbEntity
  8
AM_4
100
AcDbLine
 10
6.375
 20
2.5625
 30
0.0
 11
2.75
 21
2.5625
 31
0.0
  0
LINE
  5
22E
330
1F2
100
AcDbEntity
  8
AM_4
100
AcDbLine
 10
2.75
 20
2.451882703840588
 30
0.0
 11
2.75
 21
3.71875
 31
0.0
  0
LINE
  5
22F
330
1F2
100
AcDbEntity
  8
AM_4
100
AcDbLine
 10
2.562500000000001
 20
3.90625
 30
0.0
 11
-2.5625
 21
3.90625
 31
0.0
  0
ARC
  5
230
330
1F2
100
AcDbEntity
  8
AM_4
100
AcDbCircle
 10
-2.5625
 20
3.71875
 30
0.0
 40
0.1874999999999996
100
AcDbArc
 50
90.0
 51
180.0
  0
LINE
  5
231
330
1F2
100
AcDbEntity
  8
AM_4
100
AcDbLine
 10
-2.75
 20
3.71875
 30
0.0
 11
-2.75
 21
2.451882703840588
 31
0.0
  0
ARC
  5
232
330
1F2
100
AcDbEntity
  8
AM_4
100
AcDbCircle
 10
2.562500000000002
 20
3.718750000000002
 30
0.0
 40
0.1874999999999978
100
AcDbArc
 50
0.0000008537736463
 51
90.0
  0
ARC
  5
233
330
1F2
100
AcDbEntity
  8
AM_4
100
AcDbCircle
 10
2.562500000000001
 20
-3.718750000000002
 30
0.0
 40
0.1874999999999982
100
AcDbArc
 50
270.0
 51
0.0
  0
LINE
  5
234
330
1F2
100
AcDbEntity
  8
AM_4
100
AcDbLine
 10
-2.75
 20
-2.451882703840588
 30
0.0
 11
-2.75
 21
-3.718750000000001
 31
0.0
  0
ARC
  5
235
330
1F2
100
AcDbEntity
  8
AM_4
100
AcDbCircle
 10
-2.5625
 20
-3.71875
 30
0.0
 40
0.1874999999999996
100
AcDbArc
 50
180.0
 51
270.0
  0
LINE
  5
236
330
1F2
100
AcDbEntity
  8
AM_4
100
AcDbLine
 10
-2.562500000000001
 20
-3.90625
 30
0.0
 11
2.5625
 21
-3.90625
 31
0.0
  0
LINE
  5
237
330
1F2
100
AcDbEntity
  8
AM_4
100
AcDbLine
 10
2.75
 20
-3.718750000000001
 30
0.0
 11
2.75
 21
-2.451882703840588
 31
0.0
  0
CIRCLE
  5
238
330
1F2
100
AcDbEntity
  8
AM_4
100
AcDbCircle
 10
0.0
 20
0.0
 30
0.0
 40
3.1496
  0
CIRCLE
  5
239
330
1F2
100
AcDbEntity
  8
AM_4
100
AcDbCircle
 10
0.0
 20
0.0
 30
0.0
 40
3.5
  0
ARC
  5
23A
330
1F2
100
AcDbEntity
  8
AM_4
100
AcDbCircle
 10
0.0
 20
0.0
 30
0.0
 40
3.6875
100
AcDbArc
 50
318.2246519902744
 51
41.77534800972558
  0
ARC
  5
23B
330
1F2
100
AcDbEntity
  8
AM_4
100
AcDbCircle
 10
-0.0000000000000002
 20
0.0000000000000013
 30
0.0
 40
3.684322026288232
100
AcDbArc
 50
41.71999531748845
 51
138.2800046825116
  0
ARC
  5
23C
330
1F2
100
AcDbEntity
  8
AM_4
100
AcDbCircle
 10
-0.0000000000000022
 20
0.0000000000000002
 30
0.0
 40
3.687499999999998
100
AcDbArc
 50
138.2246519902744
 51
221.7753480097256
  0
ARC
  5
23D
330
1F2
100
AcDbEntity
  8
AM_4
100
AcDbCircle
 10
0.0
 20
-0.0000000000000018
 30
0.0
 40
3.684322026288232
100
AcDbArc
 50
221.7199953174884
 51
318.2800046825116
  0
LINE
  5
23E
330
1F2
100
AcDbEntity
  8
AM_4
100
AcDbLine
 10
5.3125
 20
1.4375
 30
0.0
 11
5.3125
 21
-1.4375
 31
0.0
  0
LINE
  5
23F
330
1F2
100
AcDbEntity
  8
AM_4
100
AcDbLine
 10
5.3125
 20
-1.4375
 30
0.0
 11
6.375
 21
-1.4375
 31
0.0
  0
LINE
  5
240
330
1F2
100
AcDbEntity
  8
AM_4
100
AcDbLine
 10
6.375
 20
1.4375
 30
0.0
 11
5.3125
 21
1.4375
 31
0.0
  0
ENDBLK
  5
1F5
330
1F2
100
AcDbEntity
  8
0
100
AcDbBlockEnd
  0
ENDSEC
  0
SECTION
  2
ENTITIES
  0
INSERT
  5
6F
330
1F
100
AcDbEntity
  8
0
100
AcDbBlockReference
  2
1_069361_0
 10
0.0
 20
0.0
 30
0.0
  0
POINT
  5
242
330
1F
100
AcDbEntity
  8
ConnectionPoints
100
AcDbPoint
 10
0.0
 20
-2.135416666666667
 30
2.440333333333333
  0
POINT
  5
243
330
1F
100
AcDbEntity
  8
ConnectionPoints
100
AcDbPoint
 10
0.0
 20
2.135416666666667
 30
2.440333333333333
  0
POINT
  5
244
330
1F
100
AcDbEntity
  8
ConnectionPoints
100
AcDbPoint
 10
0.0
 20
0.0
 30
2.370333333333333
  0
POINT
  5
245
330
1F
100
AcDbEntity
  8
ConnectionPoints
100
AcDbPoint
 10
0.0
 20
0.0
 30
2.6875
  0
POINT
  5
246
330
1F
100
AcDbEntity
  8
ConnectionPoints
100
AcDbPoint
 10
0.0
 20
0.0
 30
2.569333333333333
  0
POINT
  5
247
330
1F
100
AcDbEntity
  8
ConnectionPoints
100
AcDbPoint
 10
0.0
 20
2.135416666666667
 30
2.370333333333333
  0
POINT
  5
248
330
1F
100
AcDbEntity
  8
ConnectionPoints
100
AcDbPoint
 10
0.0
 20
2.135416666666667
 30
2.5555
  0
POINT
  5
249
330
1F
100
AcDbEntity
  8
ConnectionPoints
100
AcDbPoint
 10
0.0
 20
-2.135416666666667
 30
2.370333333333333
  0
POINT
  5
24A
330
1F
100
AcDbEntity
  8
ConnectionPoints
100
AcDbPoint
 10
0.0
 20
-2.135416666666667
 30
2.5555
  0
POINT
  5
24B
330
1F
100
AcDbEntity
  8
ConnectionPoints
100
AcDbPoint
 10
0.0
 20
0.0
 30
2.370333333333333
  0
POINT
  5
24C
330
1F
100
AcDbEntity
  8
ConnectionPoints
100
AcDbPoint
 10
-3.511708849171708
 20
-1.418822472562767
 30
0.0
  0
POINT
  5
24D
330
1F
100
AcDbEntity
  8
ConnectionPoints
100
AcDbPoint
 10
0.0
 20
0.0
 30
2.4375
  0
POINT
  5
24E
330
1F
100
AcDbEntity
  8
ConnectionPoints
100
AcDbPoint
 10
0.0
 20
0.0
 30
2.6875
  0
ENDSEC
  0
SECTION
  2
OBJECTS
  0
DICTIONARY
  5
C
330
0
100
AcDbDictionary
281
     1
  3
ACAD_DETAILVIEWSTYLE
350
256
  3
ACAD_GROUP
350
D
  3
ACAD_LAYOUT
350
1A
  3
ACAD_MATERIAL
350
43
  3
ACAD_MLEADERSTYLE
350
6B
  3
ACAD_MLINESTYLE
350
17
  3
ACAD_PLOTSETTINGS
350
19
  3
ACAD_PLOTSTYLENAME
350
E
  3
ACAD_SCALELIST
350
47
  3
ACAD_SECTIONVIEWSTYLE
350
257
  3
ACAD_TABLESTYLE
350
69
  3
ACAD_VISUALSTYLE
350
2A
  3
ACDB_RECOMPOSE_DATA
350
253
  3
AcDbVariableDictionary
350
24F
  0
SUN
  5
6D
330
29
100
AcDbSun
 90
        1
290
     0
 63
     7
421
 16777215
 40
1.0
291
     1
 91
  2455826
 92
 54000000
292
     0
 70
     2
 71
   256
280
     1
  0
DICTIONARY
  5
256
102
{ACAD_REACTORS
330
C
102
}
330
C
100
AcDbDictionary
281
     1
  0
DICTIONARY
  5
D
102
{ACAD_REACTORS
330
C
102
}
330
C
100
AcDbDictionary
281
     1
  0
DICTIONARY
  5
1A
102
{ACAD_REACTORS
330
C
102
}
330
C
100
AcDbDictionary
281
     1
  3
Layout1
350
1E
  3
Layout2
350
26
  3
Model
350
22
  0
DICTIONARY
  5
43
102
{ACAD_REACTORS
330
C
102
}
330
C
100
AcDbDictionary
281
     1
  3
ByBlock
350
45
  3
ByLayer
350
44
  3
Global
350
46
  0
DICTIONARY
  5
6B
102
{ACAD_REACTORS
330
C
102
}
330
C
100
AcDbDictionary
281
     1
  3
Standard
350
6C
  0
DICTIONARY
  5
17
102
{ACAD_REACTORS
330
C
102
}
330
C
100
AcDbDictionary
281
     1
  3
Standard
350
18
  0
DICTIONARY
  5
19
102
{ACAD_REACTORS
330
C
102
}
330
C
100
AcDbDictionary
281
     1
  0
ACDBDICTIONARYWDFLT
  5
E
102
{ACAD_REACTORS
330
C
102
}
330
C
100
AcDbDictionary
281
     1
  3
Normal
350
F
100
AcDbDictionaryWithDefault
340
F
  0
DICTIONARY
  5
47
102
{ACAD_REACTORS
330
C
102
}
330
C
100
AcDbDictionary
281
     1
  3
A0
350
48
  3
A1
350
49
  3
A2
350
4A
  3
A3
350
4B
  3
A4
350
4C
  3
A5
350
4D
  3
A6
350
4E
  3
A7
350
4F
  3
A8
350
50
  3
A9
350
51
  3
B0
350
52
  3
B1
350
53
  3
B2
350
54
  3
B3
350
55
  3
B4
350
56
  3
B5
350
57
  3
B6
350
58
  3
B7
350
59
  3
B8
350
5A
  3
B9
350
5B
  3
C0
350
5C
  3
C1
350
5D
  3
C2
350
5E
  3
C3
350
5F
  3
C4
350
60
  3
C5
350
61
  3
C6
350
62
  3
C7
350
63
  3
C8
350
64
  3
C9
350
65
  3
D0
350
66
  3
D1
350
67
  3
D2
350
68
  0
DICTIONARY
  5
257
102
{ACAD_REACTORS
330
C
102
}
330
C
100
AcDbDictionary
281
     1
  0
DICTIONARY
  5
69
102
{ACAD_REACTORS
330
C
102
}
330
C
100
AcDbDictionary
281
     1
  3
Standard
350
6A
  0
DICTIONARY
  5
2A
102
{ACAD_REACTORS
330
C
102
}
330
C
100
AcDbDictionary
281
     1
  3
2dWireframe
350
2F
  3
Basic
350
32
  3
Brighten
350
36
  3
ColorChange
350
3A
  3
Conceptual
350
34
  3
Dim
350
35
  3
EdgeColorOff
350
3D
  3
Facepattern
350
39
  3
Flat
350
2B
  3
FlatWithEdges
350
2C
  3
Gouraud
350
2D
  3
GouraudWithEdges
350
2E
  3
Hidden
350
31
  3
JitterOff
350
3B
  3
Linepattern
350
38
  3
OverhangOff
350
3C
  3
Realistic
350
33
  3
Shaded
350
42
  3
Shaded with edges
350
41
  3
Shades of Gray
350
3E
  3
Sketchy
350
3F
  3
Thicken
350
37
  3
Wireframe
350
30
  3
X-Ray
350
40
  0
XRECORD
  5
253
102
{ACAD_REACTORS
330
C
102
}
330
C
100
AcDbXrecord
280
     1
 90
        1
330
6A
  0
DICTIONARY
  5
24F
102
{ACAD_REACTORS
330
C
102
}
330
C
100
AcDbDictionary
281
     1
  3
CANNOSCALE
350
250
  3
CMLEADERSTYLE
350
255
  3
CTABLESTYLE
350
254
  0
LAYOUT
  5
1E
102
{ACAD_REACTORS
330
1A
102
}
330
1A
100
AcDbPlotSettings
  1

  2
none_device
  4

  6

 40
0.0
 41
0.0
 42
0.0
 43
0.0
 44
0.0
 45
0.0
 46
0.0
 47
0.0
 48
0.0
 49
0.0
140
0.0
141
0.0
142
1.0
143
1.0
 70
   688
 72
     0
 73
     0
 74
     5
  7

 75
    16
 76
     0
 77
     2
 78
   300
147
1.0
148
0.0
149
0.0
100
AcDbLayout
  1
Layout1
 70
     1
 71
     1
 10
0.0
 20
0.0
 11
12.0
 21
9.0
 12
0.0
 22
0.0
 32
0.0
 14
1.000000000000000E+20
 24
1.000000000000000E+20
 34
1.000000000000000E+20
 15
-1.000000000000000E+20
 25
-1.000000000000000E+20
 35
-1.000000000000000E+20
146
0.0
 13
0.0
 23
0.0
 33
0.0
 16
1.0
 26
0.0
 36
0.0
 17
0.0
 27
1.0
 37
0.0
 76
     0
330
1B
  0
LAYOUT
  5
26
102
{ACAD_REACTORS
330
1A
102
}
330
1A
100
AcDbPlotSettings
  1

  2
none_device
  4

  6

 40
0.0
 41
0.0
 42
0.0
 43
0.0
 44
0.0
 45
0.0
 46
0.0
 47
0.0
 48
0.0
 49
0.0
140
0.0
141
0.0
142
1.0
143
1.0
 70
   688
 72
     0
 73
     0
 74
     5
  7

 75
    16
 76
     0
 77
     2
 78
   300
147
1.0
148
0.0
149
0.0
100
AcDbLayout
  1
Layout2
 70
     1
 71
     2
 10
0.0
 20
0.0
 11
0.0
 21
0.0
 12
0.0
 22
0.0
 32
0.0
 14
0.0
 24
0.0
 34
0.0
 15
0.0
 25
0.0
 35
0.0
146
0.0
 13
0.0
 23
0.0
 33
0.0
 16
1.0
 26
0.0
 36
0.0
 17
0.0
 27
1.0
 37
0.0
 76
     0
330
23
  0
LAYOUT
  5
22
102
{ACAD_REACTORS
330
1A
102
}
330
1A
100
AcDbPlotSettings
  1

  2
none_device
  4
Letter_(8.50_x_11.00_Inches)
  6

 40
6.35
 41
6.35
 42
6.35000508
 43
6.35000508
 44
215.9
 45
279.4
 46
0.0
 47
0.0
 48
0.0
 49
0.0
140
0.0
141
0.0
142
1.0
143
1.0
 70
  1712
 72
     0
 73
     0
 74
     0
  7

 75
     0
 76
     0
 77
     2
 78
   300
147
1.0
148
0.0
149
0.0
100
AcDbLayout
  1
Model
 70
     1
 71
     0
 10
0.0
 20
0.0
 11
12.0
 21
9.0
 12
0.0
 22
0.0
 32
0.0
 14
1.000000000000000E+20
 24
1.000000000000000E+20
 34
1.000000000000000E+20
 15
-1.000000000000000E+20
 25
-1.000000000000000E+20
 35
-1.000000000000000E+20
146
0.0
 13
0.0
 23
0.0
 33
0.0
 16
1.0
 26
0.0
 36
0.0
 17
0.0
 27
1.0
 37
0.0
 76
     0
330
1F
331
29
  0
MATERIAL
  5
45
102
{ACAD_REACTORS
330
43
102
}
330
43
100
AcDbMaterial
  1
ByBlock
 72
     1
 94
      127
  0
MATERIAL
  5
44
102
{ACAD_REACTORS
330
43
102
}
330
43
100
AcDbMaterial
  1
ByLayer
 72
     1
 94
      127
  0
MATERIAL
  5
46
102
{ACAD_REACTORS
330
43
102
}
330
43
100
AcDbMaterial
  1
Global
 72
     1
 94
      127
  0
MLEADERSTYLE
  5
6C
102
{ACAD_REACTORS
330
6B
102
}
330
6B
100
AcDbMLeaderStyle
179
     2
170
     2
171
     1
172
     0
 90
        2
 40
0.0
 41
0.0
173
     1
 91
-1056964608
340
14
 92
       -2
290
     1
 42
0.09
291
     1
 43
0.36
  3
Standard
341
0
 44
0.18
300

342
11
174
     1
178
     6
175
     1
176
     0
 93
-1056964608
 45
0.18
292
     0
297
     0
 46
0.18
343
0
 94
-1056964608
 47
1.0
 49
1.0
140
1.0
293
     1
141
0.0
294
     1
177
     0
142
1.0
295
     0
296
     0
143
0.125
271
     0
272
     9
273
     9
298
     0
  0
MLINESTYLE
  5
18
102
{ACAD_REACTORS
330
17
102
}
330
17
100
AcDbMlineStyle
  2
Standard
 70
     0
  3

 62
   256
 51
90.0
 52
90.0
 71
     2
 49
0.5
 62
   256
  6
BYLAYER
 49
-0.5
 62
   256
  6
BYLAYER
  0
ACDBPLACEHOLDER
  5
F
102
{ACAD_REACTORS
330
E
102
}
330
E
  0
SCALE
  5
48
102
{ACAD_REACTORS
330
47
102
}
330
47
100
AcDbScale
 70
     0
300
1:1
140
1.0
141
1.0
290
     1
  0
SCALE
  5
49
102
{ACAD_REACTORS
330
47
102
}
330
47
100
AcDbScale
 70
     0
300
1:2
140
1.0
141
2.0
290
     0
  0
SCALE
  5
4A
102
{ACAD_REACTORS
330
47
102
}
330
47
100
AcDbScale
 70
     0
300
1:4
140
1.0
141
4.0
290
     0
  0
SCALE
  5
4B
102
{ACAD_REACTORS
330
47
102
}
330
47
100
AcDbScale
 70
     0
300
1:5
140
1.0
141
5.0
290
     0
  0
SCALE
  5
4C
102
{ACAD_REACTORS
330
47
102
}
330
47
100
AcDbScale
 70
     0
300
1:8
140
1.0
141
8.0
290
     0
  0
SCALE
  5
4D
102
{ACAD_REACTORS
330
47
102
}
330
47
100
AcDbScale
 70
     0
300
1:10
140
1.0
141
10.0
290
     0
  0
SCALE
  5
4E
102
{ACAD_REACTORS
330
47
102
}
330
47
100
AcDbScale
 70
     0
300
1:16
140
1.0
141
16.0
290
     0
  0
SCALE
  5
4F
102
{ACAD_REACTORS
330
47
102
}
330
47
100
AcDbScale
 70
     0
300
1:20
140
1.0
141
20.0
290
     0
  0
SCALE
  5
50
102
{ACAD_REACTORS
330
47
102
}
330
47
100
AcDbScale
 70
     0
300
1:30
140
1.0
141
30.0
290
     0
  0
SCALE
  5
51
102
{ACAD_REACTORS
330
47
102
}
330
47
100
AcDbScale
 70
     0
300
1:40
140
1.0
141
40.0
290
     0
  0
SCALE
  5
52
102
{ACAD_REACTORS
330
47
102
}
330
47
100
AcDbScale
 70
     0
300
1:50
140
1.0
141
50.0
290
     0
  0
SCALE
  5
53
102
{ACAD_REACTORS
330
47
102
}
330
47
100
AcDbScale
 70
     0
300
1:100
140
1.0
141
100.0
290
     0
  0
SCALE
  5
54
102
{ACAD_REACTORS
330
47
102
}
330
47
100
AcDbScale
 70
     0
300
2:1
140
2.0
141
1.0
290
     0
  0
SCALE
  5
55
102
{ACAD_REACTORS
330
47
102
}
330
47
100
AcDbScale
 70
     0
300
4:1
140
4.0
141
1.0
290
     0
  0
SCALE
  5
56
102
{ACAD_REACTORS
330
47
102
}
330
47
100
AcDbScale
 70
     0
300
8:1
140
8.0
141
1.0
290
     0
  0
SCALE
  5
57
102
{ACAD_REACTORS
330
47
102
}
330
47
100
AcDbScale
 70
     0
300
10:1
140
10.0
141
1.0
290
     0
  0
SCALE
  5
58
102
{ACAD_REACTORS
330
47
102
}
330
47
100
AcDbScale
 70
     0
300
100:1
140
100.0
141
1.0
290
     0
  0
SCALE
  5
59
102
{ACAD_REACTORS
330
47
102
}
330
47
100
AcDbScale
 70
     0
300
1/128" = 1'-0"
140
0.0078125
141
12.0
290
     0
  0
SCALE
  5
5A
102
{ACAD_REACTORS
330
47
102
}
330
47
100
AcDbScale
 70
     0
300
1/64" = 1'-0"
140
0.015625
141
12.0
290
     0
  0
SCALE
  5
5B
102
{ACAD_REACTORS
330
47
102
}
330
47
100
AcDbScale
 70
     0
300
1/32" = 1'-0"
140
0.03125
141
12.0
290
     0
  0
SCALE
  5
5C
102
{ACAD_REACTORS
330
47
102
}
330
47
100
AcDbScale
 70
     0
300
1/16" = 1'-0"
140
0.0625
141
12.0
290
     0
  0
SCALE
  5
5D
102
{ACAD_REACTORS
330
47
102
}
330
47
100
AcDbScale
 70
     0
300
3/32" = 1'-0"
140
0.09375
141
12.0
290
     0
  0
SCALE
  5
5E
102
{ACAD_REACTORS
330
47
102
}
330
47
100
AcDbScale
 70
     0
300
1/8" = 1'-0"
140
0.125
141
12.0
290
     0
  0
SCALE
  5
5F
102
{ACAD_REACTORS
330
47
102
}
330
47
100
AcDbScale
 70
     0
300
3/16" = 1'-0"
140
0.1875
141
12.0
290
     0
  0
SCALE
  5
60
102
{ACAD_REACTORS
330
47
102
}
330
47
100
AcDbScale
 70
     0
300
1/4" = 1'-0"
140
0.25
141
12.0
290
     0
  0
SCALE
  5
61
102
{ACAD_REACTORS
330
47
102
}
330
47
100
AcDbScale
 70
     0
300
3/8" = 1'-0"
140
0.375
141
12.0
290
     0
  0
SCALE
  5
62
102
{ACAD_REACTORS
330
47
102
}
330
47
100
AcDbScale
 70
     0
300
1/2" = 1'-0"
140
0.5
141
12.0
290
     0
  0
SCALE
  5
63
102
{ACAD_REACTORS
330
47
102
}
330
47
100
AcDbScale
 70
     0
300
3/4" = 1'-0"
140
0.75
141
12.0
290
     0
  0
SCALE
  5
64
102
{ACAD_REACTORS
330
47
102
}
330
47
100
AcDbScale
 70
     0
300
1" = 1'-0"
140
1.0
141
12.0
290
     0
  0
SCALE
  5
65
102
{ACAD_REACTORS
330
47
102
}
330
47
100
AcDbScale
 70
     0
300
1-1/2" = 1'-0"
140
1.5
141
12.0
290
     0
  0
SCALE
  5
66
102
{ACAD_REACTORS
330
47
102
}
330
47
100
AcDbScale
 70
     0
300
3" = 1'-0"
140
3.0
141
12.0
290
     0
  0
SCALE
  5
67
102
{ACAD_REACTORS
330
47
102
}
330
47
100
AcDbScale
 70
     0
300
6" = 1'-0"
140
6.0
141
12.0
290
     0
  0
SCALE
  5
68
102
{ACAD_REACTORS
330
47
102
}
330
47
100
AcDbScale
 70
     0
300
1'-0" = 1'-0"
140
12.0
141
12.0
290
     0
  0
TABLESTYLE
  5
6A
102
{ACAD_REACTORS
330
69
102
}
102
{ACAD_XDICTIONARY
360
251
102
}
330
69
100
AcDbTableStyle
  3
Standard
 70
     0
 71
     0
 40
0.06
 41
0.06
280
     0
281
     0
  7
Standard
140
0.18
170
     2
 62
     0
 63
   257
283
     0
 90
        4
 91
        0
  1

274
    -2
284
     1
 64
     0
275
    -2
285
     1
 65
     0
276
    -2
286
     1
 66
     0
277
    -2
287
     1
 67
     0
278
    -2
288
     1
 68
     0
279
    -2
289
     1
 69
     0
  7
Standard
140
0.25
170
     5
 62
     0
 63
   257
283
     0
 90
        4
 91
        0
  1

274
    -2
284
     1
 64
     0
275
    -2
285
     1
 65
     0
276
    -2
286
     1
 66
     0
277
    -2
287
     1
 67
     0
278
    -2
288
     1
 68
     0
279
    -2
289
     1
 69
     0
  7
Standard
140
0.18
170
     5
 62
     0
 63
   257
283
     0
 90
        4
 91
        0
  1

274
    -2
284
     1
 64
     0
275
    -2
285
     1
 65
     0
276
    -2
286
     1
 66
     0
277
    -2
287
     1
 67
     0
278
    -2
288
     1
 68
     0
279
    -2
289
     1
 69
     0
  0
VISUALSTYLE
  5
2F
102
{ACAD_REACTORS
330
2A
102
}
330
2A
100
AcDbVisualStyle
  2
2dWireframe
 70
     4
177
     3
291
     0
 70
    58
 90
        0
176
     1
 90
        2
176
     1
 90
        0
176
     1
 90
        0
176
     1
 40
0.6
176
     1
 40
30.0
176
     1
 62
     7
420
 16777215
176
     1
 90
        1
176
     1
 90
        4
176
     1
 62
     7
176
     1
 62
   257
176
     1
 90
        1
176
     1
 90
        1
176
     1
 40
1.0
176
     1
 90
        0
176
     1
 62
   257
176
     1
 40
1.0
176
     1
 90
        1
176
     1
 90
        6
176
     1
 90
        2
176
     1
 62
     7
176
     1
 90
        5
176
     1
 90
        0
176
     1
 90
        0
176
     1
290
     0
176
     1
 90
        1
176
     1
 40
0.0
176
     1
 90
        0
176
     1
290
     1
176
     1
290
     1
176
     1
290
     0
176
     1
290
     0
176
     1
290
     0
176
     1
290
     0
176
     1
290
     0
176
     1
290
     0
176
     1
290
     0
176
     1
 90
       50
176
     1
 40
0.0
176
     1
 40
1.0
176
     1
 90
        0
176
     1
 62
    18
420
        0
176
     1
 90
       50
176
     1
 90
        3
176
     1
 62
     5
420
      255
176
     1
290
     0
176
     1
 90
       50
176
     1
 90
       50
176
     1
 90
       50
176
     1
290
     0
176
     1
 90
       50
176
     1
 62
   256
176
     0
 40
1.0
176
     0
 90
        2
176
     1
  1
strokes_ogs.tif
176
     1
290
     0
176
     1
 40
1.0
176
     1
 40
1.0
176
     1
  0
VISUALSTYLE
  5
32
102
{ACAD_REACTORS
330
2A
102
}
330
2A
100
AcDbVisualStyle
  2
Basic
 70
     7
177
     3
291
     1
 70
    58
 90
        1
176
     1
 90
        0
176
     1
 90
        1
176
     1
 90
        0
176
     1
 40
0.6
176
     1
 40
30.0
176
     1
 62
     7
420
 16777215
176
     1
 90
        0
176
     1
 90
        4
176
     1
 62
     7
176
     1
 62
   257
176
     1
 90
        1
176
     1
 90
        1
176
     1
 40
1.0
176
     1
 90
        8
176
     1
 62
     7
176
     1
 40
1.0
176
     1
 90
        1
176
     1
 90
        6
176
     1
 90
        2
176
     1
 62
     7
176
     1
 90
        5
176
     1
 90
        0
176
     1
 90
        0
176
     1
290
     0
176
     1
 90
        1
176
     1
 40
0.0
176
     1
 90
        0
176
     1
290
     0
176
     1
290
     1
176
     1
290
     1
176
     1
290
     0
176
     1
290
     0
176
     1
290
     0
176
     1
290
     0
176
     1
290
     0
176
     1
290
     0
176
     1
 90
       50
176
     1
 40
0.0
176
     1
 40
1.0
176
     1
 90
        0
176
     1
 62
    18
420
        0
176
     1
 90
       50
176
     1
 90
        3
176
     1
 62
     5
420
      255
176
     1
290
     0
176
     1
 90
       50
176
     1
 90
       50
176
     1
 90
       50
176
     1
290
     0
176
     1
 90
       50
176
     1
 62
   256
176
     0
 40
1.0
176
     0
 90
        2
176
     1
  1
strokes_ogs.tif
176
     1
290
     0
176
     1
 40
1.0
176
     1
 40
1.0
176
     1
  0
VISUALSTYLE
  5
36
102
{ACAD_REACTORS
330
2A
102
}
330
2A
100
AcDbVisualStyle
  2
Brighten
 70
    12
177
     3
291
     1
 70
    58
 90
        2
176
     1
 90
        2
176
     1
 90
        0
176
     1
 90
        0
176
     1
 40
0.6
176
     1
 40
30.0
176
     1
 62
     7
420
 16777215
176
     1
 90
        1
176
     1
 90
        4
176
     1
 62
     7
176
     1
 62
   257
176
     1
 90
        1
176
     1
 90
        1
176
     1
 40
1.0
176
     1
 90
        8
176
     1
 62
     7
176
     1
 40
1.0
176
     1
 90
        1
176
     1
 90
        6
176
     1
 90
        2
176
     1
 62
     7
176
     1
 90
        5
176
     1
 90
        0
176
     1
 90
        0
176
     1
290
     0
176
     1
 90
        1
176
     1
 40
50.0
176
     1
 90
        0
176
     1
290
     0
176
     1
290
     1
176
     1
290
     1
176
     1
290
     0
176
     1
290
     0
176
     1
290
     0
176
     1
290
     0
176
     1
290
     0
176
     1
290
     0
176
     1
 90
       50
176
     1
 40
0.0
176
     1
 40
1.0
176
     1
 90
        0
176
     1
 62
    18
420
        0
176
     1
 90
       50
176
     1
 90
        3
176
     1
 62
     5
420
      255
176
     1
290
     0
176
     1
 90
       50
176
     1
 90
       50
176
     1
 90
       50
176
     1
290
     0
176
     1
 90
       50
176
     1
 62
   256
176
     0
 40
1.0
176
     0
 90
        2
176
     1
  1
strokes_ogs.tif
176
     1
290
     0
176
     1
 40
1.0
176
     1
 40
1.0
176
     1
  0
VISUALSTYLE
  5
3A
102
{ACAD_REACTORS
330
2A
102
}
330
2A
100
AcDbVisualStyle
  2
ColorChange
 70
    16
177
     3
291
     1
 70
    58
 90
        2
176
     1
 90
        2
176
     1
 90
        3
176
     1
 90
        0
176
     1
 40
0.6
176
     1
 40
30.0
176
     1
 62
     8
420
  8421504
176
     1
 90
        1
176
     1
 90
        4
176
     1
 62
     7
176
     1
 62
   257
176
     1
 90
        1
176
     1
 90
        1
176
     1
 40
1.0
176
     1
 90
        8
176
     1
 62
     8
420
  8421504
176
     1
 40
1.0
176
     1
 90
        1
176
     1
 90
        6
176
     1
 90
        2
176
     1
 62
     7
176
     1
 90
        5
176
     1
 90
        0
176
     1
 90
        0
176
     1
290
     0
176
     1
 90
        1
176
     1
 40
0.0
176
     1
 90
        0
176
     1
290
     0
176
     1
290
     1
176
     1
290
     1
176
     1
290
     0
176
     1
290
     0
176
     1
290
     0
176
     1
290
     0
176
     1
290
     0
176
     1
290
     0
176
     1
 90
       50
176
     1
 40
0.0
176
     1
 40
1.0
176
     1
 90
        0
176
     1
 62
    18
420
        0
176
     1
 90
       50
176
     1
 90
        3
176
     1
 62
     5
420
      255
176
     1
290
     0
176
     1
 90
       50
176
     1
 90
       50
176
     1
 90
       50
176
     1
290
     0
176
     1
 90
       50
176
     1
 62
   256
176
     0
 40
1.0
176
     0
 90
        2
176
     1
  1
strokes_ogs.tif
176
     1
290
     0
176
     1
 40
1.0
176
     1
 40
1.0
176
     1
  0
VISUALSTYLE
  5
34
102
{ACAD_REACTORS
330
2A
102
}
330
2A
100
AcDbVisualStyle
  2
Conceptual
 70
     9
177
     3
291
     0
 70
    58
 90
        3
176
     1
 90
        2
176
     1
 90
        0
176
     1
 90
        0
176
     1
 40
0.6
176
     1
 40
30.0
176
     1
 62
     7
420
 16777215
176
     1
 90
        2
176
     1
 90
        2
176
     1
 62
     7
176
     1
 62
   257
176
     1
 90
        1
176
     1
 90
        1
176
     1
 40
179.0
176
     1
 90
        8
176
     1
 62
     7
176
     1
 40
1.0
176
     1
 90
        1
176
     1
 90
        6
176
     1
 90
        2
176
     1
 62
     7
176
     1
 90
        3
176
     1
 90
        0
176
     1
 90
        0
176
     1
290
     0
176
     1
 90
        1
176
     1
 40
0.0
176
     1
 90
        0
176
     1
290
     0
176
     1
290
     1
176
     1
290
     1
176
     1
290
     0
176
     1
290
     0
176
     1
290
     0
176
     1
290
     0
176
     1
290
     0
176
     1
290
     0
176
     1
 90
       50
176
     1
 40
0.0
176
     1
 40
1.0
176
     1
 90
        0
176
     1
 62
    18
420
        0
176
     1
 90
       50
176
     1
 90
        3
176
     1
 62
     5
420
      255
176
     1
290
     0
176
     1
 90
       50
176
     1
 90
       50
176
     1
 90
       50
176
     1
290
     0
176
     1
 90
       50
176
     1
 62
   256
176
     0
 40
1.0
176
     0
 90
        2
176
     1
  1
strokes_ogs.tif
176
     1
290
     0
176
     1
 40
1.0
176
     1
 40
1.0
176
     1
  0
VISUALSTYLE
  5
35
102
{ACAD_REACTORS
330
2A
102
}
330
2A
100
AcDbVisualStyle
  2
Dim
 70
    11
177
     3
291
     1
 70
    58
 90
        2
176
     1
 90
        2
176
     1
 90
        0
176
     1
 90
        0
176
     1
 40
0.6
176
     1
 40
30.0
176
     1
 62
     7
420
 16777215
176
     1
 90
        1
176
     1
 90
        4
176
     1
 62
     7
176
     1
 62
   257
176
     1
 90
        1
176
     1
 90
        1
176
     1
 40
1.0
176
     1
 90
        8
176
     1
 62
     7
176
     1
 40
1.0
176
     1
 90
        1
176
     1
 90
        6
176
     1
 90
        2
176
     1
 62
     7
176
     1
 90
        5
176
     1
 90
        0
176
     1
 90
        0
176
     1
290
     0
176
     1
 90
        1
176
     1
 40
-50.0
176
     1
 90
        0
176
     1
290
     0
176
     1
290
     1
176
     1
290
     1
176
     1
290
     0
176
     1
290
     0
176
     1
290
     0
176
     1
290
     0
176
     1
290
     0
176
     1
290
     0
176
     1
 90
       50
176
     1
 40
0.0
176
     1
 40
1.0
176
     1
 90
        0
176
     1
 62
    18
420
        0
176
     1
 90
       50
176
     1
 90
        3
176
     1
 62
     5
420
      255
176
     1
290
     0
176
     1
 90
       50
176
     1
 90
       50
176
     1
 90
       50
176
     1
290
     0
176
     1
 90
       50
176
     1
 62
   256
176
     0
 40
1.0
176
     0
 90
        2
176
     1
  1
strokes_ogs.tif
176
     1
290
     0
176
     1
 40
1.0
176
     1
 40
1.0
176
     1
  0
VISUALSTYLE
  5
3D
102
{ACAD_REACTORS
330
2A
102
}
330
2A
100
AcDbVisualStyle
  2
EdgeColorOff
 70
    22
177
     3
291
     1
 70
    58
 90
        2
176
     0
 90
        2
176
     0
 90
        0
176
     0
 90
        0
176
     0
 40
0.6
176
     0
 40
30.0
176
     0
 62
     7
420
 16777215
176
     0
 90
        1
176
     0
 90
        4
176
     0
 62
     7
176
     0
 62
   257
176
     0
 90
        1
176
     0
 90
        1
176
     0
 40
1.0
176
     0
 90
        8
176
     2
 62
     7
176
     0
 40
1.0
176
     0
 90
        1
176
     0
 90
        6
176
     0
 90
        2
176
     0
 62
     7
176
     0
 90
        5
176
     0
 90
        0
176
     0
 90
        0
176
     0
290
     0
176
     0
 90
        1
176
     0
 40
0.0
176
     0
 90
        0
176
     0
290
     0
176
     0
290
     1
176
     0
290
     1
176
     0
290
     0
176
     0
290
     0
176
     0
290
     0
176
     0
290
     0
176
     0
290
     0
176
     0
290
     0
176
     0
 90
       50
176
     0
 40
0.0
176
     0
 40
1.0
176
     0
 90
        0
176
     0
 62
    18
420
        0
176
     0
 90
       50
176
     0
 90
        3
176
     0
 62
     5
420
      255
176
     0
290
     0
176
     0
 90
       50
176
     0
 90
       50
176
     0
 90
       50
176
     0
290
     0
176
     0
 90
       50
176
     0
 62
   256
176
     0
 40
1.0
176
     0
 90
        2
176
     0
  1
strokes_ogs.tif
176
     0
290
     0
176
     0
 40
1.0
176
     0
 40
1.0
176
     0
  0
VISUALSTYLE
  5
39
102
{ACAD_REACTORS
330
2A
102
}
330
2A
100
AcDbVisualStyle
  2
Facepattern
 70
    15
177
     3
291
     1
 70
    58
 90
        2
176
     1
 90
        2
176
     1
 90
        0
176
     1
 90
        0
176
     1
 40
0.6
176
     1
 40
30.0
176
     1
 62
     7
420
 16777215
176
     1
 90
        1
176
     1
 90
        4
176
     1
 62
     7
176
     1
 62
   257
176
     1
 90
        1
176
     1
 90
        1
176
     1
 40
1.0
176
     1
 90
        8
176
     1
 62
     7
176
     1
 40
1.0
176
     1
 90
        1
176
     1
 90
        6
176
     1
 90
        2
176
     1
 62
     7
176
     1
 90
        5
176
     1
 90
        0
176
     1
 90
        0
176
     1
290
     0
176
     1
 90
        1
176
     1
 40
0.0
176
     1
 90
        0
176
     1
290
     0
176
     1
290
     1
176
     1
290
     1
176
     1
290
     0
176
     1
290
     0
176
     1
290
     0
176
     1
290
     0
176
     1
290
     0
176
     1
290
     0
176
     1
 90
       50
176
     1
 40
0.0
176
     1
 40
1.0
176
     1
 90
        0
176
     1
 62
    18
420
        0
176
     1
 90
       50
176
     1
 90
        3
176
     1
 62
     5
420
      255
176
     1
290
     0
176
     1
 90
       50
176
     1
 90
       50
176
     1
 90
       50
176
     1
290
     0
176
     1
 90
       50
176
     1
 62
   256
176
     0
 40
1.0
176
     0
 90
        2
176
     1
  1
strokes_ogs.tif
176
     1
290
     0
176
     1
 40
1.0
176
     1
 40
1.0
176
     1
  0
VISUALSTYLE
  5
2B
102
{ACAD_REACTORS
330
2A
102
}
330
2A
100
AcDbVisualStyle
  2
Flat
 70
     0
177
     3
291
     1
 70
    58
 90
        2
176
     1
 90
        1
176
     1
 90
        1
176
     1
 90
        2
176
     1
 40
0.6
176
     1
 40
30.0
176
     1
 62
     7
420
 16777215
176
     1
 90
        0
176
     1
 90
        0
176
     1
 62
     7
176
     1
 62
   257
176
     1
 90
        1
176
     1
 90
        1
176
     1
 40
1.0
176
     1
 90
        8
176
     1
 62
     7
176
     1
 40
1.0
176
     1
 90
        1
176
     1
 90
        6
176
     1
 90
        2
176
     1
 62
     7
176
     1
 90
        5
176
     1
 90
        0
176
     1
 90
        0
176
     1
290
     0
176
     1
 90
       13
176
     1
 40
0.0
176
     1
 90
        0
176
     1
290
     0
176
     1
290
     1
176
     1
290
     1
176
     1
290
     0
176
     1
290
     0
176
     1
290
     0
176
     1
290
     0
176
     1
290
     0
176
     1
290
     0
176
     1
 90
       50
176
     1
 40
0.0
176
     1
 40
1.0
176
     1
 90
        0
176
     1
 62
    18
420
        0
176
     1
 90
       50
176
     1
 90
        3
176
     1
 62
     5
420
      255
176
     1
290
     0
176
     1
 90
       50
176
     1
 90
       50
176
     1
 90
       50
176
     1
290
     0
176
     1
 90
       50
176
     1
 62
   256
176
     0
 40
1.0
176
     0
 90
        2
176
     1
  1
strokes_ogs.tif
176
     1
290
     0
176
     1
 40
1.0
176
     1
 40
1.0
176
     1
  0
VISUALSTYLE
  5
2C
102
{ACAD_REACTORS
330
2A
102
}
330
2A
100
AcDbVisualStyle
  2
FlatWithEdges
 70
     1
177
     3
291
     1
 70
    58
 90
        2
176
     1
 90
        1
176
     1
 90
        1
176
     1
 90
        2
176
     1
 40
0.6
176
     1
 40
30.0
176
     1
 62
     7
420
 16777215
176
     1
 90
        1
176
     1
 90
        0
176
     1
 62
     7
176
     1
 62
   257
176
     1
 90
        1
176
     1
 90
        1
176
     1
 40
1.0
176
     1
 90
        0
176
     1
 62
   257
176
     1
 40
1.0
176
     1
 90
        1
176
     1
 90
        6
176
     1
 90
        2
176
     1
 62
     7
176
     1
 90
        5
176
     1
 90
        0
176
     1
 90
        0
176
     1
290
     0
176
     1
 90
       13
176
     1
 40
0.0
176
     1
 90
        0
176
     1
290
     0
176
     1
290
     1
176
     1
290
     1
176
     1
290
     0
176
     1
290
     0
176
     1
290
     0
176
     1
290
     0
176
     1
290
     0
176
     1
290
     0
176
     1
 90
       50
176
     1
 40
0.0
176
     1
 40
1.0
176
     1
 90
        0
176
     1
 62
    18
420
        0
176
     1
 90
       50
176
     1
 90
        3
176
     1
 62
     5
420
      255
176
     1
290
     0
176
     1
 90
       50
176
     1
 90
       50
176
     1
 90
       50
176
     1
290
     0
176
     1
 90
       50
176
     1
 62
   256
176
     0
 40
1.0
176
     0
 90
        2
176
     1
  1
strokes_ogs.tif
176
     1
290
     0
176
     1
 40
1.0
176
     1
 40
1.0
176
     1
  0
VISUALSTYLE
  5
2D
102
{ACAD_REACTORS
330
2A
102
}
330
2A
100
AcDbVisualStyle
  2
Gouraud
 70
     2
177
     3
291
     1
 70
    58
 90
        2
176
     1
 90
        2
176
     1
 90
        1
176
     1
 90
        2
176
     1
 40
0.6
176
     1
 40
30.0
176
     1
 62
     7
420
 16777215
176
     1
 90
        0
176
     1
 90
        0
176
     1
 62
     7
176
     1
 62
   257
176
     1
 90
        1
176
     1
 90
        1
176
     1
 40
1.0
176
     1
 90
        0
176
     1
 62
     7
176
     1
 40
1.0
176
     1
 90
        1
176
     1
 90
        6
176
     1
 90
        2
176
     1
 62
     7
176
     1
 90
        5
176
     1
 90
        0
176
     1
 90
        0
176
     1
290
     0
176
     1
 90
       13
176
     1
 40
0.0
176
     1
 90
        0
176
     1
290
     0
176
     1
290
     1
176
     1
290
     1
176
     1
290
     0
176
     1
290
     0
176
     1
290
     0
176
     1
290
     0
176
     1
290
     0
176
     1
290
     0
176
     1
 90
       50
176
     1
 40
0.0
176
     1
 40
1.0
176
     1
 90
        0
176
     1
 62
    18
420
        0
176
     1
 90
       50
176
     1
 90
        3
176
     1
 62
     5
420
      255
176
     1
290
     0
176
     1
 90
       50
176
     1
 90
       50
176
     1
 90
       50
176
     1
290
     0
176
     1
 90
       50
176
     1
 62
   256
176
     0
 40
1.0
176
     0
 90
        2
176
     1
  1
strokes_ogs.tif
176
     1
290
     0
176
     1
 40
1.0
176
     1
 40
1.0
176
     1
  0
VISUALSTYLE
  5
2E
102
{ACAD_REACTORS
330
2A
102
}
330
2A
100
AcDbVisualStyle
  2
GouraudWithEdges
 70
     3
177
     3
291
     1
 70
    58
 90
        2
176
     1
 90
        2
176
     1
 90
        1
176
     1
 90
        2
176
     1
 40
0.6
176
     1
 40
30.0
176
     1
 62
     7
420
 16777215
176
     1
 90
        1
176
     1
 90
        0
176
     1
 62
     7
176
     1
 62
   257
176
     1
 90
        1
176
     1
 90
        1
176
     1
 40
1.0
176
     1
 90
        0
176
     1
 62
   257
176
     1
 40
1.0
176
     1
 90
        1
176
     1
 90
        6
176
     1
 90
        2
176
     1
 62
     7
176
     1
 90
        5
176
     1
 90
        0
176
     1
 90
        0
176
     1
290
     0
176
     1
 90
       13
176
     1
 40
0.0
176
     1
 90
        0
176
     1
290
     0
176
     1
290
     1
176
     1
290
     1
176
     1
290
     0
176
     1
290
     0
176
     1
290
     0
176
     1
290
     0
176
     1
290
     0
176
     1
290
     0
176
     1
 90
       50
176
     1
 40
0.0
176
     1
 40
1.0
176
     1
 90
        0
176
     1
 62
    18
420
        0
176
     1
 90
       50
176
     1
 90
        3
176
     1
 62
     5
420
      255
176
     1
290
     0
176
     1
 90
       50
176
     1
 90
       50
176
     1
 90
       50
176
     1
290
     0
176
     1
 90
       50
176
     1
 62
   256
176
     0
 40
1.0
176
     0
 90
        2
176
     1
  1
strokes_ogs.tif
176
     1
290
     0
176
     1
 40
1.0
176
     1
 40
1.0
176
     1
  0
VISUALSTYLE
  5
31
102
{ACAD_REACTORS
330
2A
102
}
330
2A
100
AcDbVisualStyle
  2
Hidden
 70
     6
177
     3
291
     0
 70
    58
 90
        1
176
     1
 90
        2
176
     1
 90
        2
176
     1
 90
        0
176
     1
 40
0.6
176
     1
 40
30.0
176
     1
 62
     7
420
 16777215
176
     1
 90
        2
176
     1
 90
        2
176
     1
 62
     7
176
     1
 62
   257
176
     1
 90
        2
176
     1
 90
        1
176
     1
 40
40.0
176
     1
 90
        0
176
     1
 62
   257
176
     1
 40
1.0
176
     1
 90
        1
176
     1
 90
        6
176
     1
 90
        2
176
     1
 62
     7
176
     1
 90
        3
176
     1
 90
        0
176
     1
 90
        0
176
     1
290
     0
176
     1
 90
        1
176
     1
 40
0.0
176
     1
 90
        0
176
     1
290
     0
176
     1
290
     1
176
     1
290
     1
176
     1
290
     0
176
     1
290
     0
176
     1
290
     0
176
     1
290
     0
176
     1
290
     0
176
     1
290
     0
176
     1
 90
       50
176
     1
 40
0.0
176
     1
 40
1.0
176
     1
 90
        0
176
     1
 62
    18
420
        0
176
     1
 90
       50
176
     1
 90
        3
176
     1
 62
     5
420
      255
176
     1
290
     0
176
     1
 90
       50
176
     1
 90
       50
176
     1
 90
       50
176
     1
290
     0
176
     1
 90
       50
176
     1
 62
   256
176
     0
 40
1.0
176
     0
 90
        2
176
     1
  1
strokes_ogs.tif
176
     1
290
     0
176
     1
 40
1.0
176
     1
 40
1.0
176
     1
  0
VISUALSTYLE
  5
3B
102
{ACAD_REACTORS
330
2A
102
}
330
2A
100
AcDbVisualStyle
  2
JitterOff
 70
    20
177
     3
291
     1
 70
    58
 90
        2
176
     0
 90
        2
176
     0
 90
        0
176
     0
 90
        0
176
     0
 40
0.6
176
     0
 40
30.0
176
     0
 62
     7
420
 16777215
176
     0
 90
        1
176
     0
 90
        4
176
     0
 62
     7
176
     0
 62
   257
176
     0
 90
        1
176
     0
 90
        1
176
     0
 40
1.0
176
     0
 90
       10
176
     2
 62
     7
176
     0
 40
1.0
176
     0
 90
        1
176
     0
 90
        6
176
     0
 90
        2
176
     0
 62
     7
176
     0
 90
        5
176
     0
 90
        0
176
     0
 90
        0
176
     0
290
     0
176
     0
 90
        1
176
     0
 40
0.0
176
     0
 90
        0
176
     0
290
     0
176
     0
290
     1
176
     0
290
     1
176
     0
290
     0
176
     0
290
     0
176
     0
290
     0
176
     0
290
     0
176
     0
290
     0
176
     0
290
     0
176
     0
 90
       50
176
     0
 40
0.0
176
     0
 40
1.0
176
     0
 90
        0
176
     0
 62
    18
420
        0
176
     0
 90
       50
176
     0
 90
        3
176
     0
 62
     5
420
      255
176
     0
290
     0
176
     0
 90
       50
176
     0
 90
       50
176
     0
 90
       50
176
     0
290
     0
176
     0
 90
       50
176
     0
 62
   256
176
     0
 40
1.0
176
     0
 90
        2
176
     0
  1
strokes_ogs.tif
176
     0
290
     0
176
     0
 40
1.0
176
     0
 40
1.0
176
     0
  0
VISUALSTYLE
  5
38
102
{ACAD_REACTORS
330
2A
102
}
330
2A
100
AcDbVisualStyle
  2
Linepattern
 70
    14
177
     3
291
     1
 70
    58
 90
        2
176
     1
 90
        2
176
     1
 90
        0
176
     1
 90
        0
176
     1
 40
0.6
176
     1
 40
30.0
176
     1
 62
     7
420
 16777215
176
     1
 90
        1
176
     1
 90
        4
176
     1
 62
     7
176
     1
 62
   257
176
     1
 90
        7
176
     1
 90
        7
176
     1
 40
1.0
176
     1
 90
        8
176
     1
 62
     7
176
     1
 40
1.0
176
     1
 90
        1
176
     1
 90
        6
176
     1
 90
        2
176
     1
 62
     7
176
     1
 90
        5
176
     1
 90
        0
176
     1
 90
        0
176
     1
290
     0
176
     1
 90
        1
176
     1
 40
0.0
176
     1
 90
        0
176
     1
290
     0
176
     1
290
     1
176
     1
290
     1
176
     1
290
     0
176
     1
290
     0
176
     1
290
     0
176
     1
290
     0
176
     1
290
     0
176
     1
290
     0
176
     1
 90
       50
176
     1
 40
0.0
176
     1
 40
1.0
176
     1
 90
        0
176
     1
 62
    18
420
        0
176
     1
 90
       50
176
     1
 90
        3
176
     1
 62
     5
420
      255
176
     1
290
     0
176
     1
 90
       50
176
     1
 90
       50
176
     1
 90
       50
176
     1
290
     0
176
     1
 90
       50
176
     1
 62
   256
176
     0
 40
1.0
176
     0
 90
        2
176
     1
  1
strokes_ogs.tif
176
     1
290
     0
176
     1
 40
1.0
176
     1
 40
1.0
176
     1
  0
VISUALSTYLE
  5
3C
102
{ACAD_REACTORS
330
2A
102
}
330
2A
100
AcDbVisualStyle
  2
OverhangOff
 70
    21
177
     3
291
     1
 70
    58
 90
        2
176
     0
 90
        2
176
     0
 90
        0
176
     0
 90
        0
176
     0
 40
0.6
176
     0
 40
30.0
176
     0
 62
     7
420
 16777215
176
     0
 90
        1
176
     0
 90
        4
176
     0
 62
     7
176
     0
 62
   257
176
     0
 90
        1
176
     0
 90
        1
176
     0
 40
1.0
176
     0
 90
        9
176
     2
 62
     7
176
     0
 40
1.0
176
     0
 90
        1
176
     0
 90
        6
176
     0
 90
        2
176
     0
 62
     7
176
     0
 90
        5
176
     0
 90
        0
176
     0
 90
        0
176
     0
290
     0
176
     0
 90
        1
176
     0
 40
0.0
176
     0
 90
        0
176
     0
290
     0
176
     0
290
     1
176
     0
290
     1
176
     0
290
     0
176
     0
290
     0
176
     0
290
     0
176
     0
290
     0
176
     0
290
     0
176
     0
290
     0
176
     0
 90
       50
176
     0
 40
0.0
176
     0
 40
1.0
176
     0
 90
        0
176
     0
 62
    18
420
        0
176
     0
 90
       50
176
     0
 90
        3
176
     0
 62
     5
420
      255
176
     0
290
     0
176
     0
 90
       50
176
     0
 90
       50
176
     0
 90
       50
176
     0
290
     0
176
     0
 90
       50
176
     0
 62
   256
176
     0
 40
1.0
176
     0
 90
        2
176
     0
  1
strokes_ogs.tif
176
     0
290
     0
176
     0
 40
1.0
176
     0
 40
1.0
176
     0
  0
VISUALSTYLE
  5
33
102
{ACAD_REACTORS
330
2A
102
}
330
2A
100
AcDbVisualStyle
  2
Realistic
 70
     8
177
     3
291
     0
 70
    58
 90
        2
176
     1
 90
        3
176
     1
 90
        0
176
     1
 90
        2
176
     1
 40
0.6
176
     1
 40
30.0
176
     1
 62
     7
420
 16777215
176
     1
 90
        0
176
     1
 90
        0
176
     1
 62
     7
176
     1
 62
   257
176
     1
 90
        1
176
     1
 90
        1
176
     1
 40
1.0
176
     1
 90
        8
176
     1
 62
   257
176
     1
 40
1.0
176
     1
 90
        1
176
     1
 90
        6
176
     1
 90
        2
176
     1
 62
     7
176
     1
 90
        3
176
     1
 90
        0
176
     1
 90
        0
176
     1
290
     0
176
     1
 90
       13
176
     1
 40
0.0
176
     1
 90
        0
176
     1
290
     0
176
     1
290
     1
176
     1
290
     1
176
     1
290
     0
176
     1
290
     0
176
     1
290
     0
176
     1
290
     0
176
     1
290
     0
176
     1
290
     0
176
     1
 90
       50
176
     1
 40
0.0
176
     1
 40
1.0
176
     1
 90
        0
176
     1
 62
    18
420
        0
176
     1
 90
       50
176
     1
 90
        3
176
     1
 62
     5
420
      255
176
     1
290
     0
176
     1
 90
       50
176
     1
 90
       50
176
     1
 90
       50
176
     1
290
     0
176
     1
 90
       50
176
     1
 62
   256
176
     0
 40
1.0
176
     0
 90
        2
176
     1
  1
strokes_ogs.tif
176
     1
290
     0
176
     1
 40
1.0
176
     1
 40
1.0
176
     1
  0
VISUALSTYLE
  5
42
102
{ACAD_REACTORS
330
2A
102
}
330
2A
100
AcDbVisualStyle
  2
Shaded
 70
    27
177
     3
291
     0
 70
    58
 90
        2
176
     1
 90
        2
176
     1
 90
        1
176
     1
 90
        2
176
     1
 40
0.6
176
     1
 40
30.0
176
     1
 62
     7
420
 16777215
176
     1
 90
        0
176
     1
 90
        4
176
     1
 62
     7
176
     1
 62
   257
176
     1
 90
        1
176
     1
 90
        1
176
     1
 40
1.0
176
     1
 90
        8
176
     1
 62
   257
176
     1
 40
1.0
176
     1
 90
        1
176
     1
 90
        6
176
     1
 90
        2
176
     1
 62
     8
420
  7895160
176
     1
 90
        3
176
     1
 90
        0
176
     1
 90
        0
176
     1
290
     0
176
     1
 90
        5
176
     1
 40
0.0
176
     1
 90
        0
176
     1
290
     0
176
     1
290
     1
176
     1
290
     1
176
     1
290
     0
176
     1
290
     0
176
     1
290
     0
176
     1
290
     0
176
     1
290
     0
176
     1
290
     0
176
     1
 90
       50
176
     1
 40
0.0
176
     1
 40
1.0
176
     1
 90
        0
176
     1
 62
    18
420
        0
176
     1
 90
       50
176
     1
 90
        3
176
     1
 62
     5
420
      255
176
     1
290
     0
176
     1
 90
       50
176
     1
 90
       50
176
     1
 90
       50
176
     1
290
     0
176
     1
 90
       50
176
     1
 62
   256
176
     0
 40
1.0
176
     0
 90
        2
176
     1
  1
strokes_ogs.tif
176
     1
290
     0
176
     1
 40
1.0
176
     1
 40
1.0
176
     1
  0
VISUALSTYLE
  5
41
102
{ACAD_REACTORS
330
2A
102
}
330
2A
100
AcDbVisualStyle
  2
Shaded with edges
 70
    26
177
     3
291
     0
 70
    58
 90
        2
176
     1
 90
        2
176
     1
 90
        1
176
     1
 90
        2
176
     1
 40
0.6
176
     1
 40
30.0
176
     1
 62
     7
420
 16777215
176
     1
 90
        1
176
     1
 90
       10
176
     1
 62
     7
176
     1
 62
   257
176
     1
 90
        2
176
     1
 90
        1
176
     1
 40
1.0
176
     1
 90
        8
176
     1
 62
   257
176
     1
 40
1.0
176
     1
 90
        1
176
     1
 90
        6
176
     1
 90
        2
176
     1
 62
     7
176
     1
 90
        3
176
     1
 90
        0
176
     1
 90
        0
176
     1
290
     0
176
     1
 90
        5
176
     1
 40
0.0
176
     1
 90
        0
176
     1
290
     0
176
     1
290
     1
176
     1
290
     1
176
     1
290
     0
176
     1
290
     0
176
     1
290
     0
176
     1
290
     0
176
     1
290
     0
176
     1
290
     0
176
     1
 90
       50
176
     1
 40
0.0
176
     1
 40
1.0
176
     1
 90
        0
176
     1
 62
    18
420
        0
176
     1
 90
       50
176
     1
 90
        3
176
     1
 62
     5
420
      255
176
     1
290
     0
176
     1
 90
       50
176
     1
 90
       50
176
     1
 90
       50
176
     1
290
     0
176
     1
 90
       50
176
     1
 62
   256
176
     0
 40
1.0
176
     0
 90
        2
176
     1
  1
strokes_ogs.tif
176
     1
290
     0
176
     1
 40
1.0
176
     1
 40
1.0
176
     1
  0
VISUALSTYLE
  5
3E
102
{ACAD_REACTORS
330
2A
102
}
330
2A
100
AcDbVisualStyle
  2
Shades of Gray
 70
    23
177
     3
291
     0
 70
    58
 90
        2
176
     1
 90
        2
176
     1
 90
        3
176
     1
 90
        0
176
     1
 40
0.6
176
     1
 40
30.0
176
     1
 62
     7
420
 16777215
176
     1
 90
        2
176
     1
 90
        2
176
     1
 62
     7
176
     1
 62
     7
176
     1
 90
        1
176
     1
 90
        1
176
     1
 40
40.0
176
     1
 90
        8
176
     1
 62
     7
176
     1
 40
1.0
176
     1
 90
        1
176
     1
 90
        6
176
     1
 90
        2
176
     1
 62
     7
176
     1
 90
        3
176
     1
 90
        0
176
     1
 90
        0
176
     1
290
     0
176
     1
 90
        1
176
     1
 40
0.0
176
     1
 90
        0
176
     1
290
     0
176
     1
290
     1
176
     1
290
     1
176
     1
290
     0
176
     1
290
     0
176
     1
290
     0
176
     1
290
     0
176
     1
290
     0
176
     1
290
     0
176
     1
 90
       50
176
     1
 40
0.0
176
     1
 40
1.0
176
     1
 90
        0
176
     1
 62
    18
420
        0
176
     1
 90
       50
176
     1
 90
        3
176
     1
 62
     5
420
      255
176
     1
290
     0
176
     1
 90
       50
176
     1
 90
       50
176
     1
 90
       50
176
     1
290
     0
176
     1
 90
       50
176
     1
 62
   256
176
     0
 40
1.0
176
     0
 90
        2
176
     1
  1
strokes_ogs.tif
176
     1
290
     0
176
     1
 40
1.0
176
     1
 40
1.0
176
     1
  0
VISUALSTYLE
  5
3F
102
{ACAD_REACTORS
330
2A
102
}
330
2A
100
AcDbVisualStyle
  2
Sketchy
 70
    24
177
     3
291
     0
 70
    58
 90
        1
176
     1
 90
        2
176
     1
 90
        2
176
     1
 90
        0
176
     1
 40
0.6
176
     1
 40
30.0
176
     1
 62
     7
420
 16777215
176
     1
 90
        2
176
     1
 90
        2
176
     1
 62
     7
176
     1
 62
     7
176
     1
 90
        1
176
     1
 90
        1
176
     1
 40
40.0
176
     1
 90
       11
176
     1
 62
     7
176
     1
 40
1.0
176
     1
 90
        1
176
     1
 90
        6
176
     1
 90
        2
176
     1
 62
     7
176
     1
 90
        6
176
     1
 90
        0
176
     1
 90
        0
176
     1
290
     0
176
     1
 90
        1
176
     1
 40
0.0
176
     1
 90
        0
176
     1
290
     0
176
     1
290
     1
176
     1
290
     1
176
     1
290
     0
176
     1
290
     0
176
     1
290
     0
176
     1
290
     0
176
     1
290
     0
176
     1
290
     0
176
     1
 90
       50
176
     1
 40
0.0
176
     1
 40
1.0
176
     1
 90
        0
176
     1
 62
    18
420
        0
176
     1
 90
       50
176
     1
 90
        3
176
     1
 62
     5
420
      255
176
     1
290
     0
176
     1
 90
       50
176
     1
 90
       50
176
     1
 90
       50
176
     1
290
     0
176
     1
 90
       50
176
     1
 62
   256
176
     0
 40
1.0
176
     0
 90
        2
176
     1
  1
strokes_ogs.tif
176
     1
290
     0
176
     1
 40
1.0
176
     1
 40
1.0
176
     1
  0
VISUALSTYLE
  5
37
102
{ACAD_REACTORS
330
2A
102
}
330
2A
100
AcDbVisualStyle
  2
Thicken
 70
    13
177
     3
291
     1
 70
    58
 90
        2
176
     1
 90
        2
176
     1
 90
        0
176
     1
 90
        0
176
     1
 40
0.6
176
     1
 40
30.0
176
     1
 62
     7
420
 16777215
176
     1
 90
        1
176
     1
 90
        4
176
     1
 62
     7
176
     1
 62
   257
176
     1
 90
        1
176
     1
 90
        1
176
     1
 40
1.0
176
     1
 90
       12
176
     1
 62
     7
176
     1
 40
1.0
176
     1
 90
        1
176
     1
 90
        6
176
     1
 90
        2
176
     1
 62
     7
176
     1
 90
        5
176
     1
 90
        0
176
     1
 90
        0
176
     1
290
     0
176
     1
 90
        1
176
     1
 40
0.0
176
     1
 90
        0
176
     1
290
     0
176
     1
290
     1
176
     1
290
     1
176
     1
290
     0
176
     1
290
     0
176
     1
290
     0
176
     1
290
     0
176
     1
290
     0
176
     1
290
     0
176
     1
 90
       50
176
     1
 40
0.0
176
     1
 40
1.0
176
     1
 90
        0
176
     1
 62
    18
420
        0
176
     1
 90
       50
176
     1
 90
        3
176
     1
 62
     5
420
      255
176
     1
290
     0
176
     1
 90
       50
176
     1
 90
       50
176
     1
 90
       50
176
     1
290
     0
176
     1
 90
       50
176
     1
 62
   256
176
     0
 40
1.0
176
     0
 90
        2
176
     1
  1
strokes_ogs.tif
176
     1
290
     0
176
     1
 40
1.0
176
     1
 40
1.0
176
     1
  0
VISUALSTYLE
  5
30
102
{ACAD_REACTORS
330
2A
102
}
330
2A
100
AcDbVisualStyle
  2
Wireframe
 70
     5
177
     3
291
     0
 70
    58
 90
        0
176
     1
 90
        2
176
     1
 90
        0
176
     1
 90
        0
176
     1
 40
0.6
176
     1
 40
30.0
176
     1
 62
     7
420
 16777215
176
     1
 90
        1
176
     1
 90
        4
176
     1
 62
     7
176
     1
 62
   257
176
     1
 90
        1
176
     1
 90
        1
176
     1
 40
1.0
176
     1
 90
        0
176
     1
 62
   257
176
     1
 40
1.0
176
     1
 90
        1
176
     1
 90
        6
176
     1
 90
        2
176
     1
 62
     7
176
     1
 90
        3
176
     1
 90
        0
176
     1
 90
        0
176
     1
290
     0
176
     1
 90
        1
176
     1
 40
0.0
176
     1
 90
        0
176
     1
290
     0
176
     1
290
     1
176
     1
290
     1
176
     1
290
     0
176
     1
290
     0
176
     1
290
     0
176
     1
290
     0
176
     1
290
     0
176
     1
290
     0
176
     1
 90
       50
176
     1
 40
0.0
176
     1
 40
1.0
176
     1
 90
        0
176
     1
 62
    18
420
        0
176
     1
 90
       50
176
     1
 90
        3
176
     1
 62
     5
420
      255
176
     1
290
     0
176
     1
 90
       50
176
     1
 90
       50
176
     1
 90
       50
176
     1
290
     0
176
     1
 90
       50
176
     1
 62
   256
176
     0
 40
1.0
176
     0
 90
        2
176
     1
  1
strokes_ogs.tif
176
     1
290
     0
176
     1
 40
1.0
176
     1
 40
1.0
176
     1
  0
VISUALSTYLE
  5
40
102
{ACAD_REACTORS
330
2A
102
}
330
2A
100
AcDbVisualStyle
  2
X-Ray
 70
    25
177
     3
291
     0
 70
    58
 90
        2
176
     1
 90
        2
176
     1
 90
        1
176
     1
 90
        1
176
     1
 40
0.5
176
     1
 40
30.0
176
     1
 62
     7
420
 16777215
176
     1
 90
        1
176
     1
 90
        0
176
     1
 62
     7
176
     1
 62
   257
176
     1
 90
        1
176
     1
 90
        1
176
     1
 40
1.0
176
     1
 90
        8
176
     1
 62
     7
176
     1
 40
1.0
176
     1
 90
        1
176
     1
 90
        6
176
     1
 90
        2
176
     1
 62
     7
176
     1
 90
        3
176
     1
 90
        0
176
     1
 90
        0
176
     1
290
     0
176
     1
 90
       13
176
     1
 40
0.0
176
     1
 90
        0
176
     1
290
     0
176
     1
290
     1
176
     1
290
     1
176
     1
290
     0
176
     1
290
     0
176
     1
290
     0
176
     1
290
     0
176
     1
290
     0
176
     1
290
     0
176
     1
 90
       50
176
     1
 40
0.0
176
     1
 40
1.0
176
     1
 90
        0
176
     1
 62
    18
420
        0
176
     1
 90
       50
176
     1
 90
        3
176
     1
 62
     5
420
      255
176
     1
290
     0
176
     1
 90
       50
176
     1
 90
       50
176
     1
 90
       50
176
     1
290
     0
176
     1
 90
       50
176
     1
 62
   256
176
     0
 40
1.0
176
     0
 90
        2
176
     1
  1
strokes_ogs.tif
176
     1
290
     0
176
     1
 40
1.0
176
     1
 40
1.0
176
     1
  0
DICTIONARYVAR
  5
250
102
{ACAD_REACTORS
330
24F
102
}
330
24F
100
DictionaryVariables
280
     0
  1
1:1
  0
DICTIONARYVAR
  5
255
102
{ACAD_REACTORS
330
24F
102
}
330
24F
100
DictionaryVariables
280
     0
  1
Standard
  0
DICTIONARYVAR
  5
254
102
{ACAD_REACTORS
330
24F
102
}
330
24F
100
DictionaryVariables
280
     0
  1
Standard
  0
DICTIONARY
  5
251
330
6A
100
AcDbDictionary
280
     1
281
     1
  3
ACAD_ROUNDTRIP_2008_TABLESTYLE_CELLSTYLEMAP
360
252
  0
CELLSTYLEMAP
  5
252
102
{ACAD_REACTORS
330
251
102
}
330
251
100
AcDbCellStyleMap
 90
        3
300
CELLSTYLE
  1
TABLEFORMAT_BEGIN
 90
        5
170
     1
 91
        0
 92
    32768
 62
   257
 93
        1
300
CONTENTFORMAT
  1
CONTENTFORMAT_BEGIN
 90
        0
 91
        0
 92
        4
 93
        0
300

 40
0.0
140
1.0
 94
        5
 62
     0
340
11
144
0.25
309
CONTENTFORMAT_END
171
     1
301
MARGIN
  1
CELLMARGIN_BEGIN
 40
0.06
 40
0.06
 40
0.06
 40
0.06
 40
0.06
 40
0.06
309
CELLMARGIN_END
 94
        6
 95
        1
302
GRIDFORMAT
  1
GRIDFORMAT_BEGIN
 90
        0
 91
        1
 62
     0
 92
       -2
340
14
 93
        0
 40
0.045
309
GRIDFORMAT_END
 95
        2
302
GRIDFORMAT
  1
GRIDFORMAT_BEGIN
 90
        0
 91
        1
 62
     0
 92
       -2
340
14
 93
        0
 40
0.045
309
GRIDFORMAT_END
 95
        4
302
GRIDFORMAT
  1
GRIDFORMAT_BEGIN
 90
        0
 91
        1
 62
     0
 92
       -2
340
14
 93
        0
 40
0.045
309
GRIDFORMAT_END
 95
        8
302
GRIDFORMAT
  1
GRIDFORMAT_BEGIN
 90
        0
 91
        1
 62
     0
 92
       -2
340
14
 93
        0
 40
0.045
309
GRIDFORMAT_END
 95
       16
302
GRIDFORMAT
  1
GRIDFORMAT_BEGIN
 90
        0
 91
        1
 62
     0
 92
       -2
340
14
 93
        0
 40
0.045
309
GRIDFORMAT_END
 95
       32
302
GRIDFORMAT
  1
GRIDFORMAT_BEGIN
 90
        0
 91
        1
 62
     0
 92
       -2
340
14
 93
        0
 40
0.045
309
GRIDFORMAT_END
309
TABLEFORMAT_END
  1
CELLSTYLE_BEGIN
 90
        1
 91
        1
300
_TITLE
309
CELLSTYLE_END
300
CELLSTYLE
  1
TABLEFORMAT_BEGIN
 90
        5
170
     1
 91
        0
 92
        0
 62
   257
 93
        1
300
CONTENTFORMAT
  1
CONTENTFORMAT_BEGIN
 90
        0
 91
        0
 92
        4
 93
        0
300

 40
0.0
140
1.0
 94
        5
 62
     0
340
11
144
0.18
309
CONTENTFORMAT_END
171
     1
301
MARGIN
  1
CELLMARGIN_BEGIN
 40
0.06
 40
0.06
 40
0.06
 40
0.06
 40
0.06
 40
0.06
309
CELLMARGIN_END
 94
        6
 95
        1
302
GRIDFORMAT
  1
GRIDFORMAT_BEGIN
 90
        0
 91
        1
 62
     0
 92
       -2
340
14
 93
        0
 40
0.045
309
GRIDFORMAT_END
 95
        2
302
GRIDFORMAT
  1
GRIDFORMAT_BEGIN
 90
        0
 91
        1
 62
     0
 92
       -2
340
14
 93
        0
 40
0.045
309
GRIDFORMAT_END
 95
        4
302
GRIDFORMAT
  1
GRIDFORMAT_BEGIN
 90
        0
 91
        1
 62
     0
 92
       -2
340
14
 93
        0
 40
0.045
309
GRIDFORMAT_END
 95
        8
302
GRIDFORMAT
  1
GRIDFORMAT_BEGIN
 90
        0
 91
        1
 62
     0
 92
       -2
340
14
 93
        0
 40
0.045
309
GRIDFORMAT_END
 95
       16
302
GRIDFORMAT
  1
GRIDFORMAT_BEGIN
 90
        0
 91
        1
 62
     0
 92
       -2
340
14
 93
        0
 40
0.045
309
GRIDFORMAT_END
 95
       32
302
GRIDFORMAT
  1
GRIDFORMAT_BEGIN
 90
        0
 91
        1
 62
     0
 92
       -2
340
14
 93
        0
 40
0.045
309
GRIDFORMAT_END
309
TABLEFORMAT_END
  1
CELLSTYLE_BEGIN
 90
        2
 91
        1
300
_HEADER
309
CELLSTYLE_END
300
CELLSTYLE
  1
TABLEFORMAT_BEGIN
 90
        5
170
     1
 91
        0
 92
        0
 62
   257
 93
        1
300
CONTENTFORMAT
  1
CONTENTFORMAT_BEGIN
 90
        0
 91
        0
 92
        4
 93
        0
300

 40
0.0
140
1.0
 94
        2
 62
     0
340
11
144
0.18
309
CONTENTFORMAT_END
171
     1
301
MARGIN
  1
CELLMARGIN_BEGIN
 40
0.06
 40
0.06
 40
0.06
 40
0.06
 40
0.06
 40
0.06
309
CELLMARGIN_END
 94
        6
 95
        1
302
GRIDFORMAT
  1
GRIDFORMAT_BEGIN
 90
        0
 91
        1
 62
     0
 92
       -2
340
14
 93
        0
 40
0.045
309
GRIDFORMAT_END
 95
        2
302
GRIDFORMAT
  1
GRIDFORMAT_BEGIN
 90
        0
 91
        1
 62
     0
 92
       -2
340
14
 93
        0
 40
0.045
309
GRIDFORMAT_END
 95
        4
302
GRIDFORMAT
  1
GRIDFORMAT_BEGIN
 90
        0
 91
        1
 62
     0
 92
       -2
340
14
 93
        0
 40
0.045
309
GRIDFORMAT_END
 95
        8
302
GRIDFORMAT
  1
GRIDFORMAT_BEGIN
 90
        0
 91
        1
 62
     0
 92
       -2
340
14
 93
        0
 40
0.045
309
GRIDFORMAT_END
 95
       16
302
GRIDFORMAT
  1
GRIDFORMAT_BEGIN
 90
        0
 91
        1
 62
     0
 92
       -2
340
14
 93
        0
 40
0.045
309
GRIDFORMAT_END
 95
       32
302
GRIDFORMAT
  1
GRIDFORMAT_BEGIN
 90
        0
 91
        1
 62
     0
 92
       -2
340
14
 93
        0
 40
0.045
309
GRIDFORMAT_END
309
TABLEFORMAT_END
  1
CELLSTYLE_BEGIN
 90
        3
 91
        2
300
_DATA
309
CELLSTYLE_END
  0
ENDSEC
  0
EOF