0
SECTION
  2
HEADER
  9
$ACADVER
  1
AC1027
  9
$ACADMAINTVER
 70
     8
  9
$DWGCODEPAGE
  3
ANSI_1252
  9
$REQUIREDVERSIONS
160
                 0
  9
$COMMENTS
  1
File was created by Cadenas
  9
$CUSTOMPROPERTYTAG
  1
NN
  9
$CUSTOMPROPERTY
  1
Imperial - IP Wide Slot Take-Up
  9
$CUSTOMPROPERTYTAG
  1
NT
  9
$CUSTOMPROPERTY
  1
Imperial Wide Slot Take-Up Bearings
  9
$CUSTOMPROPERTYTAG
  1
NB
  9
$CUSTOMPROPERTY
  1
069351
  9
$CUSTOMPROPERTYTAG
  1
NBSYN
  9
$CUSTOMPROPERTY
  1
$PN.
  9
$CUSTOMPROPERTYTAG
  1
LINA
  9
$CUSTOMPROPERTY
  1
069351
  9
$CUSTOMPROPERTYTAG
  1
SS
  9
$CUSTOMPROPERTY
  1
2
  9
$CUSTOMPROPERTYTAG
  1
PN
  9
$CUSTOMPROPERTY
  1
069351
  9
$CUSTOMPROPERTYTAG
  1
DESCRIPTION
  9
$CUSTOMPROPERTY
  1
WSTU-IP-200R
  9
$CUSTOMPROPERTYTAG
  1
EF
  9
$CUSTOMPROPERTY
  1
Non-Expansion
  9
$CUSTOMPROPERTYTAG
  1
ST
  9
$CUSTOMPROPERTY
  1
Contact Seal
  9
$CUSTOMPROPERTYTAG
  1
A
  9
$CUSTOMPROPERTY
  1
2-55/64
  9
$CUSTOMPROPERTYTAG
  1
B
  9
$CUSTOMPROPERTY
  1
6-3/16
  9
$CUSTOMPROPERTYTAG
  1
C
  9
$CUSTOMPROPERTY
  1
11/16
  9
$CUSTOMPROPERTYTAG
  1
D
  9
$CUSTOMPROPERTY
  1
3-5/8
  9
$CUSTOMPROPERTYTAG
  1
E
  9
$CUSTOMPROPERTY
  1
3-15/16
  9
$CUSTOMPROPERTYTAG
  1
F
  9
$CUSTOMPROPERTY
  1
1-1/8
  9
$CUSTOMPROPERTYTAG
  1
G
  9
$CUSTOMPROPERTY
  1
15/16
  9
$CUSTOMPROPERTYTAG
  1
H
  9
$CUSTOMPROPERTY
  1
3/4
  9
$CUSTOMPROPERTYTAG
  1
J
  9
$CUSTOMPROPERTY
  1
3-5/16
  9
$CUSTOMPROPERTYTAG
  1
K
  9
$CUSTOMPROPERTY
  1
1-15/16
  9
$CUSTOMPROPERTYTAG
  1
L
  9
$CUSTOMPROPERTY
  1
3-9/32
  9
$CUSTOMPROPERTYTAG
  1
M
  9
$CUSTOMPROPERTY
  1
4
  9
$CUSTOMPROPERTYTAG
  1
N
  9
$CUSTOMPROPERTY
  1
4-3/4
  9
$CUSTOMPROPERTYTAG
  1
R
  9
$CUSTOMPROPERTY
  1
2-15/16
  9
$CUSTOMPROPERTYTAG
  1
S
  9
$CUSTOMPROPERTY
  1
2
  9
$CUSTOMPROPERTYTAG
  1
T
  9
$CUSTOMPROPERTY
  1
2
  9
$CUSTOMPROPERTYTAG
  1
X
  9
$CUSTOMPROPERTY
  1
1/4
  9
$CUSTOMPROPERTYTAG
  1
Y
  9
$CUSTOMPROPERTY
  1
0.020
  9
$CUSTOMPROPERTYTAG
  1
Z
  9
$CUSTOMPROPERTY
  1
2-19/64
  9
$CUSTOMPROPERTYTAG
  1
COMPANY
  9
$CUSTOMPROPERTY
  1
baldor
  9
$INSBASE
 10
0.0
 20
0.0
 30
0.0
  9
$EXTMIN
 10
1.000000000000000E+20
 20
1.000000000000000E+20
 30
1.000000000000000E+20
  9
$EXTMAX
 10
-1.000000000000000E+20
 20
-1.000000000000000E+20
 30
-1.000000000000000E+20
  9
$LIMMIN
 10
0.0
 20
0.0
  9
$LIMMAX
 10
12.0
 20
9.0
  9
$ORTHOMODE
 70
     0
  9
$REGENMODE
 70
     1
  9
$FILLMODE
 70
     1
  9
$QTEXTMODE
 70
     0
  9
$MIRRTEXT
 70
     1
  9
$LTSCALE
 40
1.0
  9
$ATTMODE
 70
     1
  9
$TEXTSIZE
 40
0.2
  9
$TRACEWID
 40
0.05
  9
$TEXTSTYLE
  7
Standard
  9
$CLAYER
  8
0
  9
$CELTYPE
  6
ByLayer
  9
$CECOLOR
 62
   256
  9
$CELTSCALE
 40
1.0
  9
$DISPSILH
 70
     0
  9
$DIMSCALE
 40
1.0
  9
$DIMASZ
 40
0.18
  9
$DIMEXO
 40
0.0625
  9
$DIMDLI
 40
0.38
  9
$DIMRND
 40
0.0
  9
$DIMDLE
 40
0.0
  9
$DIMEXE
 40
0.18
  9
$DIMTP
 40
0.0
  9
$DIMTM
 40
0.0
  9
$DIMTXT
 40
0.18
  9
$DIMCEN
 40
0.09
  9
$DIMTSZ
 40
0.0
  9
$DIMTOL
 70
     0
  9
$DIMLIM
 70
     0
  9
$DIMTIH
 70
     1
  9
$DIMTOH
 70
     1
  9
$DIMSE1
 70
     0
  9
$DIMSE2
 70
     0
  9
$DIMTAD
 70
     0
  9
$DIMZIN
 70
     0
  9
$DIMBLK
  1

  9
$DIMASO
 70
     1
  9
$DIMSHO
 70
     1
  9
$DIMPOST
  1

  9
$DIMAPOST
  1

  9
$DIMALT
 70
     0
  9
$DIMALTD
 70
     2
  9
$DIMALTF
 40
25.4
  9
$DIMLFAC
 40
1.0
  9
$DIMTOFL
 70
     0
  9
$DIMTVP
 40
0.0
  9
$DIMTIX
 70
     0
  9
$DIMSOXD
 70
     0
  9
$DIMSAH
 70
     0
  9
$DIMBLK1
  1

  9
$DIMBLK2
  1

  9
$DIMSTYLE
  2
Standard
  9
$DIMCLRD
 70
     0
  9
$DIMCLRE
 70
     0
  9
$DIMCLRT
 70
     0
  9
$DIMTFAC
 40
1.0
  9
$DIMGAP
 40
0.09
  9
$DIMJUST
 70
     0
  9
$DIMSD1
 70
     0
  9
$DIMSD2
 70
     0
  9
$DIMTOLJ
 70
     1
  9
$DIMTZIN
 70
     0
  9
$DIMALTZ
 70
     0
  9
$DIMALTTZ
 70
     0
  9
$DIMUPT
 70
     0
  9
$DIMDEC
 70
     4
  9
$DIMTDEC
 70
     4
  9
$DIMALTU
 70
     2
  9
$DIMALTTD
 70
     2
  9
$DIMTXSTY
  7
Standard
  9
$DIMAUNIT
 70
     0
  9
$DIMADEC
 70
     0
  9
$DIMALTRND
 40
0.0
  9
$DIMAZIN
 70
     0
  9
$DIMDSEP
 70
    46
  9
$DIMATFIT
 70
     3
  9
$DIMFRAC
 70
     0
  9
$DIMLDRBLK
  1

  9
$DIMLUNIT
 70
     2
  9
$DIMLWD
 70
    -2
  9
$DIMLWE
 70
    -2
  9
$DIMTMOVE
 70
     0
  9
$DIMFXL
 40
1.0
  9
$DIMFXLON
 70
     0
  9
$DIMJOGANG
 40
0.7853981633974483
  9
$DIMTFILL
 70
     0
  9
$DIMTFILLCLR
 70
     0
  9
$DIMARCSYM
 70
     0
  9
$DIMLTYPE
  6

  9
$DIMLTEX1
  6

  9
$DIMLTEX2
  6

  9
$DIMTXTDIRECTION
 70
     0
  9
$LUNITS
 70
     2
  9
$LUPREC
 70
     4
  9
$SKETCHINC
 40
0.1
  9
$FILLETRAD
 40
0.5
  9
$AUNITS
 70
     0
  9
$AUPREC
 70
     0
  9
$MENU
  1
.
  9
$ELEVATION
 40
0.0
  9
$PELEVATION
 40
0.0
  9
$THICKNESS
 40
0.0
  9
$LIMCHECK
 70
     0
  9
$CHAMFERA
 40
0.0
  9
$CHAMFERB
 40
0.0
  9
$CHAMFERC
 40
0.0
  9
$CHAMFERD
 40
0.0
  9
$SKPOLY
 70
     0
  9
$TDCREATE
 40
2458168.988085139
  9
$TDUCREATE
 40
2458168.946418472
  9
$TDUPDATE
 40
2458168.988085312
  9
$TDUUPDATE
 40
2458168.946418646
  9
$TDINDWG
 40
0.0000000116
  9
$TDUSRTIMER
 40
0.0000000116
  9
$USRTIMER
 70
     1
  9
$ANGBASE
 50
0.0
  9
$ANGDIR
 70
     0
  9
$PDMODE
 70
     0
  9
$PDSIZE
 40
0.0
  9
$PLINEWID
 40
0.0
  9
$SPLFRAME
 70
     0
  9
$SPLINETYPE
 70
     6
  9
$SPLINESEGS
 70
     8
  9
$HANDSEED
  5
299
  9
$SURFTAB1
 70
     6
  9
$SURFTAB2
 70
     6
  9
$SURFTYPE
 70
     6
  9
$SURFU
 70
     6
  9
$SURFV
 70
     6
  9
$UCSBASE
  2

  9
$UCSNAME
  2

  9
$UCSORG
 10
0.0
 20
0.0
 30
0.0
  9
$UCSXDIR
 10
1.0
 20
0.0
 30
0.0
  9
$UCSYDIR
 10
0.0
 20
1.0
 30
0.0
  9
$UCSORTHOREF
  2

  9
$UCSORTHOVIEW
 70
     0
  9
$UCSORGTOP
 10
0.0
 20
0.0
 30
0.0
  9
$UCSORGBOTTOM
 10
0.0
 20
0.0
 30
0.0
  9
$UCSORGLEFT
 10
0.0
 20
0.0
 30
0.0
  9
$UCSORGRIGHT
 10
0.0
 20
0.0
 30
0.0
  9
$UCSORGFRONT
 10
0.0
 20
0.0
 30
0.0
  9
$UCSORGBACK
 10
0.0
 20
0.0
 30
0.0
  9
$PUCSBASE
  2

  9
$PUCSNAME
  2

  9
$PUCSORG
 10
0.0
 20
0.0
 30
0.0
  9
$PUCSXDIR
 10
1.0
 20
0.0
 30
0.0
  9
$PUCSYDIR
 10
0.0
 20
1.0
 30
0.0
  9
$PUCSORTHOREF
  2

  9
$PUCSORTHOVIEW
 70
     0
  9
$PUCSORGTOP
 10
0.0
 20
0.0
 30
0.0
  9
$PUCSORGBOTTOM
 10
0.0
 20
0.0
 30
0.0
  9
$PUCSORGLEFT
 10
0.0
 20
0.0
 30
0.0
  9
$PUCSORGRIGHT
 10
0.0
 20
0.0
 30
0.0
  9
$PUCSORGFRONT
 10
0.0
 20
0.0
 30
0.0
  9
$PUCSORGBACK
 10
0.0
 20
0.0
 30
0.0
  9
$USERI1
 70
     0
  9
$USERI2
 70
     0
  9
$USERI3
 70
     0
  9
$USERI4
 70
     0
  9
$USERI5
 70
     0
  9
$USERR1
 40
0.0
  9
$USERR2
 40
0.0
  9
$USERR3
 40
0.0
  9
$USERR4
 40
0.0
  9
$USERR5
 40
0.0
  9
$WORLDVIEW
 70
     1
  9
$SHADEDGE
 70
     3
  9
$SHADEDIF
 70
    70
  9
$TILEMODE
 70
     1
  9
$MAXACTVP
 70
    64
  9
$PINSBASE
 10
0.0
 20
0.0
 30
0.0
  9
$PLIMCHECK
 70
     0
  9
$PEXTMIN
 10
1.000000000000000E+20
 20
1.000000000000000E+20
 30
1.000000000000000E+20
  9
$PEXTMAX
 10
-1.000000000000000E+20
 20
-1.000000000000000E+20
 30
-1.000000000000000E+20
  9
$PLIMMIN
 10
0.0
 20
0.0
  9
$PLIMMAX
 10
12.0
 20
9.0
  9
$UNITMODE
 70
     0
  9
$VISRETAIN
 70
     1
  9
$PLINEGEN
 70
     0
  9
$PSLTSCALE
 70
     1
  9
$TREEDEPTH
 70
  3020
  9
$CMLSTYLE
  2
Standard
  9
$CMLJUST
 70
     0
  9
$CMLSCALE
 40
1.0
  9
$PROXYGRAPHICS
 70
     1
  9
$MEASUREMENT
 70
     0
  9
$CELWEIGHT
370
    -1
  9
$ENDCAPS
280
     0
  9
$JOINSTYLE
280
     0
  9
$LWDISPLAY
290
     0
  9
$INSUNITS
 70
     1
  9
$HYPERLINKBASE
  1

  9
$STYLESHEET
  1

  9
$XEDIT
290
     1
  9
$CEPSNTYPE
380
     0
  9
$PSTYLEMODE
290
     1
  9
$FINGERPRINTGUID
  2
{6D89EE00-5E90-48BE-AB14-FE076CA250ED}
  9
$VERSIONGUID
  2
{FAEB1C32-E019-11D5-929B-00C0DF256EC4}
  9
$EXTNAMES
290
     1
  9
$PSVPSCALE
 40
0.0
  9
$OLESTARTUP
290
     0
  9
$SORTENTS
280
   127
  9
$INDEXCTL
280
     0
  9
$HIDETEXT
280
     1
  9
$XCLIPFRAME
280
     2
  9
$HALOGAP
280
     0
  9
$OBSCOLOR
 70
   257
  9
$OBSLTYPE
280
     0
  9
$INTERSECTIONDISPLAY
280
     0
  9
$INTERSECTIONCOLOR
 70
   257
  9
$DIMASSOC
280
     2
  9
$PROJECTNAME
  1

  9
$CAMERADISPLAY
290
     0
  9
$LENSLENGTH
 40
50.0
  9
$CAMERAHEIGHT
 40
0.0
  9
$STEPSPERSEC
 40
2.0
  9
$STEPSIZE
 40
6.0
  9
$3DDWFPREC
 40
2.0
  9
$PSOLWIDTH
 40
0.25
  9
$PSOLHEIGHT
 40
4.0
  9
$LOFTANG1
 40
1.570796326794897
  9
$LOFTANG2
 40
1.570796326794897
  9
$LOFTMAG1
 40
0.0
  9
$LOFTMAG2
 40
0.0
  9
$LOFTPARAM
 70
     7
  9
$LOFTNORMALS
280
     1
  9
$LATITUDE
 40
37.795
  9
$LONGITUDE
 40
-122.394
  9
$NORTHDIRECTION
 40
0.0
  9
$TIMEZONE
 70
 -8000
  9
$LIGHTGLYPHDISPLAY
280
     1
  9
$TILEMODELIGHTSYNCH
280
     1
  9
$CMATERIAL
347
44
  9
$SOLIDHIST
280
     0
  9
$SHOWHIST
280
     1
  9
$DWFFRAME
280
     2
  9
$DGNFRAME
280
     2
  9
$REALWORLDSCALE
290
     1
  9
$INTERFERECOLOR
 62
   256
  9
$CSHADOW
280
     0
  9
$SHADOWPLANELOCATION
 40
0.0
  0
ENDSEC
  0
SECTION
  2
CLASSES
  0
CLASS
  1
ACDBDICTIONARYWDFLT
  2
AcDbDictionaryWithDefault
  3
ObjectDBX Classes
 90
        0
 91
        4
280
     0
281
     0
  0
CLASS
  1
VISUALSTYLE
  2
AcDbVisualStyle
  3
ObjectDBX Classes
 90
     4095
 91
        4
280
     0
281
     0
  0
CLASS
  1
MATERIAL
  2
AcDbMaterial
  3
ObjectDBX Classes
 90
     1153
 91
        4
280
     0
281
     0
  0
CLASS
  1
SCALE
  2
AcDbScale
  3
ObjectDBX Classes
 90
     1153
 91
        4
280
     0
281
     0
  0
CLASS
  1
TABLESTYLE
  2
AcDbTableStyle
  3
ObjectDBX Classes
 90
     4095
 91
        4
280
     0
281
     0
  0
CLASS
  1
MLEADERSTYLE
  2
AcDbMLeaderStyle
  3
ACDB_MLEADERSTYLE_CLASS
 90
     4095
 91
        4
280
     0
281
     0
  0
CLASS
  1
SUN
  2
AcDbSun
  3
SCENEOE
 90
     1153
 91
        4
280
     0
281
     0
  0
CLASS
  1
DICTIONARYVAR
  2
AcDbDictionaryVar
  3
ObjectDBX Classes
 90
        0
 91
        4
280
     0
281
     0
  0
CLASS
  1
CELLSTYLEMAP
  2
AcDbCellStyleMap
  3
ObjectDBX Classes
 90
     1152
 91
        4
280
     0
281
     0
  0
ENDSEC
  0
SECTION
  2
TABLES
  0
TABLE
  2
VPORT
  5
8
330
0
100
AcDbSymbolTable
 70
     1
  0
VPORT
  5
29
330
8
100
AcDbSymbolTableRecord
100
AcDbViewportTableRecord
  2
*Active
 70
     0
 10
0.0
 20
0.0
 11
1.0
 21
1.0
 12
-0.4639750077818618
 22
0.0
 13
0.0
 23
0.0
 14
0.5
 24
0.5
 15
0.5
 25
0.5
 16
0.0
 26
0.0
 36
1.0
 17
0.0
 27
0.0
 37
0.0
 40
4.845
 41
0.7073657861971104
 42
50.0
 43
0.0
 44
0.0
 50
0.0
 51
0.0
 71
     0
 72
   100
 73
     1
 74
     3
 75
     0
 76
     0
 77
     0
 78
     0
281
     0
 65
     1
110
0.0
120
0.0
130
0.0
111
1.0
121
0.0
131
0.0
112
0.0
122
1.0
132
0.0
 79
     0
146
0.0
348
2F
 60
     3
 61
     5
292
     1
282
     1
141
0.0
142
0.0
 63
   250
361
6D
  0
ENDTAB
  0
TABLE
  2
LTYPE
  5
5
330
0
100
AcDbSymbolTable
 70
     3
  0
LTYPE
  5
14
330
5
100
AcDbSymbolTableRecord
100
AcDbLinetypeTableRecord
  2
ByBlock
 70
     0
  3

 72
    65
 73
     0
 40
0.0
  0
LTYPE
  5
15
330
5
100
AcDbSymbolTableRecord
100
AcDbLinetypeTableRecord
  2
ByLayer
 70
     0
  3

 72
    65
 73
     0
 40
0.0
  0
LTYPE
  5
16
330
5
100
AcDbSymbolTableRecord
100
AcDbLinetypeTableRecord
  2
Continuous
 70
     0
  3
Solid line
 72
    65
 73
     0
 40
0.0
  0
LTYPE
  5
A2
330
5
100
AcDbSymbolTableRecord
100
AcDbLinetypeTableRecord
  2
Dashed
 70
     0
  3

 72
    65
 73
     2
 40
2.0
 49
1.0
 74
     0
 49
-1.0
 74
     0
  0
LTYPE
  5
1F8
330
5
100
AcDbSymbolTableRecord
100
AcDbLinetypeTableRecord
  2
Center
 70
     0
  3

 72
    65
 73
     4
 40
1.5
 49
0.45
 74
     0
 49
-0.5
 74
     0
 49
0.05
 74
     0
 49
-0.5
 74
     0
  0
ENDTAB
  0
TABLE
  2
LAYER
  5
2
330
0
100
AcDbSymbolTable
 70
     7
  0
LAYER
  5
10
330
2
100
AcDbSymbolTableRecord
100
AcDbLayerTableRecord
  2
0
 70
     0
 62
     7
  6
Continuous
370
    -3
390
F
347
46
348
0
  0
LAYER
  5
72
330
2
100
AcDbSymbolTableRecord
100
AcDbLayerTableRecord
  2
AM_6
 70
     0
 62
    -2
  6
Continuous
370
    35
390
F
347
46
348
0
  0
LAYER
  5
A3
330
2
100
AcDbSymbolTableRecord
100
AcDbLayerTableRecord
  2
AM_9
 70
     0
 62
     6
  6
Dashed
370
    25
390
F
347
46
348
0
  0
LAYER
  5
125
330
2
100
AcDbSymbolTableRecord
100
AcDbLayerTableRecord
  2
AM_5
 70
     0
 62
     3
  6
Continuous
370
    25
390
F
347
46
348
0
  0
LAYER
  5
128
330
2
100
AcDbSymbolTableRecord
100
AcDbLayerTableRecord
  2
AM_4
 70
     0
 62
     7
  6
Continuous
370
    50
390
F
347
46
348
0
  0
LAYER
  5
1F9
330
2
100
AcDbSymbolTableRecord
100
AcDbLayerTableRecord
  2
AM_7
 70
     0
 62
     7
  6
Center
370
    25
390
F
347
46
348
0
  0
LAYER
  5
282
330
2
100
AcDbSymbolTableRecord
100
AcDbLayerTableRecord
  2
ConnectionPoints
 70
     0
 62
     7
  6
Continuous
370
    50
390
F
347
46
348
0
  0
ENDTAB
  0
TABLE
  2
STYLE
  5
3
330
0
100
AcDbSymbolTable
 70
     1
  0
STYLE
  5
11
330
3
100
AcDbSymbolTableRecord
100
AcDbTextStyleTableRecord
  2
Standard
 70
     0
 40
0.0
 41
1.0
 50
0.0
 71
     0
 42
0.2
  3
txt
  4

  0
ENDTAB
  0
TABLE
  2
VIEW
  5
6
330
0
100
AcDbSymbolTable
 70
     0
  0
ENDTAB
  0
TABLE
  2
UCS
  5
7
330
0
100
AcDbSymbolTable
 70
     0
  0
ENDTAB
  0
TABLE
  2
APPID
  5
9
330
0
100
AcDbSymbolTable
 70
     1
  0
APPID
  5
12
330
9
100
AcDbSymbolTableRecord
100
AcDbRegAppTableRecord
  2
ACAD
 70
     0
  0
ENDTAB
  0
TABLE
  2
DIMSTYLE
  5
A
330
0
100
AcDbSymbolTable
 70
     1
100
AcDbDimStyleTable
  0
DIMSTYLE
105
27
330
A
100
AcDbSymbolTableRecord
100
AcDbDimStyleTableRecord
  2
Standard
 70
     0
178
     0
340
11
  0
ENDTAB
  0
TABLE
  2
BLOCK_RECORD
  5
1
330
0
100
AcDbSymbolTable
 70
     8
  0
BLOCK_RECORD
  5
1F
330
1
100
AcDbSymbolTableRecord
100
AcDbBlockTableRecord
  2
*Model_Space
340
22
 70
     0
280
     1
281
     0
  0
BLOCK_RECORD
  5
1B
330
1
100
AcDbSymbolTableRecord
100
AcDbBlockTableRecord
  2
*Paper_Space
340
1E
 70
     0
280
     1
281
     0
  0
BLOCK_RECORD
  5
23
330
1
100
AcDbSymbolTableRecord
100
AcDbBlockTableRecord
  2
*Paper_Space0
340
26
 70
     0
280
     1
281
     0
  0
BLOCK_RECORD
  5
6E
330
1
100
AcDbSymbolTableRecord
100
AcDbBlockTableRecord
  2
1_069351_2
340
0
102
{BLKREFS
331
6F
102
}
 70
     0
280
     1
281
     0
  0
BLOCK_RECORD
  5
91
330
1
100
AcDbSymbolTableRecord
100
AcDbBlockTableRecord
  2
2_405016_Inch_0_in_069351_2
340
0
102
{BLKREFS
331
92
102
}
 70
     0
280
     1
281
     0
  0
BLOCK_RECORD
  5
10A
330
1
100
AcDbSymbolTableRecord
100
AcDbBlockTableRecord
  2
3_ASME_B18_3_10_1_0_in_069351_2
340
0
102
{BLKREFS
331
10B
102
}
 70
     0
280
     1
281
     0
  0
BLOCK_RECORD
  5
12F
330
1
100
AcDbSymbolTableRecord
100
AcDbBlockTableRecord
  2
4_ASME_B18_3_10_2_0_in_069351_2
340
0
102
{BLKREFS
331
130
102
}
 70
     0
280
     1
281
     0
  0
BLOCK_RECORD
  5
153
330
1
100
AcDbSymbolTableRecord
100
AcDbBlockTableRecord
  2
5_070891LW_0_in_069351_2
340
0
102
{BLKREFS
331
154
102
}
 70
     0
280
     1
281
     0
  0
BLOCK_RECORD
  5
189
330
1
100
AcDbSymbolTableRecord
100
AcDbBlockTableRecord
  2
6_070891I_0_in_069351_2
340
0
102
{BLKREFS
331
18A
102
}
 70
     0
280
     1
281
     0
  0
BLOCK_RECORD
  5
212
330
1
100
AcDbSymbolTableRecord
100
AcDbBlockTableRecord
  2
7_069351H_0_in_069351_2
340
0
102
{BLKREFS
331
213
102
}
 70
     0
280
     1
281
     0
  0
ENDTAB
  0
ENDSEC
  0
SECTION
  2
BLOCKS
  0
BLOCK
  5
20
330
1F
100
AcDbEntity
  8
0
100
AcDbBlockBegin
  2
*Model_Space
 70
     0
 10
0.0
 20
0.0
 30
0.0
  3
*Model_Space
  1

  0
ENDBLK
  5
21
330
1F
100
AcDbEntity
  8
0
100
AcDbBlockEnd
  0
BLOCK
  5
1C
330
1B
100
AcDbEntity
 67
     1
  8
0
100
AcDbBlockBegin
  2
*Paper_Space
 70
     0
 10
0.0
 20
0.0
 30
0.0
  3
*Paper_Space
  1

  0
ENDBLK
  5
1D
330
1B
100
AcDbEntity
 67
     1
  8
0
100
AcDbBlockEnd
  0
BLOCK
  5
24
330
23
100
AcDbEntity
  8
0
100
AcDbBlockBegin
  2
*Paper_Space0
 70
     0
 10
0.0
 20
0.0
 30
0.0
  3
*Paper_Space0
  1

  0
ENDBLK
  5
25
330
23
100
AcDbEntity
  8
0
100
AcDbBlockEnd
  0
BLOCK
  5
70
330
6E
100
AcDbEntity
  8
0
100
AcDbBlockBegin
  2
1_069351_2
 70
     2
 10
0.0
 20
0.0
 30
0.0
  3
1_069351_2
  1

  0
ATTDEF
  5
73
330
6E
100
AcDbEntity
  8
AM_6
100
AcDbText
 10
6.216018734436275
 20
2.375
 30
0.0
 40
0.5
  1
Imperial - IP Wide Slot Take-Up
100
AcDbAttributeDefinition
  3

  2
NN
 70
     8
280
     0
  0
ATTDEF
  5
74
330
6E
100
AcDbEntity
  8
AM_6
100
AcDbText
 10
6.216018734436275
 20
1.875
 30
0.0
 40
0.5
  1
Imperial Wide Slot Take-Up Bearings
100
AcDbAttributeDefinition
  3

  2
NT
 70
     8
280
     0
  0
ATTDEF
  5
75
330
6E
100
AcDbEntity
  8
AM_6
100
AcDbText
 10
6.216018734436275
 20
1.375
 30
0.0
 40
0.5
  1
069351
100
AcDbAttributeDefinition
  3

  2
NB
 70
     8
280
     0
  0
ATTDEF
  5
76
330
6E
100
AcDbEntity
  8
AM_6
100
AcDbText
 10
6.216018734436275
 20
0.875
 30
0.0
 40
0.5
  1
$PN.
100
AcDbAttributeDefinition
  3

  2
NBSYN
 70
     8
280
     0
  0
ATTDEF
  5
77
330
6E
100
AcDbEntity
  8
AM_6
100
AcDbText
 10
6.216018734436275
 20
0.375
 30
0.0
 40
0.5
  1
069351
100
AcDbAttributeDefinition
  3

  2
LINA
 70
     8
280
     0
  0
ATTDEF
  5
78
330
6E
100
AcDbEntity
  8
AM_6
100
AcDbText
 10
6.216018734436275
 20
-0.125
 30
0.0
 40
0.5
  1
2
100
AcDbAttributeDefinition
  3

  2
SS
 70
     8
280
     0
  0
ATTDEF
  5
79
330
6E
100
AcDbEntity
  8
AM_6
100
AcDbText
 10
6.216018734436275
 20
-0.625
 30
0.0
 40
0.5
  1
069351
100
AcDbAttributeDefinition
  3

  2
PN
 70
     8
280
     0
  0
ATTDEF
  5
7A
330
6E
100
AcDbEntity
  8
AM_6
100
AcDbText
 10
6.216018734436275
 20
-1.125
 30
0.0
 40
0.5
  1
WSTU-IP-200R
100
AcDbAttributeDefinition
  3

  2
DESCRIPTION
 70
     8
280
     0
  0
ATTDEF
  5
7B
330
6E
100
AcDbEntity
  8
AM_6
100
AcDbText
 10
6.216018734436275
 20
-1.625
 30
0.0
 40
0.5
  1
Non-Expansion
100
AcDbAttributeDefinition
  3

  2
EF
 70
     8
280
     0
  0
ATTDEF
  5
7C
330
6E
100
AcDbEntity
  8
AM_6
100
AcDbText
 10
6.216018734436275
 20
-2.125
 30
0.0
 40
0.5
  1
Contact Seal
100
AcDbAttributeDefinition
  3

  2
ST
 70
     8
280
     0
  0
ATTDEF
  5
7D
330
6E
100
AcDbEntity
  8
AM_6
100
AcDbText
 10
6.216018734436275
 20
-2.625
 30
0.0
 40
0.5
  1
2-55/64
100
AcDbAttributeDefinition
  3

  2
A
 70
     8
280
     0
  0
ATTDEF
  5
7E
330
6E
100
AcDbEntity
  8
AM_6
100
AcDbText
 10
6.216018734436275
 20
-3.125
 30
0.0
 40
0.5
  1
6-3/16
100
AcDbAttributeDefinition
  3

  2
B
 70
     8
280
     0
  0
ATTDEF
  5
7F
330
6E
100
AcDbEntity
  8
AM_6
100
AcDbText
 10
6.216018734436275
 20
-3.625
 30
0.0
 40
0.5
  1
11/16
100
AcDbAttributeDefinition
  3

  2
C
 70
     8
280
     0
  0
ATTDEF
  5
80
330
6E
100
AcDbEntity
  8
AM_6
100
AcDbText
 10
6.216018734436275
 20
-4.125
 30
0.0
 40
0.5
  1
3-5/8
100
AcDbAttributeDefinition
  3

  2
D
 70
     8
280
     0
  0
ATTDEF
  5
81
330
6E
100
AcDbEntity
  8
AM_6
100
AcDbText
 10
6.216018734436275
 20
-4.625
 30
0.0
 40
0.5
  1
3-15/16
100
AcDbAttributeDefinition
  3

  2
E
 70
     8
280
     0
  0
ATTDEF
  5
82
330
6E
100
AcDbEntity
  8
AM_6
100
AcDbText
 10
6.216018734436275
 20
-5.125
 30
0.0
 40
0.5
  1
1-1/8
100
AcDbAttributeDefinition
  3

  2
F
 70
     8
280
     0
  0
ATTDEF
  5
83
330
6E
100
AcDbEntity
  8
AM_6
100
AcDbText
 10
6.216018734436275
 20
-5.625
 30
0.0
 40
0.5
  1
15/16
100
AcDbAttributeDefinition
  3

  2
G
 70
     8
280
     0
  0
ATTDEF
  5
84
330
6E
100
AcDbEntity
  8
AM_6
100
AcDbText
 10
6.216018734436275
 20
-6.125
 30
0.0
 40
0.5
  1
3/4
100
AcDbAttributeDefinition
  3

  2
H
 70
     8
280
     0
  0
ATTDEF
  5
85
330
6E
100
AcDbEntity
  8
AM_6
100
AcDbText
 10
6.216018734436275
 20
-6.625
 30
0.0
 40
0.5
  1
3-5/16
100
AcDbAttributeDefinition
  3

  2
J
 70
     8
280
     0
  0
ATTDEF
  5
86
330
6E
100
AcDbEntity
  8
AM_6
100
AcDbText
 10
6.216018734436275
 20
-7.125
 30
0.0
 40
0.5
  1
1-15/16
100
AcDbAttributeDefinition
  3

  2
K
 70
     8
280
     0
  0
ATTDEF
  5
87
330
6E
100
AcDbEntity
  8
AM_6
100
AcDbText
 10
6.216018734436275
 20
-7.625
 30
0.0
 40
0.5
  1
3-9/32
100
AcDbAttributeDefinition
  3

  2
L
 70
     8
280
     0
  0
ATTDEF
  5
88
330
6E
100
AcDbEntity
  8
AM_6
100
AcDbText
 10
6.216018734436275
 20
-8.125
 30
0.0
 40
0.5
  1
4
100
AcDbAttributeDefinition
  3

  2
M
 70
     8
280
     0
  0
ATTDEF
  5
89
330
6E
100
AcDbEntity
  8
AM_6
100
AcDbText
 10
6.216018734436275
 20
-8.625
 30
0.0
 40
0.5
  1
4-3/4
100
AcDbAttributeDefinition
  3

  2
N
 70
     8
280
     0
  0
ATTDEF
  5
8A
330
6E
100
AcDbEntity
  8
AM_6
100
AcDbText
 10
6.216018734436275
 20
-9.125
 30
0.0
 40
0.5
  1
2-15/16
100
AcDbAttributeDefinition
  3

  2
R
 70
     8
280
     0
  0
ATTDEF
  5
8B
330
6E
100
AcDbEntity
  8
AM_6
100
AcDbText
 10
6.216018734436275
 20
-9.625
 30
0.0
 40
0.5
  1
2
100
AcDbAttributeDefinition
  3

  2
S
 70
     8
280
     0
  0
ATTDEF
  5
8C
330
6E
100
AcDbEntity
  8
AM_6
100
AcDbText
 10
6.216018734436275
 20
-10.125
 30
0.0
 40
0.5
  1
2
100
AcDbAttributeDefinition
  3

  2
T
 70
     8
280
     0
  0
ATTDEF
  5
8D
330
6E
100
AcDbEntity
  8
AM_6
100
AcDbText
 10
6.216018734436275
 20
-10.625
 30
0.0
 40
0.5
  1
1/4
100
AcDbAttributeDefinition
  3

  2
X
 70
     8
280
     0
  0
ATTDEF
  5
8E
330
6E
100
AcDbEntity
  8
AM_6
100
AcDbText
 10
6.216018734436275
 20
-11.125
 30
0.0
 40
0.5
  1
0.020
100
AcDbAttributeDefinition
  3

  2
Y
 70
     8
280
     0
  0
ATTDEF
  5
8F
330
6E
100
AcDbEntity
  8
AM_6
100
AcDbText
 10
6.216018734436275
 20
-11.625
 30
0.0
 40
0.5
  1
2-19/64
100
AcDbAttributeDefinition
  3

  2
Z
 70
     8
280
     0
  0
ATTDEF
  5
90
330
6E
100
AcDbEntity
  8
AM_6
100
AcDbText
 10
6.216018734436275
 20
-12.125
 30
0.0
 40
0.5
  1
baldor
100
AcDbAttributeDefinition
  3

  2
COMPANY
 70
     8
280
     0
  0
INSERT
  5
92
330
6E
100
AcDbEntity
  8
0
100
AcDbBlockReference
  2
2_405016_Inch_0_in_069351_2
 10
0.0
 20
0.0
 30
0.0
  0
INSERT
  5
10B
330
6E
100
AcDbEntity
  8
0
100
AcDbBlockReference
  2
3_ASME_B18_3_10_1_0_in_069351_2
 10
0.0
 20
0.0
 30
0.0
  0
INSERT
  5
130
330
6E
100
AcDbEntity
  8
0
100
AcDbBlockReference
  2
4_ASME_B18_3_10_2_0_in_069351_2
 10
0.0
 20
0.0
 30
0.0
  0
INSERT
  5
154
330
6E
100
AcDbEntity
  8
0
100
AcDbBlockReference
  2
5_070891LW_0_in_069351_2
 10
0.0
 20
0.0
 30
0.0
  0
INSERT
  5
18A
330
6E
100
AcDbEntity
  8
0
100
AcDbBlockReference
  2
6_070891I_0_in_069351_2
 10
0.0
 20
0.0
 30
0.0
  0
INSERT
  5
213
330
6E
100
AcDbEntity
  8
0
100
AcDbBlockReference
  2
7_069351H_0_in_069351_2
 10
0.0
 20
0.0
 30
0.0
  0
ENDBLK
  5
71
330
6E
100
AcDbEntity
  8
0
100
AcDbBlockEnd
  0
BLOCK
  5
93
330
91
100
AcDbEntity
  8
0
100
AcDbBlockBegin
  2
2_405016_Inch_0_in_069351_2
 70
     2
 10
0.0
 20
0.0
 30
0.0
  3
2_405016_Inch_0_in_069351_2
  1

  0
ATTDEF
  5
95
330
91
100
AcDbEntity
  8
AM_6
100
AcDbText
 10
5.218750000000001
 20
-0.635362625909044
 30
0.0
 40
0.5
  1
405016 -Inch
100
AcDbAttributeDefinition
  3

  2
NN
 70
     8
280
     0
  0
ATTDEF
  5
96
330
91
100
AcDbEntity
  8
AM_6
100
AcDbText
 10
5.218750000000001
 20
-1.135362625909044
 30
0.0
 40
0.5
  1
Grease Fitting
100
AcDbAttributeDefinition
  3

  2
NT
 70
     8
280
     0
  0
ATTDEF
  5
97
330
91
100
AcDbEntity
  8
AM_6
100
AcDbText
 10
5.218750000000001
 20
-1.635362625909044
 30
0.0
 40
0.5
  1
405016-Inch
100
AcDbAttributeDefinition
  3

  2
NB
 70
     8
280
     0
  0
ATTDEF
  5
98
330
91
100
AcDbEntity
  8
AM_6
100
AcDbText
 10
5.218750000000001
 20
-2.135362625909044
 30
0.0
 40
0.5
  1
$MN.-Inch
100
AcDbAttributeDefinition
  3

  2
NBSYN
 70
     8
280
     0
  0
ATTDEF
  5
99
330
91
100
AcDbEntity
  8
AM_6
100
AcDbText
 10
5.218750000000001
 20
-2.635362625909044
 30
0.0
 40
0.5
  1
405016
100
AcDbAttributeDefinition
  3

  2
LINA
 70
     8
280
     0
  0
ATTDEF
  5
9A
330
91
100
AcDbEntity
  8
AM_6
100
AcDbText
 10
5.218750000000001
 20
-3.135362625909044
 30
0.0
 40
0.5
  1
405016
100
AcDbAttributeDefinition
  3

  2
MN
 70
     8
280
     0
  0
ATTDEF
  5
9B
330
91
100
AcDbEntity
  8
AM_6
100
AcDbText
 10
5.218750000000001
 20
-3.635362625909044
 30
0.0
 40
0.5
  1
7/16 HEX
100
AcDbAttributeDefinition
  3

  2
H
 70
     8
280
     0
  0
ATTDEF
  5
9C
330
91
100
AcDbEntity
  8
AM_6
100
AcDbText
 10
5.218750000000001
 20
-4.135362625909044
 30
0.0
 40
0.5
  1
0.383
100
AcDbAttributeDefinition
  3

  2
NDR
 70
     8
280
     0
  0
ATTDEF
  5
9D
330
91
100
AcDbEntity
  8
AM_6
100
AcDbText
 10
5.218750000000001
 20
-4.635362625909044
 30
0.0
 40
0.5
  1
0.337
100
AcDbAttributeDefinition
  3

  2
KDR
 70
     8
280
     0
  0
ATTDEF
  5
9E
330
91
100
AcDbEntity
  8
AM_6
100
AcDbText
 10
5.218750000000001
 20
-5.135362625909044
 30
0.0
 40
0.5
  1
0.1575
100
AcDbAttributeDefinition
  3

  2
BZE
 70
     8
280
     0
  0
ATTDEF
  5
9F
330
91
100
AcDbEntity
  8
AM_6
100
AcDbText
 10
5.218750000000001
 20
-5.635362625909044
 30
0.0
 40
0.5
  1
0.4375
100
AcDbAttributeDefinition
  3

  2
HEX
 70
     8
280
     0
  0
ATTDEF
  5
A0
330
91
100
AcDbEntity
  8
AM_6
100
AcDbText
 10
5.218750000000001
 20
-6.135362625909044
 30
0.0
 40
0.5
  1
0.281250
100
AcDbAttributeDefinition
  3

  2
HEX2
 70
     8
280
     0
  0
ATTDEF
  5
A1
330
91
100
AcDbEntity
  8
AM_6
100
AcDbText
 10
5.218750000000001
 20
-6.635362625909044
 30
0.0
 40
0.5
  1
baldor
100
AcDbAttributeDefinition
  3

  2
COMPANY
 70
     8
280
     0
  0
LWPOLYLINE
  5
A4
330
91
100
AcDbEntity
  8
AM_9
100
AcDbPolyline
 90
        5
 70
     0
 43
0.0
 10
-0.1791093260592888
 20
-1.162705677840415
 10
-0.1842540823997055
 20
-1.126916154555051
 10
-0.1862220679364952
 20
-1.089984637430423
 10
-0.1844124966919382
 20
-1.051378836963065
 10
-0.1791093260592888
 20
-1.012149783084113
  0
LINE
  5
A5
330
91
100
AcDbEntity
  8
AM_9
100
AcDbLine
 10
-0.1510741298357571
 20
-1.15780843584385
 30
0.0
 11
-0.1791093260592888
 21
-1.162705677840415
 31
0.0
  0
LINE
  5
A6
330
91
100
AcDbEntity
  8
AM_9
100
AcDbLine
 10
-0.1510741298357571
 20
-1.007252541087548
 30
0.0
 11
-0.1791093260592888
 21
-1.012149783084113
 31
0.0
  0
LWPOLYLINE
  5
A7
330
91
100
AcDbEntity
  8
AM_9
100
AcDbPolyline
 90
        4
 70
     0
 43
0.0
 10
-0.2097314965292721
 20
-0.9644232415387148
 10
-0.2156330920108726
 20
-0.953014679097715
 10
-0.2290462109660022
 20
-0.9214247876997185
 10
-0.2389369657326277
 20
-0.889197739882537
  0
LWPOLYLINE
  5
A8
330
91
100
AcDbEntity
  8
AM_9
100
AcDbPolyline
 90
        3
 70
     0
 43
0.0
 10
-0.1791093260592888
 20
-1.012149783084113
 10
-0.198835512140694
 20
-0.9831008151872352
 10
-0.2097314965292721
 20
-0.9644232415387148
  0
LWPOLYLINE
  5
A9
330
91
100
AcDbEntity
  8
AM_9
100
AcDbPolyline
 90
        5
 70
     0
 43
0.0
 10
-0.2389369657326277
 20
-1.190309529395142
 10
-0.2295338871417797
 20
-1.18448693396989
 10
-0.2166871171046321
 20
-1.177995689356211
 10
-0.1996402057054679
 20
-1.170655084314541
 10
-0.1791093260592888
 20
-1.162705677840415
  0
LWPOLYLINE
  5
AA
330
91
100
AcDbEntity
  8
AM_9
100
AcDbPolyline
 90
        3
 70
     0
 43
0.0
 10
-0.2813919000363601
 20
-0.9067955144449888
 10
-0.2911775952746244
 20
-0.9119951539836435
 10
-0.2987675689889719
 20
-0.9168021091216435
  0
LWPOLYLINE
  5
AB
330
91
100
AcDbEntity
  8
AM_9
100
AcDbPolyline
 90
        3
 70
     0
 43
0.0
 10
-0.2389369657326277
 20
-0.889197739882537
 10
-0.2560939713202354
 20
-0.8957836424122942
 10
-0.2711532636537957
 20
-0.9020519073383245
  0
LINE
  5
AC
330
91
100
AcDbEntity
  8
AM_9
100
AcDbLine
 10
-0.2099962668917054
 20
-0.8841423229472083
 30
0.0
 11
-0.2389369657326277
 21
-0.889197739882537
 31
0.0
  0
LINE
  5
AD
330
91
100
AcDbEntity
  8
AM_9
100
AcDbLine
 10
-0.4592308244157303
 20
-1.180615544115897
 30
0.0
 11
-0.3866303050106362
 21
-1.2034183066458
 31
0.0
  0
LINE
  5
AE
330
91
100
AcDbEntity
  8
AM_9
100
AcDbLine
 10
-0.4335647160356817
 20
-0.9347333154515821
 30
0.0
 11
-0.4941352239355601
 21
-0.9807986491596468
 31
0.0
  0
LWPOLYLINE
  5
AF
330
91
100
AcDbEntity
  8
AM_9
100
AcDbPolyline
 90
       10
 70
     0
 43
0.0
 10
-0.3662797994903165
 20
-0.945354594233278
 10
-0.3683210006596645
 20
-0.943281385204565
 10
-0.3775262520009265
 20
-0.9355264455093275
 10
-0.3868097918427483
 20
-0.9300996918460462
 10
-0.3961880193206819
 20
-0.9267975589679303
 10
-0.4056666194155546
 20
-0.9255322942414685
 10
-0.4160232075326558
 20
-0.9265183461798282
 10
-0.4254098927873242
 20
-0.9297452010397126
 10
-0.4336625464476586
 20
-0.9348079116691342
 10
-0.4337782412619399
 20
-0.9348966314159193
  0
LWPOLYLINE
  5
B0
330
91
100
AcDbEntity
  8
AM_9
100
AcDbPolyline
 90
        9
 70
     0
 43
0.0
 10
-0.3867785367471367
 20
-1.203371491081076
 10
-0.3824255195642352
 20
-1.204533128474075
 10
-0.3729425219803074
 20
-1.205561510996235
 10
-0.3626786309242128
 20
-1.204327103615529
 10
-0.3534019085110311
 20
-1.200894367728493
 10
-0.3452632738515889
 20
-1.195659872046356
 10
-0.3381464791095649
 20
-1.188789736809568
 10
-0.3318935709678303
 20
-1.180168131273928
 10
-0.3271057434004254
 20
-1.171008962852214
  0
LWPOLYLINE
  5
B1
330
91
100
AcDbEntity
  8
AM_9
100
AcDbPolyline
 90
        6
 70
     0
 43
0.0
 10
-0.1510741298357571
 20
-1.15780843584385
 10
-0.1564222384464443
 20
-1.161817440066295
 10
-0.1639940363880806
 20
-1.166270484128103
 10
-0.1744063212866123
 20
-1.171314023712799
 10
-0.1876759562813859
 20
-1.176881556832565
 10
-0.2099962668917054
 20
-1.185254112459814
  0
LINE
  5
B2
330
91
100
AcDbEntity
  8
AM_9
100
AcDbLine
 10
-0.1420324924121341
 20
-1.07441104773738
 30
0.0
 11
-0.1419585098156051
 21
-1.080943459086642
 31
0.0
  0
LINE
  5
B3
330
91
100
AcDbEntity
  8
AM_9
100
AcDbLine
 10
-0.1449364342433803
 20
-1.039467068767777
 30
0.0
 11
-0.1440808116526178
 21
-1.045983228011232
 31
0.0
  0
LWPOLYLINE
  5
B4
330
91
100
AcDbEntity
  8
AM_9
100
AcDbPolyline
 90
        3
 70
     0
 43
0.0
 10
-0.1510741298357571
 20
-1.007252541087548
 10
-0.1458778226760521
 20
-1.033265428737503
 10
-0.1449364342433803
 20
-1.039467068767777
  0
LINE
  5
B5
330
91
100
AcDbEntity
  8
AM_9
100
AcDbLine
 10
-0.1629119518489405
 20
-0.9641172818726581
 30
0.0
 11
-0.161663961744082
 21
-0.9675540579460534
 31
0.0
  0
LWPOLYLINE
  5
B6
330
91
100
AcDbEntity
  8
AM_9
100
AcDbPolyline
 90
        5
 70
     0
 43
0.0
 10
-0.2099962668917054
 20
-0.8841423229472084
 10
-0.1943573015029059
 20
-0.9050593018236005
 10
-0.1805491420332304
 20
-0.9267162260138947
 10
-0.168899767719981
 20
-0.9494591689760057
 10
-0.1662635851013087
 20
-0.9555718509265856
  0
LWPOLYLINE
  5
B7
330
91
100
AcDbEntity
  8
AM_9
100
AcDbPolyline
 90
        3
 70
     0
 43
0.0
 10
-0.2258378743019628
 20
-0.8941361279710225
 10
-0.2189176876709016
 20
-0.8903995141029957
 10
-0.2099962668917054
 20
-0.8841423229472083
  0
LINE
  5
B8
330
91
100
AcDbEntity
  8
AM_9
100
AcDbLine
 10
-0.1448699968607439
 20
-1.122955746559216
 30
0.0
 11
-0.1510741298357571
 21
-1.15780843584385
 31
0.0
  0
LWPOLYLINE
  5
B9
330
91
100
AcDbEntity
  8
AM_9
100
AcDbPolyline
 90
        3
 70
     0
 43
0.0
 10
-0.1428673914889885
 20
-1.104099292927215
 10
-0.1441228263802216
 20
-1.116995962905324
 10
-0.1448699968607439
 20
-1.122955746559216
  0
LWPOLYLINE
  5
BA
330
91
100
AcDbEntity
  8
AM_9
100
AcDbPolyline
 90
        3
 70
     0
 43
0.0
 10
-0.1419585098156051
 20
-1.080943459086642
 10
-0.1420496512545707
 20
-1.088213528145157
 10
-0.1424612385459287
 20
-1.098104695970717
  0
LINE
  5
BB
330
91
100
AcDbEntity
  8
AM_9
100
AcDbLine
 10
-0.1577850117359181
 20
-0.9795229215374986
 30
0.0
 11
-0.1510741298357571
 21
-1.007252541087548
 31
0.0
  0
LWPOLYLINE
  5
BC
330
91
100
AcDbEntity
  8
AM_9
100
AcDbPolyline
 90
        3
 70
     0
 43
0.0
 10
-0.162190692304018
 20
-0.9660923829642822
 10
-0.1598729403210872
 20
-0.9728350179259425
 10
-0.1577850117359181
 20
-0.9795229215374986
  0
ELLIPSE
  5
BD
330
91
100
AcDbEntity
  8
AM_9
100
AcDbEllipse
 10
-0.2013892028241897
 20
-1.032618242450063
 30
0.0
 11
-0.02419822997670336
 21
0.1385273846248271
 31
0.0
210
0.0
220
0.0
230
1.0
 40
0.3918448289310645
 41
2.298273319621134
 42
6.287803854599765
  0
LWPOLYLINE
  5
BE
330
91
100
AcDbEntity
  8
AM_9
100
AcDbPolyline
 90
        3
 70
     0
 43
0.0
 10
-0.2689146070947223
 20
-0.9115873363215992
 10
-0.2512755937295761
 20
-0.9050567259711488
 10
-0.2360765106845276
 20
-0.8988797350776871
  0
LWPOLYLINE
  5
BF
330
91
100
AcDbEntity
  8
AM_9
100
AcDbPolyline
 90
        3
 70
     0
 43
0.0
 10
-0.2602304684431209
 20
-0.9670305065968005
 10
-0.2616913382589204
 20
-0.9512293062262009
 10
-0.2689146070947223
 20
-0.9115873363215992
  0
LINE
  5
C0
330
91
100
AcDbEntity
  8
AM_9
100
AcDbLine
 10
-0.2689146070947223
 20
-0.9115873363215992
 30
0.0
 11
-0.2987675689889719
 21
-0.9168021091216435
 31
0.0
  0
LINE
  5
C1
330
91
100
AcDbEntity
  8
AM_9
100
AcDbLine
 10
-0.2987675689889719
 20
-0.9168021091216435
 30
0.0
 11
-0.3055458577949632
 21
-0.9749462859641077
 31
0.0
  0
LINE
  5
C2
330
91
100
AcDbEntity
  8
AM_9
100
AcDbLine
 10
-0.3055458577949632
 20
-1.011581916086179
 30
0.0
 11
-0.2987675689889719
 21
-1.067358003877946
 31
0.0
  0
LINE
  5
C3
330
91
100
AcDbEntity
  8
AM_9
100
AcDbLine
 10
-0.2711532636537957
 20
-0.9020519073383245
 30
0.0
 11
-0.2813919000363601
 21
-0.9067955144449888
 31
0.0
  0
ELLIPSE
  5
C4
330
91
100
AcDbEntity
  8
AM_9
100
AcDbEllipse
 10
-0.2467045921760206
 20
-1.040534021817365
 30
0.0
 11
-0.024198229976703
 21
0.1385273846248258
 31
0.0
210
0.0
220
0.0
230
1.0
 40
0.3918448289310574
 41
2.298273319621104
 42
4.568711241005832
  0
ELLIPSE
  5
C5
330
91
100
AcDbEntity
  8
AM_9
100
AcDbEllipse
 10
-0.2467045921760213
 20
-1.040534021817365
 30
0.0
 11
-0.02419822997670299
 21
0.1385273846248274
 31
0.0
210
0.0
220
0.0
230
1.0
 40
0.391844828931058
 41
4.943768310138503
 42
6.287803854599765
  0
ELLIPSE
  5
C6
330
91
100
AcDbEntity
  8
AM_9
100
AcDbEllipse
 10
-0.2467045921760233
 20
-1.040534021817366
 30
0.0
 11
-0.02419822997670295
 21
0.1385273846248217
 31
0.0
210
0.0
220
0.0
230
1.0
 40
0.3918448289310502
 41
1.572063264431378
 42
2.099013649813414
  0
LINE
  5
C7
330
91
100
AcDbEntity
  8
AM_9
100
AcDbLine
 10
-0.3055458577949632
 20
-0.9749462859641077
 30
0.0
 11
-0.3055458577949632
 21
-1.011581916086179
 31
0.0
  0
ELLIPSE
  5
C8
330
91
100
AcDbEntity
  8
AM_9
100
AcDbEllipse
 10
-0.2467045921760208
 20
-1.040534021817367
 30
0.0
 11
-0.02419822997670275
 21
0.1385273846248293
 31
0.0
210
0.0
220
0.0
230
1.0
 40
0.39184482893105
 41
0.2038782172279214
 42
1.010489672938672
  0
LWPOLYLINE
  5
C9
330
91
100
AcDbEntity
  8
AM_9
100
AcDbPolyline
 90
       13
 70
     0
 43
0.0
 10
-0.3285177615505787
 20
-1.174011260009082
 10
-0.3283394167226735
 20
-1.173708803195834
 10
-0.3268253610875264
 20
-1.171591697969852
 10
-0.323400526516005
 20
-1.167878285803842
 10
-0.3176674592920214
 20
-1.163225510193268
 10
-0.3093986766689943
 20
-1.158507648264698
 10
-0.2988948368632966
 20
-1.154820539550679
 10
-0.2873236327569402
 20
-1.153123181205984
 10
-0.2763939070632805
 20
-1.153626190586489
 10
-0.2675958484112944
 20
-1.155638935366993
 10
-0.2614643634489972
 20
-1.158108308826876
 10
-0.2578436824294399
 20
-1.160171249631169
 10
-0.2563178289009451
 20
-1.161283652454407
  0
LWPOLYLINE
  5
CA
330
91
100
AcDbEntity
  8
AM_9
100
AcDbPolyline
 90
        4
 70
     0
 43
0.0
 10
-0.2562052408762747
 20
-1.161379569818647
 10
-0.256507604573161
 20
-1.161086994537533
 10
-0.25811469425626
 20
-1.159305352048296
 10
-0.2592607382293798
 20
-1.157889067715391
  0
LWPOLYLINE
  5
CB
330
91
100
AcDbEntity
  8
AM_9
100
AcDbPolyline
 90
        4
 70
     0
 43
0.0
 10
-0.2980834513107222
 20
-0.9337316242322573
 10
-0.297522898012201
 20
-0.9321804708563447
 10
-0.2967233857775637
 20
-0.9302889455091642
 10
-0.296611555892984
 20
-0.9300659098120906
  0
LWPOLYLINE
  5
CC
330
91
100
AcDbEntity
  8
AM_9
100
AcDbPolyline
 90
       13
 70
     0
 43
0.0
 10
-0.2968133864543659
 20
-0.9304063319678697
 10
-0.2983829981801682
 20
-0.932584262607928
 10
-0.3018770229788752
 20
-0.9363395149772861
 10
-0.3076906535442129
 20
-0.9410095757937614
 10
-0.316041035755564
 20
-0.945711907571079
 10
-0.3266027399548251
 20
-0.9493468556154766
 10
-0.3381807937663978
 20
-0.9509706810353101
 10
-0.3490584876685408
 20
-0.9504040082791478
 10
-0.3577741488440465
 20
-0.9483599665260233
 10
-0.363819326642468
 20
-0.9458920889602124
 10
-0.3673654883116925
 20
-0.9438528063579134
 10
-0.3688304219224633
 20
-0.9427777349400378
 10
-0.368924076567288
 20
-0.9426976000025248
  0
ARC
  5
CD
330
91
100
AcDbEntity
  8
AM_9
100
AcDbCircle
 10
0.0
 20
-1.002072637387565
 30
0.0
 40
0.1999999999999997
100
AcDbArc
 50
215.7644442494881
 51
0.0
  0
LWPOLYLINE
  5
CE
330
91
100
AcDbEntity
  8
AM_9
100
AcDbPolyline
 90
        6
 70
     0
 43
0.0
 10
-0.1621824498282849
 20
-1.119106108122775
 10
-0.1606047421316796
 20
-1.121213209983074
 10
-0.1538031670974778
 20
-1.128428448331446
 10
-0.1472336073736394
 20
-1.132530481681672
 10
-0.1407130262602577
 20
-1.133629453939819
 10
-0.1395613906673451
 20
-1.133483687354946
  0
LWPOLYLINE
  5
CF
330
91
100
AcDbEntity
  8
AM_9
100
AcDbPolyline
 90
        3
 70
     0
 43
0.0
 10
-0.1093750000000001
 20
-0.7714037500972495
 10
-0.0546875000000001
 20
-0.741232416560895
 10
-0.0000000000000001
 20
-0.7094574528369907
  0
LWPOLYLINE
  5
D0
330
91
100
AcDbEntity
  8
AM_9
100
AcDbPolyline
 90
        3
 70
     0
 43
0.0
 10
-0.0000000000000001
 20
-0.7094574528369907
 10
0.0544416102741494
 20
-0.7410928686256539
 10
0.1093749999999998
 20
-0.7714037500972495
  0
LWPOLYLINE
  5
D1
330
91
100
AcDbEntity
  8
AM_9
100
AcDbPolyline
 90
        4
 70
     0
 43
0.0
 10
-0.179037373850178
 20
-1.084720137593839
 10
-0.1733931390117468
 20
-1.098974329338568
 10
-0.1670729780242512
 20
-1.11148768550915
 10
-0.1621824498282849
 20
-1.119106108122775
  0
LINE
  5
D2
330
91
100
AcDbEntity
  8
AM_9
100
AcDbLine
 10
-0.1719571631012917
 20
-0.9158113503707747
 30
0.0
 11
-0.2203175960504093
 21
-0.9242590438101983
 31
0.0
  0
LINE
  5
D3
330
91
100
AcDbEntity
  8
AM_9
100
AcDbLine
 10
-0.182460809597967
 20
-1.140977441089927
 30
0.0
 11
-0.1395503959082024
 21
-1.133481767496777
 31
0.0
  0
LWPOLYLINE
  5
D4
330
91
100
AcDbEntity
  8
AM_9
100
AcDbPolyline
 90
       20
 70
     0
 43
0.0
 10
-0.1395613906673451
 20
-1.133483687354946
 10
-0.1347930597680668
 20
-1.131632472641724
 10
-0.1293028157827818
 20
-1.126480081511791
 10
-0.1247141396218193
 20
-1.118618303844756
 10
-0.1208880884981782
 20
-1.10781138386313
 10
-0.118154598914599
 20
-1.094997411889621
 10
-0.1164278875396129
 20
-1.079784614259229
 10
-0.1158549073091555
 20
-1.06348291421842
 10
-0.1164156227038168
 20
-1.045596895062456
 10
-0.1180609686233502
 20
-1.027642232613569
 10
-0.1208367673933813
 20
-1.009089957851999
 10
-0.1245107513506024
 20
-0.9914842153036281
 10
-0.1291842652280563
 20
-0.974329798301992
 10
-0.134472979061152
 20
-0.9590359265065093
 10
-0.140518627090196
 20
-0.945191813468026
 10
-0.1468270783017121
 20
-0.9339316550696055
 10
-0.1535654953592166
 20
-0.9249618924539638
 10
-0.1601799433259584
 20
-0.9190245671218652
 10
-0.1668493358980662
 20
-0.915966318516154
 10
-0.171956426490496
 20
-0.9158112224042253
  0
LWPOLYLINE
  5
D5
330
91
100
AcDbEntity
  8
AM_9
100
AcDbPolyline
 90
        3
 70
     0
 43
0.0
 10
-0.171956426490496
 20
-0.9158112224042253
 10
-0.1731116383367607
 20
-0.916071068622891
 10
-0.1790373738502115
 20
-0.9194251371812996
  0
LWPOLYLINE
  5
D6
330
91
100
AcDbEntity
  8
AM_9
100
AcDbPolyline
 90
        3
 70
     0
 43
0.0
 10
-0.2689146070947223
 20
-1.062143231077902
 10
-0.2634308483997529
 20
-1.032979610354513
 10
-0.2602304684431306
 20
-1.003666136718877
  0
LINE
  5
D7
330
91
100
AcDbEntity
  8
AM_9
100
AcDbLine
 10
-0.2360765106845276
 20
-0.8988797350776871
 30
0.0
 11
-0.2258378743019628
 21
-0.8941361279710225
 31
0.0
  0
ELLIPSE
  5
D8
330
91
100
AcDbEntity
  8
AM_9
100
AcDbEllipse
 10
-0.2013892028241897
 20
-1.032618242450063
 30
0.0
 11
-0.02419822997670506
 21
0.1385273846248264
 31
0.0
210
0.0
220
0.0
230
1.0
 40
0.3918448289309553
 41
0.2038782172279037
 42
1.010489672938637
  0
LINE
  5
D9
330
91
100
AcDbEntity
  8
AM_9
100
AcDbLine
 10
-0.2602304684431306
 20
-1.003666136718877
 30
0.0
 11
-0.2602304684431209
 21
-0.9670305065968005
 31
0.0
  0
ELLIPSE
  5
DA
330
91
100
AcDbEntity
  8
AM_9
100
AcDbEllipse
 10
-0.2013892028241888
 20
-1.032618242450063
 30
0.0
 11
-0.02419822997670307
 21
0.1385273846248261
 31
0.0
210
0.0
220
0.0
230
1.0
 40
0.3918448289310544
 41
1.292402194102642
 42
2.099013649813404
  0
LWPOLYLINE
  5
DB
330
91
100
AcDbEntity
  8
AM_9
100
AcDbPolyline
 90
        3
 70
     0
 43
0.0
 10
-0.2099962668917054
 20
-1.185254112459814
 10
-0.2163479371246914
 20
-1.158569584396926
 10
-0.225837874301963
 20
-1.131818850929089
  0
LINE
  5
DC
330
91
100
AcDbEntity
  8
AM_9
100
AcDbLine
 10
-0.225837874301963
 20
-1.131818850929089
 30
0.0
 11
-0.2360765106845278
 21
-1.110624899808464
 31
0.0
  0
LWPOLYLINE
  5
DD
330
91
100
AcDbEntity
  8
AM_9
100
AcDbPolyline
 90
        3
 70
     0
 43
0.0
 10
-0.2360765106845278
 20
-1.110624899808464
 10
-0.2462091938631852
 20
-1.093536775168507
 10
-0.2689146070947223
 20
-1.062143231077902
  0
LINE
  5
DE
330
91
100
AcDbEntity
  8
AM_9
100
AcDbLine
 10
-0.2689146070947223
 20
-1.062143231077902
 30
0.0
 11
-0.2987675689889719
 21
-1.067358003877946
 31
0.0
  0
LWPOLYLINE
  5
DF
330
91
100
AcDbEntity
  8
AM_9
100
AcDbPolyline
 90
        3
 70
     0
 43
0.0
 10
-0.2987675689889719
 20
-1.067358003877946
 10
-0.2912216284034025
 20
-1.092974559852508
 10
-0.28139190003636
 20
-1.118540679175767
  0
LINE
  5
E0
330
91
100
AcDbEntity
  8
AM_9
100
AcDbLine
 10
-0.28139190003636
 20
-1.118540679175767
 30
0.0
 11
-0.2711532636537957
 21
-1.13973463029639
 31
0.0
  0
LWPOLYLINE
  5
E1
330
91
100
AcDbEntity
  8
AM_9
100
AcDbPolyline
 90
        3
 70
     0
 43
0.0
 10
-0.2711532636537957
 20
-1.13973463029639
 10
-0.2561815527589922
 20
-1.16525844242629
 10
-0.2389369657326277
 20
-1.190309529395142
  0
LINE
  5
E2
330
91
100
AcDbEntity
  8
AM_9
100
AcDbLine
 10
-0.2099962668917054
 20
-1.185254112459814
 30
0.0
 11
-0.2389369657326277
 21
-1.190309529395142
 31
0.0
  0
LWPOLYLINE
  5
E3
330
91
100
AcDbEntity
  8
AM_9
100
AcDbPolyline
 90
        3
 70
     0
 43
0.0
 10
0.1093749999999998
 20
-0.7714037500972495
 10
0.1640624999999998
 20
-0.7997819311883461
 10
0.2187499999999999
 20
-0.8265564820918927
  0
LWPOLYLINE
  5
E4
330
91
100
AcDbEntity
  8
AM_9
100
AcDbPolyline
 90
        3
 70
     0
 43
0.0
 10
-0.2187500000000001
 20
-0.8265564820918927
 10
-0.1643083897258505
 20
-0.7999056376366555
 10
-0.1093750000000001
 20
-0.7714037500972495
  0
LWPOLYLINE
  5
E5
330
91
100
AcDbEntity
  8
AM_9
100
AcDbPolyline
 90
        3
 70
     0
 43
0.0
 10
-0.0000000000000001
 20
-0.6787903587610151
 10
-0.0544416102741497
 20
-0.7054412032162524
 10
-0.1093750000000001
 20
-0.7339430907556583
  0
LWPOLYLINE
  5
E6
330
91
100
AcDbEntity
  8
AM_9
100
AcDbPolyline
 90
        3
 70
     0
 43
0.0
 10
0.1093749999999998
 20
-0.7339430907556583
 10
0.0546874999999999
 20
-0.7055649096645616
 10
-0.0000000000000001
 20
-0.6787903587610151
  0
LINE
  5
E7
330
91
100
AcDbEntity
  8
AM_9
100
AcDbLine
 10
-0.0000000000000001
 20
-0.7094574528369907
 30
0.0
 11
-0.0000000000000001
 21
-0.6787903587610151
 31
0.0
  0
ELLIPSE
  5
E8
330
91
100
AcDbEntity
  8
AM_9
100
AcDbEllipse
 10
-0.0000000000000002
 20
-1.002072637387565
 30
0.0
 11
-0.1999999999999998
 21
2.449293598294704E-17
 31
0.0
210
0.0
220
0.0
230
1.0
 40
0.9271838545667866
 41
0.4619460205669679
 42
5.821239286612622
  0
LWPOLYLINE
  5
E9
330
91
100
AcDbEntity
  8
AM_9
100
AcDbPolyline
 90
        7
 70
     0
 43
0.0
 10
-0.1790373738501785
 20
-1.08472013759384
 10
-0.1842628795203942
 20
-1.069570622994952
 10
-0.1891729979031394
 20
-1.053963489038932
 10
-0.1936098952159724
 20
-1.037293256291346
 10
-0.1971856748420372
 20
-1.019567526558361
 10
-0.1994144431868155
 20
-1.001427794776571
 10
-0.1999999999699529
 20
-0.9869057686797832
  0
LINE
  5
EA
330
91
100
AcDbEntity
  8
AM_9
100
AcDbLine
 10
-0.2000000000000001
 20
-0.9470522939796026
 30
0.0
 11
-0.2000000000000001
 21
-0.9869736581803652
 31
0.0
  0
LINE
  5
EB
330
91
100
AcDbEntity
  8
AM_9
100
AcDbLine
 10
0.1999999999999998
 20
-1.002072637387565
 30
0.0
 11
0.1999999999999998
 21
-0.9470522939796027
 31
0.0
  0
LWPOLYLINE
  5
EC
330
91
100
AcDbEntity
  8
AM_9
100
AcDbPolyline
 90
        8
 70
     0
 43
0.0
 10
-0.1999999999699529
 20
-0.9869057686797832
 10
-0.1999786710855128
 20
-0.9842131635474747
 10
-0.1988321115509054
 20
-0.9675780152906477
 10
-0.196164942998426
 20
-0.9530491109533139
 10
-0.1920694300574959
 20
-0.9400973357830849
 10
-0.1870948030566196
 20
-0.9297497742626831
 10
-0.1815005947613931
 20
-0.9219012678832578
 10
-0.1790373738501785
 20
-0.9194251371812898
  0
LWPOLYLINE
  5
ED
330
91
100
AcDbEntity
  8
AM_9
100
AcDbPolyline
 90
        3
 70
     0
 43
0.0
 10
0.2187499999999999
 20
-0.7958893880159171
 10
0.1643083897258503
 20
-0.764253972227254
 10
0.1093749999999998
 20
-0.7339430907556583
  0
LWPOLYLINE
  5
EE
330
91
100
AcDbEntity
  8
AM_9
100
AcDbPolyline
 90
        3
 70
     0
 43
0.0
 10
-0.1093750000000001
 20
-0.7339430907556583
 10
-0.1640625000000001
 20
-0.7641144242920128
 10
-0.2187500000000001
 20
-0.7958893880159171
  0
LINE
  5
EF
330
91
100
AcDbEntity
  8
AM_9
100
AcDbLine
 10
-0.2187500000000001
 20
-1.060754540601697
 30
0.0
 11
-0.2187500000000001
 21
-0.7958893880159171
 31
0.0
  0
LWPOLYLINE
  5
F0
330
91
100
AcDbEntity
  8
AM_9
100
AcDbPolyline
 90
        3
 70
     0
 43
0.0
 10
-0.1093750000000001
 20
-1.122700837861956
 10
-0.1640625000000001
 20
-1.092529504325601
 10
-0.2187500000000001
 20
-1.060754540601697
  0
LWPOLYLINE
  5
F1
330
91
100
AcDbEntity
  8
AM_9
100
AcDbPolyline
 90
        3
 70
     0
 43
0.0
 10
-0.0000000000000001
 20
-1.177853569856599
 10
-0.0544416102741497
 20
-1.151202725401362
 10
-0.1093750000000001
 20
-1.122700837861956
  0
LWPOLYLINE
  5
F2
330
91
100
AcDbEntity
  8
AM_9
100
AcDbPolyline
 90
        3
 70
     0
 43
0.0
 10
-0.1093750000000001
 20
-1.085240178520365
 10
-0.0546875000000001
 20
-1.115411512056719
 10
-0.0000000000000001
 20
-1.147186475780624
  0
LWPOLYLINE
  5
F3
330
91
100
AcDbEntity
  8
AM_9
100
AcDbPolyline
 90
        3
 70
     0
 43
0.0
 10
-0.2187500000000001
 20
-1.030087446525721
 10
-0.1643083897258505
 20
-1.056738290980959
 10
-0.1093750000000001
 20
-1.085240178520365
  0
LINE
  5
F4
330
91
100
AcDbEntity
  8
AM_9
100
AcDbLine
 10
-0.0000000000000001
 20
-1.177853569856599
 30
0.0
 11
-0.0000000000000001
 21
-1.147186475780624
 31
0.0
  0
LWPOLYLINE
  5
F5
330
91
100
AcDbEntity
  8
AM_9
100
AcDbPolyline
 90
        3
 70
     0
 43
0.0
 10
0.1093749999999998
 20
-1.122700837861956
 10
0.0546874999999999
 20
-1.151079018953052
 10
-0.0000000000000001
 20
-1.177853569856599
  0
LWPOLYLINE
  5
F6
330
91
100
AcDbEntity
  8
AM_9
100
AcDbPolyline
 90
        3
 70
     0
 43
0.0
 10
0.2187499999999999
 20
-1.060754540601697
 10
0.1643083897258503
 20
-1.09238995639036
 10
0.1093749999999998
 20
-1.122700837861956
  0
LINE
  5
F7
330
91
100
AcDbEntity
  8
AM_9
100
AcDbLine
 10
0.2187499999999999
 20
-1.060754540601697
 30
0.0
 11
0.2187499999999999
 21
-0.7958893880159171
 31
0.0
  0
LWPOLYLINE
  5
F8
330
91
100
AcDbEntity
  8
AM_9
100
AcDbPolyline
 90
        3
 70
     0
 43
0.0
 10
0.1093749999999998
 20
-1.085240178520365
 10
0.1640624999999998
 20
-1.056861997429268
 10
0.2187499999999999
 20
-1.030087446525721
  0
LWPOLYLINE
  5
F9
330
91
100
AcDbEntity
  8
AM_9
100
AcDbPolyline
 90
        3
 70
     0
 43
0.0
 10
-0.0000000000000001
 20
-1.147186475780624
 10
0.0544416102741494
 20
-1.11555105999196
 10
0.1093749999999998
 20
-1.085240178520365
  0
LINE
  5
FA
330
91
100
AcDbEntity
  8
AM_9
100
AcDbLine
 10
-0.2000000000000001
 20
-0.8803254945273934
 30
0.0
 11
-0.2000000000000001
 21
-0.9095916346380114
 31
0.0
  0
LINE
  5
FB
330
91
100
AcDbEntity
  8
AM_9
100
AcDbLine
 10
0.1999999999999998
 20
-0.9095916346380115
 30
0.0
 11
0.1999999999999998
 21
-0.8803254945273934
 31
0.0
  0
LINE
  5
FC
330
91
100
AcDbEntity
  8
AM_9
100
AcDbLine
 10
-0.184861775919733
 20
-0.7939807912947112
 30
0.0
 11
-0.1909374614401157
 21
-0.8665906963243998
 31
0.0
  0
LINE
  5
FD
330
91
100
AcDbEntity
  8
AM_9
100
AcDbLine
 10
0.1909374614401154
 20
-0.8665906963243999
 30
0.0
 11
0.1848617759197328
 21
-0.7939807912947112
 31
0.0
  0
ELLIPSE
  5
FE
330
91
100
AcDbEntity
  8
AM_9
100
AcDbEllipse
 10
-0.0000000000000001
 20
-0.7983803022176627
 30
0.0
 11
0.1616637258772237
 21
0.0
 31
0.0
210
0.0
220
0.0
230
1.0
 40
0.927183854566788
 41
0.0
 42
6.283185307179586
  0
ELLIPSE
  5
FF
330
91
100
AcDbEntity
  8
AM_9
100
AcDbEllipse
 10
-0.4687500000000004
 20
-1.079321340717144
 30
0.0
 11
-0.017806910142935
 21
0.1019390547459411
 31
0.0
210
0.0
220
0.0
230
1.0
 40
0.3918448289310597
 41
0.0
 42
6.283185307179586
  0
ELLIPSE
  5
100
330
91
100
AcDbEntity
  8
AM_9
100
AcDbEllipse
 10
-0.3994303217889758
 20
-1.067212446004344
 30
0.0
 11
-0.02394416896528312
 21
0.1370729638890496
 31
0.0
210
0.0
220
0.0
230
1.0
 40
0.3918448289310552
 41
0.0
 42
6.283185307179586
  0
ELLIPSE
  5
101
330
91
100
AcDbEntity
  8
AM_9
100
AcDbEllipse
 10
-0.3729962569746646
 20
-1.062594892721807
 30
0.0
 11
-0.02291951316940102
 21
0.1312071262769272
 31
0.0
210
0.0
220
0.0
230
1.0
 40
0.3918448289310585
 41
0.0
 42
6.283185307179586
  0
ELLIPSE
  5
102
330
91
100
AcDbEntity
  8
AM_9
100
AcDbEllipse
 10
-0.2013892028241881
 20
-1.032618242450063
 30
0.0
 11
-0.01892839322622118
 21
0.1083591986398644
 31
0.0
210
0.0
220
0.0
230
1.0
 40
0.391844828931058
 41
0.0
 42
6.283185307179586
  0
ELLIPSE
  5
103
330
91
100
AcDbEntity
  8
AM_9
100
AcDbEllipse
 10
-0.0000000000000001
 20
-0.9470522939796022
 30
0.0
 11
-0.2
 21
2.449293598294707E-17
 31
0.0
210
0.0
220
0.0
230
1.0
 40
0.9271838545667888
 41
0.0
 42
6.283185307179586
  0
ELLIPSE
  5
104
330
91
100
AcDbEntity
  8
AM_9
100
AcDbEllipse
 10
-0.0000000000000001
 20
-0.9470522939796021
 30
0.0
 11
-0.2187500000000001
 21
3.259629037943326E-9
 31
0.0
210
0.0
220
0.0
230
1.0
 40
0.9271838545667903
 41
0.0
 42
6.283185307179586
  0
ELLIPSE
  5
105
330
91
100
AcDbEntity
  8
AM_9
100
AcDbEllipse
 10
-0.0000000000000001
 20
-0.9095916346380097
 30
0.0
 11
-0.2187500000000013
 21
2.678914873134851E-17
 31
0.0
210
0.0
220
0.0
230
1.0
 40
0.9271838545667891
 41
0.0
 42
6.283185307179586
  0
ELLIPSE
  5
106
330
91
100
AcDbEntity
  8
AM_9
100
AcDbEllipse
 10
-0.0000000000000003
 20
-0.9095916346380117
 30
0.0
 11
-0.1999999999999998
 21
2.449293598294704E-17
 31
0.0
210
0.0
220
0.0
230
1.0
 40
0.927183854566787
 41
0.0
 42
6.283185307179586
  0
ELLIPSE
  5
107
330
91
100
AcDbEntity
  8
AM_9
100
AcDbEllipse
 10
-0.0000000000000001
 20
-0.8803254945273934
 30
0.0
 11
-0.1999999999999998
 21
2.449293598294704E-17
 31
0.0
210
0.0
220
0.0
230
1.0
 40
0.9271838545667878
 41
0.0
 42
6.283185307179586
  0
ELLIPSE
  5
108
330
91
100
AcDbEntity
  8
AM_9
100
AcDbEllipse
 10
0.0000000000000001
 20
-0.8803254945273933
 30
0.0
 11
-0.1915112338502296
 21
2.345336195354440E-17
 31
0.0
210
0.0
220
0.0
230
1.0
 40
0.9271838545667874
 41
0.0
 42
6.283185307179586
  0
ELLIPSE
  5
109
330
91
100
AcDbEntity
  8
AM_9
100
AcDbEllipse
 10
-0.0000000000000001
 20
-0.8072785442267667
 30
0.0
 11
-0.1854172907249857
 21
2.270706915929280E-17
 31
0.0
210
0.0
220
0.0
230
1.0
 40
0.9271838545667862
 41
0.0
 42
6.283185307179586
  0
ENDBLK
  5
94
330
91
100
AcDbEntity
  8
0
100
AcDbBlockEnd
  0
BLOCK
  5
10C
330
10A
100
AcDbEntity
  8
0
100
AcDbBlockBegin
  2
3_ASME_B18_3_10_1_0_in_069351_2
 70
     2
 10
0.0
 20
0.0
 30
0.0
  3
3_ASME_B18_3_10_1_0_in_069351_2
  1

  0
ATTDEF
  5
10E
330
10A
100
AcDbEntity
  8
AM_6
100
AcDbText
 10
3.962833333333334
 20
-1.195368055555555
 30
0.0
 40
0.5
  1
ANSI/ASME B18.3-1998
100
AcDbAttributeDefinition
  3

  2
NN
 70
     8
280
     0
  0
ATTDEF
  5
10F
330
10A
100
AcDbEntity
  8
AM_6
100
AcDbText
 10
3.962833333333334
 20
-1.695368055555555
 30
0.0
 40
0.5
  1
Socket Button Head Cap Screws
100
AcDbAttributeDefinition
  3

  2
NT
 70
     8
280
     0
  0
ATTDEF
  5
110
330
10A
100
AcDbEntity
  8
AM_6
100
AcDbText
 10
3.962833333333334
 20
-2.195368055555555
 30
0.0
 40
0.5
  1
ASME B18.3-10
100
AcDbAttributeDefinition
  3

  2
NB
 70
     8
280
     0
  0
ATTDEF
  5
111
330
10A
100
AcDbEntity
  8
AM_6
100
AcDbText
 10
3.962833333333334
 20
-2.695368055555555
 30
0.0
 40
0.5
  1
ASME B18.3-$NS.
100
AcDbAttributeDefinition
  3

  2
NBSYN
 70
     8
280
     0
  0
ATTDEF
  5
112
330
10A
100
AcDbEntity
  8
AM_6
100
AcDbText
 10
3.962833333333334
 20
-3.195368055555555
 30
0.0
 40
0.5
  1
ASME B18.3-10
100
AcDbAttributeDefinition
  3

  2
LINA
 70
     8
280
     0
  0
ATTDEF
  5
113
330
10A
100
AcDbEntity
  8
AM_6
100
AcDbText
 10
3.962833333333334
 20
-3.695368055555555
 30
0.0
 40
0.5
  1
10
100
AcDbAttributeDefinition
  3

  2
NS
 70
     8
280
     0
  0
ATTDEF
  5
114
330
10A
100
AcDbEntity
  8
AM_6
100
AcDbText
 10
3.962833333333334
 20
-4.195368055555555
 30
0.0
 40
0.5
  1
0.361
100
AcDbAttributeDefinition
  3

  2
A
 70
     8
280
     0
  0
ATTDEF
  5
115
330
10A
100
AcDbEntity
  8
AM_6
100
AcDbText
 10
3.962833333333334
 20
-4.695368055555555
 30
0.0
 40
0.5
  1
0.101
100
AcDbAttributeDefinition
  3

  2
H
 70
     8
280
     0
  0
ATTDEF
  5
116
330
10A
100
AcDbEntity
  8
AM_6
100
AcDbText
 10
3.962833333333334
 20
-5.195368055555555
 30
0.0
 40
0.5
  1
0.800
100
AcDbAttributeDefinition
  3

  2
L
 70
     8
280
     0
  0
ATTDEF
  5
117
330
10A
100
AcDbEntity
  8
AM_6
100
AcDbText
 10
3.962833333333334
 20
-5.695368055555555
 30
0.0
 40
0.5
  1
0.020
100
AcDbAttributeDefinition
  3

  2
S
 70
     8
280
     0
  0
ATTDEF
  5
118
330
10A
100
AcDbEntity
  8
AM_6
100
AcDbText
 10
3.962833333333334
 20
-6.195368055555555
 30
0.0
 40
0.5
  1
0.125000
100
AcDbAttributeDefinition
  3

  2
J
 70
     8
280
     0
  0
ATTDEF
  5
119
330
10A
100
AcDbEntity
  8
AM_6
100
AcDbText
 10
3.962833333333334
 20
-6.695368055555555
 30
0.0
 40
0.5
  1
baldor
100
AcDbAttributeDefinition
  3

  2
COMPANY
 70
     8
280
     0
  0
LINE
  5
11A
330
10A
100
AcDbEntity
  8
AM_9
100
AcDbLine
 10
-1.877166666666667
 20
-1.303699271906852
 30
0.0
 11
-1.938166666666667
 21
-1.303699271906852
 31
0.0
  0
LINE
  5
11B
330
10A
100
AcDbEntity
  8
AM_9
100
AcDbLine
 10
-1.877166666666667
 20
-1.448036839204259
 30
0.0
 11
-1.938166666666667
 21
-1.448036839204259
 31
0.0
  0
LINE
  5
11C
330
10A
100
AcDbEntity
  8
AM_9
100
AcDbLine
 10
-1.877166666666667
 20
-1.303699271906852
 30
0.0
 11
-1.877166666666667
 21
-1.448036839204259
 31
0.0
  0
LINE
  5
11D
330
10A
100
AcDbEntity
  8
AM_9
100
AcDbLine
 10
-1.877166666666667
 20
-1.339783663731204
 30
0.0
 11
-1.938166666666667
 21
-1.339783663731204
 31
0.0
  0
LINE
  5
11E
330
10A
100
AcDbEntity
  8
AM_9
100
AcDbLine
 10
-1.877166666666667
 20
-1.411952447379907
 30
0.0
 11
-1.938166666666667
 21
-1.411952447379907
 31
0.0
  0
LINE
  5
11F
330
10A
100
AcDbEntity
  8
AM_9
100
AcDbLine
 10
-1.037166666666666
 20
-1.299468055555555
 30
0.0
 11
-1.037166666666666
 21
-1.452268055555555
 31
0.0
  0
LINE
  5
120
330
10A
100
AcDbEntity
  8
AM_9
100
AcDbLine
 10
-1.037166666666666
 20
-1.299468055555555
 30
0.0
 11
-1.055766666666667
 21
-1.280868055555556
 31
0.0
  0
LINE
  5
121
330
10A
100
AcDbEntity
  8
AM_9
100
AcDbLine
 10
-1.055766666666667
 20
-1.470868055555555
 30
0.0
 11
-1.037166666666666
 21
-1.452268055555555
 31
0.0
  0
LINE
  5
122
330
10A
100
AcDbEntity
  8
AM_9
100
AcDbLine
 10
-1.055766666666667
 20
-1.280868055555556
 30
0.0
 11
-1.055766666666667
 21
-1.470868055555555
 31
0.0
  0
LINE
  5
123
330
10A
100
AcDbEntity
  8
AM_9
100
AcDbLine
 10
-1.837166666666666
 20
-1.470868055555555
 30
0.0
 11
-1.055766666666667
 21
-1.470868055555555
 31
0.0
  0
LINE
  5
124
330
10A
100
AcDbEntity
  8
AM_9
100
AcDbLine
 10
-1.055766666666667
 20
-1.280868055555556
 30
0.0
 11
-1.837166666666666
 21
-1.280868055555556
 31
0.0
  0
LINE
  5
126
330
10A
100
AcDbEntity
  8
AM_5
100
AcDbLine
 10
-1.757166666666667
 20
-1.280868092413647
 30
0.0
 11
-1.757166666666667
 21
-1.470868228273008
 31
0.0
  0
LINE
  5
127
330
10A
100
AcDbEntity
  8
AM_5
100
AcDbLine
 10
-1.757166666666667
 20
-1.299468055555555
 30
0.0
 11
-1.789382811687448
 21
-1.280868055555555
 31
0.0
  0
LINE
  5
129
330
10A
100
AcDbEntity
  8
AM_4
100
AcDbLine
 10
-1.938166666666666
 20
-1.276368055555555
 30
0.0
 11
-1.938166666666666
 21
-1.475368055555556
 31
0.0
  0
ARC
  5
12A
330
10A
100
AcDbEntity
  8
AM_4
100
AcDbCircle
 10
-1.857166666666667
 20
-1.475368055555556
 30
0.0
 40
0.0809999999999991
100
AcDbArc
 50
180.0
 51
270.0
  0
ARC
  5
12B
330
10A
100
AcDbEntity
  8
AM_4
100
AcDbCircle
 10
-1.857166666666667
 20
-1.276368055555555
 30
0.0
 40
0.0809999999999997
100
AcDbArc
 50
90.0
 51
180.0
  0
LINE
  5
12C
330
10A
100
AcDbEntity
  8
AM_4
100
AcDbLine
 10
-1.857166666666666
 20
-1.195368055555555
 30
0.0
 11
-1.857166666666666
 21
-1.556368055555555
 31
0.0
  0
LINE
  5
12D
330
10A
100
AcDbEntity
  8
AM_4
100
AcDbLine
 10
-1.857166666666666
 20
-1.556368055555555
 30
0.0
 11
-1.837166666666666
 21
-1.556368055555555
 31
0.0
  0
LINE
  5
12E
330
10A
100
AcDbEntity
  8
AM_4
100
AcDbLine
 10
-1.837166666666666
 20
-1.195368055555555
 30
0.0
 11
-1.857166666666666
 21
-1.195368055555555
 31
0.0
  0
ENDBLK
  5
10D
330
10A
100
AcDbEntity
  8
0
100
AcDbBlockEnd
  0
BLOCK
  5
131
330
12F
100
AcDbEntity
  8
0
100
AcDbBlockBegin
  2
4_ASME_B18_3_10_2_0_in_069351_2
 70
     2
 10
0.0
 20
0.0
 30
0.0
  3
4_ASME_B18_3_10_2_0_in_069351_2
  1

  0
ATTDEF
  5
133
330
12F
100
AcDbEntity
  8
AM_6
100
AcDbText
 10
3.962833333333334
 20
1.556368055555555
 30
0.0
 40
0.5
  1
ANSI/ASME B18.3-1998
100
AcDbAttributeDefinition
  3

  2
NN
 70
     8
280
     0
  0
ATTDEF
  5
134
330
12F
100
AcDbEntity
  8
AM_6
100
AcDbText
 10
3.962833333333334
 20
1.056368055555555
 30
0.0
 40
0.5
  1
Socket Button Head Cap Screws
100
AcDbAttributeDefinition
  3

  2
NT
 70
     8
280
     0
  0
ATTDEF
  5
135
330
12F
100
AcDbEntity
  8
AM_6
100
AcDbText
 10
3.962833333333334
 20
0.5563680555555552
 30
0.0
 40
0.5
  1
ASME B18.3-10
100
AcDbAttributeDefinition
  3

  2
NB
 70
     8
280
     0
  0
ATTDEF
  5
136
330
12F
100
AcDbEntity
  8
AM_6
100
AcDbText
 10
3.962833333333334
 20
0.0563680555555552
 30
0.0
 40
0.5
  1
ASME B18.3-$NS.
100
AcDbAttributeDefinition
  3

  2
NBSYN
 70
     8
280
     0
  0
ATTDEF
  5
137
330
12F
100
AcDbEntity
  8
AM_6
100
AcDbText
 10
3.962833333333334
 20
-0.4436319444444448
 30
0.0
 40
0.5
  1
ASME B18.3-10
100
AcDbAttributeDefinition
  3

  2
LINA
 70
     8
280
     0
  0
ATTDEF
  5
138
330
12F
100
AcDbEntity
  8
AM_6
100
AcDbText
 10
3.962833333333334
 20
-0.9436319444444448
 30
0.0
 40
0.5
  1
10
100
AcDbAttributeDefinition
  3

  2
NS
 70
     8
280
     0
  0
ATTDEF
  5
139
330
12F
100
AcDbEntity
  8
AM_6
100
AcDbText
 10
3.962833333333334
 20
-1.443631944444445
 30
0.0
 40
0.5
  1
0.361
100
AcDbAttributeDefinition
  3

  2
A
 70
     8
280
     0
  0
ATTDEF
  5
13A
330
12F
100
AcDbEntity
  8
AM_6
100
AcDbText
 10
3.962833333333334
 20
-1.943631944444445
 30
0.0
 40
0.5
  1
0.101
100
AcDbAttributeDefinition
  3

  2
H
 70
     8
280
     0
  0
ATTDEF
  5
13B
330
12F
100
AcDbEntity
  8
AM_6
100
AcDbText
 10
3.962833333333334
 20
-2.443631944444445
 30
0.0
 40
0.5
  1
0.800
100
AcDbAttributeDefinition
  3

  2
L
 70
     8
280
     0
  0
ATTDEF
  5
13C
330
12F
100
AcDbEntity
  8
AM_6
100
AcDbText
 10
3.962833333333334
 20
-2.943631944444445
 30
0.0
 40
0.5
  1
0.020
100
AcDbAttributeDefinition
  3

  2
S
 70
     8
280
     0
  0
ATTDEF
  5
13D
330
12F
100
AcDbEntity
  8
AM_6
100
AcDbText
 10
3.962833333333334
 20
-3.443631944444445
 30
0.0
 40
0.5
  1
0.125000
100
AcDbAttributeDefinition
  3

  2
J
 70
     8
280
     0
  0
ATTDEF
  5
13E
330
12F
100
AcDbEntity
  8
AM_6
100
AcDbText
 10
3.962833333333334
 20
-3.943631944444445
 30
0.0
 40
0.5
  1
baldor
100
AcDbAttributeDefinition
  3

  2
COMPANY
 70
     8
280
     0
  0
LINE
  5
13F
330
12F
100
AcDbEntity
  8
AM_9
100
AcDbLine
 10
-1.877166666666667
 20
1.448036839204259
 30
0.0
 11
-1.938166666666667
 21
1.448036839204259
 31
0.0
  0
LINE
  5
140
330
12F
100
AcDbEntity
  8
AM_9
100
AcDbLine
 10
-1.877166666666667
 20
1.303699271906852
 30
0.0
 11
-1.938166666666667
 21
1.303699271906852
 31
0.0
  0
LINE
  5
141
330
12F
100
AcDbEntity
  8
AM_9
100
AcDbLine
 10
-1.877166666666667
 20
1.411952447379907
 30
0.0
 11
-1.938166666666667
 21
1.411952447379907
 31
0.0
  0
LINE
  5
142
330
12F
100
AcDbEntity
  8
AM_9
100
AcDbLine
 10
-1.877166666666667
 20
1.448036839204259
 30
0.0
 11
-1.877166666666667
 21
1.303699271906852
 31
0.0
  0
LINE
  5
143
330
12F
100
AcDbEntity
  8
AM_9
100
AcDbLine
 10
-1.877166666666667
 20
1.339783663731204
 30
0.0
 11
-1.938166666666667
 21
1.339783663731204
 31
0.0
  0
LINE
  5
144
330
12F
100
AcDbEntity
  8
AM_9
100
AcDbLine
 10
-1.037166666666666
 20
1.452268055555555
 30
0.0
 11
-1.037166666666666
 21
1.299468055555555
 31
0.0
  0
LINE
  5
145
330
12F
100
AcDbEntity
  8
AM_9
100
AcDbLine
 10
-1.037166666666666
 20
1.452268055555555
 30
0.0
 11
-1.055766666666667
 21
1.470868055555555
 31
0.0
  0
LINE
  5
146
330
12F
100
AcDbEntity
  8
AM_9
100
AcDbLine
 10
-1.055766666666667
 20
1.280868055555556
 30
0.0
 11
-1.037166666666666
 21
1.299468055555555
 31
0.0
  0
LINE
  5
147
330
12F
100
AcDbEntity
  8
AM_9
100
AcDbLine
 10
-1.055766666666667
 20
1.470868055555555
 30
0.0
 11
-1.055766666666667
 21
1.280868055555556
 31
0.0
  0
LINE
  5
148
330
12F
100
AcDbEntity
  8
AM_9
100
AcDbLine
 10
-1.837166666666666
 20
1.280868055555556
 30
0.0
 11
-1.055766666666667
 21
1.280868055555556
 31
0.0
  0
LINE
  5
149
330
12F
100
AcDbEntity
  8
AM_9
100
AcDbLine
 10
-1.055766666666667
 20
1.470868055555555
 30
0.0
 11
-1.837166666666666
 21
1.470868055555555
 31
0.0
  0
LINE
  5
14A
330
12F
100
AcDbEntity
  8
AM_5
100
AcDbLine
 10
-1.757166666666667
 20
1.299468055555555
 30
0.0
 11
-1.789382811687448
 21
1.280868055555556
 31
0.0
  0
LINE
  5
14B
330
12F
100
AcDbEntity
  8
AM_5
100
AcDbLine
 10
-1.757166666666667
 20
1.470868228273008
 30
0.0
 11
-1.757166666666667
 21
1.280868092413646
 31
0.0
  0
LINE
  5
14C
330
12F
100
AcDbEntity
  8
AM_5
100
AcDbLine
 10
-1.757166666666667
 20
1.452268055555555
 30
0.0
 11
-1.789382811687448
 21
1.470868055555555
 31
0.0
  0
LINE
  5
14D
330
12F
100
AcDbEntity
  8
AM_4
100
AcDbLine
 10
-1.938166666666666
 20
1.475368055555556
 30
0.0
 11
-1.938166666666666
 21
1.276368055555555
 31
0.0
  0
ARC
  5
14E
330
12F
100
AcDbEntity
  8
AM_4
100
AcDbCircle
 10
-1.857166666666667
 20
1.276368055555555
 30
0.0
 40
0.0809999999999997
100
AcDbArc
 50
180.0
 51
270.0
  0
ARC
  5
14F
330
12F
100
AcDbEntity
  8
AM_4
100
AcDbCircle
 10
-1.857166666666667
 20
1.475368055555556
 30
0.0
 40
0.0809999999999991
100
AcDbArc
 50
90.0
 51
180.0
  0
LINE
  5
150
330
12F
100
AcDbEntity
  8
AM_4
100
AcDbLine
 10
-1.857166666666666
 20
1.556368055555555
 30
0.0
 11
-1.857166666666666
 21
1.195368055555555
 31
0.0
  0
LINE
  5
151
330
12F
100
AcDbEntity
  8
AM_4
100
AcDbLine
 10
-1.857166666666666
 20
1.195368055555555
 30
0.0
 11
-1.837166666666666
 21
1.195368055555555
 31
0.0
  0
LINE
  5
152
330
12F
100
AcDbEntity
  8
AM_4
100
AcDbLine
 10
-1.837166666666666
 20
1.556368055555555
 30
0.0
 11
-1.857166666666666
 21
1.556368055555555
 31
0.0
  0
ENDBLK
  5
132
330
12F
100
AcDbEntity
  8
0
100
AcDbBlockEnd
  0
BLOCK
  5
155
330
153
100
AcDbEntity
  8
0
100
AcDbBlockBegin
  2
5_070891LW_0_in_069351_2
 70
     2
 10
0.0
 20
0.0
 30
0.0
  3
5_070891LW_0_in_069351_2
  1

  0
ATTDEF
  5
157
330
153
100
AcDbEntity
  8
AM_6
100
AcDbText
 10
3.602833333333334
 20
1.640625
 30
0.0
 40
0.5
  1
Imperial Insert Lockwasher -Inch
100
AcDbAttributeDefinition
  3

  2
NN
 70
     8
280
     0
  0
ATTDEF
  5
158
330
153
100
AcDbEntity
  8
AM_6
100
AcDbText
 10
3.602833333333334
 20
1.140625
 30
0.0
 40
0.5
  1
Imperial Bearings
100
AcDbAttributeDefinition
  3

  2
NT
 70
     8
280
     0
  0
ATTDEF
  5
159
330
153
100
AcDbEntity
  8
AM_6
100
AcDbText
 10
3.602833333333334
 20
0.640625
 30
0.0
 40
0.5
  1
070891LW
100
AcDbAttributeDefinition
  3

  2
NB
 70
     8
280
     0
  0
ATTDEF
  5
15A
330
153
100
AcDbEntity
  8
AM_6
100
AcDbText
 10
3.602833333333334
 20
0.140625
 30
0.0
 40
0.5
  1
$PN.LW
100
AcDbAttributeDefinition
  3

  2
NBSYN
 70
     8
280
     0
  0
ATTDEF
  5
15B
330
153
100
AcDbEntity
  8
AM_6
100
AcDbText
 10
3.602833333333334
 20
-0.359375
 30
0.0
 40
0.5
  1
070891
100
AcDbAttributeDefinition
  3

  2
LINA
 70
     8
280
     0
  0
ATTDEF
  5
15C
330
153
100
AcDbEntity
  8
AM_6
100
AcDbText
 10
3.602833333333334
 20
-0.859375
 30
0.0
 40
0.5
  1
2
100
AcDbAttributeDefinition
  3

  2
SS
 70
     8
280
     0
  0
ATTDEF
  5
15D
330
153
100
AcDbEntity
  8
AM_6
100
AcDbText
 10
3.602833333333334
 20
-1.359375
 30
0.0
 40
0.5
  1
2.000000
100
AcDbAttributeDefinition
  3

  2
SS1
 70
     8
280
     0
  0
ATTDEF
  5
15E
330
153
100
AcDbEntity
  8
AM_6
100
AcDbText
 10
3.602833333333334
 20
-1.859375
 30
0.0
 40
0.5
  1
070891
100
AcDbAttributeDefinition
  3

  2
PN
 70
     8
280
     0
  0
ATTDEF
  5
15F
330
153
100
AcDbEntity
  8
AM_6
100
AcDbText
 10
3.602833333333334
 20
-2.359375
 30
0.0
 40
0.5
  1
INS-IP-200R
100
AcDbAttributeDefinition
  3

  2
DESCRIPTION
 70
     8
280
     0
  0
ATTDEF
  5
160
330
153
100
AcDbEntity
  8
AM_6
100
AcDbText
 10
3.602833333333334
 20
-2.859375
 30
0.0
 40
0.5
  1
3.5433
100
AcDbAttributeDefinition
  3

  2
A
 70
     8
280
     0
  0
ATTDEF
  5
161
330
153
100
AcDbEntity
  8
AM_6
100
AcDbText
 10
3.602833333333334
 20
-3.359375
 30
0.0
 40
0.5
  1
61/64
100
AcDbAttributeDefinition
  3

  2
B
 70
     8
280
     0
  0
ATTDEF
  5
162
330
153
100
AcDbEntity
  8
AM_6
100
AcDbText
 10
3.602833333333334
 20
-3.859375
 30
0.0
 40
0.5
  1
2-55/64
100
AcDbAttributeDefinition
  3

  2
C
 70
     8
280
     0
  0
ATTDEF
  5
163
330
153
100
AcDbEntity
  8
AM_6
100
AcDbText
 10
3.602833333333334
 20
-4.359375
 30
0.0
 40
0.5
  1
0.977
100
AcDbAttributeDefinition
  3

  2
D
 70
     8
280
     0
  0
ATTDEF
  5
164
330
153
100
AcDbEntity
  8
AM_6
100
AcDbText
 10
3.602833333333334
 20
-4.859375
 30
0.0
 40
0.5
  1
3-9/32
100
AcDbAttributeDefinition
  3

  2
E
 70
     8
280
     0
  0
ATTDEF
  5
165
330
153
100
AcDbEntity
  8
AM_6
100
AcDbText
 10
3.602833333333334
 20
-5.359375
 30
0.0
 40
0.5
  1
0.1900
100
AcDbAttributeDefinition
  3

  2
NDM
 70
     8
280
     0
  0
ATTDEF
  5
166
330
153
100
AcDbEntity
  8
AM_6
100
AcDbText
 10
3.602833333333334
 20
-5.859375
 30
0.0
 40
0.5
  1
0.1450
100
AcDbAttributeDefinition
  3

  2
KDM
 70
     8
280
     0
  0
ATTDEF
  5
167
330
153
100
AcDbEntity
  8
AM_6
100
AcDbText
 10
3.602833333333334
 20
-6.359375
 30
0.0
 40
0.5
  1
2.67
100
AcDbAttributeDefinition
  3

  2
AL
 70
     8
280
     0
  0
ATTDEF
  5
168
330
153
100
AcDbEntity
  8
AM_6
100
AcDbText
 10
3.602833333333334
 20
-6.859375
 30
0.0
 40
0.5
  1
0.38
100
AcDbAttributeDefinition
  3

  2
BL
 70
     8
280
     0
  0
ATTDEF
  5
169
330
153
100
AcDbEntity
  8
AM_6
100
AcDbText
 10
3.602833333333334
 20
-7.359375
 30
0.0
 40
0.5
  1
0.07
100
AcDbAttributeDefinition
  3

  2
CL
 70
     8
280
     0
  0
ATTDEF
  5
16A
330
153
100
AcDbEntity
  8
AM_6
100
AcDbText
 10
3.602833333333334
 20
-7.859375
 30
0.0
 40
0.5
  1
0.44
100
AcDbAttributeDefinition
  3

  2
DL
 70
     8
280
     0
  0
ATTDEF
  5
16B
330
153
100
AcDbEntity
  8
AM_6
100
AcDbText
 10
3.602833333333334
 20
-8.359375
 30
0.0
 40
0.5
  1
baldor
100
AcDbAttributeDefinition
  3

  2
COMPANY
 70
     8
280
     0
  0
LINE
  5
16C
330
153
100
AcDbEntity
  8
AM_9
100
AcDbLine
 10
-1.767166666666666
 20
0.9585699532648637
 30
0.0
 11
-1.837166666666666
 21
0.9585699532648637
 31
0.0
  0
LINE
  5
16D
330
153
100
AcDbEntity
  8
AM_9
100
AcDbLine
 10
-1.397166666666666
 20
0.9321811911626321
 30
0.0
 11
-1.767166666666666
 21
0.9321811911626321
 31
0.0
  0
LINE
  5
16E
330
153
100
AcDbEntity
  8
AM_9
100
AcDbLine
 10
-1.397166666666666
 20
0.8833461510385103
 30
0.0
 11
-1.837166666666666
 21
0.8833461510385103
 31
0.0
  0
LINE
  5
16F
330
153
100
AcDbEntity
  8
AM_9
100
AcDbLine
 10
-1.767166666666666
 20
1.004891043311999
 30
0.0
 11
-1.397166666666666
 21
1.004891043311999
 31
0.0
  0
LINE
  5
170
330
153
100
AcDbEntity
  8
AM_9
100
AcDbLine
 10
-1.397166666666666
 20
0.9560560031878774
 30
0.0
 11
-1.837166666666666
 21
0.9560560031878774
 31
0.0
  0
LINE
  5
171
330
153
100
AcDbEntity
  8
AM_9
100
AcDbLine
 10
-1.397166666666666
 20
0.8833461510385103
 30
0.0
 11
-1.397166666666666
 21
1.004891043311999
 31
0.0
  0
LINE
  5
172
330
153
100
AcDbEntity
  8
AM_9
100
AcDbLine
 10
-1.767166666666666
 20
1.031279805414231
 30
0.0
 11
-1.837166666666666
 21
1.031279805414231
 31
0.0
  0
LINE
  5
173
330
153
100
AcDbEntity
  8
AM_9
100
AcDbLine
 10
-1.767166666666666
 20
-1.375868055555555
 30
0.0
 11
-1.837166666666666
 21
-1.375868055555555
 31
0.0
  0
LINE
  5
174
330
153
100
AcDbEntity
  8
AM_9
100
AcDbLine
 10
-1.837166666666666
 20
-1.467641122363627
 30
0.0
 11
-1.767166666666666
 21
-1.467641122363627
 31
0.0
  0
LINE
  5
175
330
153
100
AcDbEntity
  8
AM_9
100
AcDbLine
 10
-1.767166666666666
 20
1.375868055555556
 30
0.0
 11
-1.837166666666666
 21
1.375868055555556
 31
0.0
  0
LINE
  5
176
330
153
100
AcDbEntity
  8
AM_9
100
AcDbLine
 10
-1.767166666666666
 20
1.470924788419496
 30
0.0
 11
-1.837166666666666
 21
1.470924788419496
 31
0.0
  0
LINE
  5
177
330
153
100
AcDbEntity
  8
AM_9
100
AcDbLine
 10
-1.767166666666666
 20
1.076898929273977
 30
0.0
 11
-1.837166666666666
 21
1.076898929273977
 31
0.0
  0
LINE
  5
178
330
153
100
AcDbEntity
  8
AM_9
100
AcDbLine
 10
-1.767166666666666
 20
-1.076898929273977
 30
0.0
 11
-1.837166666666666
 21
-1.076898929273977
 31
0.0
  0
LINE
  5
179
330
153
100
AcDbEntity
  8
AM_9
100
AcDbLine
 10
-1.767166666666666
 20
-0.8286576797548831
 30
0.0
 11
-1.837166666666666
 21
-0.8286576797548831
 31
0.0
  0
LINE
  5
17A
330
153
100
AcDbEntity
  8
AM_9
100
AcDbLine
 10
-1.767166666666666
 20
0.8286576797548837
 30
0.0
 11
-1.837166666666666
 21
0.8286576797548839
 31
0.0
  0
LINE
  5
17B
330
153
100
AcDbEntity
  8
AM_9
100
AcDbLine
 10
-1.767166666666666
 20
0.6943073913294395
 30
0.0
 11
-1.837166666666666
 21
0.6943073913294396
 31
0.0
  0
LINE
  5
17C
330
153
100
AcDbEntity
  8
AM_9
100
AcDbLine
 10
-1.767166666666666
 20
-0.6943073913294389
 30
0.0
 11
-1.837166666666666
 21
-0.6943073913294389
 31
0.0
  0
LINE
  5
17D
330
153
100
AcDbEntity
  8
AM_9
100
AcDbLine
 10
-1.767166666666666
 20
1.040060776314005
 30
0.0
 11
-1.837166666666666
 21
1.040060776314005
 31
0.0
  0
LINE
  5
17E
330
153
100
AcDbEntity
  8
AM_9
100
AcDbLine
 10
-1.767166666666666
 20
0.9057104878885611
 30
0.0
 11
-1.837166666666666
 21
0.9057104878885611
 31
0.0
  0
LINE
  5
17F
330
153
100
AcDbEntity
  8
AM_9
100
AcDbLine
 10
-1.767166666666666
 20
1.067925753252768
 30
0.0
 11
-1.837166666666666
 21
1.067925753252768
 31
0.0
  0
LINE
  5
180
330
153
100
AcDbEntity
  8
AM_9
100
AcDbLine
 10
-1.767166666666666
 20
-0.9057104878885603
 30
0.0
 11
-1.837166666666666
 21
-0.9057104878885603
 31
0.0
  0
LINE
  5
181
330
153
100
AcDbEntity
  8
AM_9
100
AcDbLine
 10
-1.767166666666666
 20
-1.040060776314002
 30
0.0
 11
-1.837166666666666
 21
-1.040060776314002
 31
0.0
  0
LINE
  5
182
330
153
100
AcDbEntity
  8
AM_9
100
AcDbLine
 10
-1.837166666666666
 20
-1.067925753252768
 30
0.0
 11
-1.767166666666666
 21
-1.067925753252768
 31
0.0
  0
LINE
  5
183
330
153
100
AcDbEntity
  8
AM_9
100
AcDbLine
 10
-1.767166666666666
 20
-0.0949999999999997
 30
0.0
 11
-1.837166666666666
 21
-0.0949999999999997
 31
0.0
  0
LINE
  5
184
330
153
100
AcDbEntity
  8
AM_9
100
AcDbLine
 10
-1.767166666666666
 20
0.0950000000000002
 30
0.0
 11
-1.837166666666666
 21
0.0950000000000003
 31
0.0
  0
LINE
  5
185
330
153
100
AcDbEntity
  8
AM_4
100
AcDbLine
 10
-1.767166666666666
 20
1.640625
 30
0.0
 11
-1.837166666666666
 21
1.640625
 31
0.0
  0
LINE
  5
186
330
153
100
AcDbEntity
  8
AM_4
100
AcDbLine
 10
-1.837166666666666
 20
-1.640625
 30
0.0
 11
-1.767166666666666
 21
-1.640625
 31
0.0
  0
LINE
  5
187
330
153
100
AcDbEntity
  8
AM_4
100
AcDbLine
 10
-1.837166666666666
 20
1.640625
 30
0.0
 11
-1.837166666666666
 21
-1.640625
 31
0.0
  0
LINE
  5
188
330
153
100
AcDbEntity
  8
AM_4
100
AcDbLine
 10
-1.767166666666666
 20
1.640625
 30
0.0
 11
-1.767166666666666
 21
-1.640625
 31
0.0
  0
ENDBLK
  5
156
330
153
100
AcDbEntity
  8
0
100
AcDbBlockEnd
  0
BLOCK
  5
18B
330
189
100
AcDbEntity
  8
0
100
AcDbBlockBegin
  2
6_070891I_0_in_069351_2
 70
     2
 10
0.0
 20
0.0
 30
0.0
  3
6_070891I_0_in_069351_2
  1

  0
ATTDEF
  5
18D
330
189
100
AcDbEntity
  8
AM_6
100
AcDbText
 10
5.879375
 20
1.77165
 30
0.0
 40
0.5
  1
Imperial Insert -Inch
100
AcDbAttributeDefinition
  3

  2
NN
 70
     8
280
     0
  0
ATTDEF
  5
18E
330
189
100
AcDbEntity
  8
AM_6
100
AcDbText
 10
5.879375
 20
1.27165
 30
0.0
 40
0.5
  1
Imperial Bearings
100
AcDbAttributeDefinition
  3

  2
NT
 70
     8
280
     0
  0
ATTDEF
  5
18F
330
189
100
AcDbEntity
  8
AM_6
100
AcDbText
 10
5.879375
 20
0.77165
 30
0.0
 40
0.5
  1
070891I
100
AcDbAttributeDefinition
  3

  2
NB
 70
     8
280
     0
  0
ATTDEF
  5
190
330
189
100
AcDbEntity
  8
AM_6
100
AcDbText
 10
5.879375
 20
0.2716499999999999
 30
0.0
 40
0.5
  1
$PN.I
100
AcDbAttributeDefinition
  3

  2
NBSYN
 70
     8
280
     0
  0
ATTDEF
  5
191
330
189
100
AcDbEntity
  8
AM_6
100
AcDbText
 10
5.879375
 20
-0.2283500000000001
 30
0.0
 40
0.5
  1
070891
100
AcDbAttributeDefinition
  3

  2
LINA
 70
     8
280
     0
  0
ATTDEF
  5
192
330
189
100
AcDbEntity
  8
AM_6
100
AcDbText
 10
5.879375
 20
-0.72835
 30
0.0
 40
0.5
  1
2
100
AcDbAttributeDefinition
  3

  2
SS
 70
     8
280
     0
  0
ATTDEF
  5
193
330
189
100
AcDbEntity
  8
AM_6
100
AcDbText
 10
5.879375
 20
-1.22835
 30
0.0
 40
0.5
  1
2.000000
100
AcDbAttributeDefinition
  3

  2
SS1
 70
     8
280
     0
  0
ATTDEF
  5
194
330
189
100
AcDbEntity
  8
AM_6
100
AcDbText
 10
5.879375
 20
-1.72835
 30
0.0
 40
0.5
  1
070891
100
AcDbAttributeDefinition
  3

  2
PN
 70
     8
280
     0
  0
ATTDEF
  5
195
330
189
100
AcDbEntity
  8
AM_6
100
AcDbText
 10
5.879375
 20
-2.22835
 30
0.0
 40
0.5
  1
INS-IP-200R
100
AcDbAttributeDefinition
  3

  2
DESCRIPTION
 70
     8
280
     0
  0
ATTDEF
  5
196
330
189
100
AcDbEntity
  8
AM_6
100
AcDbText
 10
5.879375
 20
-2.72835
 30
0.0
 40
0.5
  1
Contact Seal
100
AcDbAttributeDefinition
  3

  2
ST
 70
     8
280
     0
  0
ATTDEF
  5
197
330
189
100
AcDbEntity
  8
AM_6
100
AcDbText
 10
5.879375
 20
-3.22835
 30
0.0
 40
0.5
  1
3.5433
100
AcDbAttributeDefinition
  3

  2
A
 70
     8
280
     0
  0
ATTDEF
  5
198
330
189
100
AcDbEntity
  8
AM_6
100
AcDbText
 10
5.879375
 20
-3.72835
 30
0.0
 40
0.5
  1
61/64
100
AcDbAttributeDefinition
  3

  2
B
 70
     8
280
     0
  0
ATTDEF
  5
199
330
189
100
AcDbEntity
  8
AM_6
100
AcDbText
 10
5.879375
 20
-4.22835
 30
0.0
 40
0.5
  1
2-55/64
100
AcDbAttributeDefinition
  3

  2
C
 70
     8
280
     0
  0
ATTDEF
  5
19A
330
189
100
AcDbEntity
  8
AM_6
100
AcDbText
 10
5.879375
 20
-4.72835
 30
0.0
 40
0.5
  1
0.977
100
AcDbAttributeDefinition
  3

  2
D
 70
     8
280
     0
  0
ATTDEF
  5
19B
330
189
100
AcDbEntity
  8
AM_6
100
AcDbText
 10
5.879375
 20
-5.22835
 30
0.0
 40
0.5
  1
3-9/32
100
AcDbAttributeDefinition
  3

  2
E
 70
     8
280
     0
  0
ATTDEF
  5
19C
330
189
100
AcDbEntity
  8
AM_6
100
AcDbText
 10
5.879375
 20
-5.72835
 30
0.0
 40
0.5
  1
0.1900
100
AcDbAttributeDefinition
  3

  2
NDM
 70
     8
280
     0
  0
ATTDEF
  5
19D
330
189
100
AcDbEntity
  8
AM_6
100
AcDbText
 10
5.879375
 20
-6.22835
 30
0.0
 40
0.5
  1
0.101
100
AcDbAttributeDefinition
  3

  2
H
 70
     8
280
     0
  0
ATTDEF
  5
19E
330
189
100
AcDbEntity
  8
AM_6
100
AcDbText
 10
5.879375
 20
-6.72835
 30
0.0
 40
0.5
  1
0.1450
100
AcDbAttributeDefinition
  3

  2
KDM
 70
     8
280
     0
  0
ATTDEF
  5
19F
330
189
100
AcDbEntity
  8
AM_6
100
AcDbText
 10
5.879375
 20
-7.22835
 30
0.0
 40
0.5
  1
2.67
100
AcDbAttributeDefinition
  3

  2
AL
 70
     8
280
     0
  0
ATTDEF
  5
1A0
330
189
100
AcDbEntity
  8
AM_6
100
AcDbText
 10
5.879375
 20
-7.72835
 30
0.0
 40
0.5
  1
0.38
100
AcDbAttributeDefinition
  3

  2
BL
 70
     8
280
     0
  0
ATTDEF
  5
1A1
330
189
100
AcDbEntity
  8
AM_6
100
AcDbText
 10
5.879375
 20
-8.228349999999999
 30
0.0
 40
0.5
  1
0.07
100
AcDbAttributeDefinition
  3

  2
CL
 70
     8
280
     0
  0
ATTDEF
  5
1A2
330
189
100
AcDbEntity
  8
AM_6
100
AcDbText
 10
5.879375
 20
-8.728349999999999
 30
0.0
 40
0.5
  1
0.44
100
AcDbAttributeDefinition
  3

  2
DL
 70
     8
280
     0
  0
ATTDEF
  5
1A3
330
189
100
AcDbEntity
  8
AM_6
100
AcDbText
 10
5.879375
 20
-9.228349999999999
 30
0.0
 40
0.5
  1
0.8000
100
AcDbAttributeDefinition
  3

  2
LL
 70
     8
280
     0
  0
ATTDEF
  5
1A4
330
189
100
AcDbEntity
  8
AM_6
100
AcDbText
 10
5.879375
 20
-9.728349999999999
 30
0.0
 40
0.5
  1
0.020
100
AcDbAttributeDefinition
  3

  2
Y
 70
     8
280
     0
  0
ATTDEF
  5
1A5
330
189
100
AcDbEntity
  8
AM_6
100
AcDbText
 10
5.879375
 20
-10.22835
 30
0.0
 40
0.5
  1
0.020000
100
AcDbAttributeDefinition
  3

  2
Y1
 70
     8
280
     0
  0
ATTDEF
  5
1A6
330
189
100
AcDbEntity
  8
AM_6
100
AcDbText
 10
5.879375
 20
-10.72835
 30
0.0
 40
0.5
  1
2-19/64
100
AcDbAttributeDefinition
  3

  2
Z
 70
     8
280
     0
  0
ATTDEF
  5
1A7
330
189
100
AcDbEntity
  8
AM_6
100
AcDbText
 10
5.879375
 20
-11.22835
 30
0.0
 40
0.5
  1
2.296875
100
AcDbAttributeDefinition
  3

  2
Z1
 70
     8
280
     0
  0
ATTDEF
  5
1A8
330
189
100
AcDbEntity
  8
AM_6
100
AcDbText
 10
5.879375
 20
-11.72835
 30
0.0
 40
0.5
  1
baldor
100
AcDbAttributeDefinition
  3

  2
COMPANY
 70
     8
280
     0
  0
LINE
  5
1A9
330
189
100
AcDbEntity
  8
AM_9
100
AcDbLine
 10
0.3589375
 20
1.007467505411819
 30
0.0
 11
-1.767166666666666
 21
1.007467505411819
 31
0.0
  0
LINE
  5
1AA
330
189
100
AcDbEntity
  8
AM_9
100
AcDbLine
 10
0.3589375
 20
0.9347576532624517
 30
0.0
 11
-1.767166666666666
 21
0.9347576532624517
 31
0.0
  0
LINE
  5
1AB
330
189
100
AcDbEntity
  8
AM_9
100
AcDbLine
 10
-0.9271666666666548
 20
-1.375868055555555
 30
0.0
 11
-0.9609506565000023
 21
-1.303418055555555
 31
0.0
  0
LINE
  5
1AC
330
189
100
AcDbEntity
  8
AM_9
100
AcDbLine
 10
-0.9609506565000023
 20
-1.448318055555555
 30
0.0
 11
-0.9271666666666548
 21
-1.375868055555555
 31
0.0
  0
LINE
  5
1AD
330
189
100
AcDbEntity
  8
AM_9
100
AcDbLine
 10
-0.9271666666666665
 20
1.375868055555555
 30
0.0
 11
-0.960950656499996
 21
1.448318055555555
 31
0.0
  0
LINE
  5
1AE
330
189
100
AcDbEntity
  8
AM_9
100
AcDbLine
 10
-0.960950656499996
 20
1.303418055555555
 30
0.0
 11
-0.9271666666666665
 21
1.375868055555555
 31
0.0
  0
LINE
  5
1AF
330
189
100
AcDbEntity
  8
AM_9
100
AcDbLine
 10
-1.744616666666685
 20
-1.448318055555555
 30
0.0
 11
-0.9609506565000023
 21
-1.448318055555555
 31
0.0
  0
LINE
  5
1B0
330
189
100
AcDbEntity
  8
AM_9
100
AcDbLine
 10
-0.9609506565000023
 20
-1.303418055555555
 30
0.0
 11
-1.744616666666685
 21
-1.303418055555555
 31
0.0
  0
LINE
  5
1B1
330
189
100
AcDbEntity
  8
AM_9
100
AcDbLine
 10
-0.9609506565000023
 20
-1.303418055555555
 30
0.0
 11
-0.9609506565000023
 21
-1.448318055555555
 31
0.0
  0
LINE
  5
1B2
330
189
100
AcDbEntity
  8
AM_9
100
AcDbLine
 10
-0.960950656499996
 20
1.303418055555555
 30
0.0
 11
-0.960950656499996
 21
1.448318055555555
 31
0.0
  0
LINE
  5
1B3
330
189
100
AcDbEntity
  8
AM_9
100
AcDbLine
 10
-0.960950656499996
 20
1.448318055555555
 30
0.0
 11
-1.744616666666666
 21
1.448318055555555
 31
0.0
  0
LINE
  5
1B4
330
189
100
AcDbEntity
  8
AM_9
100
AcDbLine
 10
-1.744616666666666
 20
1.303418055555555
 30
0.0
 11
-0.960950656499996
 21
1.303418055555555
 31
0.0
  0
LINE
  5
1B5
330
189
100
AcDbEntity
  8
AM_9
100
AcDbLine
 10
-1.744616666666666
 20
1.303418055555555
 30
0.0
 11
-1.744616666666666
 21
1.448318055555555
 31
0.0
  0
LINE
  5
1B6
330
189
100
AcDbEntity
  8
AM_9
100
AcDbLine
 10
-1.744616666666666
 20
1.448318055555555
 30
0.0
 11
-1.767166666666666
 21
1.470868055555556
 31
0.0
  0
LINE
  5
1B7
330
189
100
AcDbEntity
  8
AM_9
100
AcDbLine
 10
-1.767166666666666
 20
1.280868055555555
 30
0.0
 11
-1.744616666666666
 21
1.303418055555555
 31
0.0
  0
LINE
  5
1B8
330
189
100
AcDbEntity
  8
AM_9
100
AcDbLine
 10
-1.744616666666685
 20
-1.303418055555555
 30
0.0
 11
-1.767166666666661
 21
-1.280868055555555
 31
0.0
  0
LINE
  5
1B9
330
189
100
AcDbEntity
  8
AM_9
100
AcDbLine
 10
-1.767166666666661
 20
-1.470868055555556
 30
0.0
 11
-1.744616666666685
 21
-1.448318055555555
 31
0.0
  0
LINE
  5
1BA
330
189
100
AcDbEntity
  8
AM_9
100
AcDbLine
 10
-1.744616666666685
 20
-1.303418055555555
 30
0.0
 11
-1.744616666666685
 21
-1.448318055555555
 31
0.0
  0
LINE
  5
1BB
330
189
100
AcDbEntity
  8
AM_9
100
AcDbLine
 10
0.3589375
 20
0.9560560031878781
 30
0.0
 11
-2.0
 21
0.9560560031878781
 31
0.0
  0
LINE
  5
1BC
330
189
100
AcDbEntity
  8
AM_9
100
AcDbLine
 10
-2.0
 20
0.8833461510385108
 30
0.0
 11
0.3589375
 21
0.8833461510385109
 31
0.0
  0
LINE
  5
1BD
330
189
100
AcDbEntity
  8
AM_9
100
AcDbLine
 10
0.3589375000000002
 20
1.0
 30
0.0
 11
-2.0
 21
1.0
 31
0.0
  0
LINE
  5
1BE
330
189
100
AcDbEntity
  8
AM_9
100
AcDbLine
 10
-2.0
 20
-1.0
 30
0.0
 11
0.3589375000000002
 21
-1.0
 31
0.0
  0
LINE
  5
1BF
330
189
100
AcDbEntity
  8
AM_9
100
AcDbLine
 10
0.8593750000000002
 20
1.052631578947368
 30
0.0
 11
0.3589375000000002
 21
1.052631578947368
 31
0.0
  0
LINE
  5
1C0
330
189
100
AcDbEntity
  8
AM_9
100
AcDbLine
 10
0.3589375000000002
 20
-1.052631578947368
 30
0.0
 11
0.8593750000000002
 21
-1.052631578947368
 31
0.0
  0
LINE
  5
1C1
330
189
100
AcDbEntity
  8
AM_9
100
AcDbLine
 10
-2.0
 20
1.004891043311999
 30
0.0
 11
-1.767166666666666
 21
1.004891043312
 31
0.0
  0
LINE
  5
1C2
330
189
100
AcDbEntity
  8
AM_9
100
AcDbLine
 10
-1.767166666666666
 20
0.9321811911626321
 30
0.0
 11
-2.0
 21
0.9321811911626322
 31
0.0
  0
LINE
  5
1C3
330
189
100
AcDbEntity
  8
AM_9
100
AcDbLine
 10
-1.767166666666666
 20
1.052631578947368
 30
0.0
 11
-1.837166666666666
 21
1.052631578947368
 31
0.0
  0
LINE
  5
1C4
330
189
100
AcDbEntity
  8
AM_9
100
AcDbLine
 10
-1.837166666666666
 20
-1.052631578947368
 30
0.0
 11
-1.767166666666666
 21
-1.052631578947368
 31
0.0
  0
LINE
  5
1C5
330
189
100
AcDbEntity
  8
AM_9
100
AcDbLine
 10
-1.327166666666666
 20
-0.8096372644585969
 30
0.0
 11
-1.767166666666666
 21
-0.8096372644585969
 31
0.0
  0
LINE
  5
1C6
330
189
100
AcDbEntity
  8
AM_9
100
AcDbLine
 10
-1.327166666666666
 20
0.8096372644585967
 30
0.0
 11
-1.767166666666666
 21
0.8096372644585967
 31
0.0
  0
LINE
  5
1C7
330
189
100
AcDbEntity
  8
AM_9
100
AcDbLine
 10
0.8593750000000002
 20
-1.1484375
 30
0.0
 11
0.8593750000000002
 21
1.1484375
 31
0.0
  0
LINE
  5
1C8
330
189
100
AcDbEntity
  8
AM_9
100
AcDbLine
 10
0.8793749999999999
 20
1.1484375
 30
0.0
 11
0.8593750000000002
 21
1.1484375
 31
0.0
  0
LINE
  5
1C9
330
189
100
AcDbEntity
  8
AM_9
100
AcDbLine
 10
0.8593750000000002
 20
-1.1484375
 30
0.0
 11
0.8793749999999999
 21
-1.1484375
 31
0.0
  0
LINE
  5
1CA
330
189
100
AcDbEntity
  8
AM_9
100
AcDbLine
 10
0.8499278846153852
 20
1.276041666666667
 30
0.0
 11
0.5495625000000006
 21
1.276041666666667
 31
0.0
  0
LINE
  5
1CB
330
189
100
AcDbEntity
  8
AM_9
100
AcDbLine
 10
0.5495625000000006
 20
-1.276041666666667
 30
0.0
 11
0.8499278846153852
 21
-1.276041666666667
 31
0.0
  0
LINE
  5
1CC
330
189
100
AcDbEntity
  8
AM_9
100
AcDbLine
 10
0.8793749999999999
 20
-1.246594551282051
 30
0.0
 11
0.8793749999999999
 21
1.246594551282051
 31
0.0
  0
ARC
  5
1CD
330
189
100
AcDbEntity
  8
AM_9
100
AcDbCircle
 10
0.8499278846153849
 20
1.246594551282052
 30
0.0
 40
0.0294471153846152
100
AcDbArc
 50
0.0
 51
90.0
  0
ARC
  5
1CE
330
189
100
AcDbEntity
  8
AM_9
100
AcDbCircle
 10
0.8499278846153849
 20
-1.246594551282052
 30
0.0
 40
0.029447115384615
100
AcDbArc
 50
270.0
 51
0.0
  0
LINE
  5
1CF
330
189
100
AcDbEntity
  8
AM_9
100
AcDbLine
 10
0.8499278846153852
 20
-1.276041666666667
 30
0.0
 11
0.8499278846153852
 21
1.276041666666667
 31
0.0
  0
LINE
  5
1D0
330
189
100
AcDbEntity
  8
AM_9
100
AcDbLine
 10
-1.327166666666666
 20
-0.8096372644585969
 30
0.0
 11
-1.327166666666666
 21
-1.028878695709276
 31
0.0
  0
LINE
  5
1D1
330
189
100
AcDbEntity
  8
AM_9
100
AcDbLine
 10
-1.327166666666666
 20
1.028878695709275
 30
0.0
 11
-1.327166666666666
 21
0.8096372644585967
 31
0.0
  0
LINE
  5
1D2
330
189
100
AcDbEntity
  8
AM_9
100
AcDbLine
 10
0.5495625000000006
 20
-1.403857579506881
 30
0.0
 11
0.5495625000000006
 21
1.403857579506881
 31
0.0
  0
ARC
  5
1D3
330
189
100
AcDbEntity
  8
AM_9
100
AcDbCircle
 10
0.4495625000000011
 20
1.403857578016765
 30
0.0
 40
0.0999999999999995
100
AcDbArc
 50
0.0
 51
60.00000000000038
  0
ARC
  5
1D4
330
189
100
AcDbEntity
  8
AM_9
100
AcDbCircle
 10
0.4495625000000011
 20
-1.403857578016765
 30
0.0
 40
0.0999999999999996
100
AcDbArc
 50
299.9999999999996
 51
0.0
  0
LINE
  5
1D5
330
189
100
AcDbEntity
  8
AM_9
100
AcDbLine
 10
0.4995625000000003
 20
1.490460118395209
 30
0.0
 11
0.3589375000000002
 21
1.57165
 31
0.0
  0
LINE
  5
1D6
330
189
100
AcDbEntity
  8
AM_9
100
AcDbLine
 10
0.3589375000000002
 20
-1.57165
 30
0.0
 11
0.4995625000000003
 21
-1.490460118395209
 31
0.0
  0
LINE
  5
1D7
330
189
100
AcDbEntity
  8
AM_9
100
AcDbLine
 10
0.4995625000000003
 20
-1.490460118395209
 30
0.0
 11
0.4995625000000003
 21
1.490460118395209
 31
0.0
  0
LINE
  5
1D8
330
189
100
AcDbEntity
  8
AM_9
100
AcDbLine
 10
-1.0
 20
-1.66741505032842
 30
0.0
 11
-0.5941875
 21
-1.68158633509779
 31
0.0
  0
LINE
  5
1D9
330
189
100
AcDbEntity
  8
AM_9
100
AcDbLine
 10
-0.5941875
 20
1.68158633509779
 30
0.0
 11
-1.0
 21
1.66741505032842
 31
0.0
  0
LINE
  5
1DA
330
189
100
AcDbEntity
  8
AM_9
100
AcDbLine
 10
-0.0901106512339319
 20
1.72399375
 30
0.0
 11
-0.1451393487660678
 21
1.72399375
 31
0.0
  0
LINE
  5
1DB
330
189
100
AcDbEntity
  8
AM_9
100
AcDbLine
 10
-0.1451393487660678
 20
-1.72399375
 30
0.0
 11
-0.0901106512339319
 21
-1.72399375
 31
0.0
  0
LINE
  5
1DC
330
189
100
AcDbEntity
  8
AM_9
100
AcDbLine
 10
-0.5941875
 20
-1.721649999999999
 30
0.0
 11
-0.5941875
 21
1.721649999999999
 31
0.0
  0
ARC
  5
1DD
330
189
100
AcDbEntity
  8
AM_9
100
AcDbCircle
 10
-0.5441875
 20
1.72165
 30
0.0
 40
0.05
100
AcDbArc
 50
90.0
 51
180.0
  0
ARC
  5
1DE
330
189
100
AcDbEntity
  8
AM_9
100
AcDbCircle
 10
-0.5441875000000004
 20
-1.72165
 30
0.0
 40
0.0499999999999996
100
AcDbArc
 50
180.0
 51
270.0
  0
LINE
  5
1DF
330
189
100
AcDbEntity
  8
AM_9
100
AcDbLine
 10
0.3089374999999999
 20
1.77165
 30
0.0
 11
-0.062596302467864
 21
1.77165
 31
0.0
  0
LINE
  5
1E0
330
189
100
AcDbEntity
  8
AM_9
100
AcDbLine
 10
-0.062596302467864
 20
-1.77165
 30
0.0
 11
0.3089374999999999
 21
-1.77165
 31
0.0
  0
LINE
  5
1E1
330
189
100
AcDbEntity
  8
AM_9
100
AcDbLine
 10
0.3589375
 20
-1.72165
 30
0.0
 11
0.3589375
 21
1.72165
 31
0.0
  0
ARC
  5
1E2
330
189
100
AcDbEntity
  8
AM_9
100
AcDbCircle
 10
0.3089375000000003
 20
1.72165
 30
0.0
 40
0.0499999999999997
100
AcDbArc
 50
0.0
 51
90.0
  0
ARC
  5
1E3
330
189
100
AcDbEntity
  8
AM_9
100
AcDbCircle
 10
0.3089375000000002
 20
-1.72165
 30
0.0
 40
0.0499999999999998
100
AcDbArc
 50
270.0
 51
0.0
  0
LINE
  5
1E4
330
189
100
AcDbEntity
  8
AM_9
100
AcDbLine
 10
0.3089374999999999
 20
-1.77165
 30
0.0
 11
0.3089374999999999
 21
1.77165
 31
0.0
  0
LINE
  5
1E5
330
189
100
AcDbEntity
  8
AM_9
100
AcDbLine
 10
-0.1451393487660678
 20
1.72399375
 30
0.0
 11
-0.1726536975321361
 21
1.77165
 31
0.0
  0
LINE
  5
1E6
330
189
100
AcDbEntity
  8
AM_9
100
AcDbLine
 10
-0.1726536975321361
 20
-1.77165
 30
0.0
 11
-0.1451393487660678
 21
-1.72399375
 31
0.0
  0
LINE
  5
1E7
330
189
100
AcDbEntity
  8
AM_9
100
AcDbLine
 10
-0.1451393487660678
 20
-1.72399375
 30
0.0
 11
-0.1451393487660678
 21
1.72399375
 31
0.0
  0
LINE
  5
1E8
330
189
100
AcDbEntity
  8
AM_9
100
AcDbLine
 10
-0.1726536975321361
 20
1.77165
 30
0.0
 11
-0.5441874999999997
 21
1.77165
 31
0.0
  0
LINE
  5
1E9
330
189
100
AcDbEntity
  8
AM_9
100
AcDbLine
 10
-0.5441874999999997
 20
-1.77165
 30
0.0
 11
-0.1726536975321361
 21
-1.77165
 31
0.0
  0
LINE
  5
1EA
330
189
100
AcDbEntity
  8
AM_9
100
AcDbLine
 10
-0.1726536975321361
 20
-1.77165
 30
0.0
 11
-0.1726536975321361
 21
1.77165
 31
0.0
  0
LINE
  5
1EB
330
189
100
AcDbEntity
  8
AM_9
100
AcDbLine
 10
-0.5441874999999997
 20
-1.77165
 30
0.0
 11
-0.5441874999999997
 21
1.77165
 31
0.0
  0
LINE
  5
1EC
330
189
100
AcDbEntity
  8
AM_9
100
AcDbLine
 10
-0.0901106512339319
 20
-1.72399375
 30
0.0
 11
-0.062596302467864
 21
-1.77165
 31
0.0
  0
LINE
  5
1ED
330
189
100
AcDbEntity
  8
AM_9
100
AcDbLine
 10
-0.062596302467864
 20
1.77165
 30
0.0
 11
-0.0901106512339319
 21
1.72399375
 31
0.0
  0
LINE
  5
1EE
330
189
100
AcDbEntity
  8
AM_9
100
AcDbLine
 10
-0.062596302467864
 20
-1.77165
 30
0.0
 11
-0.062596302467864
 21
1.77165
 31
0.0
  0
LINE
  5
1EF
330
189
100
AcDbEntity
  8
AM_9
100
AcDbLine
 10
-0.0901106512339319
 20
-1.72399375
 30
0.0
 11
-0.0901106512339319
 21
1.72399375
 31
0.0
  0
LINE
  5
1F0
330
189
100
AcDbEntity
  8
AM_5
100
AcDbLine
 10
-1.007166666666667
 20
1.448318055555555
 30
0.0
 11
-1.007166666666667
 21
1.470868055555556
 31
0.0
  0
LINE
  5
1F1
330
189
100
AcDbEntity
  8
AM_5
100
AcDbLine
 10
-1.007166666666667
 20
1.470868055555556
 30
0.0
 11
-0.9941474180964404
 21
1.448318055555555
 31
0.0
  0
LINE
  5
1F2
330
189
100
AcDbEntity
  8
AM_5
100
AcDbLine
 10
-1.007166666666667
 20
1.303418055555556
 30
0.0
 11
-1.007166666666667
 21
1.280868055555556
 31
0.0
  0
LINE
  5
1F3
330
189
100
AcDbEntity
  8
AM_5
100
AcDbLine
 10
-1.007166666666667
 20
1.280868055555556
 30
0.0
 11
-0.9941474180964408
 21
1.303418055555555
 31
0.0
  0
LINE
  5
1F4
330
189
100
AcDbEntity
  8
AM_5
100
AcDbLine
 10
-1.007166666666666
 20
-1.448318055555555
 30
0.0
 11
-1.007166666666666
 21
-1.470868055555556
 31
0.0
  0
LINE
  5
1F5
330
189
100
AcDbEntity
  8
AM_5
100
AcDbLine
 10
-1.007166666666666
 20
-1.470868055555556
 30
0.0
 11
-0.9941474180964581
 21
-1.448318055555555
 31
0.0
  0
LINE
  5
1F6
330
189
100
AcDbEntity
  8
AM_5
100
AcDbLine
 10
-1.007166666666666
 20
-1.303418055555556
 30
0.0
 11
-1.007166666666666
 21
-1.280868055555556
 31
0.0
  0
LINE
  5
1F7
330
189
100
AcDbEntity
  8
AM_5
100
AcDbLine
 10
-1.007166666666666
 20
-1.280868055555556
 30
0.0
 11
-0.9941474180964582
 21
-1.303418055555555
 31
0.0
  0
LINE
  5
1FA
330
189
100
AcDbEntity
  8
AM_7
100
AcDbLine
 10
-0.8851666666666664
 20
1.375868055555555
 30
0.0
 11
-1.983216666666667
 21
1.375868055555555
 31
0.0
  0
LINE
  5
1FB
330
189
100
AcDbEntity
  8
AM_7
100
AcDbLine
 10
-0.8851666666666544
 20
-1.375868055555555
 30
0.0
 11
-1.983216666666667
 21
-1.375868055555555
 31
0.0
  0
ARC
  5
1FC
330
189
100
AcDbEntity
  8
AM_4
100
AcDbCircle
 10
-1.717166666666667
 20
-1.592340561259647
 30
0.0
 40
0.0499999999999998
100
AcDbArc
 50
180.0
 51
268.0000000000001
  0
ARC
  5
1FD
330
189
100
AcDbEntity
  8
AM_4
100
AcDbCircle
 10
-1.717166666666667
 20
1.592340561259647
 30
0.0
 40
0.0499999999999999
100
AcDbArc
 50
92.0
 51
180.0
  0
LWPOLYLINE
  5
1FE
330
189
100
AcDbEntity
  8
AM_4
100
AcDbPolyline
 90
        6
 70
     0
 43
0.0
 10
-1.718911641501792
 20
-1.287841179836565
 10
-1.735267379049313
 20
-1.285448556434734
 10
-1.749589434706216
 20
-1.279364388634316
 10
-1.760312136834694
 20
-1.270254606252683
 10
-1.766239794707624
 20
-1.259085397042463
 10
-1.767166666666666
 20
-1.252260942957524
  0
LWPOLYLINE
  5
1FF
330
189
100
AcDbEntity
  8
AM_4
100
AcDbPolyline
 90
        6
 70
     0
 43
0.0
 10
-1.767166666666666
 20
1.252260942957524
 10
-1.766636751154502
 20
1.257431462601879
 10
-1.761382398319422
 20
1.268885094433819
 10
-1.751067543597212
 20
1.278431471242283
 10
-1.736926837990357
 20
1.284965208334057
 10
-1.718911641501792
 20
1.287841179836565
  0
LINE
  5
200
330
189
100
AcDbEntity
  8
AM_4
100
AcDbLine
 10
-1.837166666666666
 20
1.052631578947368
 30
0.0
 11
-2.0
 21
1.052631578947368
 31
0.0
  0
LINE
  5
201
330
189
100
AcDbEntity
  8
AM_4
100
AcDbLine
 10
-2.0
 20
-1.052631578947368
 30
0.0
 11
-1.837166666666666
 21
-1.052631578947368
 31
0.0
  0
LINE
  5
202
330
189
100
AcDbEntity
  8
AM_4
100
AcDbLine
 10
-2.0
 20
-1.052631578947368
 30
0.0
 11
-2.0
 21
1.052631578947368
 31
0.0
  0
LINE
  5
203
330
189
100
AcDbEntity
  8
AM_4
100
AcDbLine
 10
-1.327166666666666
 20
-1.078337841309485
 30
0.0
 11
-1.767166666666666
 21
-1.078337841309485
 31
0.0
  0
LINE
  5
204
330
189
100
AcDbEntity
  8
AM_4
100
AcDbLine
 10
-1.327166666666666
 20
1.078337841309485
 30
0.0
 11
-1.767166666666666
 21
1.078337841309485
 31
0.0
  0
LWPOLYLINE
  5
205
330
189
100
AcDbEntity
  8
AM_4
100
AcDbPolyline
 90
        6
 70
     0
 43
0.0
 10
-1.718911641501792
 20
1.019140602985677
 10
-1.735267379049313
 20
1.016747979583846
 10
-1.749589434706216
 20
1.010663811783428
 10
-1.760312136834694
 20
1.001554029401795
 10
-1.766239794707624
 20
0.9903848201915744
 10
-1.767166666666666
 20
0.9835603661066358
  0
LWPOLYLINE
  5
206
330
189
100
AcDbEntity
  8
AM_4
100
AcDbPolyline
 90
        6
 70
     0
 43
0.0
 10
-1.767166666666666
 20
-0.983560366106636
 10
-1.766636751154502
 20
-0.9887308857509912
 10
-1.761382398319422
 20
-1.000184517582931
 10
-1.751067543597212
 20
-1.009730894391395
 10
-1.736926837990357
 20
-1.016264631483169
 10
-1.718911641501792
 20
-1.019140602985677
  0
LINE
  5
207
330
189
100
AcDbEntity
  8
AM_4
100
AcDbLine
 10
-1.718911641501792
 20
-1.019140602985677
 30
0.0
 11
-1.718911641501792
 21
1.019140602985677
 31
0.0
  0
LINE
  5
208
330
189
100
AcDbEntity
  8
AM_4
100
AcDbLine
 10
-1.718911641501792
 20
-1.019140602985677
 30
0.0
 11
-1.327166666666666
 21
-1.028878695709276
 31
0.0
  0
LINE
  5
209
330
189
100
AcDbEntity
  8
AM_4
100
AcDbLine
 10
-1.327166666666666
 20
-1.028878695709276
 30
0.0
 11
-1.327166666666666
 21
-1.297579272560164
 31
0.0
  0
LINE
  5
20A
330
189
100
AcDbEntity
  8
AM_4
100
AcDbLine
 10
-1.327166666666666
 20
-1.297579272560164
 30
0.0
 11
-1.718911641501792
 21
-1.287841179836565
 31
0.0
  0
LINE
  5
20B
330
189
100
AcDbEntity
  8
AM_4
100
AcDbLine
 10
-1.718911641501792
 20
1.287841179836565
 30
0.0
 11
-1.718911641501792
 21
1.642310102610602
 31
0.0
  0
LINE
  5
20C
330
189
100
AcDbEntity
  8
AM_4
100
AcDbLine
 10
-1.718911641501792
 20
1.287841179836565
 30
0.0
 11
-1.327166666666666
 21
1.297579272560164
 31
0.0
  0
LINE
  5
20D
330
189
100
AcDbEntity
  8
AM_4
100
AcDbLine
 10
-1.327166666666666
 20
1.297579272560164
 30
0.0
 11
-1.327166666666666
 21
1.028878695709275
 31
0.0
  0
LINE
  5
20E
330
189
100
AcDbEntity
  8
AM_4
100
AcDbLine
 10
-1.327166666666666
 20
1.028878695709275
 30
0.0
 11
-1.718911641501792
 21
1.019140602985677
 31
0.0
  0
LINE
  5
20F
330
189
100
AcDbEntity
  8
AM_4
100
AcDbLine
 10
-1.718911641501792
 20
-1.642310102610602
 30
0.0
 11
-1.0
 21
-1.66741505032842
 31
0.0
  0
LINE
  5
210
330
189
100
AcDbEntity
  8
AM_4
100
AcDbLine
 10
-1.0
 20
1.66741505032842
 30
0.0
 11
-1.718911641501792
 21
1.642310102610602
 31
0.0
  0
LINE
  5
211
330
189
100
AcDbEntity
  8
AM_4
100
AcDbLine
 10
-1.718911641501792
 20
-1.642310102610602
 30
0.0
 11
-1.718911641501792
 21
-1.287841179836565
 31
0.0
  0
ENDBLK
  5
18C
330
189
100
AcDbEntity
  8
0
100
AcDbBlockEnd
  0
BLOCK
  5
214
330
212
100
AcDbEntity
  8
0
100
AcDbBlockBegin
  2
7_069351H_0_in_069351_2
 70
     2
 10
0.0
 20
0.0
 30
0.0
  3
7_069351H_0_in_069351_2
  1

  0
ATTDEF
  5
216
330
212
100
AcDbEntity
  8
AM_6
100
AcDbText
 10
6.216018734436275
 20
2.375
 30
0.0
 40
0.5
  1
WSTU-IP -Housing -Inch
100
AcDbAttributeDefinition
  3

  2
NN
 70
     8
280
     0
  0
ATTDEF
  5
217
330
212
100
AcDbEntity
  8
AM_6
100
AcDbText
 10
6.216018734436275
 20
1.875
 30
0.0
 40
0.5
  1
Imperial Wide Slot Take-Up Bearings
100
AcDbAttributeDefinition
  3

  2
NT
 70
     8
280
     0
  0
ATTDEF
  5
218
330
212
100
AcDbEntity
  8
AM_6
100
AcDbText
 10
6.216018734436275
 20
1.375
 30
0.0
 40
0.5
  1
069351H
100
AcDbAttributeDefinition
  3

  2
NB
 70
     8
280
     0
  0
ATTDEF
  5
219
330
212
100
AcDbEntity
  8
AM_6
100
AcDbText
 10
6.216018734436275
 20
0.875
 30
0.0
 40
0.5
  1
$PN.H
100
AcDbAttributeDefinition
  3

  2
NBSYN
 70
     8
280
     0
  0
ATTDEF
  5
21A
330
212
100
AcDbEntity
  8
AM_6
100
AcDbText
 10
6.216018734436275
 20
0.375
 30
0.0
 40
0.5
  1
069351
100
AcDbAttributeDefinition
  3

  2
LINA
 70
     8
280
     0
  0
ATTDEF
  5
21B
330
212
100
AcDbEntity
  8
AM_6
100
AcDbText
 10
6.216018734436275
 20
-0.125
 30
0.0
 40
0.5
  1
2
100
AcDbAttributeDefinition
  3

  2
SS
 70
     8
280
     0
  0
ATTDEF
  5
21C
330
212
100
AcDbEntity
  8
AM_6
100
AcDbText
 10
6.216018734436275
 20
-0.625
 30
0.0
 40
0.5
  1
069351
100
AcDbAttributeDefinition
  3

  2
PN
 70
     8
280
     0
  0
ATTDEF
  5
21D
330
212
100
AcDbEntity
  8
AM_6
100
AcDbText
 10
6.216018734436275
 20
-1.125
 30
0.0
 40
0.5
  1
WSTU-IP-200R
100
AcDbAttributeDefinition
  3

  2
DESCRIPTION
 70
     8
280
     0
  0
ATTDEF
  5
21E
330
212
100
AcDbEntity
  8
AM_6
100
AcDbText
 10
6.216018734436275
 20
-1.625
 30
0.0
 40
0.5
  1
Non-Expansion
100
AcDbAttributeDefinition
  3

  2
EF
 70
     8
280
     0
  0
ATTDEF
  5
21F
330
212
100
AcDbEntity
  8
AM_6
100
AcDbText
 10
6.216018734436275
 20
-2.125
 30
0.0
 40
0.5
  1
Contact Seal
100
AcDbAttributeDefinition
  3

  2
ST
 70
     8
280
     0
  0
ATTDEF
  5
220
330
212
100
AcDbEntity
  8
AM_6
100
AcDbText
 10
6.216018734436275
 20
-2.625
 30
0.0
 40
0.5
  1
2-55/64
100
AcDbAttributeDefinition
  3

  2
A
 70
     8
280
     0
  0
ATTDEF
  5
221
330
212
100
AcDbEntity
  8
AM_6
100
AcDbText
 10
6.216018734436275
 20
-3.125
 30
0.0
 40
0.5
  1
6-3/16
100
AcDbAttributeDefinition
  3

  2
B
 70
     8
280
     0
  0
ATTDEF
  5
222
330
212
100
AcDbEntity
  8
AM_6
100
AcDbText
 10
6.216018734436275
 20
-3.625
 30
0.0
 40
0.5
  1
11/16
100
AcDbAttributeDefinition
  3

  2
C
 70
     8
280
     0
  0
ATTDEF
  5
223
330
212
100
AcDbEntity
  8
AM_6
100
AcDbText
 10
6.216018734436275
 20
-4.125
 30
0.0
 40
0.5
  1
3-5/8
100
AcDbAttributeDefinition
  3

  2
D
 70
     8
280
     0
  0
ATTDEF
  5
224
330
212
100
AcDbEntity
  8
AM_6
100
AcDbText
 10
6.216018734436275
 20
-4.625
 30
0.0
 40
0.5
  1
3-15/16
100
AcDbAttributeDefinition
  3

  2
E
 70
     8
280
     0
  0
ATTDEF
  5
225
330
212
100
AcDbEntity
  8
AM_6
100
AcDbText
 10
6.216018734436275
 20
-5.125
 30
0.0
 40
0.5
  1
1-1/8
100
AcDbAttributeDefinition
  3

  2
F
 70
     8
280
     0
  0
ATTDEF
  5
226
330
212
100
AcDbEntity
  8
AM_6
100
AcDbText
 10
6.216018734436275
 20
-5.625
 30
0.0
 40
0.5
  1
15/16
100
AcDbAttributeDefinition
  3

  2
G
 70
     8
280
     0
  0
ATTDEF
  5
227
330
212
100
AcDbEntity
  8
AM_6
100
AcDbText
 10
6.216018734436275
 20
-6.125
 30
0.0
 40
0.5
  1
3/4
100
AcDbAttributeDefinition
  3

  2
H
 70
     8
280
     0
  0
ATTDEF
  5
228
330
212
100
AcDbEntity
  8
AM_6
100
AcDbText
 10
6.216018734436275
 20
-6.625
 30
0.0
 40
0.5
  1
3-5/16
100
AcDbAttributeDefinition
  3

  2
J
 70
     8
280
     0
  0
ATTDEF
  5
229
330
212
100
AcDbEntity
  8
AM_6
100
AcDbText
 10
6.216018734436275
 20
-7.125
 30
0.0
 40
0.5
  1
1-15/16
100
AcDbAttributeDefinition
  3

  2
K
 70
     8
280
     0
  0
ATTDEF
  5
22A
330
212
100
AcDbEntity
  8
AM_6
100
AcDbText
 10
6.216018734436275
 20
-7.625
 30
0.0
 40
0.5
  1
3-9/32
100
AcDbAttributeDefinition
  3

  2
L
 70
     8
280
     0
  0
ATTDEF
  5
22B
330
212
100
AcDbEntity
  8
AM_6
100
AcDbText
 10
6.216018734436275
 20
-8.125
 30
0.0
 40
0.5
  1
4
100
AcDbAttributeDefinition
  3

  2
M
 70
     8
280
     0
  0
ATTDEF
  5
22C
330
212
100
AcDbEntity
  8
AM_6
100
AcDbText
 10
6.216018734436275
 20
-8.625
 30
0.0
 40
0.5
  1
4-3/4
100
AcDbAttributeDefinition
  3

  2
N
 70
     8
280
     0
  0
ATTDEF
  5
22D
330
212
100
AcDbEntity
  8
AM_6
100
AcDbText
 10
6.216018734436275
 20
-9.125
 30
0.0
 40
0.5
  1
2-15/16
100
AcDbAttributeDefinition
  3

  2
R
 70
     8
280
     0
  0
ATTDEF
  5
22E
330
212
100
AcDbEntity
  8
AM_6
100
AcDbText
 10
6.216018734436275
 20
-9.625
 30
0.0
 40
0.5
  1
2
100
AcDbAttributeDefinition
  3

  2
S
 70
     8
280
     0
  0
ATTDEF
  5
22F
330
212
100
AcDbEntity
  8
AM_6
100
AcDbText
 10
6.216018734436275
 20
-10.125
 30
0.0
 40
0.5
  1
2
100
AcDbAttributeDefinition
  3

  2
T
 70
     8
280
     0
  0
ATTDEF
  5
230
330
212
100
AcDbEntity
  8
AM_6
100
AcDbText
 10
6.216018734436275
 20
-10.625
 30
0.0
 40
0.5
  1
1/4
100
AcDbAttributeDefinition
  3

  2
X
 70
     8
280
     0
  0
ATTDEF
  5
231
330
212
100
AcDbEntity
  8
AM_6
100
AcDbText
 10
6.216018734436275
 20
-11.125
 30
0.0
 40
0.5
  1
0.020
100
AcDbAttributeDefinition
  3

  2
Y
 70
     8
280
     0
  0
ATTDEF
  5
232
330
212
100
AcDbEntity
  8
AM_6
100
AcDbText
 10
6.216018734436275
 20
-11.625
 30
0.0
 40
0.5
  1
2-19/64
100
AcDbAttributeDefinition
  3

  2
Z
 70
     8
280
     0
  0
ATTDEF
  5
233
330
212
100
AcDbEntity
  8
AM_6
100
AcDbText
 10
6.216018734436275
 20
-12.125
 30
0.0
 40
0.5
  1
baldor
100
AcDbAttributeDefinition
  3

  2
COMPANY
 70
     8
280
     0
  0
LWPOLYLINE
  5
234
330
212
100
AcDbEntity
  8
AM_9
100
AcDbPolyline
 90
        3
 70
     0
 43
0.0
 10
0.4997186454536185
 20
-0.8272913721502766
 10
0.4998068673714318
 20
-0.8299647301469097
 10
0.4999999999999997
 20
-0.8428648351858019
  0
LWPOLYLINE
  5
235
330
212
100
AcDbEntity
  8
AM_9
100
AcDbPolyline
 90
       29
 70
     0
 43
0.0
 10
-0.4999999999999999
 20
-0.8428648351857928
 10
-0.4972859759951685
 20
-0.7944022348509788
 10
-0.4885567715876373
 20
-0.7434713626433993
 10
-0.4739459290838016
 20
-0.6931614116850943
 10
-0.4537411704119982
 20
-0.6444336369482332
 10
-0.4278584446237199
 20
-0.5974532702522363
 10
-0.3967493628224912
 20
-0.5530455542712794
 10
-0.3609759574136583
 20
-0.512061703054923
 10
-0.3198828863990356
 20
-0.4742256554079404
 10
-0.2746112532034534
 20
-0.4408352859423644
 10
-0.2259812163412367
 20
-0.4125974172504794
 10
-0.1742195987700105
 20
-0.3898863606107615
 10
-0.1199951606591383
 20
-0.3730216997515274
 10
-0.0643573581755452
 20
-0.3624078254175936
 10
-0.0090384309616802
 20
-0.358326160919304
 10
0.0465752561649365
 20
-0.3604444571288199
 10
0.1014131839353577
 20
-0.3687114819359002
 10
0.154283889171895
 20
-0.3828902771131631
 10
0.2054084812436388
 20
-0.402761146505209
 10
0.2538757843238473
 20
-0.4278885302396516
 10
0.2999267427067223
 20
-0.4585530384844806
 10
0.3424149932898088
 20
-0.4939660888990804
 10
0.3805945254535746
 20
-0.5334124847833857
 10
0.4146724988647776
 20
-0.5773814185043636
 10
0.4436098177911654
 20
-0.6246250877374051
 10
0.4668461167945295
 20
-0.6741907786893503
 10
0.4839610315566641
 20
-0.7252287210249602
 10
0.4950257908553738
 20
-0.7775046950186776
 10
0.4997186454536185
 20
-0.8272913721502766
  0
ELLIPSE
  5
236
330
212
100
AcDbEntity
  8
AM_9
100
AcDbEllipse
 10
-0.0000000000000001
 20
-0.8428648351858024
 30
0.0
 11
-0.4999999999999999
 21
6.123233995736765E-17
 31
0.0
210
0.0
220
0.0
230
1.0
 40
0.9271838545667875
 41
3.275230366960907
 42
5.991369617754644
  0
ELLIPSE
  5
237
330
212
100
AcDbEntity
  8
AM_9
100
AcDbEllipse
 10
-0.0000000000000001
 20
-0.8803254945273935
 30
0.0
 11
0.3999999999999997
 21
0.0
 31
0.0
210
0.0
220
0.0
230
1.0
 40
0.9271838545667879
 41
0.0
 42
6.283185307179586
  0
LINE
  5
238
330
212
100
AcDbEntity
  8
AM_9
100
AcDbLine
 10
0.4999891679933215
 20
-0.8459657796933463
 30
0.0
 11
0.4999975084852339
 21
-0.8413776224840003
 31
0.0
  0
LWPOLYLINE
  5
239
330
212
100
AcDbEntity
  8
AM_9
100
AcDbPolyline
 90
       23
 70
     0
 43
0.0
 10
-0.0000000000000001
 20
-1.313738377012517
 10
0.0197372500885662
 20
-1.313371703022724
 10
0.0538856033614311
 20
-1.310998365238311
 10
0.0877931183146447
 20
-1.306429452356625
 10
0.1212954910283865
 20
-1.299685072766783
 10
0.1542345218779168
 20
-1.290795500765937
 10
0.1864543368398806
 20
-1.279801293785165
 10
0.2178021384014092
 20
-1.266753205750841
 10
0.2481289788113211
 20
-1.251712053796988
 10
0.2772905522455437
 20
-1.234748527288551
 10
0.3051480005354656
 20
-1.215942927054945
 10
0.3315687224698395
 20
-1.195384823288959
 10
0.3564271719837105
 20
-1.173172622787893
 10
0.379605626425263
 20
-1.14941304019924
 10
0.400994903264984
 20
-1.124220473518194
 10
0.4204950027682691
 20
-1.097716290791014
 10
0.4380156557875033
 20
-1.070028042030744
 10
0.4534767600939649
 20
-1.041288616774536
 10
0.4668086952783054
 20
-1.011635372499254
 10
0.4779525144784371
 20
-0.9812092614327421
 10
0.4868600199943446
 20
-0.950153982675597
 10
0.4934937380312576
 20
-0.9186151829656771
 10
0.4948947619507076
 20
-0.9100129867023375
  0
LWPOLYLINE
  5
23A
330
212
100
AcDbEntity
  8
AM_9
100
AcDbPolyline
 90
       23
 70
     0
 43
0.0
 10
-0.4959334489676753
 20
-0.9028255298419656
 10
-0.4917295206561751
 20
-0.9281938531102217
 10
-0.4844258350526219
 20
-0.959524979378168
 10
-0.4748769012726067
 20
-0.9903105716754164
 10
-0.4631263536280651
 20
-1.020410853150366
 10
-0.4492272319965858
 20
-1.049688833543427
 10
-0.4332419184116333
 20
-1.078010757118401
 10
-0.41524206546375
 20
-1.105246598603799
 10
-0.3953084934900005
 20
-1.131270609980907
 10
-0.3735310343960205
 20
-1.155961913099138
 10
-0.3500083035953986
 20
-1.179205126082844
 10
-0.3248473873688927
 20
-1.200891006217648
 10
-0.2981634400329864
 20
-1.220917089089618
 10
-0.2700791926025711
 20
-1.239188303429566
 10
-0.2407243811188926
 20
-1.255617543201
 10
-0.210235107697827
 20
-1.270126182420334
 10
-0.1787531501849945
 20
-1.28264452324482
 10
-0.1464252370094806
 20
-1.29311217318286
 10
-0.1134023026580858
 20
-1.301478352143826
 10
-0.0798387366147656
 20
-1.307702133920565
 10
-0.045891635182514
 20
-1.311752629296698
 10
-0.0117200618629919
 20
-1.313609119222618
 10
-0.0000000000000001
 20
-1.313738377012517
  0
LINE
  5
23B
330
212
100
AcDbEntity
  8
AM_9
100
AcDbLine
 10
-0.4999978549849181
 20
-0.8442447637479443
 30
0.0
 11
-0.4999770562826811
 21
-0.8473778710620566
 31
0.0
  0
LWPOLYLINE
  5
23C
330
212
100
AcDbEntity
  8
AM_9
100
AcDbPolyline
 90
       29
 70
     0
 43
0.0
 10
0.4999267572344008
 20
-0.8507934715447739
 10
0.4974177853620958
 20
-0.8894450880181406
 10
0.4897587609599763
 20
-0.9352373179358155
 10
0.4771543560610303
 20
-0.9795361187422107
 10
0.4578969378198131
 20
-1.025618521058138
 10
0.4331193190038581
 20
-1.069211045410755
 10
0.4032817867744017
 20
-1.10961165038108
 10
0.3678657621475979
 20
-1.147194658358511
 10
0.3277891047433937
 20
-1.180941458415418
 10
0.2837675035589979
 20
-1.210334631935062
 10
0.2354615016076554
 20
-1.235440673685017
 10
0.1839288002757406
 20
-1.255723294117154
 10
0.1301424245374911
 20
-1.270847489139216
 10
0.0656629208612896
 20
-1.281719038222434
 10
-0.0000000000000001
 20
-1.285381806410121
 10
-0.0552674496462543
 20
-1.282770494196412
 10
-0.1100035172302846
 20
-1.27502343120141
 10
-0.1631715026794427
 20
-1.262270927894299
 10
-0.2142105759060164
 20
-1.244557448305988
 10
-0.2627420881973817
 20
-1.222053154581435
 10
-0.3079080164819877
 20
-1.195104556258541
 10
-0.3498930255491982
 20
-1.163298928842458
 10
-0.3876461470951824
 20
-1.127274825040131
 10
-0.4204849353692303
 20
-1.087590906321667
 10
-0.4483052303573751
 20
-1.04397304242121
 10
-0.4705157167483976
 20
-0.9972057151341953
 10
-0.4866665672801091
 20
-0.9481151875226279
 10
-0.4966413269691721
 20
-0.8961314410382027
 10
-0.4999999999999999
 20
-0.8428648351857928
  0
LINE
  5
23D
330
212
100
AcDbEntity
  8
AM_9
100
AcDbLine
 10
0.4999999999999997
 20
-0.8428648351858019
 30
0.0
 11
0.4999267572344008
 21
-0.8507934715447739
 31
0.0
  0
ELLIPSE
  5
23E
330
212
100
AcDbEntity
  8
AM_9
100
AcDbEllipse
 10
-0.0000000000000002
 20
-0.8428648351858022
 30
0.0
 11
-0.5
 21
6.123233995736766E-17
 31
0.0
210
0.0
220
0.0
230
1.0
 40
0.9271838545667873
 41
0.3506124358742575
 42
2.89300021119494
  0
LINE
  5
23F
330
212
100
AcDbEntity
  8
AM_9
100
AcDbLine
 10
-0.7349999999999998
 20
1.333170562981347
 30
0.0
 11
0.735
 21
1.333170562981347
 31
0.0
  0
LINE
  5
240
330
212
100
AcDbEntity
  8
AM_9
100
AcDbLine
 10
0.7350000000000001
 20
-1.333170562981347
 30
0.0
 11
-0.7349999999999995
 21
-1.333170562981347
 31
0.0
  0
LINE
  5
241
330
212
100
AcDbEntity
  8
AM_9
100
AcDbLine
 10
-1.0
 20
-1.77165
 30
0.0
 11
1.0
 21
-1.77165
 31
0.0
  0
LINE
  5
242
330
212
100
AcDbEntity
  8
AM_9
100
AcDbLine
 10
1.0
 20
1.77165
 30
0.0
 11
-1.0
 21
1.77165
 31
0.0
  0
LINE
  5
243
330
212
100
AcDbEntity
  8
AM_9
100
AcDbLine
 10
1.0
 20
0.6918826219092369
 30
0.0
 11
1.0
 21
-0.6918826219092369
 31
0.0
  0
LINE
  5
244
330
212
100
AcDbEntity
  8
AM_9
100
AcDbLine
 10
0.8875000000000001
 20
0.8312913523548766
 30
0.0
 11
0.8875000000000001
 21
-0.8312913523548766
 31
0.0
  0
LINE
  5
245
330
212
100
AcDbEntity
  8
AM_9
100
AcDbLine
 10
-0.8874999999999998
 20
0.8312913523548766
 30
0.0
 11
-0.8874999999999998
 21
-0.8312913523548766
 31
0.0
  0
LINE
  5
246
330
212
100
AcDbEntity
  8
AM_9
100
AcDbLine
 10
-0.9999999999999999
 20
0.6918826219092369
 30
0.0
 11
-0.9999999999999999
 21
-0.6918826219092369
 31
0.0
  0
LINE
  5
247
330
212
100
AcDbEntity
  8
AM_9
100
AcDbLine
 10
-0.7349999999999998
 20
0.875
 30
0.0
 11
0.7350000000000001
 21
0.875
 31
0.0
  0
LINE
  5
248
330
212
100
AcDbEntity
  8
AM_9
100
AcDbLine
 10
-0.7349999999999998
 20
0.9687499999999999
 30
0.0
 11
0.7350000000000001
 21
0.9687499999999999
 31
0.0
  0
LINE
  5
249
330
212
100
AcDbEntity
  8
AM_9
100
AcDbLine
 10
-0.7349999999999998
 20
0.9687499999999999
 30
0.0
 11
-0.7349999999999998
 21
-0.9687499999999999
 31
0.0
  0
LINE
  5
24A
330
212
100
AcDbEntity
  8
AM_9
100
AcDbLine
 10
0.7350000000000001
 20
-0.9687499999999999
 30
0.0
 11
0.7350000000000001
 21
0.9687499999999999
 31
0.0
  0
LINE
  5
24B
330
212
100
AcDbEntity
  8
AM_9
100
AcDbLine
 10
-0.7349999999999998
 20
-0.874999998603017
 30
0.0
 11
0.7350000000000001
 21
-0.874999998603017
 31
0.0
  0
LINE
  5
24C
330
212
100
AcDbEntity
  8
AM_9
100
AcDbLine
 10
-0.7349999999999998
 20
-0.96875
 30
0.0
 11
0.7350000000000001
 21
-0.96875
 31
0.0
  0
LINE
  5
24D
330
212
100
AcDbEntity
  8
AM_7
100
AcDbLine
 10
0.0000000000000002
 20
-0.5906250000000001
 30
0.0
 11
0.0000000000000002
 21
0.5906250000000001
 31
0.0
  0
LINE
  5
24E
330
212
100
AcDbEntity
  8
AM_7
100
AcDbLine
 10
1.21
 20
0.0
 30
0.0
 11
-2.14396875
 21
0.0
 31
0.0
  0
LINE
  5
24F
330
212
100
AcDbEntity
  8
AM_4
100
AcDbLine
 10
-0.3437499999999998
 20
-2.0
 30
0.0
 11
-0.3437499999999998
 21
-2.375
 31
0.0
  0
LINE
  5
250
330
212
100
AcDbEntity
  8
AM_4
100
AcDbLine
 10
-0.8999999999999998
 20
-2.375
 30
0.0
 11
-0.8999999999999998
 21
-1.331994568378783
 31
0.0
  0
LINE
  5
251
330
212
100
AcDbEntity
  8
AM_4
100
AcDbLine
 10
-0.8999999999999998
 20
-2.375
 30
0.0
 11
-0.3437499999999998
 21
-2.375
 31
0.0
  0
LINE
  5
252
330
212
100
AcDbEntity
  8
AM_4
100
AcDbLine
 10
-0.3437499999999998
 20
2.375
 30
0.0
 11
-0.3437499999999998
 21
2.0
 31
0.0
  0
LINE
  5
253
330
212
100
AcDbEntity
  8
AM_4
100
AcDbLine
 10
-0.8999999999999998
 20
2.375
 30
0.0
 11
-0.3437499999999998
 21
2.375
 31
0.0
  0
LINE
  5
254
330
212
100
AcDbEntity
  8
AM_4
100
AcDbLine
 10
-0.8999999999999998
 20
1.331994568378783
 30
0.0
 11
-0.8999999999999998
 21
2.375
 31
0.0
  0
LINE
  5
255
330
212
100
AcDbEntity
  8
AM_4
100
AcDbLine
 10
0.9000000000000001
 20
1.331994568378783
 30
0.0
 11
0.9000000000000001
 21
2.375
 31
0.0
  0
LINE
  5
256
330
212
100
AcDbEntity
  8
AM_4
100
AcDbLine
 10
-0.8999999999999998
 20
2.2625
 30
0.0
 11
-0.3437499999999998
 21
2.2625
 31
0.0
  0
LINE
  5
257
330
212
100
AcDbEntity
  8
AM_4
100
AcDbLine
 10
0.3437500000000001
 20
2.0
 30
0.0
 11
0.3437500000000003
 21
2.375
 31
0.0
  0
LINE
  5
258
330
212
100
AcDbEntity
  8
AM_4
100
AcDbLine
 10
-0.3437499999999998
 20
2.0
 30
0.0
 11
0.3437500000000001
 21
2.0
 31
0.0
  0
LINE
  5
259
330
212
100
AcDbEntity
  8
AM_4
100
AcDbLine
 10
0.3437500000000001
 20
-2.0
 30
0.0
 11
-0.3437499999999998
 21
-2.0
 31
0.0
  0
LINE
  5
25A
330
212
100
AcDbEntity
  8
AM_4
100
AcDbLine
 10
0.3437500000000003
 20
-2.375
 30
0.0
 11
0.3437500000000001
 21
-2.0
 31
0.0
  0
LINE
  5
25B
330
212
100
AcDbEntity
  8
AM_4
100
AcDbLine
 10
0.9000000000000001
 20
-2.375
 30
0.0
 11
0.9000000000000001
 21
-1.331994568378783
 31
0.0
  0
LINE
  5
25C
330
212
100
AcDbEntity
  8
AM_4
100
AcDbLine
 10
-0.8999999999999998
 20
-2.2625
 30
0.0
 11
-0.3437499999999998
 21
-2.2625
 31
0.0
  0
LINE
  5
25D
330
212
100
AcDbEntity
  8
AM_4
100
AcDbLine
 10
0.3437500000000001
 20
2.2625
 30
0.0
 11
0.9000000000000001
 21
2.2625
 31
0.0
  0
LINE
  5
25E
330
212
100
AcDbEntity
  8
AM_4
100
AcDbLine
 10
0.3437500000000003
 20
2.375
 30
0.0
 11
0.9000000000000001
 21
2.375
 31
0.0
  0
LINE
  5
25F
330
212
100
AcDbEntity
  8
AM_4
100
AcDbLine
 10
0.3437500000000003
 20
-2.375
 30
0.0
 11
0.9000000000000001
 21
-2.375
 31
0.0
  0
LINE
  5
260
330
212
100
AcDbEntity
  8
AM_4
100
AcDbLine
 10
0.3437500000000001
 20
-2.2625
 30
0.0
 11
0.9000000000000001
 21
-2.2625
 31
0.0
  0
LWPOLYLINE
  5
261
330
212
100
AcDbEntity
  8
AM_4
100
AcDbPolyline
 90
        3
 70
     0
 43
0.0
 10
0.8875000000000001
 20
1.333170562981347
 10
0.894491216154744
 20
1.332803552514971
 10
0.9000000000000001
 20
1.331994568378783
  0
LWPOLYLINE
  5
262
330
212
100
AcDbEntity
  8
AM_4
100
AcDbPolyline
 90
        3
 70
     0
 43
0.0
 10
0.9000000000000001
 20
-1.331994568378783
 10
0.889637025243819
 20
-1.33313630384637
 10
0.8875000000000001
 20
-1.333170562981347
  0
LINE
  5
263
330
212
100
AcDbEntity
  8
AM_4
100
AcDbLine
 10
1.0
 20
-0.6918826219092369
 30
0.0
 11
1.0
 21
-2.1375
 31
0.0
  0
LINE
  5
264
330
212
100
AcDbEntity
  8
AM_4
100
AcDbLine
 10
1.0
 20
2.1375
 30
0.0
 11
1.0
 21
0.6918826219092369
 31
0.0
  0
ARC
  5
265
330
212
100
AcDbEntity
  8
AM_4
100
AcDbCircle
 10
0.8874999999999996
 20
-2.137499999999999
 30
0.0
 40
0.1125000000000006
100
AcDbArc
 50
276.3793702084429
 51
0.0
  0
ARC
  5
266
330
212
100
AcDbEntity
  8
AM_4
100
AcDbCircle
 10
0.8874999999999997
 20
2.137499999999999
 30
0.0
 40
0.1125000000000003
100
AcDbArc
 50
0.0
 51
83.62062979155715
  0
LINE
  5
267
330
212
100
AcDbEntity
  8
AM_4
100
AcDbLine
 10
-0.7349999999999998
 20
1.333170562981347
 30
0.0
 11
-0.8874999999999998
 21
1.333170562981347
 31
0.0
  0
LINE
  5
268
330
212
100
AcDbEntity
  8
AM_4
100
AcDbLine
 10
-0.8874999999999998
 20
-1.333170562981347
 30
0.0
 11
-0.7349999999999998
 21
-1.333170562981347
 31
0.0
  0
LINE
  5
269
330
212
100
AcDbEntity
  8
AM_4
100
AcDbLine
 10
0.7350000000000001
 20
-1.333170562981347
 30
0.0
 11
0.8875000000000001
 21
-1.333170562981347
 31
0.0
  0
LINE
  5
26A
330
212
100
AcDbEntity
  8
AM_4
100
AcDbLine
 10
0.8875000000000001
 20
-0.8312913523548766
 30
0.0
 11
0.8875000000000001
 21
-1.333170562981347
 31
0.0
  0
LINE
  5
26B
330
212
100
AcDbEntity
  8
AM_4
100
AcDbLine
 10
0.8875000000000001
 20
1.333170562981347
 30
0.0
 11
0.8875000000000001
 21
0.8312913523548766
 31
0.0
  0
LINE
  5
26C
330
212
100
AcDbEntity
  8
AM_4
100
AcDbLine
 10
0.8875000000000001
 20
1.333170562981347
 30
0.0
 11
0.7350000000000001
 21
1.333170562981347
 31
0.0
  0
LWPOLYLINE
  5
26D
330
212
100
AcDbEntity
  8
AM_4
100
AcDbPolyline
 90
        3
 70
     0
 43
0.0
 10
-0.8874999999999998
 20
-1.333170562981347
 10
-0.8896370252438187
 20
-1.33313630384637
 10
-0.8999999999999998
 20
-1.331994568378783
  0
LINE
  5
26E
330
212
100
AcDbEntity
  8
AM_4
100
AcDbLine
 10
-0.8874999999999998
 20
-0.8312913523548766
 30
0.0
 11
-0.8874999999999998
 21
-1.333170562981347
 31
0.0
  0
LINE
  5
26F
330
212
100
AcDbEntity
  8
AM_4
100
AcDbLine
 10
-0.8874999999999998
 20
1.333170562981347
 30
0.0
 11
-0.8874999999999998
 21
0.8312913523548766
 31
0.0
  0
LINE
  5
270
330
212
100
AcDbEntity
  8
AM_4
100
AcDbLine
 10
-0.8999999999999998
 20
1.331994568378783
 30
0.0
 11
-0.8874999999999998
 21
1.333170562981347
 31
0.0
  0
LINE
  5
271
330
212
100
AcDbEntity
  8
AM_4
100
AcDbLine
 10
-0.9999999999999999
 20
-0.6918826219092369
 30
0.0
 11
-1.0
 21
-2.1375
 31
0.0
  0
LINE
  5
272
330
212
100
AcDbEntity
  8
AM_4
100
AcDbLine
 10
-1.0
 20
2.1375
 30
0.0
 11
-0.9999999999999999
 21
0.6918826219092369
 31
0.0
  0
ARC
  5
273
330
212
100
AcDbEntity
  8
AM_4
100
AcDbCircle
 10
-0.8874999999999997
 20
-2.137499999999999
 30
0.0
 40
0.1125000000000003
100
AcDbArc
 50
180.0
 51
263.6206297915571
  0
ARC
  5
274
330
212
100
AcDbEntity
  8
AM_4
100
AcDbCircle
 10
-0.8874999999999996
 20
2.137499999999999
 30
0.0
 40
0.1125000000000006
100
AcDbArc
 50
96.37937020844292
 51
180.0
  0
LINE
  5
275
330
212
100
AcDbEntity
  8
AM_4
100
AcDbLine
 10
-0.7349999999999997
 20
1.54375
 30
0.0
 11
-0.7349999999999997
 21
0.9687499999999999
 31
0.0
  0
LINE
  5
276
330
212
100
AcDbEntity
  8
AM_4
100
AcDbLine
 10
-0.7349999999999997
 20
-0.9687499999999999
 30
0.0
 11
-0.7349999999999997
 21
-1.54375
 31
0.0
  0
LINE
  5
277
330
212
100
AcDbEntity
  8
AM_4
100
AcDbLine
 10
0.7350000000000001
 20
-1.54375
 30
0.0
 11
0.7350000000000002
 21
-0.9687499999999999
 31
0.0
  0
LINE
  5
278
330
212
100
AcDbEntity
  8
AM_4
100
AcDbLine
 10
0.7350000000000002
 20
0.9687499999999999
 30
0.0
 11
0.7350000000000002
 21
1.54375
 31
0.0
  0
ARC
  5
279
330
212
100
AcDbEntity
  8
AM_4
100
AcDbCircle
 10
0.6225000000000005
 20
1.54375
 30
0.0
 40
0.1124999999999997
100
AcDbArc
 50
0.0
 51
90.0
  0
LINE
  5
27A
330
212
100
AcDbEntity
  8
AM_4
100
AcDbLine
 10
0.6225000000000005
 20
1.65625
 30
0.0
 11
-0.6224999999999996
 21
1.65625
 31
0.0
  0
CIRCLE
  5
27B
330
212
100
AcDbEntity
  8
AM_4
100
AcDbCircle
 10
0.0000000000000002
 20
0.0
 30
0.0
 40
0.5625
  0
ARC
  5
27C
330
212
100
AcDbEntity
  8
AM_4
100
AcDbCircle
 10
0.0
 20
0.0
 30
0.0
 40
1.216018734436275
100
AcDbArc
 50
127.1879424973692
 51
232.8120575026307
  0
ARC
  5
27D
330
212
100
AcDbEntity
  8
AM_4
100
AcDbCircle
 10
-0.6224999999999997
 20
-1.54375
 30
0.0
 40
0.1124999999999999
100
AcDbArc
 50
180.0
 51
270.0
  0
LINE
  5
27E
330
212
100
AcDbEntity
  8
AM_4
100
AcDbLine
 10
-0.6224999999999999
 20
-1.65625
 30
0.0
 11
0.6225000000000003
 21
-1.65625
 31
0.0
  0
ARC
  5
27F
330
212
100
AcDbEntity
  8
AM_4
100
AcDbCircle
 10
0.6225000000000006
 20
-1.54375
 30
0.0
 40
0.1124999999999996
100
AcDbArc
 50
270.0
 51
0.0000008537736463
  0
ARC
  5
280
330
212
100
AcDbEntity
  8
AM_4
100
AcDbCircle
 10
-0.0000000000000003
 20
0.0
 30
0.0
 40
1.216018734436275
100
AcDbArc
 50
307.1879424973693
 51
52.81205750263074
  0
ARC
  5
281
330
212
100
AcDbEntity
  8
AM_4
100
AcDbCircle
 10
-0.6225000000000004
 20
1.54375
 30
0.0
 40
0.1124999999999996
100
AcDbArc
 50
90.0
 51
179.9999991462263
  0
ENDBLK
  5
215
330
212
100
AcDbEntity
  8
0
100
AcDbBlockEnd
  0
ENDSEC
  0
SECTION
  2
ENTITIES
  0
INSERT
  5
6F
330
1F
100
AcDbEntity
  8
0
100
AcDbBlockReference
  2
1_069351_2
 10
0.0
 20
0.0
 30
0.0
  0
POINT
  5
283
330
1F
100
AcDbEntity
  8
ConnectionPoints
100
AcDbPoint
 10
-1.837166666666667
 20
-1.375868055555556
 30
0.0000000000000001
  0
POINT
  5
284
330
1F
100
AcDbEntity
  8
ConnectionPoints
100
AcDbPoint
 10
-1.837166666666667
 20
1.375868055555556
 30
0.0000000000000001
  0
POINT
  5
285
330
1F
100
AcDbEntity
  8
ConnectionPoints
100
AcDbPoint
 10
-1.767166666666667
 20
0.0
 30
0.0000000000000001
  0
POINT
  5
286
330
1F
100
AcDbEntity
  8
ConnectionPoints
100
AcDbPoint
 10
-2.0
 20
0.0
 30
0.0000000000000001
  0
POINT
  5
287
330
1F
100
AcDbEntity
  8
ConnectionPoints
100
AcDbPoint
 10
-1.966166666666667
 20
0.0
 30
0.0000000000000001
  0
POINT
  5
288
330
1F
100
AcDbEntity
  8
ConnectionPoints
100
AcDbPoint
 10
-1.767166666666667
 20
1.375868055555556
 30
0.0000000000000001
  0
POINT
  5
289
330
1F
100
AcDbEntity
  8
ConnectionPoints
100
AcDbPoint
 10
-1.899
 20
1.375868055555556
 30
0.0000000000000001
  0
POINT
  5
28A
330
1F
100
AcDbEntity
  8
ConnectionPoints
100
AcDbPoint
 10
-1.767166666666667
 20
-1.375868055555556
 30
0.0000000000000001
  0
POINT
  5
28B
330
1F
100
AcDbEntity
  8
ConnectionPoints
100
AcDbPoint
 10
-1.899
 20
-1.375868055555556
 30
0.0000000000000001
  0
POINT
  5
28C
330
1F
100
AcDbEntity
  8
ConnectionPoints
100
AcDbPoint
 10
-1.767166666666667
 20
0.0
 30
0.0000000000000001
  0
POINT
  5
28D
330
1F
100
AcDbEntity
  8
ConnectionPoints
100
AcDbPoint
 10
-0.0000000000000001
 20
-0.8803254945273934
 30
-2.178882058231951
  0
POINT
  5
28E
330
1F
100
AcDbEntity
  8
ConnectionPoints
100
AcDbPoint
 10
-1.75
 20
0.0
 30
0.0000000000000001
  0
POINT
  5
28F
330
1F
100
AcDbEntity
  8
ConnectionPoints
100
AcDbPoint
 10
-2.0
 20
0.0
 30
0.0000000000000001
  0
ENDSEC
  0
SECTION
  2
OBJECTS
  0
DICTIONARY
  5
C
330
0
100
AcDbDictionary
281
     1
  3
ACAD_DETAILVIEWSTYLE
350
297
  3
ACAD_GROUP
350
D
  3
ACAD_LAYOUT
350
1A
  3
ACAD_MATERIAL
350
43
  3
ACAD_MLEADERSTYLE
350
6B
  3
ACAD_MLINESTYLE
350
17
  3
ACAD_PLOTSETTINGS
350
19
  3
ACAD_PLOTSTYLENAME
350
E
  3
ACAD_SCALELIST
350
47
  3
ACAD_SECTIONVIEWSTYLE
350
298
  3
ACAD_TABLESTYLE
350
69
  3
ACAD_VISUALSTYLE
350
2A
  3
ACDB_RECOMPOSE_DATA
350
294
  3
AcDbVariableDictionary
350
290
  0
SUN
  5
6D
330
29
100
AcDbSun
 90
        1
290
     0
 63
     7
421
 16777215
 40
1.0
291
     1
 91
  2455826
 92
 54000000
292
     0
 70
     2
 71
   256
280
     1
  0
DICTIONARY
  5
297
102
{ACAD_REACTORS
330
C
102
}
330
C
100
AcDbDictionary
281
     1
  0
DICTIONARY
  5
D
102
{ACAD_REACTORS
330
C
102
}
330
C
100
AcDbDictionary
281
     1
  0
DICTIONARY
  5
1A
102
{ACAD_REACTORS
330
C
102
}
330
C
100
AcDbDictionary
281
     1
  3
Layout1
350
1E
  3
Layout2
350
26
  3
Model
350
22
  0
DICTIONARY
  5
43
102
{ACAD_REACTORS
330
C
102
}
330
C
100
AcDbDictionary
281
     1
  3
ByBlock
350
45
  3
ByLayer
350
44
  3
Global
350
46
  0
DICTIONARY
  5
6B
102
{ACAD_REACTORS
330
C
102
}
330
C
100
AcDbDictionary
281
     1
  3
Standard
350
6C
  0
DICTIONARY
  5
17
102
{ACAD_REACTORS
330
C
102
}
330
C
100
AcDbDictionary
281
     1
  3
Standard
350
18
  0
DICTIONARY
  5
19
102
{ACAD_REACTORS
330
C
102
}
330
C
100
AcDbDictionary
281
     1
  0
ACDBDICTIONARYWDFLT
  5
E
102
{ACAD_REACTORS
330
C
102
}
330
C
100
AcDbDictionary
281
     1
  3
Normal
350
F
100
AcDbDictionaryWithDefault
340
F
  0
DICTIONARY
  5
47
102
{ACAD_REACTORS
330
C
102
}
330
C
100
AcDbDictionary
281
     1
  3
A0
350
48
  3
A1
350
49
  3
A2
350
4A
  3
A3
350
4B
  3
A4
350
4C
  3
A5
350
4D
  3
A6
350
4E
  3
A7
350
4F
  3
A8
350
50
  3
A9
350
51
  3
B0
350
52
  3
B1
350
53
  3
B2
350
54
  3
B3
350
55
  3
B4
350
56
  3
B5
350
57
  3
B6
350
58
  3
B7
350
59
  3
B8
350
5A
  3
B9
350
5B
  3
C0
350
5C
  3
C1
350
5D
  3
C2
350
5E
  3
C3
350
5F
  3
C4
350
60
  3
C5
350
61
  3
C6
350
62
  3
C7
350
63
  3
C8
350
64
  3
C9
350
65
  3
D0
350
66
  3
D1
350
67
  3
D2
350
68
  0
DICTIONARY
  5
298
102
{ACAD_REACTORS
330
C
102
}
330
C
100
AcDbDictionary
281
     1
  0
DICTIONARY
  5
69
102
{ACAD_REACTORS
330
C
102
}
330
C
100
AcDbDictionary
281
     1
  3
Standard
350
6A
  0
DICTIONARY
  5
2A
102
{ACAD_REACTORS
330
C
102
}
330
C
100
AcDbDictionary
281
     1
  3
2dWireframe
350
2F
  3
Basic
350
32
  3
Brighten
350
36
  3
ColorChange
350
3A
  3
Conceptual
350
34
  3
Dim
350
35
  3
EdgeColorOff
350
3D
  3
Facepattern
350
39
  3
Flat
350
2B
  3
FlatWithEdges
350
2C
  3
Gouraud
350
2D
  3
GouraudWithEdges
350
2E
  3
Hidden
350
31
  3
JitterOff
350
3B
  3
Linepattern
350
38
  3
OverhangOff
350
3C
  3
Realistic
350
33
  3
Shaded
350
42
  3
Shaded with edges
350
41
  3
Shades of Gray
350
3E
  3
Sketchy
350
3F
  3
Thicken
350
37
  3
Wireframe
350
30
  3
X-Ray
350
40
  0
XRECORD
  5
294
102
{ACAD_REACTORS
330
C
102
}
330
C
100
AcDbXrecord
280
     1
 90
        1
330
6A
  0
DICTIONARY
  5
290
102
{ACAD_REACTORS
330
C
102
}
330
C
100
AcDbDictionary
281
     1
  3
CANNOSCALE
350
291
  3
CMLEADERSTYLE
350
296
  3
CTABLESTYLE
350
295
  0
LAYOUT
  5
1E
102
{ACAD_REACTORS
330
1A
102
}
330
1A
100
AcDbPlotSettings
  1

  2
none_device
  4

  6

 40
0.0
 41
0.0
 42
0.0
 43
0.0
 44
0.0
 45
0.0
 46
0.0
 47
0.0
 48
0.0
 49
0.0
140
0.0
141
0.0
142
1.0
143
1.0
 70
   688
 72
     0
 73
     0
 74
     5
  7

 75
    16
 76
     0
 77
     2
 78
   300
147
1.0
148
0.0
149
0.0
100
AcDbLayout
  1
Layout1
 70
     1
 71
     1
 10
0.0
 20
0.0
 11
12.0
 21
9.0
 12
0.0
 22
0.0
 32
0.0
 14
1.000000000000000E+20
 24
1.000000000000000E+20
 34
1.000000000000000E+20
 15
-1.000000000000000E+20
 25
-1.000000000000000E+20
 35
-1.000000000000000E+20
146
0.0
 13
0.0
 23
0.0
 33
0.0
 16
1.0
 26
0.0
 36
0.0
 17
0.0
 27
1.0
 37
0.0
 76
     0
330
1B
  0
LAYOUT
  5
26
102
{ACAD_REACTORS
330
1A
102
}
330
1A
100
AcDbPlotSettings
  1

  2
none_device
  4

  6

 40
0.0
 41
0.0
 42
0.0
 43
0.0
 44
0.0
 45
0.0
 46
0.0
 47
0.0
 48
0.0
 49
0.0
140
0.0
141
0.0
142
1.0
143
1.0
 70
   688
 72
     0
 73
     0
 74
     5
  7

 75
    16
 76
     0
 77
     2
 78
   300
147
1.0
148
0.0
149
0.0
100
AcDbLayout
  1
Layout2
 70
     1
 71
     2
 10
0.0
 20
0.0
 11
0.0
 21
0.0
 12
0.0
 22
0.0
 32
0.0
 14
0.0
 24
0.0
 34
0.0
 15
0.0
 25
0.0
 35
0.0
146
0.0
 13
0.0
 23
0.0
 33
0.0
 16
1.0
 26
0.0
 36
0.0
 17
0.0
 27
1.0
 37
0.0
 76
     0
330
23
  0
LAYOUT
  5
22
102
{ACAD_REACTORS
330
1A
102
}
330
1A
100
AcDbPlotSettings
  1

  2
none_device
  4
Letter_(8.50_x_11.00_Inches)
  6

 40
6.35
 41
6.35
 42
6.35000508
 43
6.35000508
 44
215.9
 45
279.4
 46
0.0
 47
0.0
 48
0.0
 49
0.0
140
0.0
141
0.0
142
1.0
143
1.0
 70
  1712
 72
     0
 73
     0
 74
     0
  7

 75
     0
 76
     0
 77
     2
 78
   300
147
1.0
148
0.0
149
0.0
100
AcDbLayout
  1
Model
 70
     1
 71
     0
 10
0.0
 20
0.0
 11
12.0
 21
9.0
 12
0.0
 22
0.0
 32
0.0
 14
1.000000000000000E+20
 24
1.000000000000000E+20
 34
1.000000000000000E+20
 15
-1.000000000000000E+20
 25
-1.000000000000000E+20
 35
-1.000000000000000E+20
146
0.0
 13
0.0
 23
0.0
 33
0.0
 16
1.0
 26
0.0
 36
0.0
 17
0.0
 27
1.0
 37
0.0
 76
     0
330
1F
331
29
  0
MATERIAL
  5
45
102
{ACAD_REACTORS
330
43
102
}
330
43
100
AcDbMaterial
  1
ByBlock
 72
     1
 94
      127
  0
MATERIAL
  5
44
102
{ACAD_REACTORS
330
43
102
}
330
43
100
AcDbMaterial
  1
ByLayer
 72
     1
 94
      127
  0
MATERIAL
  5
46
102
{ACAD_REACTORS
330
43
102
}
330
43
100
AcDbMaterial
  1
Global
 72
     1
 94
      127
  0
MLEADERSTYLE
  5
6C
102
{ACAD_REACTORS
330
6B
102
}
330
6B
100
AcDbMLeaderStyle
179
     2
170
     2
171
     1
172
     0
 90
        2
 40
0.0
 41
0.0
173
     1
 91
-1056964608
340
14
 92
       -2
290
     1
 42
0.09
291
     1
 43
0.36
  3
Standard
341
0
 44
0.18
300

342
11
174
     1
178
     6
175
     1
176
     0
 93
-1056964608
 45
0.18
292
     0
297
     0
 46
0.18
343
0
 94
-1056964608
 47
1.0
 49
1.0
140
1.0
293
     1
141
0.0
294
     1
177
     0
142
1.0
295
     0
296
     0
143
0.125
271
     0
272
     9
273
     9
298
     0
  0
MLINESTYLE
  5
18
102
{ACAD_REACTORS
330
17
102
}
330
17
100
AcDbMlineStyle
  2
Standard
 70
     0
  3

 62
   256
 51
90.0
 52
90.0
 71
     2
 49
0.5
 62
   256
  6
BYLAYER
 49
-0.5
 62
   256
  6
BYLAYER
  0
ACDBPLACEHOLDER
  5
F
102
{ACAD_REACTORS
330
E
102
}
330
E
  0
SCALE
  5
48
102
{ACAD_REACTORS
330
47
102
}
330
47
100
AcDbScale
 70
     0
300
1:1
140
1.0
141
1.0
290
     1
  0
SCALE
  5
49
102
{ACAD_REACTORS
330
47
102
}
330
47
100
AcDbScale
 70
     0
300
1:2
140
1.0
141
2.0
290
     0
  0
SCALE
  5
4A
102
{ACAD_REACTORS
330
47
102
}
330
47
100
AcDbScale
 70
     0
300
1:4
140
1.0
141
4.0
290
     0
  0
SCALE
  5
4B
102
{ACAD_REACTORS
330
47
102
}
330
47
100
AcDbScale
 70
     0
300
1:5
140
1.0
141
5.0
290
     0
  0
SCALE
  5
4C
102
{ACAD_REACTORS
330
47
102
}
330
47
100
AcDbScale
 70
     0
300
1:8
140
1.0
141
8.0
290
     0
  0
SCALE
  5
4D
102
{ACAD_REACTORS
330
47
102
}
330
47
100
AcDbScale
 70
     0
300
1:10
140
1.0
141
10.0
290
     0
  0
SCALE
  5
4E
102
{ACAD_REACTORS
330
47
102
}
330
47
100
AcDbScale
 70
     0
300
1:16
140
1.0
141
16.0
290
     0
  0
SCALE
  5
4F
102
{ACAD_REACTORS
330
47
102
}
330
47
100
AcDbScale
 70
     0
300
1:20
140
1.0
141
20.0
290
     0
  0
SCALE
  5
50
102
{ACAD_REACTORS
330
47
102
}
330
47
100
AcDbScale
 70
     0
300
1:30
140
1.0
141
30.0
290
     0
  0
SCALE
  5
51
102
{ACAD_REACTORS
330
47
102
}
330
47
100
AcDbScale
 70
     0
300
1:40
140
1.0
141
40.0
290
     0
  0
SCALE
  5
52
102
{ACAD_REACTORS
330
47
102
}
330
47
100
AcDbScale
 70
     0
300
1:50
140
1.0
141
50.0
290
     0
  0
SCALE
  5
53
102
{ACAD_REACTORS
330
47
102
}
330
47
100
AcDbScale
 70
     0
300
1:100
140
1.0
141
100.0
290
     0
  0
SCALE
  5
54
102
{ACAD_REACTORS
330
47
102
}
330
47
100
AcDbScale
 70
     0
300
2:1
140
2.0
141
1.0
290
     0
  0
SCALE
  5
55
102
{ACAD_REACTORS
330
47
102
}
330
47
100
AcDbScale
 70
     0
300
4:1
140
4.0
141
1.0
290
     0
  0
SCALE
  5
56
102
{ACAD_REACTORS
330
47
102
}
330
47
100
AcDbScale
 70
     0
300
8:1
140
8.0
141
1.0
290
     0
  0
SCALE
  5
57
102
{ACAD_REACTORS
330
47
102
}
330
47
100
AcDbScale
 70
     0
300
10:1
140
10.0
141
1.0
290
     0
  0
SCALE
  5
58
102
{ACAD_REACTORS
330
47
102
}
330
47
100
AcDbScale
 70
     0
300
100:1
140
100.0
141
1.0
290
     0
  0
SCALE
  5
59
102
{ACAD_REACTORS
330
47
102
}
330
47
100
AcDbScale
 70
     0
300
1/128" = 1'-0"
140
0.0078125
141
12.0
290
     0
  0
SCALE
  5
5A
102
{ACAD_REACTORS
330
47
102
}
330
47
100
AcDbScale
 70
     0
300
1/64" = 1'-0"
140
0.015625
141
12.0
290
     0
  0
SCALE
  5
5B
102
{ACAD_REACTORS
330
47
102
}
330
47
100
AcDbScale
 70
     0
300
1/32" = 1'-0"
140
0.03125
141
12.0
290
     0
  0
SCALE
  5
5C
102
{ACAD_REACTORS
330
47
102
}
330
47
100
AcDbScale
 70
     0
300
1/16" = 1'-0"
140
0.0625
141
12.0
290
     0
  0
SCALE
  5
5D
102
{ACAD_REACTORS
330
47
102
}
330
47
100
AcDbScale
 70
     0
300
3/32" = 1'-0"
140
0.09375
141
12.0
290
     0
  0
SCALE
  5
5E
102
{ACAD_REACTORS
330
47
102
}
330
47
100
AcDbScale
 70
     0
300
1/8" = 1'-0"
140
0.125
141
12.0
290
     0
  0
SCALE
  5
5F
102
{ACAD_REACTORS
330
47
102
}
330
47
100
AcDbScale
 70
     0
300
3/16" = 1'-0"
140
0.1875
141
12.0
290
     0
  0
SCALE
  5
60
102
{ACAD_REACTORS
330
47
102
}
330
47
100
AcDbScale
 70
     0
300
1/4" = 1'-0"
140
0.25
141
12.0
290
     0
  0
SCALE
  5
61
102
{ACAD_REACTORS
330
47
102
}
330
47
100
AcDbScale
 70
     0
300
3/8" = 1'-0"
140
0.375
141
12.0
290
     0
  0
SCALE
  5
62
102
{ACAD_REACTORS
330
47
102
}
330
47
100
AcDbScale
 70
     0
300
1/2" = 1'-0"
140
0.5
141
12.0
290
     0
  0
SCALE
  5
63
102
{ACAD_REACTORS
330
47
102
}
330
47
100
AcDbScale
 70
     0
300
3/4" = 1'-0"
140
0.75
141
12.0
290
     0
  0
SCALE
  5
64
102
{ACAD_REACTORS
330
47
102
}
330
47
100
AcDbScale
 70
     0
300
1" = 1'-0"
140
1.0
141
12.0
290
     0
  0
SCALE
  5
65
102
{ACAD_REACTORS
330
47
102
}
330
47
100
AcDbScale
 70
     0
300
1-1/2" = 1'-0"
140
1.5
141
12.0
290
     0
  0
SCALE
  5
66
102
{ACAD_REACTORS
330
47
102
}
330
47
100
AcDbScale
 70
     0
300
3" = 1'-0"
140
3.0
141
12.0
290
     0
  0
SCALE
  5
67
102
{ACAD_REACTORS
330
47
102
}
330
47
100
AcDbScale
 70
     0
300
6" = 1'-0"
140
6.0
141
12.0
290
     0
  0
SCALE
  5
68
102
{ACAD_REACTORS
330
47
102
}
330
47
100
AcDbScale
 70
     0
300
1'-0" = 1'-0"
140
12.0
141
12.0
290
     0
  0
TABLESTYLE
  5
6A
102
{ACAD_REACTORS
330
69
102
}
102
{ACAD_XDICTIONARY
360
292
102
}
330
69
100
AcDbTableStyle
  3
Standard
 70
     0
 71
     0
 40
0.06
 41
0.06
280
     0
281
     0
  7
Standard
140
0.18
170
     2
 62
     0
 63
   257
283
     0
 90
        4
 91
        0
  1

274
    -2
284
     1
 64
     0
275
    -2
285
     1
 65
     0
276
    -2
286
     1
 66
     0
277
    -2
287
     1
 67
     0
278
    -2
288
     1
 68
     0
279
    -2
289
     1
 69
     0
  7
Standard
140
0.25
170
     5
 62
     0
 63
   257
283
     0
 90
        4
 91
        0
  1

274
    -2
284
     1
 64
     0
275
    -2
285
     1
 65
     0
276
    -2
286
     1
 66
     0
277
    -2
287
     1
 67
     0
278
    -2
288
     1
 68
     0
279
    -2
289
     1
 69
     0
  7
Standard
140
0.18
170
     5
 62
     0
 63
   257
283
     0
 90
        4
 91
        0
  1

274
    -2
284
     1
 64
     0
275
    -2
285
     1
 65
     0
276
    -2
286
     1
 66
     0
277
    -2
287
     1
 67
     0
278
    -2
288
     1
 68
     0
279
    -2
289
     1
 69
     0
  0
VISUALSTYLE
  5
2F
102
{ACAD_REACTORS
330
2A
102
}
330
2A
100
AcDbVisualStyle
  2
2dWireframe
 70
     4
177
     3
291
     0
 70
    58
 90
        0
176
     1
 90
        2
176
     1
 90
        0
176
     1
 90
        0
176
     1
 40
0.6
176
     1
 40
30.0
176
     1
 62
     7
420
 16777215
176
     1
 90
        1
176
     1
 90
        4
176
     1
 62
     7
176
     1
 62
   257
176
     1
 90
        1
176
     1
 90
        1
176
     1
 40
1.0
176
     1
 90
        0
176
     1
 62
   257
176
     1
 40
1.0
176
     1
 90
        1
176
     1
 90
        6
176
     1
 90
        2
176
     1
 62
     7
176
     1
 90
        5
176
     1
 90
        0
176
     1
 90
        0
176
     1
290
     0
176
     1
 90
        1
176
     1
 40
0.0
176
     1
 90
        0
176
     1
290
     1
176
     1
290
     1
176
     1
290
     0
176
     1
290
     0
176
     1
290
     0
176
     1
290
     0
176
     1
290
     0
176
     1
290
     0
176
     1
290
     0
176
     1
 90
       50
176
     1
 40
0.0
176
     1
 40
1.0
176
     1
 90
        0
176
     1
 62
    18
420
        0
176
     1
 90
       50
176
     1
 90
        3
176
     1
 62
     5
420
      255
176
     1
290
     0
176
     1
 90
       50
176
     1
 90
       50
176
     1
 90
       50
176
     1
290
     0
176
     1
 90
       50
176
     1
 62
   256
176
     0
 40
1.0
176
     0
 90
        2
176
     1
  1
strokes_ogs.tif
176
     1
290
     0
176
     1
 40
1.0
176
     1
 40
1.0
176
     1
  0
VISUALSTYLE
  5
32
102
{ACAD_REACTORS
330
2A
102
}
330
2A
100
AcDbVisualStyle
  2
Basic
 70
     7
177
     3
291
     1
 70
    58
 90
        1
176
     1
 90
        0
176
     1
 90
        1
176
     1
 90
        0
176
     1
 40
0.6
176
     1
 40
30.0
176
     1
 62
     7
420
 16777215
176
     1
 90
        0
176
     1
 90
        4
176
     1
 62
     7
176
     1
 62
   257
176
     1
 90
        1
176
     1
 90
        1
176
     1
 40
1.0
176
     1
 90
        8
176
     1
 62
     7
176
     1
 40
1.0
176
     1
 90
        1
176
     1
 90
        6
176
     1
 90
        2
176
     1
 62
     7
176
     1
 90
        5
176
     1
 90
        0
176
     1
 90
        0
176
     1
290
     0
176
     1
 90
        1
176
     1
 40
0.0
176
     1
 90
        0
176
     1
290
     0
176
     1
290
     1
176
     1
290
     1
176
     1
290
     0
176
     1
290
     0
176
     1
290
     0
176
     1
290
     0
176
     1
290
     0
176
     1
290
     0
176
     1
 90
       50
176
     1
 40
0.0
176
     1
 40
1.0
176
     1
 90
        0
176
     1
 62
    18
420
        0
176
     1
 90
       50
176
     1
 90
        3
176
     1
 62
     5
420
      255
176
     1
290
     0
176
     1
 90
       50
176
     1
 90
       50
176
     1
 90
       50
176
     1
290
     0
176
     1
 90
       50
176
     1
 62
   256
176
     0
 40
1.0
176
     0
 90
        2
176
     1
  1
strokes_ogs.tif
176
     1
290
     0
176
     1
 40
1.0
176
     1
 40
1.0
176
     1
  0
VISUALSTYLE
  5
36
102
{ACAD_REACTORS
330
2A
102
}
330
2A
100
AcDbVisualStyle
  2
Brighten
 70
    12
177
     3
291
     1
 70
    58
 90
        2
176
     1
 90
        2
176
     1
 90
        0
176
     1
 90
        0
176
     1
 40
0.6
176
     1
 40
30.0
176
     1
 62
     7
420
 16777215
176
     1
 90
        1
176
     1
 90
        4
176
     1
 62
     7
176
     1
 62
   257
176
     1
 90
        1
176
     1
 90
        1
176
     1
 40
1.0
176
     1
 90
        8
176
     1
 62
     7
176
     1
 40
1.0
176
     1
 90
        1
176
     1
 90
        6
176
     1
 90
        2
176
     1
 62
     7
176
     1
 90
        5
176
     1
 90
        0
176
     1
 90
        0
176
     1
290
     0
176
     1
 90
        1
176
     1
 40
50.0
176
     1
 90
        0
176
     1
290
     0
176
     1
290
     1
176
     1
290
     1
176
     1
290
     0
176
     1
290
     0
176
     1
290
     0
176
     1
290
     0
176
     1
290
     0
176
     1
290
     0
176
     1
 90
       50
176
     1
 40
0.0
176
     1
 40
1.0
176
     1
 90
        0
176
     1
 62
    18
420
        0
176
     1
 90
       50
176
     1
 90
        3
176
     1
 62
     5
420
      255
176
     1
290
     0
176
     1
 90
       50
176
     1
 90
       50
176
     1
 90
       50
176
     1
290
     0
176
     1
 90
       50
176
     1
 62
   256
176
     0
 40
1.0
176
     0
 90
        2
176
     1
  1
strokes_ogs.tif
176
     1
290
     0
176
     1
 40
1.0
176
     1
 40
1.0
176
     1
  0
VISUALSTYLE
  5
3A
102
{ACAD_REACTORS
330
2A
102
}
330
2A
100
AcDbVisualStyle
  2
ColorChange
 70
    16
177
     3
291
     1
 70
    58
 90
        2
176
     1
 90
        2
176
     1
 90
        3
176
     1
 90
        0
176
     1
 40
0.6
176
     1
 40
30.0
176
     1
 62
     8
420
  8421504
176
     1
 90
        1
176
     1
 90
        4
176
     1
 62
     7
176
     1
 62
   257
176
     1
 90
        1
176
     1
 90
        1
176
     1
 40
1.0
176
     1
 90
        8
176
     1
 62
     8
420
  8421504
176
     1
 40
1.0
176
     1
 90
        1
176
     1
 90
        6
176
     1
 90
        2
176
     1
 62
     7
176
     1
 90
        5
176
     1
 90
        0
176
     1
 90
        0
176
     1
290
     0
176
     1
 90
        1
176
     1
 40
0.0
176
     1
 90
        0
176
     1
290
     0
176
     1
290
     1
176
     1
290
     1
176
     1
290
     0
176
     1
290
     0
176
     1
290
     0
176
     1
290
     0
176
     1
290
     0
176
     1
290
     0
176
     1
 90
       50
176
     1
 40
0.0
176
     1
 40
1.0
176
     1
 90
        0
176
     1
 62
    18
420
        0
176
     1
 90
       50
176
     1
 90
        3
176
     1
 62
     5
420
      255
176
     1
290
     0
176
     1
 90
       50
176
     1
 90
       50
176
     1
 90
       50
176
     1
290
     0
176
     1
 90
       50
176
     1
 62
   256
176
     0
 40
1.0
176
     0
 90
        2
176
     1
  1
strokes_ogs.tif
176
     1
290
     0
176
     1
 40
1.0
176
     1
 40
1.0
176
     1
  0
VISUALSTYLE
  5
34
102
{ACAD_REACTORS
330
2A
102
}
330
2A
100
AcDbVisualStyle
  2
Conceptual
 70
     9
177
     3
291
     0
 70
    58
 90
        3
176
     1
 90
        2
176
     1
 90
        0
176
     1
 90
        0
176
     1
 40
0.6
176
     1
 40
30.0
176
     1
 62
     7
420
 16777215
176
     1
 90
        2
176
     1
 90
        2
176
     1
 62
     7
176
     1
 62
   257
176
     1
 90
        1
176
     1
 90
        1
176
     1
 40
179.0
176
     1
 90
        8
176
     1
 62
     7
176
     1
 40
1.0
176
     1
 90
        1
176
     1
 90
        6
176
     1
 90
        2
176
     1
 62
     7
176
     1
 90
        3
176
     1
 90
        0
176
     1
 90
        0
176
     1
290
     0
176
     1
 90
        1
176
     1
 40
0.0
176
     1
 90
        0
176
     1
290
     0
176
     1
290
     1
176
     1
290
     1
176
     1
290
     0
176
     1
290
     0
176
     1
290
     0
176
     1
290
     0
176
     1
290
     0
176
     1
290
     0
176
     1
 90
       50
176
     1
 40
0.0
176
     1
 40
1.0
176
     1
 90
        0
176
     1
 62
    18
420
        0
176
     1
 90
       50
176
     1
 90
        3
176
     1
 62
     5
420
      255
176
     1
290
     0
176
     1
 90
       50
176
     1
 90
       50
176
     1
 90
       50
176
     1
290
     0
176
     1
 90
       50
176
     1
 62
   256
176
     0
 40
1.0
176
     0
 90
        2
176
     1
  1
strokes_ogs.tif
176
     1
290
     0
176
     1
 40
1.0
176
     1
 40
1.0
176
     1
  0
VISUALSTYLE
  5
35
102
{ACAD_REACTORS
330
2A
102
}
330
2A
100
AcDbVisualStyle
  2
Dim
 70
    11
177
     3
291
     1
 70
    58
 90
        2
176
     1
 90
        2
176
     1
 90
        0
176
     1
 90
        0
176
     1
 40
0.6
176
     1
 40
30.0
176
     1
 62
     7
420
 16777215
176
     1
 90
        1
176
     1
 90
        4
176
     1
 62
     7
176
     1
 62
   257
176
     1
 90
        1
176
     1
 90
        1
176
     1
 40
1.0
176
     1
 90
        8
176
     1
 62
     7
176
     1
 40
1.0
176
     1
 90
        1
176
     1
 90
        6
176
     1
 90
        2
176
     1
 62
     7
176
     1
 90
        5
176
     1
 90
        0
176
     1
 90
        0
176
     1
290
     0
176
     1
 90
        1
176
     1
 40
-50.0
176
     1
 90
        0
176
     1
290
     0
176
     1
290
     1
176
     1
290
     1
176
     1
290
     0
176
     1
290
     0
176
     1
290
     0
176
     1
290
     0
176
     1
290
     0
176
     1
290
     0
176
     1
 90
       50
176
     1
 40
0.0
176
     1
 40
1.0
176
     1
 90
        0
176
     1
 62
    18
420
        0
176
     1
 90
       50
176
     1
 90
        3
176
     1
 62
     5
420
      255
176
     1
290
     0
176
     1
 90
       50
176
     1
 90
       50
176
     1
 90
       50
176
     1
290
     0
176
     1
 90
       50
176
     1
 62
   256
176
     0
 40
1.0
176
     0
 90
        2
176
     1
  1
strokes_ogs.tif
176
     1
290
     0
176
     1
 40
1.0
176
     1
 40
1.0
176
     1
  0
VISUALSTYLE
  5
3D
102
{ACAD_REACTORS
330
2A
102
}
330
2A
100
AcDbVisualStyle
  2
EdgeColorOff
 70
    22
177
     3
291
     1
 70
    58
 90
        2
176
     0
 90
        2
176
     0
 90
        0
176
     0
 90
        0
176
     0
 40
0.6
176
     0
 40
30.0
176
     0
 62
     7
420
 16777215
176
     0
 90
        1
176
     0
 90
        4
176
     0
 62
     7
176
     0
 62
   257
176
     0
 90
        1
176
     0
 90
        1
176
     0
 40
1.0
176
     0
 90
        8
176
     2
 62
     7
176
     0
 40
1.0
176
     0
 90
        1
176
     0
 90
        6
176
     0
 90
        2
176
     0
 62
     7
176
     0
 90
        5
176
     0
 90
        0
176
     0
 90
        0
176
     0
290
     0
176
     0
 90
        1
176
     0
 40
0.0
176
     0
 90
        0
176
     0
290
     0
176
     0
290
     1
176
     0
290
     1
176
     0
290
     0
176
     0
290
     0
176
     0
290
     0
176
     0
290
     0
176
     0
290
     0
176
     0
290
     0
176
     0
 90
       50
176
     0
 40
0.0
176
     0
 40
1.0
176
     0
 90
        0
176
     0
 62
    18
420
        0
176
     0
 90
       50
176
     0
 90
        3
176
     0
 62
     5
420
      255
176
     0
290
     0
176
     0
 90
       50
176
     0
 90
       50
176
     0
 90
       50
176
     0
290
     0
176
     0
 90
       50
176
     0
 62
   256
176
     0
 40
1.0
176
     0
 90
        2
176
     0
  1
strokes_ogs.tif
176
     0
290
     0
176
     0
 40
1.0
176
     0
 40
1.0
176
     0
  0
VISUALSTYLE
  5
39
102
{ACAD_REACTORS
330
2A
102
}
330
2A
100
AcDbVisualStyle
  2
Facepattern
 70
    15
177
     3
291
     1
 70
    58
 90
        2
176
     1
 90
        2
176
     1
 90
        0
176
     1
 90
        0
176
     1
 40
0.6
176
     1
 40
30.0
176
     1
 62
     7
420
 16777215
176
     1
 90
        1
176
     1
 90
        4
176
     1
 62
     7
176
     1
 62
   257
176
     1
 90
        1
176
     1
 90
        1
176
     1
 40
1.0
176
     1
 90
        8
176
     1
 62
     7
176
     1
 40
1.0
176
     1
 90
        1
176
     1
 90
        6
176
     1
 90
        2
176
     1
 62
     7
176
     1
 90
        5
176
     1
 90
        0
176
     1
 90
        0
176
     1
290
     0
176
     1
 90
        1
176
     1
 40
0.0
176
     1
 90
        0
176
     1
290
     0
176
     1
290
     1
176
     1
290
     1
176
     1
290
     0
176
     1
290
     0
176
     1
290
     0
176
     1
290
     0
176
     1
290
     0
176
     1
290
     0
176
     1
 90
       50
176
     1
 40
0.0
176
     1
 40
1.0
176
     1
 90
        0
176
     1
 62
    18
420
        0
176
     1
 90
       50
176
     1
 90
        3
176
     1
 62
     5
420
      255
176
     1
290
     0
176
     1
 90
       50
176
     1
 90
       50
176
     1
 90
       50
176
     1
290
     0
176
     1
 90
       50
176
     1
 62
   256
176
     0
 40
1.0
176
     0
 90
        2
176
     1
  1
strokes_ogs.tif
176
     1
290
     0
176
     1
 40
1.0
176
     1
 40
1.0
176
     1
  0
VISUALSTYLE
  5
2B
102
{ACAD_REACTORS
330
2A
102
}
330
2A
100
AcDbVisualStyle
  2
Flat
 70
     0
177
     3
291
     1
 70
    58
 90
        2
176
     1
 90
        1
176
     1
 90
        1
176
     1
 90
        2
176
     1
 40
0.6
176
     1
 40
30.0
176
     1
 62
     7
420
 16777215
176
     1
 90
        0
176
     1
 90
        0
176
     1
 62
     7
176
     1
 62
   257
176
     1
 90
        1
176
     1
 90
        1
176
     1
 40
1.0
176
     1
 90
        8
176
     1
 62
     7
176
     1
 40
1.0
176
     1
 90
        1
176
     1
 90
        6
176
     1
 90
        2
176
     1
 62
     7
176
     1
 90
        5
176
     1
 90
        0
176
     1
 90
        0
176
     1
290
     0
176
     1
 90
       13
176
     1
 40
0.0
176
     1
 90
        0
176
     1
290
     0
176
     1
290
     1
176
     1
290
     1
176
     1
290
     0
176
     1
290
     0
176
     1
290
     0
176
     1
290
     0
176
     1
290
     0
176
     1
290
     0
176
     1
 90
       50
176
     1
 40
0.0
176
     1
 40
1.0
176
     1
 90
        0
176
     1
 62
    18
420
        0
176
     1
 90
       50
176
     1
 90
        3
176
     1
 62
     5
420
      255
176
     1
290
     0
176
     1
 90
       50
176
     1
 90
       50
176
     1
 90
       50
176
     1
290
     0
176
     1
 90
       50
176
     1
 62
   256
176
     0
 40
1.0
176
     0
 90
        2
176
     1
  1
strokes_ogs.tif
176
     1
290
     0
176
     1
 40
1.0
176
     1
 40
1.0
176
     1
  0
VISUALSTYLE
  5
2C
102
{ACAD_REACTORS
330
2A
102
}
330
2A
100
AcDbVisualStyle
  2
FlatWithEdges
 70
     1
177
     3
291
     1
 70
    58
 90
        2
176
     1
 90
        1
176
     1
 90
        1
176
     1
 90
        2
176
     1
 40
0.6
176
     1
 40
30.0
176
     1
 62
     7
420
 16777215
176
     1
 90
        1
176
     1
 90
        0
176
     1
 62
     7
176
     1
 62
   257
176
     1
 90
        1
176
     1
 90
        1
176
     1
 40
1.0
176
     1
 90
        0
176
     1
 62
   257
176
     1
 40
1.0
176
     1
 90
        1
176
     1
 90
        6
176
     1
 90
        2
176
     1
 62
     7
176
     1
 90
        5
176
     1
 90
        0
176
     1
 90
        0
176
     1
290
     0
176
     1
 90
       13
176
     1
 40
0.0
176
     1
 90
        0
176
     1
290
     0
176
     1
290
     1
176
     1
290
     1
176
     1
290
     0
176
     1
290
     0
176
     1
290
     0
176
     1
290
     0
176
     1
290
     0
176
     1
290
     0
176
     1
 90
       50
176
     1
 40
0.0
176
     1
 40
1.0
176
     1
 90
        0
176
     1
 62
    18
420
        0
176
     1
 90
       50
176
     1
 90
        3
176
     1
 62
     5
420
      255
176
     1
290
     0
176
     1
 90
       50
176
     1
 90
       50
176
     1
 90
       50
176
     1
290
     0
176
     1
 90
       50
176
     1
 62
   256
176
     0
 40
1.0
176
     0
 90
        2
176
     1
  1
strokes_ogs.tif
176
     1
290
     0
176
     1
 40
1.0
176
     1
 40
1.0
176
     1
  0
VISUALSTYLE
  5
2D
102
{ACAD_REACTORS
330
2A
102
}
330
2A
100
AcDbVisualStyle
  2
Gouraud
 70
     2
177
     3
291
     1
 70
    58
 90
        2
176
     1
 90
        2
176
     1
 90
        1
176
     1
 90
        2
176
     1
 40
0.6
176
     1
 40
30.0
176
     1
 62
     7
420
 16777215
176
     1
 90
        0
176
     1
 90
        0
176
     1
 62
     7
176
     1
 62
   257
176
     1
 90
        1
176
     1
 90
        1
176
     1
 40
1.0
176
     1
 90
        0
176
     1
 62
     7
176
     1
 40
1.0
176
     1
 90
        1
176
     1
 90
        6
176
     1
 90
        2
176
     1
 62
     7
176
     1
 90
        5
176
     1
 90
        0
176
     1
 90
        0
176
     1
290
     0
176
     1
 90
       13
176
     1
 40
0.0
176
     1
 90
        0
176
     1
290
     0
176
     1
290
     1
176
     1
290
     1
176
     1
290
     0
176
     1
290
     0
176
     1
290
     0
176
     1
290
     0
176
     1
290
     0
176
     1
290
     0
176
     1
 90
       50
176
     1
 40
0.0
176
     1
 40
1.0
176
     1
 90
        0
176
     1
 62
    18
420
        0
176
     1
 90
       50
176
     1
 90
        3
176
     1
 62
     5
420
      255
176
     1
290
     0
176
     1
 90
       50
176
     1
 90
       50
176
     1
 90
       50
176
     1
290
     0
176
     1
 90
       50
176
     1
 62
   256
176
     0
 40
1.0
176
     0
 90
        2
176
     1
  1
strokes_ogs.tif
176
     1
290
     0
176
     1
 40
1.0
176
     1
 40
1.0
176
     1
  0
VISUALSTYLE
  5
2E
102
{ACAD_REACTORS
330
2A
102
}
330
2A
100
AcDbVisualStyle
  2
GouraudWithEdges
 70
     3
177
     3
291
     1
 70
    58
 90
        2
176
     1
 90
        2
176
     1
 90
        1
176
     1
 90
        2
176
     1
 40
0.6
176
     1
 40
30.0
176
     1
 62
     7
420
 16777215
176
     1
 90
        1
176
     1
 90
        0
176
     1
 62
     7
176
     1
 62
   257
176
     1
 90
        1
176
     1
 90
        1
176
     1
 40
1.0
176
     1
 90
        0
176
     1
 62
   257
176
     1
 40
1.0
176
     1
 90
        1
176
     1
 90
        6
176
     1
 90
        2
176
     1
 62
     7
176
     1
 90
        5
176
     1
 90
        0
176
     1
 90
        0
176
     1
290
     0
176
     1
 90
       13
176
     1
 40
0.0
176
     1
 90
        0
176
     1
290
     0
176
     1
290
     1
176
     1
290
     1
176
     1
290
     0
176
     1
290
     0
176
     1
290
     0
176
     1
290
     0
176
     1
290
     0
176
     1
290
     0
176
     1
 90
       50
176
     1
 40
0.0
176
     1
 40
1.0
176
     1
 90
        0
176
     1
 62
    18
420
        0
176
     1
 90
       50
176
     1
 90
        3
176
     1
 62
     5
420
      255
176
     1
290
     0
176
     1
 90
       50
176
     1
 90
       50
176
     1
 90
       50
176
     1
290
     0
176
     1
 90
       50
176
     1
 62
   256
176
     0
 40
1.0
176
     0
 90
        2
176
     1
  1
strokes_ogs.tif
176
     1
290
     0
176
     1
 40
1.0
176
     1
 40
1.0
176
     1
  0
VISUALSTYLE
  5
31
102
{ACAD_REACTORS
330
2A
102
}
330
2A
100
AcDbVisualStyle
  2
Hidden
 70
     6
177
     3
291
     0
 70
    58
 90
        1
176
     1
 90
        2
176
     1
 90
        2
176
     1
 90
        0
176
     1
 40
0.6
176
     1
 40
30.0
176
     1
 62
     7
420
 16777215
176
     1
 90
        2
176
     1
 90
        2
176
     1
 62
     7
176
     1
 62
   257
176
     1
 90
        2
176
     1
 90
        1
176
     1
 40
40.0
176
     1
 90
        0
176
     1
 62
   257
176
     1
 40
1.0
176
     1
 90
        1
176
     1
 90
        6
176
     1
 90
        2
176
     1
 62
     7
176
     1
 90
        3
176
     1
 90
        0
176
     1
 90
        0
176
     1
290
     0
176
     1
 90
        1
176
     1
 40
0.0
176
     1
 90
        0
176
     1
290
     0
176
     1
290
     1
176
     1
290
     1
176
     1
290
     0
176
     1
290
     0
176
     1
290
     0
176
     1
290
     0
176
     1
290
     0
176
     1
290
     0
176
     1
 90
       50
176
     1
 40
0.0
176
     1
 40
1.0
176
     1
 90
        0
176
     1
 62
    18
420
        0
176
     1
 90
       50
176
     1
 90
        3
176
     1
 62
     5
420
      255
176
     1
290
     0
176
     1
 90
       50
176
     1
 90
       50
176
     1
 90
       50
176
     1
290
     0
176
     1
 90
       50
176
     1
 62
   256
176
     0
 40
1.0
176
     0
 90
        2
176
     1
  1
strokes_ogs.tif
176
     1
290
     0
176
     1
 40
1.0
176
     1
 40
1.0
176
     1
  0
VISUALSTYLE
  5
3B
102
{ACAD_REACTORS
330
2A
102
}
330
2A
100
AcDbVisualStyle
  2
JitterOff
 70
    20
177
     3
291
     1
 70
    58
 90
        2
176
     0
 90
        2
176
     0
 90
        0
176
     0
 90
        0
176
     0
 40
0.6
176
     0
 40
30.0
176
     0
 62
     7
420
 16777215
176
     0
 90
        1
176
     0
 90
        4
176
     0
 62
     7
176
     0
 62
   257
176
     0
 90
        1
176
     0
 90
        1
176
     0
 40
1.0
176
     0
 90
       10
176
     2
 62
     7
176
     0
 40
1.0
176
     0
 90
        1
176
     0
 90
        6
176
     0
 90
        2
176
     0
 62
     7
176
     0
 90
        5
176
     0
 90
        0
176
     0
 90
        0
176
     0
290
     0
176
     0
 90
        1
176
     0
 40
0.0
176
     0
 90
        0
176
     0
290
     0
176
     0
290
     1
176
     0
290
     1
176
     0
290
     0
176
     0
290
     0
176
     0
290
     0
176
     0
290
     0
176
     0
290
     0
176
     0
290
     0
176
     0
 90
       50
176
     0
 40
0.0
176
     0
 40
1.0
176
     0
 90
        0
176
     0
 62
    18
420
        0
176
     0
 90
       50
176
     0
 90
        3
176
     0
 62
     5
420
      255
176
     0
290
     0
176
     0
 90
       50
176
     0
 90
       50
176
     0
 90
       50
176
     0
290
     0
176
     0
 90
       50
176
     0
 62
   256
176
     0
 40
1.0
176
     0
 90
        2
176
     0
  1
strokes_ogs.tif
176
     0
290
     0
176
     0
 40
1.0
176
     0
 40
1.0
176
     0
  0
VISUALSTYLE
  5
38
102
{ACAD_REACTORS
330
2A
102
}
330
2A
100
AcDbVisualStyle
  2
Linepattern
 70
    14
177
     3
291
     1
 70
    58
 90
        2
176
     1
 90
        2
176
     1
 90
        0
176
     1
 90
        0
176
     1
 40
0.6
176
     1
 40
30.0
176
     1
 62
     7
420
 16777215
176
     1
 90
        1
176
     1
 90
        4
176
     1
 62
     7
176
     1
 62
   257
176
     1
 90
        7
176
     1
 90
        7
176
     1
 40
1.0
176
     1
 90
        8
176
     1
 62
     7
176
     1
 40
1.0
176
     1
 90
        1
176
     1
 90
        6
176
     1
 90
        2
176
     1
 62
     7
176
     1
 90
        5
176
     1
 90
        0
176
     1
 90
        0
176
     1
290
     0
176
     1
 90
        1
176
     1
 40
0.0
176
     1
 90
        0
176
     1
290
     0
176
     1
290
     1
176
     1
290
     1
176
     1
290
     0
176
     1
290
     0
176
     1
290
     0
176
     1
290
     0
176
     1
290
     0
176
     1
290
     0
176
     1
 90
       50
176
     1
 40
0.0
176
     1
 40
1.0
176
     1
 90
        0
176
     1
 62
    18
420
        0
176
     1
 90
       50
176
     1
 90
        3
176
     1
 62
     5
420
      255
176
     1
290
     0
176
     1
 90
       50
176
     1
 90
       50
176
     1
 90
       50
176
     1
290
     0
176
     1
 90
       50
176
     1
 62
   256
176
     0
 40
1.0
176
     0
 90
        2
176
     1
  1
strokes_ogs.tif
176
     1
290
     0
176
     1
 40
1.0
176
     1
 40
1.0
176
     1
  0
VISUALSTYLE
  5
3C
102
{ACAD_REACTORS
330
2A
102
}
330
2A
100
AcDbVisualStyle
  2
OverhangOff
 70
    21
177
     3
291
     1
 70
    58
 90
        2
176
     0
 90
        2
176
     0
 90
        0
176
     0
 90
        0
176
     0
 40
0.6
176
     0
 40
30.0
176
     0
 62
     7
420
 16777215
176
     0
 90
        1
176
     0
 90
        4
176
     0
 62
     7
176
     0
 62
   257
176
     0
 90
        1
176
     0
 90
        1
176
     0
 40
1.0
176
     0
 90
        9
176
     2
 62
     7
176
     0
 40
1.0
176
     0
 90
        1
176
     0
 90
        6
176
     0
 90
        2
176
     0
 62
     7
176
     0
 90
        5
176
     0
 90
        0
176
     0
 90
        0
176
     0
290
     0
176
     0
 90
        1
176
     0
 40
0.0
176
     0
 90
        0
176
     0
290
     0
176
     0
290
     1
176
     0
290
     1
176
     0
290
     0
176
     0
290
     0
176
     0
290
     0
176
     0
290
     0
176
     0
290
     0
176
     0
290
     0
176
     0
 90
       50
176
     0
 40
0.0
176
     0
 40
1.0
176
     0
 90
        0
176
     0
 62
    18
420
        0
176
     0
 90
       50
176
     0
 90
        3
176
     0
 62
     5
420
      255
176
     0
290
     0
176
     0
 90
       50
176
     0
 90
       50
176
     0
 90
       50
176
     0
290
     0
176
     0
 90
       50
176
     0
 62
   256
176
     0
 40
1.0
176
     0
 90
        2
176
     0
  1
strokes_ogs.tif
176
     0
290
     0
176
     0
 40
1.0
176
     0
 40
1.0
176
     0
  0
VISUALSTYLE
  5
33
102
{ACAD_REACTORS
330
2A
102
}
330
2A
100
AcDbVisualStyle
  2
Realistic
 70
     8
177
     3
291
     0
 70
    58
 90
        2
176
     1
 90
        3
176
     1
 90
        0
176
     1
 90
        2
176
     1
 40
0.6
176
     1
 40
30.0
176
     1
 62
     7
420
 16777215
176
     1
 90
        0
176
     1
 90
        0
176
     1
 62
     7
176
     1
 62
   257
176
     1
 90
        1
176
     1
 90
        1
176
     1
 40
1.0
176
     1
 90
        8
176
     1
 62
   257
176
     1
 40
1.0
176
     1
 90
        1
176
     1
 90
        6
176
     1
 90
        2
176
     1
 62
     7
176
     1
 90
        3
176
     1
 90
        0
176
     1
 90
        0
176
     1
290
     0
176
     1
 90
       13
176
     1
 40
0.0
176
     1
 90
        0
176
     1
290
     0
176
     1
290
     1
176
     1
290
     1
176
     1
290
     0
176
     1
290
     0
176
     1
290
     0
176
     1
290
     0
176
     1
290
     0
176
     1
290
     0
176
     1
 90
       50
176
     1
 40
0.0
176
     1
 40
1.0
176
     1
 90
        0
176
     1
 62
    18
420
        0
176
     1
 90
       50
176
     1
 90
        3
176
     1
 62
     5
420
      255
176
     1
290
     0
176
     1
 90
       50
176
     1
 90
       50
176
     1
 90
       50
176
     1
290
     0
176
     1
 90
       50
176
     1
 62
   256
176
     0
 40
1.0
176
     0
 90
        2
176
     1
  1
strokes_ogs.tif
176
     1
290
     0
176
     1
 40
1.0
176
     1
 40
1.0
176
     1
  0
VISUALSTYLE
  5
42
102
{ACAD_REACTORS
330
2A
102
}
330
2A
100
AcDbVisualStyle
  2
Shaded
 70
    27
177
     3
291
     0
 70
    58
 90
        2
176
     1
 90
        2
176
     1
 90
        1
176
     1
 90
        2
176
     1
 40
0.6
176
     1
 40
30.0
176
     1
 62
     7
420
 16777215
176
     1
 90
        0
176
     1
 90
        4
176
     1
 62
     7
176
     1
 62
   257
176
     1
 90
        1
176
     1
 90
        1
176
     1
 40
1.0
176
     1
 90
        8
176
     1
 62
   257
176
     1
 40
1.0
176
     1
 90
        1
176
     1
 90
        6
176
     1
 90
        2
176
     1
 62
     8
420
  7895160
176
     1
 90
        3
176
     1
 90
        0
176
     1
 90
        0
176
     1
290
     0
176
     1
 90
        5
176
     1
 40
0.0
176
     1
 90
        0
176
     1
290
     0
176
     1
290
     1
176
     1
290
     1
176
     1
290
     0
176
     1
290
     0
176
     1
290
     0
176
     1
290
     0
176
     1
290
     0
176
     1
290
     0
176
     1
 90
       50
176
     1
 40
0.0
176
     1
 40
1.0
176
     1
 90
        0
176
     1
 62
    18
420
        0
176
     1
 90
       50
176
     1
 90
        3
176
     1
 62
     5
420
      255
176
     1
290
     0
176
     1
 90
       50
176
     1
 90
       50
176
     1
 90
       50
176
     1
290
     0
176
     1
 90
       50
176
     1
 62
   256
176
     0
 40
1.0
176
     0
 90
        2
176
     1
  1
strokes_ogs.tif
176
     1
290
     0
176
     1
 40
1.0
176
     1
 40
1.0
176
     1
  0
VISUALSTYLE
  5
41
102
{ACAD_REACTORS
330
2A
102
}
330
2A
100
AcDbVisualStyle
  2
Shaded with edges
 70
    26
177
     3
291
     0
 70
    58
 90
        2
176
     1
 90
        2
176
     1
 90
        1
176
     1
 90
        2
176
     1
 40
0.6
176
     1
 40
30.0
176
     1
 62
     7
420
 16777215
176
     1
 90
        1
176
     1
 90
       10
176
     1
 62
     7
176
     1
 62
   257
176
     1
 90
        2
176
     1
 90
        1
176
     1
 40
1.0
176
     1
 90
        8
176
     1
 62
   257
176
     1
 40
1.0
176
     1
 90
        1
176
     1
 90
        6
176
     1
 90
        2
176
     1
 62
     7
176
     1
 90
        3
176
     1
 90
        0
176
     1
 90
        0
176
     1
290
     0
176
     1
 90
        5
176
     1
 40
0.0
176
     1
 90
        0
176
     1
290
     0
176
     1
290
     1
176
     1
290
     1
176
     1
290
     0
176
     1
290
     0
176
     1
290
     0
176
     1
290
     0
176
     1
290
     0
176
     1
290
     0
176
     1
 90
       50
176
     1
 40
0.0
176
     1
 40
1.0
176
     1
 90
        0
176
     1
 62
    18
420
        0
176
     1
 90
       50
176
     1
 90
        3
176
     1
 62
     5
420
      255
176
     1
290
     0
176
     1
 90
       50
176
     1
 90
       50
176
     1
 90
       50
176
     1
290
     0
176
     1
 90
       50
176
     1
 62
   256
176
     0
 40
1.0
176
     0
 90
        2
176
     1
  1
strokes_ogs.tif
176
     1
290
     0
176
     1
 40
1.0
176
     1
 40
1.0
176
     1
  0
VISUALSTYLE
  5
3E
102
{ACAD_REACTORS
330
2A
102
}
330
2A
100
AcDbVisualStyle
  2
Shades of Gray
 70
    23
177
     3
291
     0
 70
    58
 90
        2
176
     1
 90
        2
176
     1
 90
        3
176
     1
 90
        0
176
     1
 40
0.6
176
     1
 40
30.0
176
     1
 62
     7
420
 16777215
176
     1
 90
        2
176
     1
 90
        2
176
     1
 62
     7
176
     1
 62
     7
176
     1
 90
        1
176
     1
 90
        1
176
     1
 40
40.0
176
     1
 90
        8
176
     1
 62
     7
176
     1
 40
1.0
176
     1
 90
        1
176
     1
 90
        6
176
     1
 90
        2
176
     1
 62
     7
176
     1
 90
        3
176
     1
 90
        0
176
     1
 90
        0
176
     1
290
     0
176
     1
 90
        1
176
     1
 40
0.0
176
     1
 90
        0
176
     1
290
     0
176
     1
290
     1
176
     1
290
     1
176
     1
290
     0
176
     1
290
     0
176
     1
290
     0
176
     1
290
     0
176
     1
290
     0
176
     1
290
     0
176
     1
 90
       50
176
     1
 40
0.0
176
     1
 40
1.0
176
     1
 90
        0
176
     1
 62
    18
420
        0
176
     1
 90
       50
176
     1
 90
        3
176
     1
 62
     5
420
      255
176
     1
290
     0
176
     1
 90
       50
176
     1
 90
       50
176
     1
 90
       50
176
     1
290
     0
176
     1
 90
       50
176
     1
 62
   256
176
     0
 40
1.0
176
     0
 90
        2
176
     1
  1
strokes_ogs.tif
176
     1
290
     0
176
     1
 40
1.0
176
     1
 40
1.0
176
     1
  0
VISUALSTYLE
  5
3F
102
{ACAD_REACTORS
330
2A
102
}
330
2A
100
AcDbVisualStyle
  2
Sketchy
 70
    24
177
     3
291
     0
 70
    58
 90
        1
176
     1
 90
        2
176
     1
 90
        2
176
     1
 90
        0
176
     1
 40
0.6
176
     1
 40
30.0
176
     1
 62
     7
420
 16777215
176
     1
 90
        2
176
     1
 90
        2
176
     1
 62
     7
176
     1
 62
     7
176
     1
 90
        1
176
     1
 90
        1
176
     1
 40
40.0
176
     1
 90
       11
176
     1
 62
     7
176
     1
 40
1.0
176
     1
 90
        1
176
     1
 90
        6
176
     1
 90
        2
176
     1
 62
     7
176
     1
 90
        6
176
     1
 90
        0
176
     1
 90
        0
176
     1
290
     0
176
     1
 90
        1
176
     1
 40
0.0
176
     1
 90
        0
176
     1
290
     0
176
     1
290
     1
176
     1
290
     1
176
     1
290
     0
176
     1
290
     0
176
     1
290
     0
176
     1
290
     0
176
     1
290
     0
176
     1
290
     0
176
     1
 90
       50
176
     1
 40
0.0
176
     1
 40
1.0
176
     1
 90
        0
176
     1
 62
    18
420
        0
176
     1
 90
       50
176
     1
 90
        3
176
     1
 62
     5
420
      255
176
     1
290
     0
176
     1
 90
       50
176
     1
 90
       50
176
     1
 90
       50
176
     1
290
     0
176
     1
 90
       50
176
     1
 62
   256
176
     0
 40
1.0
176
     0
 90
        2
176
     1
  1
strokes_ogs.tif
176
     1
290
     0
176
     1
 40
1.0
176
     1
 40
1.0
176
     1
  0
VISUALSTYLE
  5
37
102
{ACAD_REACTORS
330
2A
102
}
330
2A
100
AcDbVisualStyle
  2
Thicken
 70
    13
177
     3
291
     1
 70
    58
 90
        2
176
     1
 90
        2
176
     1
 90
        0
176
     1
 90
        0
176
     1
 40
0.6
176
     1
 40
30.0
176
     1
 62
     7
420
 16777215
176
     1
 90
        1
176
     1
 90
        4
176
     1
 62
     7
176
     1
 62
   257
176
     1
 90
        1
176
     1
 90
        1
176
     1
 40
1.0
176
     1
 90
       12
176
     1
 62
     7
176
     1
 40
1.0
176
     1
 90
        1
176
     1
 90
        6
176
     1
 90
        2
176
     1
 62
     7
176
     1
 90
        5
176
     1
 90
        0
176
     1
 90
        0
176
     1
290
     0
176
     1
 90
        1
176
     1
 40
0.0
176
     1
 90
        0
176
     1
290
     0
176
     1
290
     1
176
     1
290
     1
176
     1
290
     0
176
     1
290
     0
176
     1
290
     0
176
     1
290
     0
176
     1
290
     0
176
     1
290
     0
176
     1
 90
       50
176
     1
 40
0.0
176
     1
 40
1.0
176
     1
 90
        0
176
     1
 62
    18
420
        0
176
     1
 90
       50
176
     1
 90
        3
176
     1
 62
     5
420
      255
176
     1
290
     0
176
     1
 90
       50
176
     1
 90
       50
176
     1
 90
       50
176
     1
290
     0
176
     1
 90
       50
176
     1
 62
   256
176
     0
 40
1.0
176
     0
 90
        2
176
     1
  1
strokes_ogs.tif
176
     1
290
     0
176
     1
 40
1.0
176
     1
 40
1.0
176
     1
  0
VISUALSTYLE
  5
30
102
{ACAD_REACTORS
330
2A
102
}
330
2A
100
AcDbVisualStyle
  2
Wireframe
 70
     5
177
     3
291
     0
 70
    58
 90
        0
176
     1
 90
        2
176
     1
 90
        0
176
     1
 90
        0
176
     1
 40
0.6
176
     1
 40
30.0
176
     1
 62
     7
420
 16777215
176
     1
 90
        1
176
     1
 90
        4
176
     1
 62
     7
176
     1
 62
   257
176
     1
 90
        1
176
     1
 90
        1
176
     1
 40
1.0
176
     1
 90
        0
176
     1
 62
   257
176
     1
 40
1.0
176
     1
 90
        1
176
     1
 90
        6
176
     1
 90
        2
176
     1
 62
     7
176
     1
 90
        3
176
     1
 90
        0
176
     1
 90
        0
176
     1
290
     0
176
     1
 90
        1
176
     1
 40
0.0
176
     1
 90
        0
176
     1
290
     0
176
     1
290
     1
176
     1
290
     1
176
     1
290
     0
176
     1
290
     0
176
     1
290
     0
176
     1
290
     0
176
     1
290
     0
176
     1
290
     0
176
     1
 90
       50
176
     1
 40
0.0
176
     1
 40
1.0
176
     1
 90
        0
176
     1
 62
    18
420
        0
176
     1
 90
       50
176
     1
 90
        3
176
     1
 62
     5
420
      255
176
     1
290
     0
176
     1
 90
       50
176
     1
 90
       50
176
     1
 90
       50
176
     1
290
     0
176
     1
 90
       50
176
     1
 62
   256
176
     0
 40
1.0
176
     0
 90
        2
176
     1
  1
strokes_ogs.tif
176
     1
290
     0
176
     1
 40
1.0
176
     1
 40
1.0
176
     1
  0
VISUALSTYLE
  5
40
102
{ACAD_REACTORS
330
2A
102
}
330
2A
100
AcDbVisualStyle
  2
X-Ray
 70
    25
177
     3
291
     0
 70
    58
 90
        2
176
     1
 90
        2
176
     1
 90
        1
176
     1
 90
        1
176
     1
 40
0.5
176
     1
 40
30.0
176
     1
 62
     7
420
 16777215
176
     1
 90
        1
176
     1
 90
        0
176
     1
 62
     7
176
     1
 62
   257
176
     1
 90
        1
176
     1
 90
        1
176
     1
 40
1.0
176
     1
 90
        8
176
     1
 62
     7
176
     1
 40
1.0
176
     1
 90
        1
176
     1
 90
        6
176
     1
 90
        2
176
     1
 62
     7
176
     1
 90
        3
176
     1
 90
        0
176
     1
 90
        0
176
     1
290
     0
176
     1
 90
       13
176
     1
 40
0.0
176
     1
 90
        0
176
     1
290
     0
176
     1
290
     1
176
     1
290
     1
176
     1
290
     0
176
     1
290
     0
176
     1
290
     0
176
     1
290
     0
176
     1
290
     0
176
     1
290
     0
176
     1
 90
       50
176
     1
 40
0.0
176
     1
 40
1.0
176
     1
 90
        0
176
     1
 62
    18
420
        0
176
     1
 90
       50
176
     1
 90
        3
176
     1
 62
     5
420
      255
176
     1
290
     0
176
     1
 90
       50
176
     1
 90
       50
176
     1
 90
       50
176
     1
290
     0
176
     1
 90
       50
176
     1
 62
   256
176
     0
 40
1.0
176
     0
 90
        2
176
     1
  1
strokes_ogs.tif
176
     1
290
     0
176
     1
 40
1.0
176
     1
 40
1.0
176
     1
  0
DICTIONARYVAR
  5
291
102
{ACAD_REACTORS
330
290
102
}
330
290
100
DictionaryVariables
280
     0
  1
1:1
  0
DICTIONARYVAR
  5
296
102
{ACAD_REACTORS
330
290
102
}
330
290
100
DictionaryVariables
280
     0
  1
Standard
  0
DICTIONARYVAR
  5
295
102
{ACAD_REACTORS
330
290
102
}
330
290
100
DictionaryVariables
280
     0
  1
Standard
  0
DICTIONARY
  5
292
330
6A
100
AcDbDictionary
280
     1
281
     1
  3
ACAD_ROUNDTRIP_2008_TABLESTYLE_CELLSTYLEMAP
360
293
  0
CELLSTYLEMAP
  5
293
102
{ACAD_REACTORS
330
292
102
}
330
292
100
AcDbCellStyleMap
 90
        3
300
CELLSTYLE
  1
TABLEFORMAT_BEGIN
 90
        5
170
     1
 91
        0
 92
    32768
 62
   257
 93
        1
300
CONTENTFORMAT
  1
CONTENTFORMAT_BEGIN
 90
        0
 91
        0
 92
        4
 93
        0
300

 40
0.0
140
1.0
 94
        5
 62
     0
340
11
144
0.25
309
CONTENTFORMAT_END
171
     1
301
MARGIN
  1
CELLMARGIN_BEGIN
 40
0.06
 40
0.06
 40
0.06
 40
0.06
 40
0.06
 40
0.06
309
CELLMARGIN_END
 94
        6
 95
        1
302
GRIDFORMAT
  1
GRIDFORMAT_BEGIN
 90
        0
 91
        1
 62
     0
 92
       -2
340
14
 93
        0
 40
0.045
309
GRIDFORMAT_END
 95
        2
302
GRIDFORMAT
  1
GRIDFORMAT_BEGIN
 90
        0
 91
        1
 62
     0
 92
       -2
340
14
 93
        0
 40
0.045
309
GRIDFORMAT_END
 95
        4
302
GRIDFORMAT
  1
GRIDFORMAT_BEGIN
 90
        0
 91
        1
 62
     0
 92
       -2
340
14
 93
        0
 40
0.045
309
GRIDFORMAT_END
 95
        8
302
GRIDFORMAT
  1
GRIDFORMAT_BEGIN
 90
        0
 91
        1
 62
     0
 92
       -2
340
14
 93
        0
 40
0.045
309
GRIDFORMAT_END
 95
       16
302
GRIDFORMAT
  1
GRIDFORMAT_BEGIN
 90
        0
 91
        1
 62
     0
 92
       -2
340
14
 93
        0
 40
0.045
309
GRIDFORMAT_END
 95
       32
302
GRIDFORMAT
  1
GRIDFORMAT_BEGIN
 90
        0
 91
        1
 62
     0
 92
       -2
340
14
 93
        0
 40
0.045
309
GRIDFORMAT_END
309
TABLEFORMAT_END
  1
CELLSTYLE_BEGIN
 90
        1
 91
        1
300
_TITLE
309
CELLSTYLE_END
300
CELLSTYLE
  1
TABLEFORMAT_BEGIN
 90
        5
170
     1
 91
        0
 92
        0
 62
   257
 93
        1
300
CONTENTFORMAT
  1
CONTENTFORMAT_BEGIN
 90
        0
 91
        0
 92
        4
 93
        0
300

 40
0.0
140
1.0
 94
        5
 62
     0
340
11
144
0.18
309
CONTENTFORMAT_END
171
     1
301
MARGIN
  1
CELLMARGIN_BEGIN
 40
0.06
 40
0.06
 40
0.06
 40
0.06
 40
0.06
 40
0.06
309
CELLMARGIN_END
 94
        6
 95
        1
302
GRIDFORMAT
  1
GRIDFORMAT_BEGIN
 90
        0
 91
        1
 62
     0
 92
       -2
340
14
 93
        0
 40
0.045
309
GRIDFORMAT_END
 95
        2
302
GRIDFORMAT
  1
GRIDFORMAT_BEGIN
 90
        0
 91
        1
 62
     0
 92
       -2
340
14
 93
        0
 40
0.045
309
GRIDFORMAT_END
 95
        4
302
GRIDFORMAT
  1
GRIDFORMAT_BEGIN
 90
        0
 91
        1
 62
     0
 92
       -2
340
14
 93
        0
 40
0.045
309
GRIDFORMAT_END
 95
        8
302
GRIDFORMAT
  1
GRIDFORMAT_BEGIN
 90
        0
 91
        1
 62
     0
 92
       -2
340
14
 93
        0
 40
0.045
309
GRIDFORMAT_END
 95
       16
302
GRIDFORMAT
  1
GRIDFORMAT_BEGIN
 90
        0
 91
        1
 62
     0
 92
       -2
340
14
 93
        0
 40
0.045
309
GRIDFORMAT_END
 95
       32
302
GRIDFORMAT
  1
GRIDFORMAT_BEGIN
 90
        0
 91
        1
 62
     0
 92
       -2
340
14
 93
        0
 40
0.045
309
GRIDFORMAT_END
309
TABLEFORMAT_END
  1
CELLSTYLE_BEGIN
 90
        2
 91
        1
300
_HEADER
309
CELLSTYLE_END
300
CELLSTYLE
  1
TABLEFORMAT_BEGIN
 90
        5
170
     1
 91
        0
 92
        0
 62
   257
 93
        1
300
CONTENTFORMAT
  1
CONTENTFORMAT_BEGIN
 90
        0
 91
        0
 92
        4
 93
        0
300

 40
0.0
140
1.0
 94
        2
 62
     0
340
11
144
0.18
309
CONTENTFORMAT_END
171
     1
301
MARGIN
  1
CELLMARGIN_BEGIN
 40
0.06
 40
0.06
 40
0.06
 40
0.06
 40
0.06
 40
0.06
309
CELLMARGIN_END
 94
        6
 95
        1
302
GRIDFORMAT
  1
GRIDFORMAT_BEGIN
 90
        0
 91
        1
 62
     0
 92
       -2
340
14
 93
        0
 40
0.045
309
GRIDFORMAT_END
 95
        2
302
GRIDFORMAT
  1
GRIDFORMAT_BEGIN
 90
        0
 91
        1
 62
     0
 92
       -2
340
14
 93
        0
 40
0.045
309
GRIDFORMAT_END
 95
        4
302
GRIDFORMAT
  1
GRIDFORMAT_BEGIN
 90
        0
 91
        1
 62
     0
 92
       -2
340
14
 93
        0
 40
0.045
309
GRIDFORMAT_END
 95
        8
302
GRIDFORMAT
  1
GRIDFORMAT_BEGIN
 90
        0
 91
        1
 62
     0
 92
       -2
340
14
 93
        0
 40
0.045
309
GRIDFORMAT_END
 95
       16
302
GRIDFORMAT
  1
GRIDFORMAT_BEGIN
 90
        0
 91
        1
 62
     0
 92
       -2
340
14
 93
        0
 40
0.045
309
GRIDFORMAT_END
 95
       32
302
GRIDFORMAT
  1
GRIDFORMAT_BEGIN
 90
        0
 91
        1
 62
     0
 92
       -2
340
14
 93
        0
 40
0.045
309
GRIDFORMAT_END
309
TABLEFORMAT_END
  1
CELLSTYLE_BEGIN
 90
        3
 91
        2
300
_DATA
309
CELLSTYLE_END
  0
ENDSEC
  0
EOF