0
SECTION
  2
HEADER
  9
$ACADVER
  1
AC1027
  9
$ACADMAINTVER
 70
     8
  9
$DWGCODEPAGE
  3
ANSI_1252
  9
$REQUIREDVERSIONS
160
                 0
  9
$COMMENTS
  1
File was created by Cadenas
  9
$CUSTOMPROPERTYTAG
  1
NN
  9
$CUSTOMPROPERTY
  1
Imperial - IP Wide Slot Take-Up
  9
$CUSTOMPROPERTYTAG
  1
NT
  9
$CUSTOMPROPERTY
  1
Imperial Wide Slot Take-Up Bearings
  9
$CUSTOMPROPERTYTAG
  1
NB
  9
$CUSTOMPROPERTY
  1
069341
  9
$CUSTOMPROPERTYTAG
  1
NBSYN
  9
$CUSTOMPROPERTY
  1
$PN.
  9
$CUSTOMPROPERTYTAG
  1
LINA
  9
$CUSTOMPROPERTY
  1
069341
  9
$CUSTOMPROPERTYTAG
  1
SS
  9
$CUSTOMPROPERTY
  1
1-3/16
  9
$CUSTOMPROPERTYTAG
  1
PN
  9
$CUSTOMPROPERTY
  1
069341
  9
$CUSTOMPROPERTYTAG
  1
DESCRIPTION
  9
$CUSTOMPROPERTY
  1
WSTU-IP-103R
  9
$CUSTOMPROPERTYTAG
  1
EF
  9
$CUSTOMPROPERTY
  1
Non-Expansion
  9
$CUSTOMPROPERTYTAG
  1
ST
  9
$CUSTOMPROPERTY
  1
Contact Seal
  9
$CUSTOMPROPERTYTAG
  1
A
  9
$CUSTOMPROPERTY
  1
2-5/8
  9
$CUSTOMPROPERTYTAG
  1
B
  9
$CUSTOMPROPERTY
  1
5-1/16
  9
$CUSTOMPROPERTYTAG
  1
C
  9
$CUSTOMPROPERTY
  1
17/32
  9
$CUSTOMPROPERTYTAG
  1
D
  9
$CUSTOMPROPERTY
  1
2-3/4
  9
$CUSTOMPROPERTYTAG
  1
E
  9
$CUSTOMPROPERTY
  1
3-3/16
  9
$CUSTOMPROPERTYTAG
  1
F
  9
$CUSTOMPROPERTY
  1
7/8
  9
$CUSTOMPROPERTYTAG
  1
G
  9
$CUSTOMPROPERTY
  1
11/16
  9
$CUSTOMPROPERTYTAG
  1
H
  9
$CUSTOMPROPERTY
  1
5/8
  9
$CUSTOMPROPERTYTAG
  1
J
  9
$CUSTOMPROPERTY
  1
2-7/16
  9
$CUSTOMPROPERTYTAG
  1
K
  9
$CUSTOMPROPERTY
  1
1-7/16
  9
$CUSTOMPROPERTYTAG
  1
L
  9
$CUSTOMPROPERTY
  1
2-23/32
  9
$CUSTOMPROPERTYTAG
  1
M
  9
$CUSTOMPROPERTY
  1
3-1/2
  9
$CUSTOMPROPERTYTAG
  1
N
  9
$CUSTOMPROPERTY
  1
4-1/8
  9
$CUSTOMPROPERTYTAG
  1
R
  9
$CUSTOMPROPERTY
  1
2-53/64
  9
$CUSTOMPROPERTYTAG
  1
S
  9
$CUSTOMPROPERTY
  1
1-47/64
  9
$CUSTOMPROPERTYTAG
  1
T
  9
$CUSTOMPROPERTY
  1
2-1/16
  9
$CUSTOMPROPERTYTAG
  1
X
  9
$CUSTOMPROPERTY
  1
3/16
  9
$CUSTOMPROPERTYTAG
  1
Y
  9
$CUSTOMPROPERTY
  1
0.020
  9
$CUSTOMPROPERTYTAG
  1
Z
  9
$CUSTOMPROPERTY
  1
1-51/64
  9
$CUSTOMPROPERTYTAG
  1
COMPANY
  9
$CUSTOMPROPERTY
  1
baldor
  9
$INSBASE
 10
0.0
 20
0.0
 30
0.0
  9
$EXTMIN
 10
1.000000000000000E+20
 20
1.000000000000000E+20
 30
1.000000000000000E+20
  9
$EXTMAX
 10
-1.000000000000000E+20
 20
-1.000000000000000E+20
 30
-1.000000000000000E+20
  9
$LIMMIN
 10
0.0
 20
0.0
  9
$LIMMAX
 10
12.0
 20
9.0
  9
$ORTHOMODE
 70
     0
  9
$REGENMODE
 70
     1
  9
$FILLMODE
 70
     1
  9
$QTEXTMODE
 70
     0
  9
$MIRRTEXT
 70
     1
  9
$LTSCALE
 40
1.0
  9
$ATTMODE
 70
     1
  9
$TEXTSIZE
 40
0.2
  9
$TRACEWID
 40
0.05
  9
$TEXTSTYLE
  7
Standard
  9
$CLAYER
  8
0
  9
$CELTYPE
  6
ByLayer
  9
$CECOLOR
 62
   256
  9
$CELTSCALE
 40
1.0
  9
$DISPSILH
 70
     0
  9
$DIMSCALE
 40
1.0
  9
$DIMASZ
 40
0.18
  9
$DIMEXO
 40
0.0625
  9
$DIMDLI
 40
0.38
  9
$DIMRND
 40
0.0
  9
$DIMDLE
 40
0.0
  9
$DIMEXE
 40
0.18
  9
$DIMTP
 40
0.0
  9
$DIMTM
 40
0.0
  9
$DIMTXT
 40
0.18
  9
$DIMCEN
 40
0.09
  9
$DIMTSZ
 40
0.0
  9
$DIMTOL
 70
     0
  9
$DIMLIM
 70
     0
  9
$DIMTIH
 70
     1
  9
$DIMTOH
 70
     1
  9
$DIMSE1
 70
     0
  9
$DIMSE2
 70
     0
  9
$DIMTAD
 70
     0
  9
$DIMZIN
 70
     0
  9
$DIMBLK
  1

  9
$DIMASO
 70
     1
  9
$DIMSHO
 70
     1
  9
$DIMPOST
  1

  9
$DIMAPOST
  1

  9
$DIMALT
 70
     0
  9
$DIMALTD
 70
     2
  9
$DIMALTF
 40
25.4
  9
$DIMLFAC
 40
1.0
  9
$DIMTOFL
 70
     0
  9
$DIMTVP
 40
0.0
  9
$DIMTIX
 70
     0
  9
$DIMSOXD
 70
     0
  9
$DIMSAH
 70
     0
  9
$DIMBLK1
  1

  9
$DIMBLK2
  1

  9
$DIMSTYLE
  2
Standard
  9
$DIMCLRD
 70
     0
  9
$DIMCLRE
 70
     0
  9
$DIMCLRT
 70
     0
  9
$DIMTFAC
 40
1.0
  9
$DIMGAP
 40
0.09
  9
$DIMJUST
 70
     0
  9
$DIMSD1
 70
     0
  9
$DIMSD2
 70
     0
  9
$DIMTOLJ
 70
     1
  9
$DIMTZIN
 70
     0
  9
$DIMALTZ
 70
     0
  9
$DIMALTTZ
 70
     0
  9
$DIMUPT
 70
     0
  9
$DIMDEC
 70
     4
  9
$DIMTDEC
 70
     4
  9
$DIMALTU
 70
     2
  9
$DIMALTTD
 70
     2
  9
$DIMTXSTY
  7
Standard
  9
$DIMAUNIT
 70
     0
  9
$DIMADEC
 70
     0
  9
$DIMALTRND
 40
0.0
  9
$DIMAZIN
 70
     0
  9
$DIMDSEP
 70
    46
  9
$DIMATFIT
 70
     3
  9
$DIMFRAC
 70
     0
  9
$DIMLDRBLK
  1

  9
$DIMLUNIT
 70
     2
  9
$DIMLWD
 70
    -2
  9
$DIMLWE
 70
    -2
  9
$DIMTMOVE
 70
     0
  9
$DIMFXL
 40
1.0
  9
$DIMFXLON
 70
     0
  9
$DIMJOGANG
 40
0.7853981633974483
  9
$DIMTFILL
 70
     0
  9
$DIMTFILLCLR
 70
     0
  9
$DIMARCSYM
 70
     0
  9
$DIMLTYPE
  6

  9
$DIMLTEX1
  6

  9
$DIMLTEX2
  6

  9
$DIMTXTDIRECTION
 70
     0
  9
$LUNITS
 70
     2
  9
$LUPREC
 70
     4
  9
$SKETCHINC
 40
0.1
  9
$FILLETRAD
 40
0.5
  9
$AUNITS
 70
     0
  9
$AUPREC
 70
     0
  9
$MENU
  1
.
  9
$ELEVATION
 40
0.0
  9
$PELEVATION
 40
0.0
  9
$THICKNESS
 40
0.0
  9
$LIMCHECK
 70
     0
  9
$CHAMFERA
 40
0.0
  9
$CHAMFERB
 40
0.0
  9
$CHAMFERC
 40
0.0
  9
$CHAMFERD
 40
0.0
  9
$SKPOLY
 70
     0
  9
$TDCREATE
 40
2458168.988045741
  9
$TDUCREATE
 40
2458168.946379074
  9
$TDUPDATE
 40
2458168.988045915
  9
$TDUUPDATE
 40
2458168.946379248
  9
$TDINDWG
 40
0.0000000116
  9
$TDUSRTIMER
 40
0.0000000116
  9
$USRTIMER
 70
     1
  9
$ANGBASE
 50
0.0
  9
$ANGDIR
 70
     0
  9
$PDMODE
 70
     0
  9
$PDSIZE
 40
0.0
  9
$PLINEWID
 40
0.0
  9
$SPLFRAME
 70
     0
  9
$SPLINETYPE
 70
     6
  9
$SPLINESEGS
 70
     8
  9
$HANDSEED
  5
270
  9
$SURFTAB1
 70
     6
  9
$SURFTAB2
 70
     6
  9
$SURFTYPE
 70
     6
  9
$SURFU
 70
     6
  9
$SURFV
 70
     6
  9
$UCSBASE
  2

  9
$UCSNAME
  2

  9
$UCSORG
 10
0.0
 20
0.0
 30
0.0
  9
$UCSXDIR
 10
1.0
 20
0.0
 30
0.0
  9
$UCSYDIR
 10
0.0
 20
1.0
 30
0.0
  9
$UCSORTHOREF
  2

  9
$UCSORTHOVIEW
 70
     0
  9
$UCSORGTOP
 10
0.0
 20
0.0
 30
0.0
  9
$UCSORGBOTTOM
 10
0.0
 20
0.0
 30
0.0
  9
$UCSORGLEFT
 10
0.0
 20
0.0
 30
0.0
  9
$UCSORGRIGHT
 10
0.0
 20
0.0
 30
0.0
  9
$UCSORGFRONT
 10
0.0
 20
0.0
 30
0.0
  9
$UCSORGBACK
 10
0.0
 20
0.0
 30
0.0
  9
$PUCSBASE
  2

  9
$PUCSNAME
  2

  9
$PUCSORG
 10
0.0
 20
0.0
 30
0.0
  9
$PUCSXDIR
 10
1.0
 20
0.0
 30
0.0
  9
$PUCSYDIR
 10
0.0
 20
1.0
 30
0.0
  9
$PUCSORTHOREF
  2

  9
$PUCSORTHOVIEW
 70
     0
  9
$PUCSORGTOP
 10
0.0
 20
0.0
 30
0.0
  9
$PUCSORGBOTTOM
 10
0.0
 20
0.0
 30
0.0
  9
$PUCSORGLEFT
 10
0.0
 20
0.0
 30
0.0
  9
$PUCSORGRIGHT
 10
0.0
 20
0.0
 30
0.0
  9
$PUCSORGFRONT
 10
0.0
 20
0.0
 30
0.0
  9
$PUCSORGBACK
 10
0.0
 20
0.0
 30
0.0
  9
$USERI1
 70
     0
  9
$USERI2
 70
     0
  9
$USERI3
 70
     0
  9
$USERI4
 70
     0
  9
$USERI5
 70
     0
  9
$USERR1
 40
0.0
  9
$USERR2
 40
0.0
  9
$USERR3
 40
0.0
  9
$USERR4
 40
0.0
  9
$USERR5
 40
0.0
  9
$WORLDVIEW
 70
     1
  9
$SHADEDGE
 70
     3
  9
$SHADEDIF
 70
    70
  9
$TILEMODE
 70
     1
  9
$MAXACTVP
 70
    64
  9
$PINSBASE
 10
0.0
 20
0.0
 30
0.0
  9
$PLIMCHECK
 70
     0
  9
$PEXTMIN
 10
1.000000000000000E+20
 20
1.000000000000000E+20
 30
1.000000000000000E+20
  9
$PEXTMAX
 10
-1.000000000000000E+20
 20
-1.000000000000000E+20
 30
-1.000000000000000E+20
  9
$PLIMMIN
 10
0.0
 20
0.0
  9
$PLIMMAX
 10
12.0
 20
9.0
  9
$UNITMODE
 70
     0
  9
$VISRETAIN
 70
     1
  9
$PLINEGEN
 70
     0
  9
$PSLTSCALE
 70
     1
  9
$TREEDEPTH
 70
  3020
  9
$CMLSTYLE
  2
Standard
  9
$CMLJUST
 70
     0
  9
$CMLSCALE
 40
1.0
  9
$PROXYGRAPHICS
 70
     1
  9
$MEASUREMENT
 70
     0
  9
$CELWEIGHT
370
    -1
  9
$ENDCAPS
280
     0
  9
$JOINSTYLE
280
     0
  9
$LWDISPLAY
290
     0
  9
$INSUNITS
 70
     1
  9
$HYPERLINKBASE
  1

  9
$STYLESHEET
  1

  9
$XEDIT
290
     1
  9
$CEPSNTYPE
380
     0
  9
$PSTYLEMODE
290
     1
  9
$FINGERPRINTGUID
  2
{6E43FF22-12CF-4D7D-A1C2-BC360B86BC9F}
  9
$VERSIONGUID
  2
{FAEB1C32-E019-11D5-929B-00C0DF256EC4}
  9
$EXTNAMES
290
     1
  9
$PSVPSCALE
 40
0.0
  9
$OLESTARTUP
290
     0
  9
$SORTENTS
280
   127
  9
$INDEXCTL
280
     0
  9
$HIDETEXT
280
     1
  9
$XCLIPFRAME
280
     2
  9
$HALOGAP
280
     0
  9
$OBSCOLOR
 70
   257
  9
$OBSLTYPE
280
     0
  9
$INTERSECTIONDISPLAY
280
     0
  9
$INTERSECTIONCOLOR
 70
   257
  9
$DIMASSOC
280
     2
  9
$PROJECTNAME
  1

  9
$CAMERADISPLAY
290
     0
  9
$LENSLENGTH
 40
50.0
  9
$CAMERAHEIGHT
 40
0.0
  9
$STEPSPERSEC
 40
2.0
  9
$STEPSIZE
 40
6.0
  9
$3DDWFPREC
 40
2.0
  9
$PSOLWIDTH
 40
0.25
  9
$PSOLHEIGHT
 40
4.0
  9
$LOFTANG1
 40
1.570796326794897
  9
$LOFTANG2
 40
1.570796326794897
  9
$LOFTMAG1
 40
0.0
  9
$LOFTMAG2
 40
0.0
  9
$LOFTPARAM
 70
     7
  9
$LOFTNORMALS
280
     1
  9
$LATITUDE
 40
37.795
  9
$LONGITUDE
 40
-122.394
  9
$NORTHDIRECTION
 40
0.0
  9
$TIMEZONE
 70
 -8000
  9
$LIGHTGLYPHDISPLAY
280
     1
  9
$TILEMODELIGHTSYNCH
280
     1
  9
$CMATERIAL
347
44
  9
$SOLIDHIST
280
     0
  9
$SHOWHIST
280
     1
  9
$DWFFRAME
280
     2
  9
$DGNFRAME
280
     2
  9
$REALWORLDSCALE
290
     1
  9
$INTERFERECOLOR
 62
   256
  9
$CSHADOW
280
     0
  9
$SHADOWPLANELOCATION
 40
0.0
  0
ENDSEC
  0
SECTION
  2
CLASSES
  0
CLASS
  1
ACDBDICTIONARYWDFLT
  2
AcDbDictionaryWithDefault
  3
ObjectDBX Classes
 90
        0
 91
        4
280
     0
281
     0
  0
CLASS
  1
VISUALSTYLE
  2
AcDbVisualStyle
  3
ObjectDBX Classes
 90
     4095
 91
        4
280
     0
281
     0
  0
CLASS
  1
MATERIAL
  2
AcDbMaterial
  3
ObjectDBX Classes
 90
     1153
 91
        4
280
     0
281
     0
  0
CLASS
  1
SCALE
  2
AcDbScale
  3
ObjectDBX Classes
 90
     1153
 91
        4
280
     0
281
     0
  0
CLASS
  1
TABLESTYLE
  2
AcDbTableStyle
  3
ObjectDBX Classes
 90
     4095
 91
        4
280
     0
281
     0
  0
CLASS
  1
MLEADERSTYLE
  2
AcDbMLeaderStyle
  3
ACDB_MLEADERSTYLE_CLASS
 90
     4095
 91
        4
280
     0
281
     0
  0
CLASS
  1
SUN
  2
AcDbSun
  3
SCENEOE
 90
     1153
 91
        4
280
     0
281
     0
  0
CLASS
  1
DICTIONARYVAR
  2
AcDbDictionaryVar
  3
ObjectDBX Classes
 90
        0
 91
        4
280
     0
281
     0
  0
CLASS
  1
CELLSTYLEMAP
  2
AcDbCellStyleMap
  3
ObjectDBX Classes
 90
     1152
 91
        4
280
     0
281
     0
  0
ENDSEC
  0
SECTION
  2
TABLES
  0
TABLE
  2
VPORT
  5
8
330
0
100
AcDbSymbolTable
 70
     1
  0
VPORT
  5
29
330
8
100
AcDbSymbolTableRecord
100
AcDbViewportTableRecord
  2
*Active
 70
     0
 10
0.0
 20
0.0
 11
1.0
 21
1.0
 12
0.4000535605085567
 22
-0.3094062500000003
 13
0.0
 23
0.0
 14
0.5
 24
0.5
 15
0.5
 25
0.5
 16
0.0
 26
0.0
 36
1.0
 17
0.0
 27
0.0
 37
0.0
 40
3.176726250000001
 41
1.812090587460139
 42
50.0
 43
0.0
 44
0.0
 50
0.0
 51
0.0
 71
     0
 72
   100
 73
     1
 74
     3
 75
     0
 76
     0
 77
     0
 78
     0
281
     0
 65
     1
110
0.0
120
0.0
130
0.0
111
1.0
121
0.0
131
0.0
112
0.0
122
1.0
132
0.0
 79
     0
146
0.0
348
2F
 60
     3
 61
     5
292
     1
282
     1
141
0.0
142
0.0
 63
   250
361
6D
  0
ENDTAB
  0
TABLE
  2
LTYPE
  5
5
330
0
100
AcDbSymbolTable
 70
     3
  0
LTYPE
  5
14
330
5
100
AcDbSymbolTableRecord
100
AcDbLinetypeTableRecord
  2
ByBlock
 70
     0
  3

 72
    65
 73
     0
 40
0.0
  0
LTYPE
  5
15
330
5
100
AcDbSymbolTableRecord
100
AcDbLinetypeTableRecord
  2
ByLayer
 70
     0
  3

 72
    65
 73
     0
 40
0.0
  0
LTYPE
  5
16
330
5
100
AcDbSymbolTableRecord
100
AcDbLinetypeTableRecord
  2
Continuous
 70
     0
  3
Solid line
 72
    65
 73
     0
 40
0.0
  0
LTYPE
  5
A2
330
5
100
AcDbSymbolTableRecord
100
AcDbLinetypeTableRecord
  2
Dashed
 70
     0
  3

 72
    65
 73
     2
 40
2.0
 49
1.0
 74
     0
 49
-1.0
 74
     0
  0
LTYPE
  5
232
330
5
100
AcDbSymbolTableRecord
100
AcDbLinetypeTableRecord
  2
Center
 70
     0
  3

 72
    65
 73
     4
 40
1.5
 49
0.45
 74
     0
 49
-0.5
 74
     0
 49
0.05
 74
     0
 49
-0.5
 74
     0
  0
ENDTAB
  0
TABLE
  2
LAYER
  5
2
330
0
100
AcDbSymbolTable
 70
     7
  0
LAYER
  5
10
330
2
100
AcDbSymbolTableRecord
100
AcDbLayerTableRecord
  2
0
 70
     0
 62
     7
  6
Continuous
370
    -3
390
F
347
46
348
0
  0
LAYER
  5
72
330
2
100
AcDbSymbolTableRecord
100
AcDbLayerTableRecord
  2
AM_6
 70
     0
 62
    -2
  6
Continuous
370
    35
390
F
347
46
348
0
  0
LAYER
  5
A3
330
2
100
AcDbSymbolTableRecord
100
AcDbLayerTableRecord
  2
AM_9
 70
     0
 62
     6
  6
Dashed
370
    25
390
F
347
46
348
0
  0
LAYER
  5
E4
330
2
100
AcDbSymbolTableRecord
100
AcDbLayerTableRecord
  2
AM_4
 70
     0
 62
     7
  6
Continuous
370
    50
390
F
347
46
348
0
  0
LAYER
  5
12E
330
2
100
AcDbSymbolTableRecord
100
AcDbLayerTableRecord
  2
AM_5
 70
     0
 62
     3
  6
Continuous
370
    25
390
F
347
46
348
0
  0
LAYER
  5
233
330
2
100
AcDbSymbolTableRecord
100
AcDbLayerTableRecord
  2
AM_7
 70
     0
 62
     7
  6
Center
370
    25
390
F
347
46
348
0
  0
LAYER
  5
259
330
2
100
AcDbSymbolTableRecord
100
AcDbLayerTableRecord
  2
ConnectionPoints
 70
     0
 62
     7
  6
Continuous
370
    50
390
F
347
46
348
0
  0
ENDTAB
  0
TABLE
  2
STYLE
  5
3
330
0
100
AcDbSymbolTable
 70
     1
  0
STYLE
  5
11
330
3
100
AcDbSymbolTableRecord
100
AcDbTextStyleTableRecord
  2
Standard
 70
     0
 40
0.0
 41
1.0
 50
0.0
 71
     0
 42
0.2
  3
txt
  4

  0
ENDTAB
  0
TABLE
  2
VIEW
  5
6
330
0
100
AcDbSymbolTable
 70
     0
  0
ENDTAB
  0
TABLE
  2
UCS
  5
7
330
0
100
AcDbSymbolTable
 70
     0
  0
ENDTAB
  0
TABLE
  2
APPID
  5
9
330
0
100
AcDbSymbolTable
 70
     1
  0
APPID
  5
12
330
9
100
AcDbSymbolTableRecord
100
AcDbRegAppTableRecord
  2
ACAD
 70
     0
  0
ENDTAB
  0
TABLE
  2
DIMSTYLE
  5
A
330
0
100
AcDbSymbolTable
 70
     1
100
AcDbDimStyleTable
  0
DIMSTYLE
105
27
330
A
100
AcDbSymbolTableRecord
100
AcDbDimStyleTableRecord
  2
Standard
 70
     0
178
     0
340
11
  0
ENDTAB
  0
TABLE
  2
BLOCK_RECORD
  5
1
330
0
100
AcDbSymbolTable
 70
     8
  0
BLOCK_RECORD
  5
1F
330
1
100
AcDbSymbolTableRecord
100
AcDbBlockTableRecord
  2
*Model_Space
340
22
 70
     0
280
     1
281
     0
  0
BLOCK_RECORD
  5
1B
330
1
100
AcDbSymbolTableRecord
100
AcDbBlockTableRecord
  2
*Paper_Space
340
1E
 70
     0
280
     1
281
     0
  0
BLOCK_RECORD
  5
23
330
1
100
AcDbSymbolTableRecord
100
AcDbBlockTableRecord
  2
*Paper_Space0
340
26
 70
     0
280
     1
281
     0
  0
BLOCK_RECORD
  5
6E
330
1
100
AcDbSymbolTableRecord
100
AcDbBlockTableRecord
  2
1_069341_4
340
0
102
{BLKREFS
331
6F
102
}
 70
     0
280
     1
281
     0
  0
BLOCK_RECORD
  5
91
330
1
100
AcDbSymbolTableRecord
100
AcDbBlockTableRecord
  2
2_405016_Inch_0_in_069341_4
340
0
102
{BLKREFS
331
92
102
}
 70
     0
280
     1
281
     0
  0
BLOCK_RECORD
  5
11E
330
1
100
AcDbSymbolTableRecord
100
AcDbBlockTableRecord
  2
3_ASME_B18_3_10_1_0_in_069341_4
340
0
102
{BLKREFS
331
11F
102
}
 70
     0
280
     1
281
     0
  0
BLOCK_RECORD
  5
131
330
1
100
AcDbSymbolTableRecord
100
AcDbBlockTableRecord
  2
4_ASME_B18_3_10_2_0_in_069341_4
340
0
102
{BLKREFS
331
132
102
}
 70
     0
280
     1
281
     0
  0
BLOCK_RECORD
  5
152
330
1
100
AcDbSymbolTableRecord
100
AcDbBlockTableRecord
  2
5_070881LW_0_in_069341_4
340
0
102
{BLKREFS
331
153
102
}
 70
     0
280
     1
281
     0
  0
BLOCK_RECORD
  5
188
330
1
100
AcDbSymbolTableRecord
100
AcDbBlockTableRecord
  2
6_070881I_0_in_069341_4
340
0
102
{BLKREFS
331
189
102
}
 70
     0
280
     1
281
     0
  0
BLOCK_RECORD
  5
202
330
1
100
AcDbSymbolTableRecord
100
AcDbBlockTableRecord
  2
7_069341H_0_in_069341_4
340
0
102
{BLKREFS
331
203
102
}
 70
     0
280
     1
281
     0
  0
ENDTAB
  0
ENDSEC
  0
SECTION
  2
BLOCKS
  0
BLOCK
  5
20
330
1F
100
AcDbEntity
  8
0
100
AcDbBlockBegin
  2
*Model_Space
 70
     0
 10
0.0
 20
0.0
 30
0.0
  3
*Model_Space
  1

  0
ENDBLK
  5
21
330
1F
100
AcDbEntity
  8
0
100
AcDbBlockEnd
  0
BLOCK
  5
1C
330
1B
100
AcDbEntity
 67
     1
  8
0
100
AcDbBlockBegin
  2
*Paper_Space
 70
     0
 10
0.0
 20
0.0
 30
0.0
  3
*Paper_Space
  1

  0
ENDBLK
  5
1D
330
1B
100
AcDbEntity
 67
     1
  8
0
100
AcDbBlockEnd
  0
BLOCK
  5
24
330
23
100
AcDbEntity
  8
0
100
AcDbBlockBegin
  2
*Paper_Space0
 70
     0
 10
0.0
 20
0.0
 30
0.0
  3
*Paper_Space0
  1

  0
ENDBLK
  5
25
330
23
100
AcDbEntity
  8
0
100
AcDbBlockEnd
  0
BLOCK
  5
70
330
6E
100
AcDbEntity
  8
0
100
AcDbBlockBegin
  2
1_069341_4
 70
     2
 10
0.0
 20
0.0
 30
0.0
  3
1_069341_4
  1

  0
ATTDEF
  5
73
330
6E
100
AcDbEntity
  8
AM_6
100
AcDbText
 10
8.221875
 20
1.2478125
 30
0.0
 40
0.5
  1
Imperial - IP Wide Slot Take-Up
100
AcDbAttributeDefinition
  3

  2
NN
 70
     8
280
     0
  0
ATTDEF
  5
74
330
6E
100
AcDbEntity
  8
AM_6
100
AcDbText
 10
8.221875
 20
0.7478125000000002
 30
0.0
 40
0.5
  1
Imperial Wide Slot Take-Up Bearings
100
AcDbAttributeDefinition
  3

  2
NT
 70
     8
280
     0
  0
ATTDEF
  5
75
330
6E
100
AcDbEntity
  8
AM_6
100
AcDbText
 10
8.221875
 20
0.2478125000000002
 30
0.0
 40
0.5
  1
069341
100
AcDbAttributeDefinition
  3

  2
NB
 70
     8
280
     0
  0
ATTDEF
  5
76
330
6E
100
AcDbEntity
  8
AM_6
100
AcDbText
 10
8.221875
 20
-0.2521874999999998
 30
0.0
 40
0.5
  1
$PN.
100
AcDbAttributeDefinition
  3

  2
NBSYN
 70
     8
280
     0
  0
ATTDEF
  5
77
330
6E
100
AcDbEntity
  8
AM_6
100
AcDbText
 10
8.221875
 20
-0.7521874999999998
 30
0.0
 40
0.5
  1
069341
100
AcDbAttributeDefinition
  3

  2
LINA
 70
     8
280
     0
  0
ATTDEF
  5
78
330
6E
100
AcDbEntity
  8
AM_6
100
AcDbText
 10
8.221875
 20
-1.2521875
 30
0.0
 40
0.5
  1
1-3/16
100
AcDbAttributeDefinition
  3

  2
SS
 70
     8
280
     0
  0
ATTDEF
  5
79
330
6E
100
AcDbEntity
  8
AM_6
100
AcDbText
 10
8.221875
 20
-1.7521875
 30
0.0
 40
0.5
  1
069341
100
AcDbAttributeDefinition
  3

  2
PN
 70
     8
280
     0
  0
ATTDEF
  5
7A
330
6E
100
AcDbEntity
  8
AM_6
100
AcDbText
 10
8.221875
 20
-2.2521875
 30
0.0
 40
0.5
  1
WSTU-IP-103R
100
AcDbAttributeDefinition
  3

  2
DESCRIPTION
 70
     8
280
     0
  0
ATTDEF
  5
7B
330
6E
100
AcDbEntity
  8
AM_6
100
AcDbText
 10
8.221875
 20
-2.7521875
 30
0.0
 40
0.5
  1
Non-Expansion
100
AcDbAttributeDefinition
  3

  2
EF
 70
     8
280
     0
  0
ATTDEF
  5
7C
330
6E
100
AcDbEntity
  8
AM_6
100
AcDbText
 10
8.221875
 20
-3.2521875
 30
0.0
 40
0.5
  1
Contact Seal
100
AcDbAttributeDefinition
  3

  2
ST
 70
     8
280
     0
  0
ATTDEF
  5
7D
330
6E
100
AcDbEntity
  8
AM_6
100
AcDbText
 10
8.221875
 20
-3.7521875
 30
0.0
 40
0.5
  1
2-5/8
100
AcDbAttributeDefinition
  3

  2
A
 70
     8
280
     0
  0
ATTDEF
  5
7E
330
6E
100
AcDbEntity
  8
AM_6
100
AcDbText
 10
8.221875
 20
-4.2521875
 30
0.0
 40
0.5
  1
5-1/16
100
AcDbAttributeDefinition
  3

  2
B
 70
     8
280
     0
  0
ATTDEF
  5
7F
330
6E
100
AcDbEntity
  8
AM_6
100
AcDbText
 10
8.221875
 20
-4.7521875
 30
0.0
 40
0.5
  1
17/32
100
AcDbAttributeDefinition
  3

  2
C
 70
     8
280
     0
  0
ATTDEF
  5
80
330
6E
100
AcDbEntity
  8
AM_6
100
AcDbText
 10
8.221875
 20
-5.2521875
 30
0.0
 40
0.5
  1
2-3/4
100
AcDbAttributeDefinition
  3

  2
D
 70
     8
280
     0
  0
ATTDEF
  5
81
330
6E
100
AcDbEntity
  8
AM_6
100
AcDbText
 10
8.221875
 20
-5.7521875
 30
0.0
 40
0.5
  1
3-3/16
100
AcDbAttributeDefinition
  3

  2
E
 70
     8
280
     0
  0
ATTDEF
  5
82
330
6E
100
AcDbEntity
  8
AM_6
100
AcDbText
 10
8.221875
 20
-6.2521875
 30
0.0
 40
0.5
  1
7/8
100
AcDbAttributeDefinition
  3

  2
F
 70
     8
280
     0
  0
ATTDEF
  5
83
330
6E
100
AcDbEntity
  8
AM_6
100
AcDbText
 10
8.221875
 20
-6.7521875
 30
0.0
 40
0.5
  1
11/16
100
AcDbAttributeDefinition
  3

  2
G
 70
     8
280
     0
  0
ATTDEF
  5
84
330
6E
100
AcDbEntity
  8
AM_6
100
AcDbText
 10
8.221875
 20
-7.2521875
 30
0.0
 40
0.5
  1
5/8
100
AcDbAttributeDefinition
  3

  2
H
 70
     8
280
     0
  0
ATTDEF
  5
85
330
6E
100
AcDbEntity
  8
AM_6
100
AcDbText
 10
8.221875
 20
-7.7521875
 30
0.0
 40
0.5
  1
2-7/16
100
AcDbAttributeDefinition
  3

  2
J
 70
     8
280
     0
  0
ATTDEF
  5
86
330
6E
100
AcDbEntity
  8
AM_6
100
AcDbText
 10
8.221875
 20
-8.2521875
 30
0.0
 40
0.5
  1
1-7/16
100
AcDbAttributeDefinition
  3

  2
K
 70
     8
280
     0
  0
ATTDEF
  5
87
330
6E
100
AcDbEntity
  8
AM_6
100
AcDbText
 10
8.221875
 20
-8.7521875
 30
0.0
 40
0.5
  1
2-23/32
100
AcDbAttributeDefinition
  3

  2
L
 70
     8
280
     0
  0
ATTDEF
  5
88
330
6E
100
AcDbEntity
  8
AM_6
100
AcDbText
 10
8.221875
 20
-9.2521875
 30
0.0
 40
0.5
  1
3-1/2
100
AcDbAttributeDefinition
  3

  2
M
 70
     8
280
     0
  0
ATTDEF
  5
89
330
6E
100
AcDbEntity
  8
AM_6
100
AcDbText
 10
8.221875
 20
-9.7521875
 30
0.0
 40
0.5
  1
4-1/8
100
AcDbAttributeDefinition
  3

  2
N
 70
     8
280
     0
  0
ATTDEF
  5
8A
330
6E
100
AcDbEntity
  8
AM_6
100
AcDbText
 10
8.221875
 20
-10.2521875
 30
0.0
 40
0.5
  1
2-53/64
100
AcDbAttributeDefinition
  3

  2
R
 70
     8
280
     0
  0
ATTDEF
  5
8B
330
6E
100
AcDbEntity
  8
AM_6
100
AcDbText
 10
8.221875
 20
-10.7521875
 30
0.0
 40
0.5
  1
1-47/64
100
AcDbAttributeDefinition
  3

  2
S
 70
     8
280
     0
  0
ATTDEF
  5
8C
330
6E
100
AcDbEntity
  8
AM_6
100
AcDbText
 10
8.221875
 20
-11.2521875
 30
0.0
 40
0.5
  1
2-1/16
100
AcDbAttributeDefinition
  3

  2
T
 70
     8
280
     0
  0
ATTDEF
  5
8D
330
6E
100
AcDbEntity
  8
AM_6
100
AcDbText
 10
8.221875
 20
-11.7521875
 30
0.0
 40
0.5
  1
3/16
100
AcDbAttributeDefinition
  3

  2
X
 70
     8
280
     0
  0
ATTDEF
  5
8E
330
6E
100
AcDbEntity
  8
AM_6
100
AcDbText
 10
8.221875
 20
-12.2521875
 30
0.0
 40
0.5
  1
0.020
100
AcDbAttributeDefinition
  3

  2
Y
 70
     8
280
     0
  0
ATTDEF
  5
8F
330
6E
100
AcDbEntity
  8
AM_6
100
AcDbText
 10
8.221875
 20
-12.7521875
 30
0.0
 40
0.5
  1
1-51/64
100
AcDbAttributeDefinition
  3

  2
Z
 70
     8
280
     0
  0
ATTDEF
  5
90
330
6E
100
AcDbEntity
  8
AM_6
100
AcDbText
 10
8.221875
 20
-13.2521875
 30
0.0
 40
0.5
  1
baldor
100
AcDbAttributeDefinition
  3

  2
COMPANY
 70
     8
280
     0
  0
INSERT
  5
92
330
6E
100
AcDbEntity
  8
0
100
AcDbBlockReference
  2
2_405016_Inch_0_in_069341_4
 10
0.0
 20
0.0
 30
0.0
  0
INSERT
  5
11F
330
6E
100
AcDbEntity
  8
0
100
AcDbBlockReference
  2
3_ASME_B18_3_10_1_0_in_069341_4
 10
0.0
 20
0.0
 30
0.0
  0
INSERT
  5
132
330
6E
100
AcDbEntity
  8
0
100
AcDbBlockReference
  2
4_ASME_B18_3_10_2_0_in_069341_4
 10
0.0
 20
0.0
 30
0.0
  0
INSERT
  5
153
330
6E
100
AcDbEntity
  8
0
100
AcDbBlockReference
  2
5_070881LW_0_in_069341_4
 10
0.0
 20
0.0
 30
0.0
  0
INSERT
  5
189
330
6E
100
AcDbEntity
  8
0
100
AcDbBlockReference
  2
6_070881I_0_in_069341_4
 10
0.0
 20
0.0
 30
0.0
  0
INSERT
  5
203
330
6E
100
AcDbEntity
  8
0
100
AcDbBlockReference
  2
7_069341H_0_in_069341_4
 10
0.0
 20
0.0
 30
0.0
  0
ENDBLK
  5
71
330
6E
100
AcDbEntity
  8
0
100
AcDbBlockEnd
  0
BLOCK
  5
93
330
91
100
AcDbEntity
  8
0
100
AcDbBlockBegin
  2
2_405016_Inch_0_in_069341_4
 70
     2
 10
0.0
 20
0.0
 30
0.0
  3
2_405016_Inch_0_in_069341_4
  1

  0
ATTDEF
  5
95
330
91
100
AcDbEntity
  8
AM_6
100
AcDbText
 10
3.432193653046871
 20
0.2187499999999999
 30
0.0
 40
0.5
  1
405016 -Inch
100
AcDbAttributeDefinition
  3

  2
NN
 70
     8
280
     0
  0
ATTDEF
  5
96
330
91
100
AcDbEntity
  8
AM_6
100
AcDbText
 10
3.432193653046871
 20
-0.2812500000000001
 30
0.0
 40
0.5
  1
Grease Fitting
100
AcDbAttributeDefinition
  3

  2
NT
 70
     8
280
     0
  0
ATTDEF
  5
97
330
91
100
AcDbEntity
  8
AM_6
100
AcDbText
 10
3.432193653046871
 20
-0.78125
 30
0.0
 40
0.5
  1
405016-Inch
100
AcDbAttributeDefinition
  3

  2
NB
 70
     8
280
     0
  0
ATTDEF
  5
98
330
91
100
AcDbEntity
  8
AM_6
100
AcDbText
 10
3.432193653046871
 20
-1.28125
 30
0.0
 40
0.5
  1
$MN.-Inch
100
AcDbAttributeDefinition
  3

  2
NBSYN
 70
     8
280
     0
  0
ATTDEF
  5
99
330
91
100
AcDbEntity
  8
AM_6
100
AcDbText
 10
3.432193653046871
 20
-1.78125
 30
0.0
 40
0.5
  1
405016
100
AcDbAttributeDefinition
  3

  2
LINA
 70
     8
280
     0
  0
ATTDEF
  5
9A
330
91
100
AcDbEntity
  8
AM_6
100
AcDbText
 10
3.432193653046871
 20
-2.28125
 30
0.0
 40
0.5
  1
405016
100
AcDbAttributeDefinition
  3

  2
MN
 70
     8
280
     0
  0
ATTDEF
  5
9B
330
91
100
AcDbEntity
  8
AM_6
100
AcDbText
 10
3.432193653046871
 20
-2.78125
 30
0.0
 40
0.5
  1
7/16 HEX
100
AcDbAttributeDefinition
  3

  2
H
 70
     8
280
     0
  0
ATTDEF
  5
9C
330
91
100
AcDbEntity
  8
AM_6
100
AcDbText
 10
3.432193653046871
 20
-3.28125
 30
0.0
 40
0.5
  1
0.383
100
AcDbAttributeDefinition
  3

  2
NDR
 70
     8
280
     0
  0
ATTDEF
  5
9D
330
91
100
AcDbEntity
  8
AM_6
100
AcDbText
 10
3.432193653046871
 20
-3.78125
 30
0.0
 40
0.5
  1
0.337
100
AcDbAttributeDefinition
  3

  2
KDR
 70
     8
280
     0
  0
ATTDEF
  5
9E
330
91
100
AcDbEntity
  8
AM_6
100
AcDbText
 10
3.432193653046871
 20
-4.28125
 30
0.0
 40
0.5
  1
0.1575
100
AcDbAttributeDefinition
  3

  2
BZE
 70
     8
280
     0
  0
ATTDEF
  5
9F
330
91
100
AcDbEntity
  8
AM_6
100
AcDbText
 10
3.432193653046871
 20
-4.78125
 30
0.0
 40
0.5
  1
0.4375
100
AcDbAttributeDefinition
  3

  2
HEX
 70
     8
280
     0
  0
ATTDEF
  5
A0
330
91
100
AcDbEntity
  8
AM_6
100
AcDbText
 10
3.432193653046871
 20
-5.28125
 30
0.0
 40
0.5
  1
0.281250
100
AcDbAttributeDefinition
  3

  2
HEX2
 70
     8
280
     0
  0
ATTDEF
  5
A1
330
91
100
AcDbEntity
  8
AM_6
100
AcDbText
 10
3.432193653046871
 20
-5.78125
 30
0.0
 40
0.5
  1
baldor
100
AcDbAttributeDefinition
  3

  2
COMPANY
 70
     8
280
     0
  0
LWPOLYLINE
  5
A4
330
91
100
AcDbEntity
  8
AM_9
100
AcDbPolyline
 90
        3
 70
     0
 43
0.0
 10
-1.925376118605886
 20
0.1093749999999999
 10
-1.911329244874467
 20
0.0546874999999999
 10
-1.893313247148101
 20
-0.0000000000000001
  0
LWPOLYLINE
  5
A5
330
91
100
AcDbEntity
  8
AM_9
100
AcDbPolyline
 90
        3
 70
     0
 43
0.0
 10
-1.893313247148101
 20
-0.0000000000000001
 10
-1.911256459508935
 20
-0.0544416102741496
 10
-1.925376118605886
 20
-0.109375
  0
LINE
  5
A6
330
91
100
AcDbEntity
  8
AM_9
100
AcDbLine
 10
-2.301248769993415
 20
-0.151074129835757
 30
0.0
 11
-2.313369869277112
 21
-0.1791093260592887
 31
0.0
  0
LINE
  5
A7
330
91
100
AcDbEntity
  8
AM_9
100
AcDbLine
 10
-2.152445480493063
 20
-0.2099962668917053
 30
0.0
 11
-2.164958076488234
 21
-0.2389369657326276
 31
0.0
  0
LWPOLYLINE
  5
A8
330
91
100
AcDbEntity
  8
AM_9
100
AcDbPolyline
 90
        3
 70
     0
 43
0.0
 10
-1.817409525768174
 20
-0.0000000000000001
 10
-1.823015491151728
 20
0.0544416102741495
 10
-1.832657733149207
 20
0.1093749999999999
  0
LWPOLYLINE
  5
A9
330
91
100
AcDbEntity
  8
AM_9
100
AcDbPolyline
 90
        3
 70
     0
 43
0.0
 10
-1.832657733149207
 20
-0.109375
 10
-1.823049067461217
 20
-0.0546875000000001
 10
-1.817409525768174
 20
-0.0000000000000001
  0
LWPOLYLINE
  5
AA
330
91
100
AcDbEntity
  8
AM_9
100
AcDbPolyline
 90
        3
 70
     0
 43
0.0
 10
-2.077376094948781
 20
-0.2987675689889718
 10
-2.09701968511191
 20
-0.2912216284034024
 10
-2.115972247954412
 20
-0.2813919000363599
  0
LWPOLYLINE
  5
AB
330
91
100
AcDbEntity
  8
AM_9
100
AcDbPolyline
 90
        3
 70
     0
 43
0.0
 10
-1.925376118605886
 20
-0.109375
 10
-1.934984784293876
 20
-0.1640625
 10
-1.94062432598692
 20
-0.21875
  0
LINE
  5
AC
330
91
100
AcDbEntity
  8
AM_9
100
AcDbLine
 10
-1.893313247148101
 20
-0.0000000000000001
 30
0.0
 11
-1.817409525768174
 21
-0.0000000000000001
 31
0.0
  0
LWPOLYLINE
  5
AD
330
91
100
AcDbEntity
  8
AM_9
100
AcDbPolyline
 90
        3
 70
     0
 43
0.0
 10
-1.94062432598692
 20
0.2187499999999999
 10
-1.935018360603365
 20
0.1643083897258504
 10
-1.925376118605886
 20
0.1093749999999999
  0
LWPOLYLINE
  5
AE
330
91
100
AcDbEntity
  8
AM_9
100
AcDbPolyline
 90
        3
 70
     0
 43
0.0
 10
-2.096380006507859
 20
-0.2360765106845277
 10
-2.08472337106069
 20
-0.2462091938631851
 10
-2.078188652253085
 20
-0.252820733875151
  0
LWPOLYLINE
  5
AF
330
91
100
AcDbEntity
  8
AM_9
100
AcDbPolyline
 90
        3
 70
     0
 43
0.0
 10
-1.858170253213165
 20
-0.2000409996967265
 10
-1.846777392246159
 20
-0.1643083897258504
 10
-1.832657733149207
 20
-0.109375
  0
LINE
  5
B0
330
91
100
AcDbEntity
  8
AM_9
100
AcDbLine
 10
-1.864720604606992
 20
-0.21875
 30
0.0
 11
-1.858170253213165
 21
-0.2000409996967265
 31
0.0
  0
LINE
  5
B1
330
91
100
AcDbEntity
  8
AM_9
100
AcDbLine
 10
-1.858170355903525
 20
0.2000413016192556
 30
0.0
 11
-1.864720604606992
 21
0.2187499999999999
 31
0.0
  0
LWPOLYLINE
  5
B2
330
91
100
AcDbEntity
  8
AM_9
100
AcDbPolyline
 90
        3
 70
     0
 43
0.0
 10
-1.832657733149207
 20
0.1093749999999999
 10
-1.846704606880626
 20
0.1640624999999999
 10
-1.858170355903525
 20
0.2000413016192556
  0
ELLIPSE
  5
B3
330
91
100
AcDbEntity
  8
AM_9
100
AcDbEllipse
 10
-2.323720115558108
 20
-0.4687500000000002
 30
0.0
 11
-0.09498502069411033
 21
0.04106705218388607
 31
0.0
210
0.0
220
0.0
230
1.0
 40
0.158315587346044
 41
3.066756133314197
 42
6.358021827455168
  0
ELLIPSE
  5
B4
330
91
100
AcDbEntity
  8
AM_9
100
AcDbEllipse
 10
-2.293749549445057
 20
-0.3994303217889761
 30
0.0
 11
-0.127722180120792
 21
0.0552210590441607
 31
0.0
210
0.0
220
0.0
230
1.0
 40
0.1583155873460374
 41
3.062712086510456
 42
5.932176524882762
  0
ELLIPSE
  5
B5
330
91
100
AcDbEntity
  8
AM_9
100
AcDbEllipse
 10
-2.282320704020429
 20
-0.3729962569747293
 30
0.0
 11
-0.1222564956649478
 21
0.05285795434485533
 31
0.0
210
0.0
220
0.0
230
1.0
 40
0.1583155873460969
 41
3.321155126086712
 42
6.091327586808031
  0
LINE
  5
B6
330
91
100
AcDbEntity
  8
AM_9
100
AcDbLine
 10
-2.29203814492008
 20
-0.1182889283861136
 30
0.0
 11
-2.292684578098801
 21
-0.1197840799880171
 31
0.0
  0
LINE
  5
B7
330
91
100
AcDbEntity
  8
AM_9
100
AcDbLine
 10
-2.087684363917591
 20
-0.2
 30
0.0
 11
-2.086119623093245
 21
-0.1963808714851038
 31
0.0
  0
ELLIPSE
  5
B8
330
91
100
AcDbEntity
  8
AM_9
100
AcDbEllipse
 10
-2.208125891023439
 20
-0.201389202824192
 30
0.0
 11
-0.10096719800725
 21
0.04365346408438186
 31
0.0
210
0.0
220
0.0
230
1.0
 40
0.1583155873460385
 41
3.141592653589793
 42
6.283185307179586
  0
LWPOLYLINE
  5
B9
330
91
100
AcDbEntity
  8
AM_9
100
AcDbPolyline
 90
        3
 70
     0
 43
0.0
 10
-2.292041055688585
 20
-0.1182956618802583
 10
-2.291737289659896
 20
-0.1208367673933812
 10
-2.290856855899893
 20
-0.1221897798411849
  0
LWPOLYLINE
  5
BA
330
91
100
AcDbEntity
  8
AM_9
100
AcDbPolyline
 90
        4
 70
     0
 43
0.0
 10
-2.086124856277171
 20
-0.1963929740740921
 10
-2.086574177555693
 20
-0.1971856748420371
 10
-2.090102313653797
 20
-0.1994144431868154
 10
-2.094992802733672
 20
-0.1999999999699528
  0
LWPOLYLINE
  5
BB
330
91
100
AcDbEntity
  8
AM_9
100
AcDbPolyline
 90
        5
 70
     0
 43
0.0
 10
-2.313369869277112
 20
-0.1791093260592887
 10
-2.330417222508013
 20
-0.1842540823997054
 10
-2.346328281004145
 20
-0.1862220679364951
 10
-2.361015950987592
 20
-0.1844124966919381
 10
-2.374198399212736
 20
-0.1791093260592887
  0
LWPOLYLINE
  5
BC
330
91
100
AcDbEntity
  8
AM_9
100
AcDbPolyline
 90
        4
 70
     0
 43
0.0
 10
-2.240628425920967
 20
-0.2168194786213517
 10
-2.240960305048473
 20
-0.216687117104632
 10
-2.277917146079527
 20
-0.1996402057054678
 10
-2.313369869277112
 20
-0.1791093260592887
  0
LWPOLYLINE
  5
BD
330
91
100
AcDbEntity
  8
AM_9
100
AcDbPolyline
 90
        3
 70
     0
 43
0.0
 10
-2.190374879215427
 20
-0.2330731529818579
 10
-2.203362768335756
 20
-0.2295338871417796
 10
-2.240628425920967
 20
-0.2168194786213517
  0
LINE
  5
BE
330
91
100
AcDbEntity
  8
AM_9
100
AcDbLine
 10
-2.164958076488234
 20
-0.2389369657326276
 30
0.0
 11
-2.190374879215427
 21
-0.2330731529818579
 31
0.0
  0
LWPOLYLINE
  5
BF
330
91
100
AcDbEntity
  8
AM_9
100
AcDbPolyline
 90
        3
 70
     0
 43
0.0
 10
-2.131090536177
 20
-0.2711532636537956
 10
-2.148547835258633
 20
-0.256181552758992
 10
-2.164958076488234
 20
-0.2389369657326276
  0
LINE
  5
C0
330
91
100
AcDbEntity
  8
AM_9
100
AcDbLine
 10
-2.161545047024171
 20
-0.2038230636408925
 30
0.0
 11
-2.152445480493063
 21
-0.2099962668917053
 31
0.0
  0
LWPOLYLINE
  5
C1
330
91
100
AcDbEntity
  8
AM_9
100
AcDbPolyline
 90
        6
 70
     0
 43
0.0
 10
-2.301248769993415
 20
-0.151074129835757
 10
-2.272320580895561
 20
-0.1564222384464442
 10
-2.243788887654918
 20
-0.1639940363880804
 10
-2.215527039750162
 20
-0.1744063212866122
 10
-2.188247930611235
 20
-0.1876759562813857
 10
-2.161545047024171
 20
-0.2038230636408925
  0
LWPOLYLINE
  5
C2
330
91
100
AcDbEntity
  8
AM_9
100
AcDbPolyline
 90
        3
 70
     0
 43
0.0
 10
-2.152445480493063
 20
-0.2099962668917053
 10
-2.131554722217902
 20
-0.2163479371246912
 10
-2.111498294730447
 20
-0.2258378743019628
  0
LWPOLYLINE
  5
C3
330
91
100
AcDbEntity
  8
AM_9
100
AcDbPolyline
 90
        4
 70
     0
 43
0.0
 10
-2.327719726698384
 20
-0.141958509815605
 10
-2.324828265808789
 20
-0.1420496512545706
 10
-2.314242067235993
 20
-0.1441228263802214
 10
-2.301248769993415
 20
-0.151074129835757
  0
ELLIPSE
  5
C4
330
91
100
AcDbEntity
  8
AM_9
100
AcDbEllipse
 10
-2.208125891023446
 20
-0.2013892028241879
 30
0.0
 11
-0.1290773838160786
 21
0.05580698533514232
 31
0.0
210
0.0
220
0.0
230
1.0
 40
0.1583155873460345
 41
3.937411257393414
 42
5.610613825799304
  0
LINE
  5
C5
330
91
100
AcDbEntity
  8
AM_9
100
AcDbLine
 10
-2.115972247954412
 20
-0.2813919000363599
 30
0.0
 11
-2.131090536177
 21
-0.2711532636537956
 31
0.0
  0
ELLIPSE
  5
C6
330
91
100
AcDbEntity
  8
AM_9
100
AcDbEllipse
 10
-2.227718132469999
 20
-0.2467045921760217
 30
0.0
 11
-0.1290773838160781
 21
0.05580698533514122
 31
0.0
210
0.0
220
0.0
230
1.0
 40
0.1583155873460394
 41
2.931540131874952
 42
3.738151587585713
  0
LINE
  5
C7
330
91
100
AcDbEntity
  8
AM_9
100
AcDbLine
 10
-2.35522347067606
 20
-0.1973352648153998
 30
0.0
 11
-2.353939881807498
 21
-0.1995378882191653
 31
0.0
  0
ELLIPSE
  5
C8
330
91
100
AcDbEntity
  8
AM_9
100
AcDbEllipse
 10
-2.227718132469999
 20
-0.2467045921760215
 30
0.0
 11
-0.1290773838160781
 21
0.05580698533514176
 31
0.0
210
0.0
220
0.0
230
1.0
 40
0.1583155873460443
 41
3.937411257393402
 42
6.739367744568636
  0
LINE
  5
C9
330
91
100
AcDbEntity
  8
AM_9
100
AcDbLine
 10
-2.111498294730447
 20
-0.2258378743019628
 30
0.0
 11
-2.101718897267961
 21
-0.2324608261325392
 31
0.0
  0
LWPOLYLINE
  5
CA
330
91
100
AcDbEntity
  8
AM_9
100
AcDbPolyline
 90
       17
 70
     0
 43
0.0
 10
-2.099131107920559
 20
-0.1790373738501778
 10
-2.10918016984339
 20
-0.1733931390117467
 10
-2.121800586890403
 20
-0.167072978024251
 10
-2.135934722246025
 20
-0.1606047421316795
 10
-2.151985517725221
 20
-0.1538031670974776
 10
-2.168620174570621
 20
-0.1472336073736393
 10
-2.186306211060731
 20
-0.1407130262602576
 10
-2.203551592982549
 20
-0.1347930597680667
 10
-2.220860681172335
 20
-0.1293028157827817
 10
-2.236750937578452
 20
-0.1247141396218192
 10
-2.25170922190833
 20
-0.1208880884981781
 10
-2.264448894167677
 20
-0.1181545989145989
 10
-2.275370321391916
 20
-0.1164278875396128
 10
-2.283540806000576
 20
-0.1158549073091554
 10
-2.28921696808674
 20
-0.1164156227038167
 10
-2.291921119846921
 20
-0.1180609686233501
 10
-2.292041055688585
 20
-0.1182956618802583
  0
LWPOLYLINE
  5
CB
330
91
100
AcDbEntity
  8
AM_9
100
AcDbPolyline
 90
        5
 70
     0
 43
0.0
 10
-2.099131107920559
 20
-0.1790373738501783
 10
-2.091998629736334
 20
-0.1842628795203941
 10
-2.087676590248642
 20
-0.1891729979031393
 10
-2.085818228532849
 20
-0.1936098952159723
 10
-2.086124856277171
 20
-0.1963929740740921
  0
LINE
  5
CC
330
91
100
AcDbEntity
  8
AM_9
100
AcDbLine
 10
-1.996342736864114
 20
0.1999999999999999
 30
0.0
 11
-2.04142339717074
 21
0.1999999999999999
 31
0.0
  0
LINE
  5
CD
330
91
100
AcDbEntity
  8
AM_9
100
AcDbLine
 10
-2.041426227982763
 20
-0.2
 30
0.0
 11
-1.996342736864114
 21
-0.2
 31
0.0
  0
LINE
  5
CE
330
91
100
AcDbEntity
  8
AM_9
100
AcDbLine
 10
-1.831188112769405
 20
0.1999999999999999
 30
0.0
 11
-1.903624351407435
 21
0.1999999999999999
 31
0.0
  0
LINE
  5
CF
330
91
100
AcDbEntity
  8
AM_9
100
AcDbLine
 10
-1.903624351407435
 20
-0.2
 30
0.0
 11
-1.831188112769405
 21
-0.2
 31
0.0
  0
LINE
  5
D0
330
91
100
AcDbEntity
  8
AM_9
100
AcDbLine
 10
-1.966461504108076
 20
0.2187499999999999
 30
0.0
 11
-1.864720604606992
 21
0.2187499999999999
 31
0.0
  0
LINE
  5
D1
330
91
100
AcDbEntity
  8
AM_9
100
AcDbLine
 10
-1.974590969665663
 20
0.1093749999999999
 30
0.0
 11
-1.986279761594244
 21
0.0628096186010925
 31
0.0
  0
LWPOLYLINE
  5
D2
330
91
100
AcDbEntity
  8
AM_9
100
AcDbPolyline
 90
        3
 70
     0
 43
0.0
 10
-1.961588344818126
 20
0.1927573621083333
 10
-1.964948727668185
 20
0.1643083897258504
 10
-1.974590969665663
 20
0.1093749999999999
  0
LINE
  5
D3
330
91
100
AcDbEntity
  8
AM_9
100
AcDbLine
 10
-1.95934276228463
 20
0.2187499999999999
 30
0.0
 11
-1.961588344818126
 21
0.1927573621083333
 31
0.0
  0
LINE
  5
D4
330
91
100
AcDbEntity
  8
AM_9
100
AcDbLine
 10
-1.966371369857601
 20
-0.21875
 30
0.0
 11
-1.864720604606992
 21
-0.21875
 31
0.0
  0
LINE
  5
D5
330
91
100
AcDbEntity
  8
AM_9
100
AcDbLine
 10
-1.961540368068777
 20
-0.1932350467620186
 30
0.0
 11
-1.95934276228463
 21
-0.21875
 31
0.0
  0
LWPOLYLINE
  5
D6
330
91
100
AcDbEntity
  8
AM_9
100
AcDbPolyline
 90
        3
 70
     0
 43
0.0
 10
-1.974590969665663
 20
-0.109375
 10
-1.964982303977673
 20
-0.1640625
 10
-1.961540368068777
 20
-0.1932350467620186
  0
LINE
  5
D7
330
91
100
AcDbEntity
  8
AM_9
100
AcDbLine
 10
-1.986240657149197
 20
-0.0629469914554974
 30
0.0
 11
-1.974590969665663
 21
-0.109375
 31
0.0
  0
LINE
  5
D8
330
91
100
AcDbEntity
  8
AM_9
100
AcDbLine
 10
-1.649513551583758
 20
0.1854025098511931
 30
0.0
 11
-1.830282273898843
 21
0.191495967186768
 31
0.0
  0
LINE
  5
D9
330
91
100
AcDbEntity
  8
AM_9
100
AcDbLine
 10
-1.830282273898843
 20
-0.1914959671867681
 30
0.0
 11
-1.649513551583758
 21
-0.1854025098511932
 31
0.0
  0
LINE
  5
DA
330
91
100
AcDbEntity
  8
AM_9
100
AcDbLine
 10
-1.603898696096102
 20
0.1478814731883058
 30
0.0
 11
-1.622327494775846
 21
0.1696099849128764
 31
0.0
  0
LINE
  5
DB
330
91
100
AcDbEntity
  8
AM_9
100
AcDbLine
 10
-1.622327494775846
 20
-0.1696099849128765
 30
0.0
 11
-1.603898696096102
 21
-0.1478814731883059
 31
0.0
  0
ELLIPSE
  5
DC
330
91
100
AcDbEntity
  8
AM_9
100
AcDbEllipse
 10
-1.996342736864113
 20
-0.0000000000000001
 30
0.0
 11
1.339457436567418E-17
 21
0.2187500000000001
 31
0.0
210
0.0
220
0.0
230
1.0
 40
0.3746065934159139
 41
0.0
 42
6.283185307179586
  0
ELLIPSE
  5
DD
330
91
100
AcDbEntity
  8
AM_9
100
AcDbEllipse
 10
-1.996342736864114
 20
0.0
 30
0.0
 11
1.224646799147353E-17
 21
0.1999999999999999
 31
0.0
210
0.0
220
0.0
230
1.0
 40
0.3746065934159105
 41
0.0
 42
6.283185307179586
  0
ELLIPSE
  5
DE
330
91
100
AcDbEntity
  8
AM_9
100
AcDbEllipse
 10
-1.903624351407437
 20
-0.0000000000000611
 30
0.0
 11
1.339457436567014E-17
 21
0.218749999999934
 31
0.0
210
0.0
220
0.0
230
1.0
 40
0.3746065934159235
 41
0.0
 42
6.283185307179586
  0
ELLIPSE
  5
DF
330
91
100
AcDbEntity
  8
AM_9
100
AcDbEllipse
 10
-1.903624351407436
 20
0.0000000000000003
 30
0.0
 11
1.224646799147355E-17
 21
0.2000000000000004
 31
0.0
210
0.0
220
0.0
230
1.0
 40
0.374606593415913
 41
0.0
 42
6.283185307179586
  0
ELLIPSE
  5
E0
330
91
100
AcDbEntity
  8
AM_9
100
AcDbEllipse
 10
-1.831188112769405
 20
-0.0000000000000002
 30
0.0
 11
1.224646799147355E-17
 21
0.2000000000000002
 31
0.0
210
0.0
220
0.0
230
1.0
 40
0.37460659341591
 41
0.0
 42
6.283185307179586
  0
ELLIPSE
  5
E1
330
91
100
AcDbEntity
  8
AM_9
100
AcDbEllipse
 10
-1.831188112769405
 20
0.0000000000000007
 30
0.0
 11
1.172668097677214E-17
 21
0.1915112338502286
 31
0.0
210
0.0
220
0.0
230
1.0
 40
0.3746065934159117
 41
0.0
 42
6.283185307179586
  0
ELLIPSE
  5
E2
330
91
100
AcDbEntity
  8
AM_9
100
AcDbEllipse
 10
-1.650390566398171
 20
0.0000000000000006
 30
0.0
 11
1.135353457964646E-17
 21
0.1854172907249867
 31
0.0
210
0.0
220
0.0
230
1.0
 40
0.3746065934159123
 41
0.0
 42
6.283185307179586
  0
ELLIPSE
  5
E3
330
91
100
AcDbEntity
  8
AM_9
100
AcDbEllipse
 10
-1.628366644582919
 20
0.0
 30
0.0
 11
9.899048221688851E-18
 21
0.1616637258772236
 31
0.0
210
0.0
220
0.0
230
1.0
 40
0.374606593415905
 41
0.0
 42
6.283185307179586
  0
LINE
  5
E5
330
91
100
AcDbEntity
  8
AM_4
100
AcDbLine
 10
-2.078083262319436
 20
-0.2529328073185281
 30
0.0
 11
-2.083880916967275
 21
-0.2467669665417465
 31
0.0
  0
LINE
  5
E6
330
91
100
AcDbEntity
  8
AM_4
100
AcDbLine
 10
-2.078188652253085
 20
-0.252820733875151
 30
0.0
 11
-2.064469079347838
 21
-0.2689146070947222
 31
0.0
  0
ELLIPSE
  5
E7
330
91
100
AcDbEntity
  8
AM_4
100
AcDbEllipse
 10
-2.208125891023447
 20
-0.2013892028241878
 30
0.0
 11
-0.1290773838160799
 21
0.05580698533514255
 31
0.0
210
0.0
220
0.0
230
1.0
 40
0.1583155873460379
 41
2.931540131874953
 42
3.738151587585699
  0
LWPOLYLINE
  5
E8
330
91
100
AcDbEntity
  8
AM_4
100
AcDbPolyline
 90
        3
 70
     0
 43
0.0
 10
-2.064469079347838
 20
-0.2689146070947222
 10
-2.073494005628326
 20
-0.2634308483997528
 10
-2.083727853823933
 20
-0.2602304684431305
  0
LWPOLYLINE
  5
E9
330
91
100
AcDbEntity
  8
AM_4
100
AcDbPolyline
 90
        3
 70
     0
 43
0.0
 10
-2.103320095270486
 20
-0.3055458577949631
 10
-2.090725861582647
 20
-0.3030753670497808
 10
-2.077376094948781
 20
-0.2987675689889718
  0
LINE
  5
EA
330
91
100
AcDbEntity
  8
AM_4
100
AcDbLine
 10
-2.064469079347838
 20
-0.2689146070947222
 30
0.0
 11
-2.077376094948781
 21
-0.2987675689889718
 31
0.0
  0
LINE
  5
EB
330
91
100
AcDbEntity
  8
AM_4
100
AcDbLine
 10
-2.229487052465247
 20
-0.5108264199512539
 30
0.0
 11
-2.167038493641427
 21
-0.456008633280415
 31
0.0
  0
LINE
  5
EC
330
91
100
AcDbEntity
  8
AM_4
100
AcDbLine
 10
-2.421767878982888
 20
-0.3458756366863985
 30
0.0
 11
-2.418925378018209
 21
-0.4289222044837946
 31
0.0
  0
ELLIPSE
  5
ED
330
91
100
AcDbEntity
  8
AM_4
100
AcDbEllipse
 10
-2.323720115558108
 20
-0.4687500000000001
 30
0.0
 11
-0.09498502069411031
 21
0.04106705218388616
 31
0.0
210
0.0
220
0.0
230
1.0
 40
0.1583155873460339
 41
0.0748365202755945
 42
3.066756133314194
  0
LWPOLYLINE
  5
EE
330
91
100
AcDbEntity
  8
AM_4
100
AcDbPolyline
 90
        7
 70
     0
 43
0.0
 10
-2.399950836288804
 20
-0.3171809245642557
 10
-2.404472945865225
 20
-0.3188035498737974
 10
-2.410060339614991
 20
-0.3220080119861686
 10
-2.41505899188199
 20
-0.3266168106744234
 10
-2.418925989750965
 20
-0.3324984420066921
 10
-2.421306823987255
 20
-0.3396911187443555
 10
-2.421756688913915
 20
-0.3461612904486102
  0
LWPOLYLINE
  5
EF
330
91
100
AcDbEntity
  8
AM_4
100
AcDbPolyline
 90
        8
 70
     0
 43
0.0
 10
-2.167516835658758
 20
-0.4564193932238915
 10
-2.164662542103707
 20
-0.4536651414312912
 10
-2.16064613354611
 20
-0.4479068367115949
 10
-2.158049526058367
 20
-0.4407079937129472
 10
-2.157451129201828
 20
-0.4338354069011201
 10
-2.158329236732162
 20
-0.4276396054983526
 10
-2.160257125125347
 20
-0.4221447904605636
 10
-2.160759724351175
 20
-0.4210861945319332
  0
ELLIPSE
  5
F0
330
91
100
AcDbEntity
  8
AM_4
100
AcDbEllipse
 10
-2.293749549445057
 20
-0.399430321788976
 30
0.0
 11
-0.1277221801207924
 21
0.05522105904416074
 31
0.0
210
0.0
220
0.0
230
1.0
 40
0.1583155873460413
 41
0.0767531265729815
 42
3.062712086510456
  0
LWPOLYLINE
  5
F1
330
91
100
AcDbEntity
  8
AM_4
100
AcDbPolyline
 90
        3
 70
     0
 43
0.0
 10
-2.138204624884405
 20
-0.2987675689889718
 10
-2.128622538525828
 20
-0.3030606061861223
 10
-2.118121850639799
 20
-0.3055458577949631
  0
LINE
  5
F2
330
91
100
AcDbEntity
  8
AM_4
100
AcDbLine
 10
-2.36207729992904
 20
-0.151074129835757
 30
0.0
 11
-2.374198399212736
 21
-0.1791093260592887
 31
0.0
  0
LWPOLYLINE
  5
F3
330
91
100
AcDbEntity
  8
AM_4
100
AcDbPolyline
 90
        3
 70
     0
 43
0.0
 10
-2.098529609193244
 20
-0.2602304684431209
 10
-2.105648422352983
 20
-0.2616913382589203
 10
-2.125297609283463
 20
-0.2689146070947222
  0
LINE
  5
F4
330
91
100
AcDbEntity
  8
AM_4
100
AcDbLine
 10
-2.292684578098801
 20
-0.1197840799880171
 30
0.0
 11
-2.309093089030689
 21
-0.1577357387398101
 31
0.0
  0
LINE
  5
F5
330
91
100
AcDbEntity
  8
AM_4
100
AcDbLine
 10
-2.107158693016202
 20
-0.245042666908566
 30
0.0
 11
-2.087684363917591
 21
-0.2
 31
0.0
  0
ELLIPSE
  5
F6
330
91
100
AcDbEntity
  8
AM_4
100
AcDbEllipse
 10
-2.208125891023446
 20
-0.201389202824188
 30
0.0
 11
-0.1009671980072433
 21
0.04365346408437783
 31
0.0
210
0.0
220
0.0
230
1.0
 40
0.1583155873460378
 41
0.0
 42
3.141592653589793
  0
LWPOLYLINE
  5
F7
330
91
100
AcDbEntity
  8
AM_4
100
AcDbPolyline
 90
        3
 70
     0
 43
0.0
 10
-2.374198399212736
 20
-0.1791093260592887
 10
-2.355092509017754
 20
-0.1988355121406938
 10
-2.350958211261807
 20
-0.2025620431642226
  0
LINE
  5
F8
330
91
100
AcDbEntity
  8
AM_4
100
AcDbLine
 10
-2.351014336320153
 20
-0.2025128028333112
 30
0.0
 11
-2.347488243351766
 21
-0.2056064806068165
 31
0.0
  0
LWPOLYLINE
  5
F9
330
91
100
AcDbEntity
  8
AM_4
100
AcDbPolyline
 90
        4
 70
     0
 43
0.0
 10
-2.350958211261807
 20
-0.2025620431642226
 10
-2.334273446231695
 20
-0.2156330920108724
 10
-2.311215040053014
 20
-0.229046210966002
 10
-2.286615136359483
 20
-0.2389369657326275
  0
LWPOLYLINE
  5
FA
330
91
100
AcDbEntity
  8
AM_4
100
AcDbPolyline
 90
        4
 70
     0
 43
0.0
 10
-2.36207729992904
 20
-0.151074129835757
 10
-2.348954037492765
 20
-0.145877822676052
 10
-2.336515035865829
 20
-0.1427138007556462
 10
-2.327719726698384
 20
-0.141958509815605
  0
LWPOLYLINE
  5
FB
330
91
100
AcDbEntity
  8
AM_4
100
AcDbPolyline
 90
        6
 70
     0
 43
0.0
 10
-2.274102540364312
 20
-0.2099962668917053
 10
-2.287452680177537
 20
-0.1943573015029058
 10
-2.30195167149539
 20
-0.1805491420332303
 10
-2.317986905766834
 20
-0.1688997677199809
 10
-2.33530465650217
 20
-0.159872940321087
 10
-2.36207729992904
 20
-0.151074129835757
  0
LINE
  5
FC
330
91
100
AcDbEntity
  8
AM_4
100
AcDbLine
 10
-2.326295039877771
 20
-0.1419585097669023
 30
0.0
 11
-2.327835101309585
 21
-0.1419585097669023
 31
0.0
  0
ELLIPSE
  5
FD
330
91
100
AcDbEntity
  8
AM_4
100
AcDbEllipse
 10
-2.208125891023438
 20
-0.2013892028241955
 30
0.0
 11
-0.1290773838160883
 21
0.05580698533514897
 31
0.0
210
0.0
220
0.0
230
1.0
 40
0.1583155873460464
 41
5.610613825799315
 42
7.926941792372042
  0
ELLIPSE
  5
FE
330
91
100
AcDbEntity
  8
AM_4
100
AcDbEllipse
 10
-2.227718132469999
 20
-0.2467045921760205
 30
0.0
 11
-0.1290773838160781
 21
0.05580698533514202
 31
0.0
210
0.0
220
0.0
230
1.0
 40
0.1583155873460395
 41
0.456182437389109
 42
1.643756485192518
  0
LINE
  5
FF
330
91
100
AcDbEntity
  8
AM_4
100
AcDbLine
 10
-2.118121850639799
 20
-0.3055458577949631
 30
0.0
 11
-2.103320095270486
 21
-0.3055458577949631
 31
0.0
  0
ELLIPSE
  5
100
330
91
100
AcDbEntity
  8
AM_4
100
AcDbEllipse
 10
-2.22771813247
 20
-0.2467045921760202
 30
0.0
 11
-0.1290773838160799
 21
0.05580698533514275
 31
0.0
210
0.0
220
0.0
230
1.0
 40
0.1583155873460374
 41
1.843016155000218
 42
2.649627610710974
  0
LWPOLYLINE
  5
101
330
91
100
AcDbEntity
  8
AM_4
100
AcDbPolyline
 90
       16
 70
     0
 43
0.0
 10
-2.160560384948329
 20
-0.4214949409755566
 10
-2.161404792029028
 20
-0.4196580263946841
 10
-2.164537690259905
 20
-0.4113043413198146
 10
-2.16695652761083
 20
-0.4012759652179168
 10
-2.168127467444424
 20
-0.3900476631933305
 10
-2.167704870387305
 20
-0.3781855873304965
 10
-2.165537376193511
 20
-0.3661952126465322
 10
-2.161127674686582
 20
-0.353370804929318
 10
-2.155020206635788
 20
-0.3418702772950057
 10
-2.147636896178466
 20
-0.3319235834917398
 10
-2.139378218099124
 20
-0.3236101026896687
 10
-2.130672904040211
 20
-0.3169629437920755
 10
-2.122013047850722
 20
-0.3119645669240255
 10
-2.113946396721946
 20
-0.3085102552700718
 10
-2.106965259118748
 20
-0.3063684676865714
 10
-2.103817337024325
 20
-0.3056544172843189
  0
LWPOLYLINE
  5
102
330
91
100
AcDbEntity
  8
AM_4
100
AcDbPolyline
 90
       15
 70
     0
 43
0.0
 10
-2.353939881807498
 20
-0.1995378882191653
 10
-2.352041872930397
 20
-0.2031840460294282
 10
-2.348803306997274
 20
-0.2109488822745657
 10
-2.346091619613794
 20
-0.2204803162072279
 10
-2.344472438042049
 20
-0.2313860273305332
 10
-2.344359405391069
 20
-0.2431039389684168
 10
-2.345960456679981
 20
-0.2551032175204239
 10
-2.349327089563699
 20
-0.266932367039499
 10
-2.354817508698923
 20
-0.2789658247658421
 10
-2.361752586926551
 20
-0.2895300024969775
 10
-2.369719384492954
 20
-0.2984844680201725
 10
-2.378305510316184
 20
-0.3057806358144788
 10
-2.387046187456814
 20
-0.3114133972920283
 10
-2.395408813331907
 20
-0.3154478865912404
 10
-2.400707098635948
 20
-0.3173990532715055
  0
ELLIPSE
  5
103
330
91
100
AcDbEntity
  8
AM_4
100
AcDbEllipse
 10
-2.282320704020497
 20
-0.3729962569746642
 30
0.0
 11
-0.1222564956648751
 21
0.05285795434479276
 31
0.0
210
0.0
220
0.0
230
1.0
 40
0.1583155873460356
 41
6.105381900716308
 42
9.60434043326341
  0
ELLIPSE
  5
104
330
91
100
AcDbEntity
  8
AM_4
100
AcDbEllipse
 10
-2.208125891023446
 20
-0.2013892028241891
 30
0.0
 11
-0.1290773838160857
 21
0.05580698533512877
 31
0.0
210
0.0
220
0.0
230
1.0
 40
0.1583155873460564
 41
1.843016155000197
 42
2.649627610710923
  0
LINE
  5
105
330
91
100
AcDbEntity
  8
AM_4
100
AcDbLine
 10
-2.083727853823933
 20
-0.2602304684431305
 30
0.0
 11
-2.098529609193244
 21
-0.2602304684431209
 31
0.0
  0
LINE
  5
106
330
91
100
AcDbEntity
  8
AM_4
100
AcDbLine
 10
-2.101718897267961
 20
-0.2324608261325392
 30
0.0
 11
-2.096380006507859
 21
-0.2360765106845276
 31
0.0
  0
LWPOLYLINE
  5
107
330
91
100
AcDbEntity
  8
AM_4
100
AcDbPolyline
 90
        3
 70
     0
 43
0.0
 10
-2.125297609283463
 20
-0.2689146070947222
 10
-2.152717876110521
 20
-0.251275593729576
 10
-2.181930606252879
 20
-0.2360765106845274
  0
LINE
  5
108
330
91
100
AcDbEntity
  8
AM_4
100
AcDbLine
 10
-2.181930606252879
 20
-0.2360765106845274
 30
0.0
 11
-2.207528348233418
 21
-0.2258378743019626
 31
0.0
  0
LWPOLYLINE
  5
109
330
91
100
AcDbEntity
  8
AM_4
100
AcDbPolyline
 90
        3
 70
     0
 43
0.0
 10
-2.207528348233418
 20
-0.2258378743019626
 10
-2.230219172326829
 20
-0.2189176876709014
 10
-2.274102540364312
 20
-0.2099962668917053
  0
LINE
  5
10A
330
91
100
AcDbEntity
  8
AM_4
100
AcDbLine
 10
-2.274102540364312
 20
-0.2099962668917053
 30
0.0
 11
-2.286615136359482
 21
-0.2389369657326276
 31
0.0
  0
LWPOLYLINE
  5
10B
330
91
100
AcDbEntity
  8
AM_4
100
AcDbPolyline
 90
        3
 70
     0
 43
0.0
 10
-2.286615136359482
 20
-0.2389369657326276
 10
-2.257569222768966
 20
-0.2560939713202353
 10
-2.22712058967997
 20
-0.2711532636537956
  0
LINE
  5
10C
330
91
100
AcDbEntity
  8
AM_4
100
AcDbLine
 10
-2.22712058967997
 20
-0.2711532636537956
 30
0.0
 11
-2.201522847699432
 21
-0.2813919000363599
 31
0.0
  0
LWPOLYLINE
  5
10D
330
91
100
AcDbEntity
  8
AM_4
100
AcDbPolyline
 90
        3
 70
     0
 43
0.0
 10
-2.201522847699432
 20
-0.2813919000363599
 10
-2.17029201044255
 20
-0.2911775952746242
 10
-2.138204624884405
 20
-0.2987675689889718
  0
LINE
  5
10E
330
91
100
AcDbEntity
  8
AM_4
100
AcDbLine
 10
-2.125297609283463
 20
-0.2689146070947222
 30
0.0
 11
-2.138204624884405
 21
-0.2987675689889718
 31
0.0
  0
ARC
  5
10F
330
91
100
AcDbEntity
  8
AM_4
100
AcDbCircle
 10
-2.132522865503613
 20
0.0000000000000009
 30
0.0
 40
0.1999999999999991
100
AcDbArc
 50
90.0
 51
217.7433479918216
  0
LWPOLYLINE
  5
110
330
91
100
AcDbEntity
  8
AM_4
100
AcDbPolyline
 90
       11
 70
     0
 43
0.0
 10
-2.290856855899893
 20
-0.1221897798411849
 10
-2.288679703701241
 20
-0.1245107513506023
 10
-2.282662002629675
 20
-0.1291842652280562
 10
-2.274173348803032
 20
-0.1344729790611519
 10
-2.262980089569283
 20
-0.1405186270901959
 10
-2.249990374228902
 20
-0.146827078301712
 10
-2.234853563003743
 20
-0.1535654953592165
 10
-2.218809618723535
 20
-0.1601799433259583
 10
-2.201421348511505
 20
-0.1668493358980661
 10
-2.183865740787116
 20
-0.1731116383367605
 10
-2.165914623086647
 20
-0.1790373738502114
  0
ELLIPSE
  5
111
330
91
100
AcDbEntity
  8
AM_4
100
AcDbEllipse
 10
-2.132522865503611
 20
-0.0000000000000001
 30
0.0
 11
1.224646799147353E-17
 21
0.2
 31
0.0
210
0.0
220
0.0
230
1.0
 40
0.3746065934159138
 41
0.0
 42
2.679646633022827
  0
LINE
  5
112
330
91
100
AcDbEntity
  8
AM_4
100
AcDbLine
 10
-2.04142339717074
 20
0.1999999999999999
 30
0.0
 11
-2.132522865503611
 21
0.1999999999999999
 31
0.0
  0
LINE
  5
113
330
91
100
AcDbEntity
  8
AM_4
100
AcDbLine
 10
-2.095151580567866
 20
-0.2
 30
0.0
 11
-2.041426227982763
 21
-0.2
 31
0.0
  0
LWPOLYLINE
  5
114
330
91
100
AcDbEntity
  8
AM_4
100
AcDbPolyline
 90
        8
 70
     0
 43
0.0
 10
-2.094992802733672
 20
-0.1999999999699528
 10
-2.09611611375267
 20
-0.1999786710855127
 10
-2.104758657705231
 20
-0.1988321115509052
 10
-2.115236920482086
 20
-0.1961649429984259
 10
-2.127981844862665
 20
-0.1920694300574957
 10
-2.142193024724833
 20
-0.1870948030566195
 10
-2.158351379539379
 20
-0.181500594761393
 10
-2.165914623086663
 20
-0.1790373738501783
  0
LINE
  5
115
330
91
100
AcDbEntity
  8
AM_4
100
AcDbLine
 10
-2.035246483664557
 20
0.2187499999999999
 30
0.0
 11
-1.966461504108076
 21
0.2187499999999999
 31
0.0
  0
LWPOLYLINE
  5
116
330
91
100
AcDbEntity
  8
AM_4
100
AcDbPolyline
 90
        3
 70
     0
 43
0.0
 10
-2.067309355122342
 20
0.1093749999999999
 10
-2.053262481390923
 20
0.1640624999999999
 10
-2.035246483664557
 20
0.2187499999999999
  0
LWPOLYLINE
  5
117
330
91
100
AcDbEntity
  8
AM_4
100
AcDbPolyline
 90
        3
 70
     0
 43
0.0
 10
-2.082557562503376
 20
0.0
 10
-2.076951597119821
 20
0.0544416102741496
 10
-2.067309355122342
 20
0.1093749999999999
  0
LWPOLYLINE
  5
118
330
91
100
AcDbEntity
  8
AM_4
100
AcDbPolyline
 90
        3
 70
     0
 43
0.0
 10
-1.986279761594244
 20
0.0628096186010925
 10
-1.988637843397083
 20
0.0546875
 10
-2.006653841123448
 20
0.0
  0
LINE
  5
119
330
91
100
AcDbEntity
  8
AM_4
100
AcDbLine
 10
-2.082557562503376
 20
0.0
 30
0.0
 11
-2.006653841123448
 21
0.0
 31
0.0
  0
LWPOLYLINE
  5
11A
330
91
100
AcDbEntity
  8
AM_4
100
AcDbPolyline
 90
        3
 70
     0
 43
0.0
 10
-2.067309355122342
 20
-0.1093749999999999
 10
-2.076918020810333
 20
-0.0546875
 10
-2.082557562503376
 20
0.0
  0
LWPOLYLINE
  5
11B
330
91
100
AcDbEntity
  8
AM_4
100
AcDbPolyline
 90
        3
 70
     0
 43
0.0
 10
-2.035246483664557
 20
-0.21875
 10
-2.053189696025391
 20
-0.1643083897258504
 10
-2.067309355122342
 20
-0.1093749999999999
  0
LINE
  5
11C
330
91
100
AcDbEntity
  8
AM_4
100
AcDbLine
 10
-2.035246483664557
 20
-0.21875
 30
0.0
 11
-1.966371369857601
 21
-0.21875
 31
0.0
  0
LWPOLYLINE
  5
11D
330
91
100
AcDbEntity
  8
AM_4
100
AcDbPolyline
 90
        3
 70
     0
 43
0.0
 10
-2.006653841123448
 20
0.0
 10
-1.988710628762615
 20
-0.0544416102741496
 10
-1.986240657149197
 20
-0.0629469914554974
  0
ENDBLK
  5
94
330
91
100
AcDbEntity
  8
0
100
AcDbBlockEnd
  0
BLOCK
  5
120
330
11E
100
AcDbEntity
  8
0
100
AcDbBlockBegin
  2
3_ASME_B18_3_10_1_0_in_069341_4
 70
     2
 10
0.0
 20
0.0
 30
0.0
  3
3_ASME_B18_3_10_1_0_in_069341_4
  1

  0
ATTDEF
  5
122
330
11E
100
AcDbEntity
  8
AM_6
100
AcDbText
 10
5.095
 20
-1.492708333333334
 30
0.0
 40
0.5
  1
ANSI/ASME B18.3-1998
100
AcDbAttributeDefinition
  3

  2
NN
 70
     8
280
     0
  0
ATTDEF
  5
123
330
11E
100
AcDbEntity
  8
AM_6
100
AcDbText
 10
5.095
 20
-1.992708333333334
 30
0.0
 40
0.5
  1
Socket Button Head Cap Screws
100
AcDbAttributeDefinition
  3

  2
NT
 70
     8
280
     0
  0
ATTDEF
  5
124
330
11E
100
AcDbEntity
  8
AM_6
100
AcDbText
 10
5.095
 20
-2.492708333333334
 30
0.0
 40
0.5
  1
ASME B18.3-10
100
AcDbAttributeDefinition
  3

  2
NB
 70
     8
280
     0
  0
ATTDEF
  5
125
330
11E
100
AcDbEntity
  8
AM_6
100
AcDbText
 10
5.095
 20
-2.992708333333334
 30
0.0
 40
0.5
  1
ASME B18.3-$NS.
100
AcDbAttributeDefinition
  3

  2
NBSYN
 70
     8
280
     0
  0
ATTDEF
  5
126
330
11E
100
AcDbEntity
  8
AM_6
100
AcDbText
 10
5.095
 20
-3.492708333333334
 30
0.0
 40
0.5
  1
ASME B18.3-10
100
AcDbAttributeDefinition
  3

  2
LINA
 70
     8
280
     0
  0
ATTDEF
  5
127
330
11E
100
AcDbEntity
  8
AM_6
100
AcDbText
 10
5.095
 20
-3.992708333333334
 30
0.0
 40
0.5
  1
10
100
AcDbAttributeDefinition
  3

  2
NS
 70
     8
280
     0
  0
ATTDEF
  5
128
330
11E
100
AcDbEntity
  8
AM_6
100
AcDbText
 10
5.095
 20
-4.492708333333334
 30
0.0
 40
0.5
  1
0.361
100
AcDbAttributeDefinition
  3

  2
A
 70
     8
280
     0
  0
ATTDEF
  5
129
330
11E
100
AcDbEntity
  8
AM_6
100
AcDbText
 10
5.095
 20
-4.992708333333334
 30
0.0
 40
0.5
  1
0.101
100
AcDbAttributeDefinition
  3

  2
H
 70
     8
280
     0
  0
ATTDEF
  5
12A
330
11E
100
AcDbEntity
  8
AM_6
100
AcDbText
 10
5.095
 20
-5.492708333333334
 30
0.0
 40
0.5
  1
0.800
100
AcDbAttributeDefinition
  3

  2
L
 70
     8
280
     0
  0
ATTDEF
  5
12B
330
11E
100
AcDbEntity
  8
AM_6
100
AcDbText
 10
5.095
 20
-5.992708333333334
 30
0.0
 40
0.5
  1
0.020
100
AcDbAttributeDefinition
  3

  2
S
 70
     8
280
     0
  0
ATTDEF
  5
12C
330
11E
100
AcDbEntity
  8
AM_6
100
AcDbText
 10
5.095
 20
-6.492708333333334
 30
0.0
 40
0.5
  1
0.125000
100
AcDbAttributeDefinition
  3

  2
J
 70
     8
280
     0
  0
ATTDEF
  5
12D
330
11E
100
AcDbEntity
  8
AM_6
100
AcDbText
 10
5.095
 20
-6.992708333333334
 30
0.0
 40
0.5
  1
baldor
100
AcDbAttributeDefinition
  3

  2
COMPANY
 70
     8
280
     0
  0
LINE
  5
12F
330
11E
100
AcDbEntity
  8
AM_5
100
AcDbLine
 10
0.095
 20
-1.492708333333334
 30
0.0
 11
-0.095
 21
-1.492708333333334
 31
0.0
  0
LINE
  5
130
330
11E
100
AcDbEntity
  8
AM_5
100
AcDbLine
 10
0.0764
 20
-1.492708333333334
 30
0.0
 11
0.095
 21
-1.524924478354115
 31
0.0
  0
ENDBLK
  5
121
330
11E
100
AcDbEntity
  8
0
100
AcDbBlockEnd
  0
BLOCK
  5
133
330
131
100
AcDbEntity
  8
0
100
AcDbBlockBegin
  2
4_ASME_B18_3_10_2_0_in_069341_4
 70
     2
 10
0.0
 20
0.0
 30
0.0
  3
4_ASME_B18_3_10_2_0_in_069341_4
  1

  0
ATTDEF
  5
135
330
131
100
AcDbEntity
  8
AM_6
100
AcDbText
 10
5.1805
 20
-0.7727083333333333
 30
0.0
 40
0.5
  1
ANSI/ASME B18.3-1998
100
AcDbAttributeDefinition
  3

  2
NN
 70
     8
280
     0
  0
ATTDEF
  5
136
330
131
100
AcDbEntity
  8
AM_6
100
AcDbText
 10
5.1805
 20
-1.272708333333333
 30
0.0
 40
0.5
  1
Socket Button Head Cap Screws
100
AcDbAttributeDefinition
  3

  2
NT
 70
     8
280
     0
  0
ATTDEF
  5
137
330
131
100
AcDbEntity
  8
AM_6
100
AcDbText
 10
5.1805
 20
-1.772708333333333
 30
0.0
 40
0.5
  1
ASME B18.3-10
100
AcDbAttributeDefinition
  3

  2
NB
 70
     8
280
     0
  0
ATTDEF
  5
138
330
131
100
AcDbEntity
  8
AM_6
100
AcDbText
 10
5.1805
 20
-2.272708333333333
 30
0.0
 40
0.5
  1
ASME B18.3-$NS.
100
AcDbAttributeDefinition
  3

  2
NBSYN
 70
     8
280
     0
  0
ATTDEF
  5
139
330
131
100
AcDbEntity
  8
AM_6
100
AcDbText
 10
5.1805
 20
-2.772708333333333
 30
0.0
 40
0.5
  1
ASME B18.3-10
100
AcDbAttributeDefinition
  3

  2
LINA
 70
     8
280
     0
  0
ATTDEF
  5
13A
330
131
100
AcDbEntity
  8
AM_6
100
AcDbText
 10
5.1805
 20
-3.272708333333333
 30
0.0
 40
0.5
  1
10
100
AcDbAttributeDefinition
  3

  2
NS
 70
     8
280
     0
  0
ATTDEF
  5
13B
330
131
100
AcDbEntity
  8
AM_6
100
AcDbText
 10
5.1805
 20
-3.772708333333333
 30
0.0
 40
0.5
  1
0.361
100
AcDbAttributeDefinition
  3

  2
A
 70
     8
280
     0
  0
ATTDEF
  5
13C
330
131
100
AcDbEntity
  8
AM_6
100
AcDbText
 10
5.1805
 20
-4.272708333333333
 30
0.0
 40
0.5
  1
0.101
100
AcDbAttributeDefinition
  3

  2
H
 70
     8
280
     0
  0
ATTDEF
  5
13D
330
131
100
AcDbEntity
  8
AM_6
100
AcDbText
 10
5.1805
 20
-4.772708333333333
 30
0.0
 40
0.5
  1
0.800
100
AcDbAttributeDefinition
  3

  2
L
 70
     8
280
     0
  0
ATTDEF
  5
13E
330
131
100
AcDbEntity
  8
AM_6
100
AcDbText
 10
5.1805
 20
-5.272708333333333
 30
0.0
 40
0.5
  1
0.020
100
AcDbAttributeDefinition
  3

  2
S
 70
     8
280
     0
  0
ATTDEF
  5
13F
330
131
100
AcDbEntity
  8
AM_6
100
AcDbText
 10
5.1805
 20
-5.772708333333333
 30
0.0
 40
0.5
  1
0.125000
100
AcDbAttributeDefinition
  3

  2
J
 70
     8
280
     0
  0
ATTDEF
  5
140
330
131
100
AcDbEntity
  8
AM_6
100
AcDbText
 10
5.1805
 20
-6.272708333333333
 30
0.0
 40
0.5
  1
baldor
100
AcDbAttributeDefinition
  3

  2
COMPANY
 70
     8
280
     0
  0
LINE
  5
141
330
131
100
AcDbEntity
  8
AM_9
100
AcDbLine
 10
0.0625
 20
-1.612708333333334
 30
0.0
 11
0.0625
 21
-1.673708333333334
 31
0.0
  0
LINE
  5
142
330
131
100
AcDbEntity
  8
AM_9
100
AcDbLine
 10
-0.0625
 20
-1.612708333333334
 30
0.0
 11
-0.0625
 21
-1.673708333333334
 31
0.0
  0
LINE
  5
143
330
131
100
AcDbEntity
  8
AM_9
100
AcDbLine
 10
-0.0625
 20
-1.612708333333334
 30
0.0
 11
0.0625
 21
-1.612708333333334
 31
0.0
  0
LINE
  5
144
330
131
100
AcDbEntity
  8
AM_9
100
AcDbLine
 10
0.0
 20
-1.612708333333334
 30
0.0
 11
0.0
 21
-1.673708333333334
 31
0.0
  0
LINE
  5
145
330
131
100
AcDbEntity
  8
AM_9
100
AcDbLine
 10
-0.0764
 20
-0.7727083333333333
 30
0.0
 11
-0.095
 21
-0.7913083333333334
 31
0.0
  0
LINE
  5
146
330
131
100
AcDbEntity
  8
AM_9
100
AcDbLine
 10
0.095
 20
-0.7913083333333334
 30
0.0
 11
0.0764
 21
-0.7727083333333333
 31
0.0
  0
LINE
  5
147
330
131
100
AcDbEntity
  8
AM_9
100
AcDbLine
 10
-0.0764
 20
-0.7727083333333333
 30
0.0
 11
0.0764
 21
-0.7727083333333333
 31
0.0
  0
LINE
  5
148
330
131
100
AcDbEntity
  8
AM_9
100
AcDbLine
 10
0.095
 20
-1.502708333333333
 30
0.0
 11
0.095
 21
-0.7913083333333334
 31
0.0
  0
LINE
  5
149
330
131
100
AcDbEntity
  8
AM_9
100
AcDbLine
 10
-0.095
 20
-0.7913083333333334
 30
0.0
 11
-0.095
 21
-1.502708333333333
 31
0.0
  0
LINE
  5
14A
330
131
100
AcDbEntity
  8
AM_9
100
AcDbLine
 10
-0.095
 20
-0.7913083333333334
 30
0.0
 11
0.095
 21
-0.7913083333333334
 31
0.0
  0
LINE
  5
14B
330
131
100
AcDbEntity
  8
AM_5
100
AcDbLine
 10
-0.095000000676617
 20
-1.492708333333334
 30
0.0
 11
0.0950000006766169
 21
-1.492708333333334
 31
0.0
  0
LINE
  5
14C
330
131
100
AcDbEntity
  8
AM_4
100
AcDbLine
 10
-0.099499999999917
 20
-1.673708333333334
 30
0.0
 11
0.0995
 21
-1.673708333333334
 31
0.0
  0
ARC
  5
14D
330
131
100
AcDbEntity
  8
AM_4
100
AcDbCircle
 10
0.0994999999999999
 20
-1.592708333333333
 30
0.0
 40
0.0810000000000002
100
AcDbArc
 50
270.0
 51
0.0
  0
ARC
  5
14E
330
131
100
AcDbEntity
  8
AM_4
100
AcDbCircle
 10
-0.0994999999999998
 20
-1.592708333333333
 30
0.0
 40
0.0810000000000002
100
AcDbArc
 50
180.0
 51
270.0
  0
LINE
  5
14F
330
131
100
AcDbEntity
  8
AM_4
100
AcDbLine
 10
0.1805
 20
-1.592708333333334
 30
0.0
 11
0.1805
 21
-1.572708333333333
 31
0.0
  0
LINE
  5
150
330
131
100
AcDbEntity
  8
AM_4
100
AcDbLine
 10
-0.1805
 20
-1.572708333333333
 30
0.0
 11
-0.1805
 21
-1.592708333333334
 31
0.0
  0
LINE
  5
151
330
131
100
AcDbEntity
  8
AM_4
100
AcDbLine
 10
-0.1805
 20
-1.592708333333334
 30
0.0
 11
0.1805
 21
-1.592708333333334
 31
0.0
  0
ENDBLK
  5
134
330
131
100
AcDbEntity
  8
0
100
AcDbBlockEnd
  0
BLOCK
  5
154
330
152
100
AcDbEntity
  8
0
100
AcDbBlockBegin
  2
5_070881LW_0_in_069341_4
 70
     2
 10
0.0
 20
0.0
 30
0.0
  3
5_070881LW_0_in_069341_4
  1

  0
ATTDEF
  5
156
330
152
100
AcDbEntity
  8
AM_6
100
AcDbText
 10
6.359375
 20
-1.132708333333333
 30
0.0
 40
0.5
  1
Imperial Insert Lockwasher -Inch
100
AcDbAttributeDefinition
  3

  2
NN
 70
     8
280
     0
  0
ATTDEF
  5
157
330
152
100
AcDbEntity
  8
AM_6
100
AcDbText
 10
6.359375
 20
-1.632708333333333
 30
0.0
 40
0.5
  1
Imperial Bearings
100
AcDbAttributeDefinition
  3

  2
NT
 70
     8
280
     0
  0
ATTDEF
  5
158
330
152
100
AcDbEntity
  8
AM_6
100
AcDbText
 10
6.359375
 20
-2.132708333333333
 30
0.0
 40
0.5
  1
070881LW
100
AcDbAttributeDefinition
  3

  2
NB
 70
     8
280
     0
  0
ATTDEF
  5
159
330
152
100
AcDbEntity
  8
AM_6
100
AcDbText
 10
6.359375
 20
-2.632708333333333
 30
0.0
 40
0.5
  1
$PN.LW
100
AcDbAttributeDefinition
  3

  2
NBSYN
 70
     8
280
     0
  0
ATTDEF
  5
15A
330
152
100
AcDbEntity
  8
AM_6
100
AcDbText
 10
6.359375
 20
-3.132708333333333
 30
0.0
 40
0.5
  1
070881
100
AcDbAttributeDefinition
  3

  2
LINA
 70
     8
280
     0
  0
ATTDEF
  5
15B
330
152
100
AcDbEntity
  8
AM_6
100
AcDbText
 10
6.359375
 20
-3.632708333333333
 30
0.0
 40
0.5
  1
1-3/16
100
AcDbAttributeDefinition
  3

  2
SS
 70
     8
280
     0
  0
ATTDEF
  5
15C
330
152
100
AcDbEntity
  8
AM_6
100
AcDbText
 10
6.359375
 20
-4.132708333333333
 30
0.0
 40
0.5
  1
1.187500
100
AcDbAttributeDefinition
  3

  2
SS1
 70
     8
280
     0
  0
ATTDEF
  5
15D
330
152
100
AcDbEntity
  8
AM_6
100
AcDbText
 10
6.359375
 20
-4.632708333333333
 30
0.0
 40
0.5
  1
070881
100
AcDbAttributeDefinition
  3

  2
PN
 70
     8
280
     0
  0
ATTDEF
  5
15E
330
152
100
AcDbEntity
  8
AM_6
100
AcDbText
 10
6.359375
 20
-5.132708333333333
 30
0.0
 40
0.5
  1
INS-IP-103R
100
AcDbAttributeDefinition
  3

  2
DESCRIPTION
 70
     8
280
     0
  0
ATTDEF
  5
15F
330
152
100
AcDbEntity
  8
AM_6
100
AcDbText
 10
6.359375
 20
-5.632708333333333
 30
0.0
 40
0.5
  1
3.1496
100
AcDbAttributeDefinition
  3

  2
A
 70
     8
280
     0
  0
ATTDEF
  5
160
330
152
100
AcDbEntity
  8
AM_6
100
AcDbText
 10
6.359375
 20
-6.132708333333333
 30
0.0
 40
0.5
  1
61/64
100
AcDbAttributeDefinition
  3

  2
B
 70
     8
280
     0
  0
ATTDEF
  5
161
330
152
100
AcDbEntity
  8
AM_6
100
AcDbText
 10
6.359375
 20
-6.632708333333333
 30
0.0
 40
0.5
  1
2-5/8
100
AcDbAttributeDefinition
  3

  2
C
 70
     8
280
     0
  0
ATTDEF
  5
162
330
152
100
AcDbEntity
  8
AM_6
100
AcDbText
 10
6.359375
 20
-7.132708333333333
 30
0.0
 40
0.5
  1
0.970
100
AcDbAttributeDefinition
  3

  2
D
 70
     8
280
     0
  0
ATTDEF
  5
163
330
152
100
AcDbEntity
  8
AM_6
100
AcDbText
 10
6.359375
 20
-7.632708333333333
 30
0.0
 40
0.5
  1
2-23/32
100
AcDbAttributeDefinition
  3

  2
E
 70
     8
280
     0
  0
ATTDEF
  5
164
330
152
100
AcDbEntity
  8
AM_6
100
AcDbText
 10
6.359375
 20
-8.132708333333333
 30
0.0
 40
0.5
  1
0.1900
100
AcDbAttributeDefinition
  3

  2
NDM
 70
     8
280
     0
  0
ATTDEF
  5
165
330
152
100
AcDbEntity
  8
AM_6
100
AcDbText
 10
6.359375
 20
-8.632708333333333
 30
0.0
 40
0.5
  1
0.1450
100
AcDbAttributeDefinition
  3

  2
KDM
 70
     8
280
     0
  0
ATTDEF
  5
166
330
152
100
AcDbEntity
  8
AM_6
100
AcDbText
 10
6.359375
 20
-9.132708333333333
 30
0.0
 40
0.5
  1
2.22
100
AcDbAttributeDefinition
  3

  2
AL
 70
     8
280
     0
  0
ATTDEF
  5
167
330
152
100
AcDbEntity
  8
AM_6
100
AcDbText
 10
6.359375
 20
-9.632708333333333
 30
0.0
 40
0.5
  1
0.38
100
AcDbAttributeDefinition
  3

  2
BL
 70
     8
280
     0
  0
ATTDEF
  5
168
330
152
100
AcDbEntity
  8
AM_6
100
AcDbText
 10
6.359375
 20
-10.13270833333333
 30
0.0
 40
0.5
  1
0.07
100
AcDbAttributeDefinition
  3

  2
CL
 70
     8
280
     0
  0
ATTDEF
  5
169
330
152
100
AcDbEntity
  8
AM_6
100
AcDbText
 10
6.359375
 20
-10.63270833333333
 30
0.0
 40
0.5
  1
0.44
100
AcDbAttributeDefinition
  3

  2
DL
 70
     8
280
     0
  0
ATTDEF
  5
16A
330
152
100
AcDbEntity
  8
AM_6
100
AcDbText
 10
6.359375
 20
-11.13270833333333
 30
0.0
 40
0.5
  1
baldor
100
AcDbAttributeDefinition
  3

  2
COMPANY
 70
     8
280
     0
  0
LINE
  5
16B
330
152
100
AcDbEntity
  8
AM_9
100
AcDbLine
 10
-1.014028369756696
 20
-1.502708333333333
 30
0.0
 11
-1.014028369756696
 21
-1.572708333333333
 31
0.0
  0
LINE
  5
16C
330
152
100
AcDbEntity
  8
AM_9
100
AcDbLine
 10
-1.104654174762891
 20
-1.502708333333333
 30
0.0
 11
-1.104654174762891
 21
-1.572708333333333
 31
0.0
  0
LINE
  5
16D
330
152
100
AcDbEntity
  8
AM_9
100
AcDbLine
 10
1.014028369756694
 20
-1.502708333333333
 30
0.0
 11
1.014028369756694
 21
-1.572708333333333
 31
0.0
  0
LINE
  5
16E
330
152
100
AcDbEntity
  8
AM_9
100
AcDbLine
 10
1.104654174762891
 20
-1.572708333333333
 30
0.0
 11
1.104654174762891
 21
-1.502708333333333
 31
0.0
  0
LINE
  5
16F
330
152
100
AcDbEntity
  8
AM_9
100
AcDbLine
 10
-0.6348229681387971
 20
-1.502708333333333
 30
0.0
 11
-0.6348229681387971
 21
-1.572708333333333
 31
0.0
  0
LINE
  5
170
330
152
100
AcDbEntity
  8
AM_9
100
AcDbLine
 10
0.6348229681387967
 20
-1.502708333333333
 30
0.0
 11
0.6348229681387967
 21
-1.572708333333333
 31
0.0
  0
LINE
  5
171
330
152
100
AcDbEntity
  8
AM_9
100
AcDbLine
 10
-0.3120595936098344
 20
-1.132708333333333
 30
0.0
 11
-0.3120595936098344
 21
-1.572708333333333
 31
0.0
  0
LINE
  5
172
330
152
100
AcDbEntity
  8
AM_9
100
AcDbLine
 10
-0.330704787980121
 20
-1.502708333333333
 30
0.0
 11
-0.330704787980121
 21
-1.572708333333333
 31
0.0
  0
LINE
  5
173
330
152
100
AcDbEntity
  8
AM_9
100
AcDbLine
 10
-0.3817124814111931
 20
-1.502708333333333
 30
0.0
 11
-0.3817124814111931
 21
-1.572708333333333
 31
0.0
  0
LINE
  5
174
330
152
100
AcDbEntity
  8
AM_9
100
AcDbLine
 10
-0.1551676768029767
 20
-1.502708333333333
 30
0.0
 11
-0.1551676768029767
 21
-1.572708333333333
 31
0.0
  0
LINE
  5
175
330
152
100
AcDbEntity
  8
AM_9
100
AcDbLine
 10
-0.1365224824326899
 20
-1.132708333333333
 30
0.0
 11
-0.3241665804314351
 21
-1.132708333333333
 31
0.0
  0
LINE
  5
176
330
152
100
AcDbEntity
  8
AM_9
100
AcDbLine
 10
-0.1365224824326899
 20
-1.132708333333333
 30
0.0
 11
-0.1365224824326899
 21
-1.572708333333333
 31
0.0
  0
LINE
  5
177
330
152
100
AcDbEntity
  8
AM_9
100
AcDbLine
 10
-0.5160627698366371
 20
-1.502708333333333
 30
0.0
 11
-0.516062769836637
 21
-1.572708333333333
 31
0.0
  0
LINE
  5
178
330
152
100
AcDbEntity
  8
AM_9
100
AcDbLine
 10
0.5160627698366368
 20
-1.502708333333333
 30
0.0
 11
0.516062769836637
 21
-1.572708333333333
 31
0.0
  0
LINE
  5
179
330
152
100
AcDbEntity
  8
AM_9
100
AcDbLine
 10
-0.1486294692542906
 20
-1.502708333333333
 30
0.0
 11
-0.1486294692542906
 21
-1.132708333333333
 31
0.0
  0
LINE
  5
17A
330
152
100
AcDbEntity
  8
AM_9
100
AcDbLine
 10
-0.3241665804314351
 20
-1.132708333333333
 30
0.0
 11
-0.324166580431435
 21
-1.502708333333333
 31
0.0
  0
LINE
  5
17B
330
152
100
AcDbEntity
  8
AM_9
100
AcDbLine
 10
0.381712481411193
 20
-1.502708333333333
 30
0.0
 11
0.3817124814111933
 21
-1.572708333333333
 31
0.0
  0
LINE
  5
17C
330
152
100
AcDbEntity
  8
AM_9
100
AcDbLine
 10
-0.7842014807832203
 20
-1.502708333333333
 30
0.0
 11
-0.7842014807832203
 21
-1.572708333333333
 31
0.0
  0
LINE
  5
17D
330
152
100
AcDbEntity
  8
AM_9
100
AcDbLine
 10
-0.6498511923577763
 20
-1.502708333333333
 30
0.0
 11
-0.6498511923577763
 21
-1.572708333333333
 31
0.0
  0
LINE
  5
17E
330
152
100
AcDbEntity
  8
AM_9
100
AcDbLine
 10
-0.808964232505907
 20
-1.502708333333333
 30
0.0
 11
-0.808964232505907
 21
-1.572708333333333
 31
0.0
  0
LINE
  5
17F
330
152
100
AcDbEntity
  8
AM_9
100
AcDbLine
 10
0.6498511923577773
 20
-1.502708333333333
 30
0.0
 11
0.6498511923577773
 21
-1.572708333333333
 31
0.0
  0
LINE
  5
180
330
152
100
AcDbEntity
  8
AM_9
100
AcDbLine
 10
0.7842014807832206
 20
-1.502708333333333
 30
0.0
 11
0.7842014807832206
 21
-1.572708333333333
 31
0.0
  0
LINE
  5
181
330
152
100
AcDbEntity
  8
AM_9
100
AcDbLine
 10
0.8089642325059067
 20
-1.572708333333333
 30
0.0
 11
0.8089642325059067
 21
-1.502708333333333
 31
0.0
  0
LINE
  5
182
330
152
100
AcDbEntity
  8
AM_9
100
AcDbLine
 10
0.0949999999999998
 20
-1.502708333333333
 30
0.0
 11
0.0949999999999999
 21
-1.572708333333333
 31
0.0
  0
LINE
  5
183
330
152
100
AcDbEntity
  8
AM_9
100
AcDbLine
 10
-0.0949999999999999
 20
-1.502708333333333
 30
0.0
 11
-0.0949999999999999
 21
-1.572708333333333
 31
0.0
  0
LINE
  5
184
330
152
100
AcDbEntity
  8
AM_4
100
AcDbLine
 10
-1.359375
 20
-1.502708333333333
 30
0.0
 11
-1.359375
 21
-1.572708333333333
 31
0.0
  0
LINE
  5
185
330
152
100
AcDbEntity
  8
AM_4
100
AcDbLine
 10
1.359375
 20
-1.572708333333333
 30
0.0
 11
1.359375
 21
-1.502708333333333
 31
0.0
  0
LINE
  5
186
330
152
100
AcDbEntity
  8
AM_4
100
AcDbLine
 10
-1.359375
 20
-1.572708333333333
 30
0.0
 11
1.359375
 21
-1.572708333333333
 31
0.0
  0
LINE
  5
187
330
152
100
AcDbEntity
  8
AM_4
100
AcDbLine
 10
-1.359375
 20
-1.502708333333333
 30
0.0
 11
1.359375
 21
-1.502708333333333
 31
0.0
  0
ENDBLK
  5
155
330
152
100
AcDbEntity
  8
0
100
AcDbBlockEnd
  0
BLOCK
  5
18A
330
188
100
AcDbEntity
  8
0
100
AcDbBlockBegin
  2
6_070881I_0_in_069341_4
 70
     2
 10
0.0
 20
0.0
 30
0.0
  3
6_070881I_0_in_069341_4
  1

  0
ATTDEF
  5
18C
330
188
100
AcDbEntity
  8
AM_6
100
AcDbText
 10
6.5748
 20
0.9106250000000004
 30
0.0
 40
0.5
  1
Imperial Insert -Inch
100
AcDbAttributeDefinition
  3

  2
NN
 70
     8
280
     0
  0
ATTDEF
  5
18D
330
188
100
AcDbEntity
  8
AM_6
100
AcDbText
 10
6.5748
 20
0.4106250000000004
 30
0.0
 40
0.5
  1
Imperial Bearings
100
AcDbAttributeDefinition
  3

  2
NT
 70
     8
280
     0
  0
ATTDEF
  5
18E
330
188
100
AcDbEntity
  8
AM_6
100
AcDbText
 10
6.5748
 20
-0.0893749999999996
 30
0.0
 40
0.5
  1
070881I
100
AcDbAttributeDefinition
  3

  2
NB
 70
     8
280
     0
  0
ATTDEF
  5
18F
330
188
100
AcDbEntity
  8
AM_6
100
AcDbText
 10
6.5748
 20
-0.5893749999999996
 30
0.0
 40
0.5
  1
$PN.I
100
AcDbAttributeDefinition
  3

  2
NBSYN
 70
     8
280
     0
  0
ATTDEF
  5
190
330
188
100
AcDbEntity
  8
AM_6
100
AcDbText
 10
6.5748
 20
-1.089375
 30
0.0
 40
0.5
  1
070881
100
AcDbAttributeDefinition
  3

  2
LINA
 70
     8
280
     0
  0
ATTDEF
  5
191
330
188
100
AcDbEntity
  8
AM_6
100
AcDbText
 10
6.5748
 20
-1.589375
 30
0.0
 40
0.5
  1
1-3/16
100
AcDbAttributeDefinition
  3

  2
SS
 70
     8
280
     0
  0
ATTDEF
  5
192
330
188
100
AcDbEntity
  8
AM_6
100
AcDbText
 10
6.5748
 20
-2.089375
 30
0.0
 40
0.5
  1
1.187500
100
AcDbAttributeDefinition
  3

  2
SS1
 70
     8
280
     0
  0
ATTDEF
  5
193
330
188
100
AcDbEntity
  8
AM_6
100
AcDbText
 10
6.5748
 20
-2.589375
 30
0.0
 40
0.5
  1
070881
100
AcDbAttributeDefinition
  3

  2
PN
 70
     8
280
     0
  0
ATTDEF
  5
194
330
188
100
AcDbEntity
  8
AM_6
100
AcDbText
 10
6.5748
 20
-3.089375
 30
0.0
 40
0.5
  1
INS-IP-103R
100
AcDbAttributeDefinition
  3

  2
DESCRIPTION
 70
     8
280
     0
  0
ATTDEF
  5
195
330
188
100
AcDbEntity
  8
AM_6
100
AcDbText
 10
6.5748
 20
-3.589375
 30
0.0
 40
0.5
  1
Contact Seal
100
AcDbAttributeDefinition
  3

  2
ST
 70
     8
280
     0
  0
ATTDEF
  5
196
330
188
100
AcDbEntity
  8
AM_6
100
AcDbText
 10
6.5748
 20
-4.089375
 30
0.0
 40
0.5
  1
3.1496
100
AcDbAttributeDefinition
  3

  2
A
 70
     8
280
     0
  0
ATTDEF
  5
197
330
188
100
AcDbEntity
  8
AM_6
100
AcDbText
 10
6.5748
 20
-4.589375
 30
0.0
 40
0.5
  1
61/64
100
AcDbAttributeDefinition
  3

  2
B
 70
     8
280
     0
  0
ATTDEF
  5
198
330
188
100
AcDbEntity
  8
AM_6
100
AcDbText
 10
6.5748
 20
-5.089375
 30
0.0
 40
0.5
  1
2-5/8
100
AcDbAttributeDefinition
  3

  2
C
 70
     8
280
     0
  0
ATTDEF
  5
199
330
188
100
AcDbEntity
  8
AM_6
100
AcDbText
 10
6.5748
 20
-5.589375
 30
0.0
 40
0.5
  1
0.970
100
AcDbAttributeDefinition
  3

  2
D
 70
     8
280
     0
  0
ATTDEF
  5
19A
330
188
100
AcDbEntity
  8
AM_6
100
AcDbText
 10
6.5748
 20
-6.089375
 30
0.0
 40
0.5
  1
2-23/32
100
AcDbAttributeDefinition
  3

  2
E
 70
     8
280
     0
  0
ATTDEF
  5
19B
330
188
100
AcDbEntity
  8
AM_6
100
AcDbText
 10
6.5748
 20
-6.589375
 30
0.0
 40
0.5
  1
0.1900
100
AcDbAttributeDefinition
  3

  2
NDM
 70
     8
280
     0
  0
ATTDEF
  5
19C
330
188
100
AcDbEntity
  8
AM_6
100
AcDbText
 10
6.5748
 20
-7.089375
 30
0.0
 40
0.5
  1
0.101
100
AcDbAttributeDefinition
  3

  2
H
 70
     8
280
     0
  0
ATTDEF
  5
19D
330
188
100
AcDbEntity
  8
AM_6
100
AcDbText
 10
6.5748
 20
-7.589375
 30
0.0
 40
0.5
  1
0.1450
100
AcDbAttributeDefinition
  3

  2
KDM
 70
     8
280
     0
  0
ATTDEF
  5
19E
330
188
100
AcDbEntity
  8
AM_6
100
AcDbText
 10
6.5748
 20
-8.089375
 30
0.0
 40
0.5
  1
2.22
100
AcDbAttributeDefinition
  3

  2
AL
 70
     8
280
     0
  0
ATTDEF
  5
19F
330
188
100
AcDbEntity
  8
AM_6
100
AcDbText
 10
6.5748
 20
-8.589375
 30
0.0
 40
0.5
  1
0.38
100
AcDbAttributeDefinition
  3

  2
BL
 70
     8
280
     0
  0
ATTDEF
  5
1A0
330
188
100
AcDbEntity
  8
AM_6
100
AcDbText
 10
6.5748
 20
-9.089375
 30
0.0
 40
0.5
  1
0.07
100
AcDbAttributeDefinition
  3

  2
CL
 70
     8
280
     0
  0
ATTDEF
  5
1A1
330
188
100
AcDbEntity
  8
AM_6
100
AcDbText
 10
6.5748
 20
-9.589375
 30
0.0
 40
0.5
  1
0.44
100
AcDbAttributeDefinition
  3

  2
DL
 70
     8
280
     0
  0
ATTDEF
  5
1A2
330
188
100
AcDbEntity
  8
AM_6
100
AcDbText
 10
6.5748
 20
-10.089375
 30
0.0
 40
0.5
  1
0.8000
100
AcDbAttributeDefinition
  3

  2
LL
 70
     8
280
     0
  0
ATTDEF
  5
1A3
330
188
100
AcDbEntity
  8
AM_6
100
AcDbText
 10
6.5748
 20
-10.589375
 30
0.0
 40
0.5
  1
0.020
100
AcDbAttributeDefinition
  3

  2
Y
 70
     8
280
     0
  0
ATTDEF
  5
1A4
330
188
100
AcDbEntity
  8
AM_6
100
AcDbText
 10
6.5748
 20
-11.089375
 30
0.0
 40
0.5
  1
0.020000
100
AcDbAttributeDefinition
  3

  2
Y1
 70
     8
280
     0
  0
ATTDEF
  5
1A5
330
188
100
AcDbEntity
  8
AM_6
100
AcDbText
 10
6.5748
 20
-11.589375
 30
0.0
 40
0.5
  1
1-51/64
100
AcDbAttributeDefinition
  3

  2
Z
 70
     8
280
     0
  0
ATTDEF
  5
1A6
330
188
100
AcDbEntity
  8
AM_6
100
AcDbText
 10
6.5748
 20
-12.089375
 30
0.0
 40
0.5
  1
1.796875
100
AcDbAttributeDefinition
  3

  2
Z1
 70
     8
280
     0
  0
ATTDEF
  5
1A7
330
188
100
AcDbEntity
  8
AM_6
100
AcDbText
 10
6.5748
 20
-12.589375
 30
0.0
 40
0.5
  1
baldor
100
AcDbAttributeDefinition
  3

  2
COMPANY
 70
     8
280
     0
  0
LINE
  5
1A8
330
188
100
AcDbEntity
  8
AM_9
100
AcDbLine
 10
-0.3248050538015411
 20
0.3971875000000004
 30
0.0
 11
-0.3241665804314349
 21
-1.572708333333333
 31
0.0
  0
LINE
  5
1A9
330
188
100
AcDbEntity
  8
AM_9
100
AcDbLine
 10
-0.1365224824326899
 20
0.3971875000000005
 30
0.0
 11
-0.1365224824326899
 21
-1.734375
 31
0.0
  0
LINE
  5
1AA
330
188
100
AcDbEntity
  8
AM_9
100
AcDbLine
 10
-0.3120595936098343
 20
-1.572708333333333
 30
0.0
 11
-0.3120595936098343
 21
0.3971875000000004
 31
0.0
  0
LINE
  5
1AB
330
188
100
AcDbEntity
  8
AM_9
100
AcDbLine
 10
-0.59375
 20
0.3971874999999999
 30
0.0
 11
-0.59375
 21
-1.734375
 31
0.0
  0
LINE
  5
1AC
330
188
100
AcDbEntity
  8
AM_9
100
AcDbLine
 10
0.59375
 20
-1.734375
 30
0.0
 11
0.59375
 21
0.3971874999999999
 31
0.0
  0
LINE
  5
1AD
330
188
100
AcDbEntity
  8
AM_9
100
AcDbLine
 10
-0.625
 20
0.890625
 30
0.0
 11
-0.625
 21
0.3971875000000001
 31
0.0
  0
LINE
  5
1AE
330
188
100
AcDbEntity
  8
AM_9
100
AcDbLine
 10
0.625
 20
0.3971875000000001
 30
0.0
 11
0.625
 21
0.890625
 31
0.0
  0
LINE
  5
1AF
330
188
100
AcDbEntity
  8
AM_9
100
AcDbLine
 10
-0.1486294692542904
 20
-1.657107830620127
 30
0.0
 11
-0.1492679426243967
 21
0.3971875000000005
 31
0.0
  0
LINE
  5
1B0
330
188
100
AcDbEntity
  8
AM_9
100
AcDbLine
 10
-0.625
 20
-1.502708333333333
 30
0.0
 11
-0.625
 21
-1.572708333333333
 31
0.0
  0
LINE
  5
1B1
330
188
100
AcDbEntity
  8
AM_9
100
AcDbLine
 10
0.625
 20
-1.572708333333333
 30
0.0
 11
0.625
 21
-1.502708333333333
 31
0.0
  0
LINE
  5
1B2
330
188
100
AcDbEntity
  8
AM_9
100
AcDbLine
 10
0.8984375
 20
0.890625
 30
0.0
 11
-0.8984375
 21
0.890625
 31
0.0
  0
LINE
  5
1B3
330
188
100
AcDbEntity
  8
AM_9
100
AcDbLine
 10
-0.8984375
 20
0.9106250000000004
 30
0.0
 11
-0.8984375
 21
0.890625
 31
0.0
  0
LINE
  5
1B4
330
188
100
AcDbEntity
  8
AM_9
100
AcDbLine
 10
0.8984375
 20
0.890625
 30
0.0
 11
0.8984375
 21
0.9106250000000004
 31
0.0
  0
LINE
  5
1B5
330
188
100
AcDbEntity
  8
AM_9
100
AcDbLine
 10
-0.6505382386916237
 20
-1.062708333333333
 30
0.0
 11
-0.6505382386916237
 21
-1.502708333333333
 31
0.0
  0
LINE
  5
1B6
330
188
100
AcDbEntity
  8
AM_9
100
AcDbLine
 10
0.650538238691624
 20
-1.062708333333333
 30
0.0
 11
0.650538238691624
 21
-1.502708333333333
 31
0.0
  0
LINE
  5
1B7
330
188
100
AcDbEntity
  8
AM_9
100
AcDbLine
 10
0.9752270299145298
 20
0.9106249999999998
 30
0.0
 11
-0.9752270299005794
 21
0.9106249999999998
 31
0.0
  0
ARC
  5
1B8
330
188
100
AcDbEntity
  8
AM_9
100
AcDbCircle
 10
-0.9752270299145301
 20
0.8875881410256411
 30
0.0
 40
0.0230368589743587
100
AcDbArc
 50
90.0
 51
179.9999991462263
  0
ARC
  5
1B9
330
188
100
AcDbEntity
  8
AM_9
100
AcDbCircle
 10
0.9752270299145301
 20
0.8875881410256411
 30
0.0
 40
0.0230368589743587
100
AcDbArc
 50
0.0000008537736463
 51
90.0
  0
LINE
  5
1BA
330
188
100
AcDbEntity
  8
AM_9
100
AcDbLine
 10
0.9982638888888888
 20
0.8875881410256404
 30
0.0
 11
-0.9982638888888888
 21
0.8875881410256404
 31
0.0
  0
LINE
  5
1BB
330
188
100
AcDbEntity
  8
AM_9
100
AcDbLine
 10
-0.9982638888888888
 20
0.8875881410256404
 30
0.0
 11
-0.9982638888888888
 21
0.5878124999999997
 31
0.0
  0
LINE
  5
1BC
330
188
100
AcDbEntity
  8
AM_9
100
AcDbLine
 10
0.9982638888888888
 20
0.5878124999999997
 30
0.0
 11
0.9982638888888888
 21
0.8875881410256404
 31
0.0
  0
LINE
  5
1BD
330
188
100
AcDbEntity
  8
AM_9
100
AcDbLine
 10
0.0
 20
-0.6627083333333332
 30
0.0
 11
-0.0724499999999999
 21
-0.6964923231666629
 31
0.0
  0
LINE
  5
1BE
330
188
100
AcDbEntity
  8
AM_9
100
AcDbLine
 10
0.0724499999999999
 20
-0.6964923231666629
 30
0.0
 11
0.0
 21
-0.6627083333333332
 31
0.0
  0
LINE
  5
1BF
330
188
100
AcDbEntity
  8
AM_9
100
AcDbLine
 10
0.0724499999999999
 20
-0.6964923231666629
 30
0.0
 11
-0.0724499999999999
 21
-0.6964923231666629
 31
0.0
  0
LINE
  5
1C0
330
188
100
AcDbEntity
  8
AM_9
100
AcDbLine
 10
-0.0724499999999999
 20
-0.6964923231666629
 30
0.0
 11
-0.0724499999999999
 21
-1.480158333333333
 31
0.0
  0
LINE
  5
1C1
330
188
100
AcDbEntity
  8
AM_9
100
AcDbLine
 10
0.0724499999999999
 20
-1.480158333333333
 30
0.0
 11
0.0724499999999999
 21
-0.6964923231666629
 31
0.0
  0
LINE
  5
1C2
330
188
100
AcDbEntity
  8
AM_9
100
AcDbLine
 10
-0.8284088841127804
 20
-1.062708333333333
 30
0.0
 11
-0.6505382386916237
 21
-1.062708333333333
 31
0.0
  0
LINE
  5
1C3
330
188
100
AcDbEntity
  8
AM_9
100
AcDbLine
 10
0.650538238691624
 20
-1.062708333333333
 30
0.0
 11
0.8284088841127804
 21
-1.062708333333333
 31
0.0
  0
LINE
  5
1C4
330
188
100
AcDbEntity
  8
AM_9
100
AcDbLine
 10
0.0724499999999999
 20
-1.480158333333333
 30
0.0
 11
-0.0724499999999999
 21
-1.480158333333333
 31
0.0
  0
LINE
  5
1C5
330
188
100
AcDbEntity
  8
AM_9
100
AcDbLine
 10
-0.0724499999999999
 20
-1.480158333333333
 30
0.0
 11
-0.0950000000000001
 21
-1.502708333333333
 31
0.0
  0
LINE
  5
1C6
330
188
100
AcDbEntity
  8
AM_9
100
AcDbLine
 10
0.0950000000000001
 20
-1.502708333333333
 30
0.0
 11
0.0724499999999999
 21
-1.480158333333333
 31
0.0
  0
LINE
  5
1C7
330
188
100
AcDbEntity
  8
AM_9
100
AcDbLine
 10
1.207007578016766
 20
0.5878124999999997
 30
0.0
 11
-1.207007578013044
 21
0.5878124999999997
 31
0.0
  0
ARC
  5
1C8
330
188
100
AcDbEntity
  8
AM_9
100
AcDbCircle
 10
-1.207007578016766
 20
0.4878125000000004
 30
0.0
 40
0.0999999999999994
100
AcDbArc
 50
90.0
 51
150.0
  0
ARC
  5
1C9
330
188
100
AcDbEntity
  8
AM_9
100
AcDbCircle
 10
1.207007578016766
 20
0.4878125000000004
 30
0.0
 40
0.0999999999999992
100
AcDbArc
 50
30.00000000000003
 51
90.0
  0
LINE
  5
1CA
330
188
100
AcDbEntity
  8
AM_9
100
AcDbLine
 10
1.293610118395209
 20
0.5378125
 30
0.0
 11
-1.293610118395209
 21
0.5378125
 31
0.0
  0
LINE
  5
1CB
330
188
100
AcDbEntity
  8
AM_9
100
AcDbLine
 10
-1.293610118395209
 20
0.5378125
 30
0.0
 11
-1.3748
 21
0.3971874999999999
 31
0.0
  0
LINE
  5
1CC
330
188
100
AcDbEntity
  8
AM_9
100
AcDbLine
 10
1.3748
 20
0.3971874999999999
 30
0.0
 11
1.293610118395209
 21
0.5378125
 31
0.0
  0
LINE
  5
1CD
330
188
100
AcDbEntity
  8
AM_9
100
AcDbLine
 10
1.375838687783296
 20
-1.03125
 30
0.0
 11
1.392436966032342
 21
-0.5559375
 31
0.0
  0
LINE
  5
1CE
330
188
100
AcDbEntity
  8
AM_9
100
AcDbLine
 10
-1.392436966032342
 20
-0.5559375
 30
0.0
 11
-1.375838687783296
 21
-1.03125
 31
0.0
  0
LINE
  5
1CF
330
188
100
AcDbEntity
  8
AM_9
100
AcDbLine
 10
-1.52714375
 20
-0.051860651233932
 30
0.0
 11
-1.52714375
 21
-0.1068893487660682
 31
0.0
  0
LINE
  5
1D0
330
188
100
AcDbEntity
  8
AM_9
100
AcDbLine
 10
1.52714375
 20
-0.1068893487660682
 30
0.0
 11
1.52714375
 21
-0.051860651233932
 31
0.0
  0
LINE
  5
1D1
330
188
100
AcDbEntity
  8
AM_9
100
AcDbLine
 10
1.5248
 20
-0.5559375
 30
0.0
 11
-1.524799999992345
 21
-0.5559375
 31
0.0
  0
ARC
  5
1D2
330
188
100
AcDbEntity
  8
AM_9
100
AcDbCircle
 10
-1.5248
 20
-0.5059375000000004
 30
0.0
 40
0.0499999999999996
100
AcDbArc
 50
180.0
 51
270.0
  0
ARC
  5
1D3
330
188
100
AcDbEntity
  8
AM_9
100
AcDbCircle
 10
1.5248
 20
-0.5059375000000004
 30
0.0
 40
0.0499999999999996
100
AcDbArc
 50
270.0
 51
0.0
  0
LINE
  5
1D4
330
188
100
AcDbEntity
  8
AM_9
100
AcDbLine
 10
-1.5748
 20
0.3471874999999999
 30
0.0
 11
-1.5748
 21
-0.0243463024678638
 31
0.0
  0
LINE
  5
1D5
330
188
100
AcDbEntity
  8
AM_9
100
AcDbLine
 10
1.5748
 20
-0.0243463024678638
 30
0.0
 11
1.5748
 21
0.3471874999999999
 31
0.0
  0
LINE
  5
1D6
330
188
100
AcDbEntity
  8
AM_9
100
AcDbLine
 10
1.5748
 20
-0.5059375000000006
 30
0.0
 11
-1.5748
 21
-0.5059375000000006
 31
0.0
  0
LINE
  5
1D7
330
188
100
AcDbEntity
  8
AM_9
100
AcDbLine
 10
-1.5748
 20
-0.1344036975321361
 30
0.0
 11
-1.5748
 21
-0.5059375000000006
 31
0.0
  0
LINE
  5
1D8
330
188
100
AcDbEntity
  8
AM_9
100
AcDbLine
 10
1.5748
 20
-0.5059375000000006
 30
0.0
 11
1.5748
 21
-0.1344036975321361
 31
0.0
  0
LINE
  5
1D9
330
188
100
AcDbEntity
  8
AM_9
100
AcDbLine
 10
1.5248
 20
0.3971874999999999
 30
0.0
 11
-1.524799999992345
 21
0.3971874999999999
 31
0.0
  0
LINE
  5
1DA
330
188
100
AcDbEntity
  8
AM_9
100
AcDbLine
 10
1.5748
 20
0.3471874999999999
 30
0.0
 11
-1.5748
 21
0.3471874999999999
 31
0.0
  0
ARC
  5
1DB
330
188
100
AcDbEntity
  8
AM_9
100
AcDbCircle
 10
-1.5248
 20
0.3471874999999999
 30
0.0
 40
0.0499999999999999
100
AcDbArc
 50
90.0
 51
180.0
  0
ARC
  5
1DC
330
188
100
AcDbEntity
  8
AM_9
100
AcDbCircle
 10
1.5248
 20
0.3471874999999999
 30
0.0
 40
0.05
100
AcDbArc
 50
0.0
 51
90.0
  0
LINE
  5
1DD
330
188
100
AcDbEntity
  8
AM_9
100
AcDbLine
 10
1.52714375
 20
-0.1068893487660682
 30
0.0
 11
-1.52714375
 21
-0.1068893487660682
 31
0.0
  0
LINE
  5
1DE
330
188
100
AcDbEntity
  8
AM_9
100
AcDbLine
 10
1.5748
 20
-0.1344036975321361
 30
0.0
 11
-1.5748
 21
-0.1344036975321361
 31
0.0
  0
LINE
  5
1DF
330
188
100
AcDbEntity
  8
AM_9
100
AcDbLine
 10
-1.52714375
 20
-0.1068893487660682
 30
0.0
 11
-1.5748
 21
-0.1344036975321361
 31
0.0
  0
LINE
  5
1E0
330
188
100
AcDbEntity
  8
AM_9
100
AcDbLine
 10
1.5748
 20
-0.1344036975321361
 30
0.0
 11
1.52714375
 21
-0.1068893487660682
 31
0.0
  0
LINE
  5
1E1
330
188
100
AcDbEntity
  8
AM_9
100
AcDbLine
 10
1.5748
 20
-0.0243463024678638
 30
0.0
 11
-1.5748
 21
-0.0243463024678638
 31
0.0
  0
LINE
  5
1E2
330
188
100
AcDbEntity
  8
AM_9
100
AcDbLine
 10
1.52714375
 20
-0.051860651233932
 30
0.0
 11
-1.52714375
 21
-0.051860651233932
 31
0.0
  0
LINE
  5
1E3
330
188
100
AcDbEntity
  8
AM_9
100
AcDbLine
 10
1.52714375
 20
-0.051860651233932
 30
0.0
 11
1.5748
 21
-0.0243463024678638
 31
0.0
  0
LINE
  5
1E4
330
188
100
AcDbEntity
  8
AM_9
100
AcDbLine
 10
-1.5748
 20
-0.0243463024678638
 30
0.0
 11
-1.52714375
 21
-0.051860651233932
 31
0.0
  0
LINE
  5
1E5
330
188
100
AcDbEntity
  8
AM_5
100
AcDbLine
 10
-0.0724499999999999
 20
-0.7427083333333332
 30
0.0
 11
-0.0950000000000001
 21
-0.7427083333333332
 31
0.0
  0
LINE
  5
1E6
330
188
100
AcDbEntity
  8
AM_5
100
AcDbLine
 10
-0.0950000000000001
 20
-0.7427083333333332
 30
0.0
 11
-0.0724499999999999
 21
-0.7296890847631071
 31
0.0
  0
LINE
  5
1E7
330
188
100
AcDbEntity
  8
AM_5
100
AcDbLine
 10
0.0724499999999998
 20
-0.7427083333333332
 30
0.0
 11
0.0949999999999999
 21
-0.7427083333333332
 31
0.0
  0
LINE
  5
1E8
330
188
100
AcDbEntity
  8
AM_5
100
AcDbLine
 10
0.0950000000000001
 20
-0.7427083333333346
 30
0.0
 11
0.0724499999999999
 21
-0.7296890847631273
 31
0.0
  0
LINE
  5
1E9
330
188
100
AcDbEntity
  8
AM_4
100
AcDbLine
 10
-0.3120595936098343
 20
-1.734375
 30
0.0
 11
-0.3120595936098343
 21
-1.572708333333333
 31
0.0
  0
LINE
  5
1EA
330
188
100
AcDbEntity
  8
AM_4
100
AcDbLine
 10
-0.1486294692542904
 20
-1.734375
 30
0.0
 11
-0.1486294692542904
 21
-1.657107830620127
 31
0.0
  0
LINE
  5
1EB
330
188
100
AcDbEntity
  8
AM_4
100
AcDbLine
 10
-0.3241665804314349
 20
-1.572708333333333
 30
0.0
 11
-0.3241665804314349
 21
-1.734375
 31
0.0
  0
LINE
  5
1EC
330
188
100
AcDbEntity
  8
AM_4
100
AcDbLine
 10
-0.625
 20
-1.572708333333333
 30
0.0
 11
-0.625
 21
-1.734375
 31
0.0
  0
LINE
  5
1ED
330
188
100
AcDbEntity
  8
AM_4
100
AcDbLine
 10
0.625
 20
-1.734375
 30
0.0
 11
0.625
 21
-1.572708333333333
 31
0.0
  0
LINE
  5
1EE
330
188
100
AcDbEntity
  8
AM_4
100
AcDbLine
 10
0.625
 20
-1.734375
 30
0.0
 11
-0.625
 21
-1.734375
 31
0.0
  0
ARC
  5
1EF
330
188
100
AcDbEntity
  8
AM_4
100
AcDbCircle
 10
1.311090561259645
 20
-1.452708333333333
 30
0.0
 40
0.0500000000000007
100
AcDbArc
 50
270.0
 51
357.9999999999993
  0
ARC
  5
1F0
330
188
100
AcDbEntity
  8
AM_4
100
AcDbCircle
 10
-1.311090561259645
 20
-1.452708333333333
 30
0.0
 40
0.0500000000000008
100
AcDbArc
 50
182.0000000000006
 51
270.0
  0
LWPOLYLINE
  5
1F1
330
188
100
AcDbEntity
  8
AM_4
100
AcDbPolyline
 90
        6
 70
     0
 43
0.0
 10
1.087341527345923
 20
-1.454453308168458
 10
1.084951493284856
 20
-1.470772767759576
 10
1.078879906620323
 20
-1.485062212123401
 10
1.069782372867751
 20
-1.495785152478868
 10
1.058595723464173
 20
-1.501753046236281
 10
1.051644804876986
 20
-1.502708333333333
  0
LWPOLYLINE
  5
1F2
330
188
100
AcDbEntity
  8
AM_4
100
AcDbPolyline
 90
        6
 70
     0
 43
0.0
 10
-1.051644804876985
 20
-1.502708333333333
 10
-1.056745917779431
 20
-1.50219615334545
 10
-1.068288439312639
 20
-1.496950969166354
 10
-1.077904345034989
 20
-1.486605922695886
 10
-1.084467122687451
 20
-1.472434162505154
 10
-1.087341527345923
 20
-1.454453308168458
  0
LINE
  5
1F3
330
188
100
AcDbEntity
  8
AM_4
100
AcDbLine
 10
-0.9192388155425117
 20
-1.062708333333333
 30
0.0
 11
-0.9192388155425117
 21
-1.502708333333333
 31
0.0
  0
LINE
  5
1F4
330
188
100
AcDbEntity
  8
AM_4
100
AcDbLine
 10
0.9192388155425123
 20
-1.062708333333333
 30
0.0
 11
0.9192388155425123
 21
-1.502708333333333
 31
0.0
  0
LWPOLYLINE
  5
1F5
330
188
100
AcDbEntity
  8
AM_4
100
AcDbPolyline
 90
        6
 70
     0
 43
0.0
 10
0.7829442280260974
 20
-1.502708333333333
 10
0.7880453409285434
 20
-1.50219615334545
 10
0.7995878624617515
 20
-1.496950969166354
 10
0.8092037681841016
 20
-1.486605922695886
 10
0.8157665458365636
 20
-1.472434162505154
 10
0.8186409504950352
 20
-1.454453308168458
  0
LWPOLYLINE
  5
1F6
330
188
100
AcDbEntity
  8
AM_4
100
AcDbPolyline
 90
        6
 70
     0
 43
0.0
 10
-0.8186409504950352
 20
-1.454453308168458
 10
-0.816250916433965
 20
-1.470772767759586
 10
-0.8101793297694295
 20
-1.485062212123409
 10
-0.8010817960168559
 20
-1.495785152478873
 10
-0.7898951466132774
 20
-1.501753046236283
 10
-0.7829442280260974
 20
-1.502708333333333
  0
LINE
  5
1F7
330
188
100
AcDbEntity
  8
AM_4
100
AcDbLine
 10
-1.087341527345923
 20
-1.454453308168458
 30
0.0
 11
-1.361060102610601
 21
-1.454453308168458
 31
0.0
  0
LINE
  5
1F8
330
188
100
AcDbEntity
  8
AM_4
100
AcDbLine
 10
-1.087341527345923
 20
-1.454453308168458
 30
0.0
 11
-1.097109460963668
 21
-1.062708333333333
 31
0.0
  0
LINE
  5
1F9
330
188
100
AcDbEntity
  8
AM_4
100
AcDbLine
 10
-1.097109460963668
 20
-1.062708333333333
 30
0.0
 11
-0.8284088841127804
 21
-1.062708333333333
 31
0.0
  0
LINE
  5
1FA
330
188
100
AcDbEntity
  8
AM_4
100
AcDbLine
 10
-0.8284088841127804
 20
-1.062708333333333
 30
0.0
 11
-0.8186409504950352
 21
-1.454453308168458
 31
0.0
  0
LINE
  5
1FB
330
188
100
AcDbEntity
  8
AM_4
100
AcDbLine
 10
0.8186409504950352
 20
-1.454453308168458
 30
0.0
 11
-0.8186409504950352
 21
-1.454453308168458
 31
0.0
  0
LINE
  5
1FC
330
188
100
AcDbEntity
  8
AM_4
100
AcDbLine
 10
0.8186409504950352
 20
-1.454453308168458
 30
0.0
 11
0.8284088841127804
 21
-1.062708333333333
 31
0.0
  0
LINE
  5
1FD
330
188
100
AcDbEntity
  8
AM_4
100
AcDbLine
 10
0.8284088841127804
 20
-1.062708333333333
 30
0.0
 11
1.097109460963669
 21
-1.062708333333333
 31
0.0
  0
LINE
  5
1FE
330
188
100
AcDbEntity
  8
AM_4
100
AcDbLine
 10
1.097109460963669
 20
-1.062708333333333
 30
0.0
 11
1.087341527345923
 21
-1.454453308168458
 31
0.0
  0
LINE
  5
1FF
330
188
100
AcDbEntity
  8
AM_4
100
AcDbLine
 10
1.361060102610601
 20
-1.454453308168458
 30
0.0
 11
1.375838687783296
 21
-1.03125
 31
0.0
  0
LINE
  5
200
330
188
100
AcDbEntity
  8
AM_4
100
AcDbLine
 10
-1.375838687783296
 20
-1.03125
 30
0.0
 11
-1.361060102610601
 21
-1.454453308168458
 31
0.0
  0
LINE
  5
201
330
188
100
AcDbEntity
  8
AM_4
100
AcDbLine
 10
1.361060102610601
 20
-1.454453308168458
 30
0.0
 11
1.087341527345923
 21
-1.454453308168458
 31
0.0
  0
ENDBLK
  5
18B
330
188
100
AcDbEntity
  8
0
100
AcDbBlockEnd
  0
BLOCK
  5
204
330
202
100
AcDbEntity
  8
0
100
AcDbBlockBegin
  2
7_069341H_0_in_069341_4
 70
     2
 10
0.0
 20
0.0
 30
0.0
  3
7_069341H_0_in_069341_4
  1

  0
ATTDEF
  5
206
330
202
100
AcDbEntity
  8
AM_6
100
AcDbText
 10
8.221875
 20
1.2478125
 30
0.0
 40
0.5
  1
WSTU-IP -Housing -Inch
100
AcDbAttributeDefinition
  3

  2
NN
 70
     8
280
     0
  0
ATTDEF
  5
207
330
202
100
AcDbEntity
  8
AM_6
100
AcDbText
 10
8.221875
 20
0.7478125000000002
 30
0.0
 40
0.5
  1
Imperial Wide Slot Take-Up Bearings
100
AcDbAttributeDefinition
  3

  2
NT
 70
     8
280
     0
  0
ATTDEF
  5
208
330
202
100
AcDbEntity
  8
AM_6
100
AcDbText
 10
8.221875
 20
0.2478125000000002
 30
0.0
 40
0.5
  1
069341H
100
AcDbAttributeDefinition
  3

  2
NB
 70
     8
280
     0
  0
ATTDEF
  5
209
330
202
100
AcDbEntity
  8
AM_6
100
AcDbText
 10
8.221875
 20
-0.2521874999999998
 30
0.0
 40
0.5
  1
$PN.H
100
AcDbAttributeDefinition
  3

  2
NBSYN
 70
     8
280
     0
  0
ATTDEF
  5
20A
330
202
100
AcDbEntity
  8
AM_6
100
AcDbText
 10
8.221875
 20
-0.7521874999999998
 30
0.0
 40
0.5
  1
069341
100
AcDbAttributeDefinition
  3

  2
LINA
 70
     8
280
     0
  0
ATTDEF
  5
20B
330
202
100
AcDbEntity
  8
AM_6
100
AcDbText
 10
8.221875
 20
-1.2521875
 30
0.0
 40
0.5
  1
1-3/16
100
AcDbAttributeDefinition
  3

  2
SS
 70
     8
280
     0
  0
ATTDEF
  5
20C
330
202
100
AcDbEntity
  8
AM_6
100
AcDbText
 10
8.221875
 20
-1.7521875
 30
0.0
 40
0.5
  1
069341
100
AcDbAttributeDefinition
  3

  2
PN
 70
     8
280
     0
  0
ATTDEF
  5
20D
330
202
100
AcDbEntity
  8
AM_6
100
AcDbText
 10
8.221875
 20
-2.2521875
 30
0.0
 40
0.5
  1
WSTU-IP-103R
100
AcDbAttributeDefinition
  3

  2
DESCRIPTION
 70
     8
280
     0
  0
ATTDEF
  5
20E
330
202
100
AcDbEntity
  8
AM_6
100
AcDbText
 10
8.221875
 20
-2.7521875
 30
0.0
 40
0.5
  1
Non-Expansion
100
AcDbAttributeDefinition
  3

  2
EF
 70
     8
280
     0
  0
ATTDEF
  5
20F
330
202
100
AcDbEntity
  8
AM_6
100
AcDbText
 10
8.221875
 20
-3.2521875
 30
0.0
 40
0.5
  1
Contact Seal
100
AcDbAttributeDefinition
  3

  2
ST
 70
     8
280
     0
  0
ATTDEF
  5
210
330
202
100
AcDbEntity
  8
AM_6
100
AcDbText
 10
8.221875
 20
-3.7521875
 30
0.0
 40
0.5
  1
2-5/8
100
AcDbAttributeDefinition
  3

  2
A
 70
     8
280
     0
  0
ATTDEF
  5
211
330
202
100
AcDbEntity
  8
AM_6
100
AcDbText
 10
8.221875
 20
-4.2521875
 30
0.0
 40
0.5
  1
5-1/16
100
AcDbAttributeDefinition
  3

  2
B
 70
     8
280
     0
  0
ATTDEF
  5
212
330
202
100
AcDbEntity
  8
AM_6
100
AcDbText
 10
8.221875
 20
-4.7521875
 30
0.0
 40
0.5
  1
17/32
100
AcDbAttributeDefinition
  3

  2
C
 70
     8
280
     0
  0
ATTDEF
  5
213
330
202
100
AcDbEntity
  8
AM_6
100
AcDbText
 10
8.221875
 20
-5.2521875
 30
0.0
 40
0.5
  1
2-3/4
100
AcDbAttributeDefinition
  3

  2
D
 70
     8
280
     0
  0
ATTDEF
  5
214
330
202
100
AcDbEntity
  8
AM_6
100
AcDbText
 10
8.221875
 20
-5.7521875
 30
0.0
 40
0.5
  1
3-3/16
100
AcDbAttributeDefinition
  3

  2
E
 70
     8
280
     0
  0
ATTDEF
  5
215
330
202
100
AcDbEntity
  8
AM_6
100
AcDbText
 10
8.221875
 20
-6.2521875
 30
0.0
 40
0.5
  1
7/8
100
AcDbAttributeDefinition
  3

  2
F
 70
     8
280
     0
  0
ATTDEF
  5
216
330
202
100
AcDbEntity
  8
AM_6
100
AcDbText
 10
8.221875
 20
-6.7521875
 30
0.0
 40
0.5
  1
11/16
100
AcDbAttributeDefinition
  3

  2
G
 70
     8
280
     0
  0
ATTDEF
  5
217
330
202
100
AcDbEntity
  8
AM_6
100
AcDbText
 10
8.221875
 20
-7.2521875
 30
0.0
 40
0.5
  1
5/8
100
AcDbAttributeDefinition
  3

  2
H
 70
     8
280
     0
  0
ATTDEF
  5
218
330
202
100
AcDbEntity
  8
AM_6
100
AcDbText
 10
8.221875
 20
-7.7521875
 30
0.0
 40
0.5
  1
2-7/16
100
AcDbAttributeDefinition
  3

  2
J
 70
     8
280
     0
  0
ATTDEF
  5
219
330
202
100
AcDbEntity
  8
AM_6
100
AcDbText
 10
8.221875
 20
-8.2521875
 30
0.0
 40
0.5
  1
1-7/16
100
AcDbAttributeDefinition
  3

  2
K
 70
     8
280
     0
  0
ATTDEF
  5
21A
330
202
100
AcDbEntity
  8
AM_6
100
AcDbText
 10
8.221875
 20
-8.7521875
 30
0.0
 40
0.5
  1
2-23/32
100
AcDbAttributeDefinition
  3

  2
L
 70
     8
280
     0
  0
ATTDEF
  5
21B
330
202
100
AcDbEntity
  8
AM_6
100
AcDbText
 10
8.221875
 20
-9.2521875
 30
0.0
 40
0.5
  1
3-1/2
100
AcDbAttributeDefinition
  3

  2
M
 70
     8
280
     0
  0
ATTDEF
  5
21C
330
202
100
AcDbEntity
  8
AM_6
100
AcDbText
 10
8.221875
 20
-9.7521875
 30
0.0
 40
0.5
  1
4-1/8
100
AcDbAttributeDefinition
  3

  2
N
 70
     8
280
     0
  0
ATTDEF
  5
21D
330
202
100
AcDbEntity
  8
AM_6
100
AcDbText
 10
8.221875
 20
-10.2521875
 30
0.0
 40
0.5
  1
2-53/64
100
AcDbAttributeDefinition
  3

  2
R
 70
     8
280
     0
  0
ATTDEF
  5
21E
330
202
100
AcDbEntity
  8
AM_6
100
AcDbText
 10
8.221875
 20
-10.7521875
 30
0.0
 40
0.5
  1
1-47/64
100
AcDbAttributeDefinition
  3

  2
S
 70
     8
280
     0
  0
ATTDEF
  5
21F
330
202
100
AcDbEntity
  8
AM_6
100
AcDbText
 10
8.221875
 20
-11.2521875
 30
0.0
 40
0.5
  1
2-1/16
100
AcDbAttributeDefinition
  3

  2
T
 70
     8
280
     0
  0
ATTDEF
  5
220
330
202
100
AcDbEntity
  8
AM_6
100
AcDbText
 10
8.221875
 20
-11.7521875
 30
0.0
 40
0.5
  1
3/16
100
AcDbAttributeDefinition
  3

  2
X
 70
     8
280
     0
  0
ATTDEF
  5
221
330
202
100
AcDbEntity
  8
AM_6
100
AcDbText
 10
8.221875
 20
-12.2521875
 30
0.0
 40
0.5
  1
0.020
100
AcDbAttributeDefinition
  3

  2
Y
 70
     8
280
     0
  0
ATTDEF
  5
222
330
202
100
AcDbEntity
  8
AM_6
100
AcDbText
 10
8.221875
 20
-12.7521875
 30
0.0
 40
0.5
  1
1-51/64
100
AcDbAttributeDefinition
  3

  2
Z
 70
     8
280
     0
  0
ATTDEF
  5
223
330
202
100
AcDbEntity
  8
AM_6
100
AcDbText
 10
8.221875
 20
-13.2521875
 30
0.0
 40
0.5
  1
baldor
100
AcDbAttributeDefinition
  3

  2
COMPANY
 70
     8
280
     0
  0
ELLIPSE
  5
224
330
202
100
AcDbEntity
  8
AM_9
100
AcDbEllipse
 10
-1.738469727312726
 20
-0.0000000000000001
 30
0.0
 11
3.061616997868382E-17
 21
0.4999999999999999
 31
0.0
210
0.0
220
0.0
230
1.0
 40
0.3746065934159125
 41
2.324840599931101
 42
7.099937360838279
  0
ELLIPSE
  5
225
330
202
100
AcDbEntity
  8
AM_9
100
AcDbEllipse
 10
-1.831188112769405
 20
0.0
 30
0.0
 11
-7.347880794884118E-17
 21
-0.4
 31
0.0
210
0.0
220
0.0
230
1.0
 40
0.3746065934159121
 41
0.0
 42
6.283185307179586
  0
LWPOLYLINE
  5
226
330
202
100
AcDbEntity
  8
AM_9
100
AcDbPolyline
 90
       11
 70
     0
 43
0.0
 10
-1.875184121715612
 20
-0.4306872898320942
 10
-1.86785217949803
 20
-0.4389498604763231
 10
-1.853649514651638
 20
-0.4529952360208103
 10
-1.839026048201211
 20
-0.4650700709284046
 10
-1.82398363456078
 20
-0.475283657678277
 10
-1.808517097387187
 20
-0.4837153716178509
 10
-1.79264053729226
 20
-0.4904018478644071
 10
-1.774693666776838
 20
-0.4957583290660901
 10
-1.756666942221221
 20
-0.4989370600459145
 10
-1.738744370625176
 20
-0.4999997584448733
 10
-1.738468662634009
 20
-0.49999999999637
  0
LWPOLYLINE
  5
227
330
202
100
AcDbEntity
  8
AM_9
100
AcDbPolyline
 90
       10
 70
     0
 43
0.0
 10
-1.738487120687394
 20
0.4999999990311742
 10
-1.751994063221722
 20
0.499413492845983
 10
-1.769381196347515
 20
0.4969191296243229
 10
-1.786275784125916
 20
0.4925601037820032
 10
-1.802614783638989
 20
0.4864243982383589
 10
-1.818372822573941
 20
0.4785730756308246
 10
-1.833560942441198
 20
0.4690251157611075
 10
-1.848219076119423
 20
0.4577441002412317
 10
-1.862400536878793
 20
0.444632863756607
 10
-1.875054456562655
 20
0.4308398855846602
  0
LINE
  5
228
330
202
100
AcDbEntity
  8
AM_9
100
AcDbLine
 10
3.1875
 20
0.4375
 30
0.0
 11
2.5
 21
0.4375
 31
0.0
  0
LINE
  5
229
330
202
100
AcDbEntity
  8
AM_9
100
AcDbLine
 10
2.5
 20
-0.4375
 30
0.0
 11
3.1875
 21
-0.4375
 31
0.0
  0
LINE
  5
22A
330
202
100
AcDbEntity
  8
AM_9
100
AcDbLine
 10
1.947916666666667
 20
-0.75796875
 30
0.0
 11
1.947916666666667
 21
0.7579687499999999
 31
0.0
  0
LINE
  5
22B
330
202
100
AcDbEntity
  8
AM_9
100
AcDbLine
 10
1.875
 20
-0.75796875
 30
0.0
 11
1.875
 21
0.7579687499999999
 31
0.0
  0
LINE
  5
22C
330
202
100
AcDbEntity
  8
AM_9
100
AcDbLine
 10
2.5
 20
-0.75796875
 30
0.0
 11
2.5
 21
0.7579687499999999
 31
0.0
  0
LINE
  5
22D
330
202
100
AcDbEntity
  8
AM_9
100
AcDbLine
 10
2.427083333333333
 20
-0.75796875
 30
0.0
 11
2.427083333333333
 21
0.7579687499999999
 31
0.0
  0
LINE
  5
22E
330
202
100
AcDbEntity
  8
AM_9
100
AcDbLine
 10
1.5748
 20
-1.03125
 30
0.0
 11
1.5748
 21
1.03125
 31
0.0
  0
LINE
  5
22F
330
202
100
AcDbEntity
  8
AM_9
100
AcDbLine
 10
-1.5748
 20
1.03125
 30
0.0
 11
-1.5748
 21
-1.03125
 31
0.0
  0
LWPOLYLINE
  5
230
330
202
100
AcDbEntity
  8
AM_9
100
AcDbPolyline
 90
       30
 70
     0
 43
0.0
 10
-1.738469727312727
 20
-0.5
 10
-1.756403187458264
 20
-0.4975447505135102
 10
-1.774469195268114
 20
-0.4892015551239016
 10
-1.790786296612904
 20
-0.4750889621064032
 10
-1.805175317964889
 20
-0.455490897710714
 10
-1.817742428430363
 20
-0.4302641479886146
 10
-1.828465931559772
 20
-0.399891148475195
 10
-1.837384113590181
 20
-0.3649130990943749
 10
-1.844836125080125
 20
-0.3242952534773701
 10
-1.850743010368569
 20
-0.279447107160225
 10
-1.855254116862324
 20
-0.231164770275038
 10
-1.858581065740141
 20
-0.1794976653115265
 10
-1.860870571986961
 20
-0.1252481984867273
 10
-1.862241787131232
 20
-0.0694772623582779
 10
-1.862801414313989
 20
-0.01443791893554
 10
-1.862626653809221
 20
0.0409699571943744
 10
-1.861706841416309
 20
0.0956650968388373
 10
-1.860034270802433
 20
0.1480881233720895
 10
-1.857484136441083
 20
0.1988508591469094
 10
-1.853943623657195
 20
0.2470673789107833
 10
-1.849130232175031
 20
0.2932684551768936
 10
-1.842926602441066
 20
0.3360219169176559
 10
-1.835196509721709
 20
0.3746023423476237
 10
-1.825428133892027
 20
0.4095487871604459
 10
-1.813675996866696
 20
0.4394156138373849
 10
-1.799918213115426
 20
0.4636216198482261
 10
-1.784154935282097
 20
0.4817063485053513
 10
-1.766329399608781
 20
0.4937558938485841
 10
-1.746686194499663
 20
0.4995042169054092
 10
-1.738469727312727
 20
0.4999999999999998
  0
LWPOLYLINE
  5
231
330
202
100
AcDbEntity
  8
AM_9
100
AcDbPolyline
 90
       30
 70
     0
 43
0.0
 10
-1.738469727312727
 20
0.4999999999999998
 10
-1.720165076844376
 20
0.4977296235914373
 10
-1.700903540770844
 20
0.4909899300378788
 10
-1.681001769472691
 20
0.4798880728475186
 10
-1.657617064063124
 20
0.4618264128733425
 10
-1.634013452227158
 20
0.4383311666512822
 10
-1.610776722814702
 20
0.4098403091980375
 10
-1.587713129386825
 20
0.3755983224412812
 10
-1.565885987524872
 20
0.3366652647176449
 10
-1.545926832581175
 20
0.2937199435373524
 10
-1.527941302172339
 20
0.2460130250591161
 10
-1.512778770432023
 20
0.1949044640770253
 10
-1.500973096193308
 20
0.1413528533449046
 10
-1.493964735901704
 20
0.0950392264080577
 10
-1.489671928796115
 20
0.0476941276765854
 10
-1.48821438978194
 20
-0.0000000000000001
 10
-1.49015621909194
 20
-0.0549219563438363
 10
-1.495842780700858
 20
-0.1093114989454778
 10
-1.505065685127071
 20
-0.1621348765607842
 10
-1.517633259873667
 20
-0.2128216425347643
 10
-1.533179738837093
 20
-0.261028859622585
 10
-1.551206816359608
 20
-0.3059278351966072
 10
-1.571830894048409
 20
-0.3479982837655604
 10
-1.594204527979976
 20
-0.3858791279223803
 10
-1.617680801287929
 20
-0.4188984628153797
 10
-1.642206674040798
 20
-0.4470878758389444
 10
-1.666968068742399
 20
-0.4696598164987159
 10
-1.691297480159066
 20
-0.4861431130326635
 10
-1.715548389381326
 20
-0.4965070134626738
 10
-1.738469727312727
 20
-0.5
  0
LINE
  5
234
330
202
100
AcDbEntity
  8
AM_7
100
AcDbLine
 10
2.465625
 20
0.0
 30
0.0
 11
3.221875
 21
0.0
 31
0.0
  0
LINE
  5
235
330
202
100
AcDbEntity
  8
AM_7
100
AcDbLine
 10
0.0
 20
1.2478125
 30
0.0
 11
0.0
 21
-1.866625
 31
0.0
  0
LWPOLYLINE
  5
236
330
202
100
AcDbEntity
  8
AM_4
100
AcDbPolyline
 90
       35
 70
     0
 43
0.0
 10
-1.875054456562655
 20
0.4308398855846602
 10
-1.876146323620261
 20
0.4295474095042363
 10
-1.889449642641254
 20
0.4123465382278188
 10
-1.902223494091074
 20
0.3929832657997969
 10
-1.914305049448643
 20
0.3715926201299899
 10
-1.925519607610882
 20
0.3484788009135256
 10
-1.935728981002646
 20
0.3240595985002749
 10
-1.944926100802926
 20
0.2985824394367792
 10
-1.953149731616058
 20
0.2721935065160749
 10
-1.960445156796655
 20
0.2449906393647432
 10
-1.966850796980112
 20
0.2170520771019979
 10
-1.972395118141235
 20
0.1884520929726509
 10
-1.977097626693834
 20
0.1592679912916652
 10
-1.980970947286091
 20
0.1295826062120629
 10
-1.984022856365936
 20
0.0994846659881574
 10
-1.986257941961658
 20
0.0690681925671227
 10
-1.98767884678753
 20
0.0384314834574074
 10
-1.98828713576223
 20
0.0076759229852403
 10
-1.988083839996994
 20
-0.0230952705603359
 10
-1.987069819845771
 20
-0.0537760894739941
 10
-1.985246221527071
 20
-0.0842568388156557
 10
-1.982613716776304
 20
-0.1144364841012366
 10
-1.97917193278904
 20
-0.1442172340589429
 10
-1.974918583043276
 20
-0.1735058773898254
 10
-1.969848169083376
 20
-0.2022151226207678
 10
-1.963950128036011
 20
-0.2302648830938094
 10
-1.957206258651576
 20
-0.2575833644862084
 10
-1.949587237359169
 20
-0.2841076236466403
 10
-1.941048109703685
 20
-0.3097828650554305
 10
-1.931523029107958
 20
-0.3345589050115297
 10
-1.920920787019373
 20
-0.3583806149108509
 10
-1.909126101271919
 20
-0.3811666100534164
 10
-1.896018781628222
 20
-0.4027691109144515
 10
-1.881581788644848
 20
-0.4228527901721696
 10
-1.875184121715612
 20
-0.4306872898320942
  0
ELLIPSE
  5
237
330
202
100
AcDbEntity
  8
AM_4
100
AcDbEllipse
 10
-1.738469727312726
 20
-0.0000000000000001
 30
0.0
 11
3.061616997868382E-17
 21
0.4999999999999999
 31
0.0
210
0.0
220
0.0
230
1.0
 40
0.3746065934159133
 41
0.8167520536586919
 42
2.324840599931101
  0
LINE
  5
238
330
202
100
AcDbEntity
  8
AM_4
100
AcDbLine
 10
2.5
 20
-0.75796875
 30
0.0
 11
2.5
 21
-1.044566028777771
 31
0.0
  0
LINE
  5
239
330
202
100
AcDbEntity
  8
AM_4
100
AcDbLine
 10
2.5
 20
-1.044566028777771
 30
0.0
 11
3.1875
 21
-1.044566028777771
 31
0.0
  0
LINE
  5
23A
330
202
100
AcDbEntity
  8
AM_4
100
AcDbLine
 10
3.1875
 20
1.044566028777771
 30
0.0
 11
2.5
 21
1.044566028777771
 31
0.0
  0
LINE
  5
23B
330
202
100
AcDbEntity
  8
AM_4
100
AcDbLine
 10
2.5
 20
1.044566028777771
 30
0.0
 11
2.5
 21
0.75796875
 31
0.0
  0
LINE
  5
23C
330
202
100
AcDbEntity
  8
AM_4
100
AcDbLine
 10
3.1875
 20
1.044566028777771
 30
0.0
 11
3.1875
 21
-1.044566028777771
 31
0.0
  0
LINE
  5
23D
330
202
100
AcDbEntity
  8
AM_4
100
AcDbLine
 10
3.1875
 20
-0.7579687499999999
 30
0.0
 11
1.495292091031047
 21
-0.7579687499999997
 31
0.0
  0
LINE
  5
23E
330
202
100
AcDbEntity
  8
AM_4
100
AcDbLine
 10
3.1875
 20
0.7579687500000002
 30
0.0
 11
1.495292091031047
 21
0.7579687500000002
 31
0.0
  0
LINE
  5
23F
330
202
100
AcDbEntity
  8
AM_4
100
AcDbLine
 10
3.1875
 20
-0.67046875
 30
0.0
 11
1.42487663939725
 21
-0.67046875
 31
0.0
  0
LINE
  5
240
330
202
100
AcDbEntity
  8
AM_4
100
AcDbLine
 10
3.1875
 20
0.6704687500000005
 30
0.0
 11
1.42487663939725
 21
0.6704687500000006
 31
0.0
  0
LINE
  5
241
330
202
100
AcDbEntity
  8
AM_4
100
AcDbLine
 10
-1.7875
 20
-1.03125
 30
0.0
 11
1.78749999999972
 21
-1.03125
 31
0.0
  0
ARC
  5
242
330
202
100
AcDbEntity
  8
AM_4
100
AcDbCircle
 10
1.787500000000001
 20
-0.943750000000001
 30
0.0
 40
0.087499999999999
100
AcDbArc
 50
270.0
 51
0.0
  0
ARC
  5
243
330
202
100
AcDbEntity
  8
AM_4
100
AcDbCircle
 10
-1.787500000000001
 20
-0.9437500000000008
 30
0.0
 40
0.0874999999999992
100
AcDbArc
 50
179.9999991462263
 51
270.0
  0
LINE
  5
244
330
202
100
AcDbEntity
  8
AM_4
100
AcDbLine
 10
-1.875
 20
-0.9437500000000001
 30
0.0
 11
1.875
 21
-0.9437500000000001
 31
0.0
  0
LWPOLYLINE
  5
245
330
202
100
AcDbEntity
  8
AM_4
100
AcDbPolyline
 90
        9
 70
     0
 43
0.0
 10
1.495292091031047
 20
-0.7579687499999999
 10
1.48181243436119
 20
-0.7561762736981724
 10
1.46848915054247
 20
-0.7508448939900898
 10
1.455221381187588
 20
-0.7414879865799038
 10
1.443209280811405
 20
-0.7282201239802856
 10
1.436736853030586
 20
-0.7179430228926458
 10
1.431367075327834
 20
-0.7062028354443204
 10
1.425724325231169
 20
-0.6836054611231949
 10
1.42487663939725
 20
-0.6704687500000001
  0
LINE
  5
246
330
202
100
AcDbEntity
  8
AM_4
100
AcDbLine
 10
1.42487663939725
 20
-0.67046875
 30
0.0
 11
1.42487663939725
 21
0.6704687500000006
 31
0.0
  0
LWPOLYLINE
  5
247
330
202
100
AcDbEntity
  8
AM_4
100
AcDbPolyline
 90
        9
 70
     0
 43
0.0
 10
1.42487663939725
 20
0.6704687500000005
 10
1.425617679651211
 20
0.6826857272487834
 10
1.427750872980572
 20
0.6945129408604546
 10
1.435539749375961
 20
0.7156678696292764
 10
1.4427888062083
 20
0.7276316071127973
 10
1.451134345450145
 20
0.7376061402249898
 10
1.462747201329053
 20
0.7473471096944901
 10
1.475062633494278
 20
0.7539372104933567
 10
1.495292091031047
 20
0.7579687500000002
  0
LINE
  5
248
330
202
100
AcDbEntity
  8
AM_4
100
AcDbLine
 10
1.875
 20
-0.9437500000000001
 30
0.0
 11
1.875
 21
-0.7579687499999999
 31
0.0
  0
LINE
  5
249
330
202
100
AcDbEntity
  8
AM_4
100
AcDbLine
 10
1.875
 20
0.75796875
 30
0.0
 11
1.875
 21
0.9437499999999998
 31
0.0
  0
LINE
  5
24A
330
202
100
AcDbEntity
  8
AM_4
100
AcDbLine
 10
-1.875
 20
0.9437499999999998
 30
0.0
 11
-1.875
 21
-0.9437500000000001
 31
0.0
  0
LINE
  5
24B
330
202
100
AcDbEntity
  8
AM_4
100
AcDbLine
 10
-1.875
 20
0.9437499999999998
 30
0.0
 11
1.875
 21
0.9437499999999998
 31
0.0
  0
LINE
  5
24C
330
202
100
AcDbEntity
  8
AM_4
100
AcDbLine
 10
-1.7875
 20
1.03125
 30
0.0
 11
1.787499999999719
 21
1.03125
 31
0.0
  0
ARC
  5
24D
330
202
100
AcDbEntity
  8
AM_4
100
AcDbCircle
 10
1.7875
 20
0.9437499999999999
 30
0.0
 40
0.0875000000000001
100
AcDbArc
 50
0.0
 51
90.0
  0
ARC
  5
24E
330
202
100
AcDbEntity
  8
AM_4
100
AcDbCircle
 10
-1.7875
 20
0.9437499999999999
 30
0.0
 40
0.0875000000000001
100
AcDbArc
 50
90.0
 51
180.0
  0
LINE
  5
24F
330
202
100
AcDbEntity
  8
AM_4
100
AcDbLine
 10
1.375
 20
-0.9281249999999999
 30
0.0
 11
1.375
 21
0.9281250000000001
 31
0.0
  0
LINE
  5
250
330
202
100
AcDbEntity
  8
AM_4
100
AcDbLine
 10
1.375
 20
0.2656250000000001
 30
0.0
 11
-1.375
 21
0.2656250000000001
 31
0.0
  0
LINE
  5
251
330
202
100
AcDbEntity
  8
AM_4
100
AcDbLine
 10
1.375
 20
0.9281250000000001
 30
0.0
 11
-1.375
 21
0.9281250000000001
 31
0.0
  0
LINE
  5
252
330
202
100
AcDbEntity
  8
AM_4
100
AcDbLine
 10
-1.375
 20
-0.9281249999999999
 30
0.0
 11
-1.375
 21
0.9281250000000001
 31
0.0
  0
LINE
  5
253
330
202
100
AcDbEntity
  8
AM_4
100
AcDbLine
 10
1.287500000000001
 20
0.2656250000000001
 30
0.0
 11
1.287500000000001
 21
0.9281250000000001
 31
0.0
  0
LINE
  5
254
330
202
100
AcDbEntity
  8
AM_4
100
AcDbLine
 10
-1.2875
 20
0.2656250000000001
 30
0.0
 11
-1.2875
 21
0.9281250000000001
 31
0.0
  0
LINE
  5
255
330
202
100
AcDbEntity
  8
AM_4
100
AcDbLine
 10
1.287500000000001
 20
-0.9281249999999999
 30
0.0
 11
1.287500000000001
 21
-0.2656249999999998
 31
0.0
  0
LINE
  5
256
330
202
100
AcDbEntity
  8
AM_4
100
AcDbLine
 10
-1.375
 20
-0.2656249999999998
 30
0.0
 11
1.375
 21
-0.2656249999999998
 31
0.0
  0
LINE
  5
257
330
202
100
AcDbEntity
  8
AM_4
100
AcDbLine
 10
1.375
 20
-0.9281249999999999
 30
0.0
 11
-1.375
 21
-0.9281249999999999
 31
0.0
  0
LINE
  5
258
330
202
100
AcDbEntity
  8
AM_4
100
AcDbLine
 10
-1.2875
 20
-0.9281249999999999
 30
0.0
 11
-1.2875
 21
-0.2656249999999998
 31
0.0
  0
ENDBLK
  5
205
330
202
100
AcDbEntity
  8
0
100
AcDbBlockEnd
  0
ENDSEC
  0
SECTION
  2
ENTITIES
  0
INSERT
  5
6F
330
1F
100
AcDbEntity
  8
0
100
AcDbBlockReference
  2
1_069341_4
 10
0.0
 20
0.0
 30
0.0
  0
POINT
  5
25A
330
1F
100
AcDbEntity
  8
ConnectionPoints
100
AcDbPoint
 10
0.0
 20
-1.572708333333333
 30
-1.009548611111111
  0
POINT
  5
25B
330
1F
100
AcDbEntity
  8
ConnectionPoints
100
AcDbPoint
 10
0.0
 20
-1.572708333333333
 30
1.009548611111111
  0
POINT
  5
25C
330
1F
100
AcDbEntity
  8
ConnectionPoints
100
AcDbPoint
 10
0.0
 20
-1.502708333333333
 30
0.0000000000000001
  0
POINT
  5
25D
330
1F
100
AcDbEntity
  8
ConnectionPoints
100
AcDbPoint
 10
0.0
 20
-1.734375
 30
0.0000000000000001
  0
POINT
  5
25E
330
1F
100
AcDbEntity
  8
ConnectionPoints
100
AcDbPoint
 10
0.0
 20
-1.701708333333333
 30
0.0000000000000001
  0
POINT
  5
25F
330
1F
100
AcDbEntity
  8
ConnectionPoints
100
AcDbPoint
 10
0.0
 20
-1.502708333333333
 30
1.009548611111111
  0
POINT
  5
260
330
1F
100
AcDbEntity
  8
ConnectionPoints
100
AcDbPoint
 10
0.0
 20
-1.633375
 30
1.009548611111111
  0
POINT
  5
261
330
1F
100
AcDbEntity
  8
ConnectionPoints
100
AcDbPoint
 10
0.0
 20
-1.502708333333333
 30
-1.009548611111111
  0
POINT
  5
262
330
1F
100
AcDbEntity
  8
ConnectionPoints
100
AcDbPoint
 10
0.0
 20
-1.633375
 30
-1.009548611111111
  0
POINT
  5
263
330
1F
100
AcDbEntity
  8
ConnectionPoints
100
AcDbPoint
 10
0.0
 20
-1.502708333333333
 30
0.0000000000000001
  0
POINT
  5
264
330
1F
100
AcDbEntity
  8
ConnectionPoints
100
AcDbPoint
 10
-1.831188112769405
 20
0.0
 30
-0.7398480219964264
  0
POINT
  5
265
330
1F
100
AcDbEntity
  8
ConnectionPoints
100
AcDbPoint
 10
0.0
 20
-1.546875
 30
0.0000000000000001
  0
POINT
  5
266
330
1F
100
AcDbEntity
  8
ConnectionPoints
100
AcDbPoint
 10
0.0
 20
-1.734375
 30
0.0000000000000001
  0
ENDSEC
  0
SECTION
  2
OBJECTS
  0
DICTIONARY
  5
C
330
0
100
AcDbDictionary
281
     1
  3
ACAD_DETAILVIEWSTYLE
350
26E
  3
ACAD_GROUP
350
D
  3
ACAD_LAYOUT
350
1A
  3
ACAD_MATERIAL
350
43
  3
ACAD_MLEADERSTYLE
350
6B
  3
ACAD_MLINESTYLE
350
17
  3
ACAD_PLOTSETTINGS
350
19
  3
ACAD_PLOTSTYLENAME
350
E
  3
ACAD_SCALELIST
350
47
  3
ACAD_SECTIONVIEWSTYLE
350
26F
  3
ACAD_TABLESTYLE
350
69
  3
ACAD_VISUALSTYLE
350
2A
  3
ACDB_RECOMPOSE_DATA
350
26B
  3
AcDbVariableDictionary
350
267
  0
SUN
  5
6D
330
29
100
AcDbSun
 90
        1
290
     0
 63
     7
421
 16777215
 40
1.0
291
     1
 91
  2455826
 92
 54000000
292
     0
 70
     2
 71
   256
280
     1
  0
DICTIONARY
  5
26E
102
{ACAD_REACTORS
330
C
102
}
330
C
100
AcDbDictionary
281
     1
  0
DICTIONARY
  5
D
102
{ACAD_REACTORS
330
C
102
}
330
C
100
AcDbDictionary
281
     1
  0
DICTIONARY
  5
1A
102
{ACAD_REACTORS
330
C
102
}
330
C
100
AcDbDictionary
281
     1
  3
Layout1
350
1E
  3
Layout2
350
26
  3
Model
350
22
  0
DICTIONARY
  5
43
102
{ACAD_REACTORS
330
C
102
}
330
C
100
AcDbDictionary
281
     1
  3
ByBlock
350
45
  3
ByLayer
350
44
  3
Global
350
46
  0
DICTIONARY
  5
6B
102
{ACAD_REACTORS
330
C
102
}
330
C
100
AcDbDictionary
281
     1
  3
Standard
350
6C
  0
DICTIONARY
  5
17
102
{ACAD_REACTORS
330
C
102
}
330
C
100
AcDbDictionary
281
     1
  3
Standard
350
18
  0
DICTIONARY
  5
19
102
{ACAD_REACTORS
330
C
102
}
330
C
100
AcDbDictionary
281
     1
  0
ACDBDICTIONARYWDFLT
  5
E
102
{ACAD_REACTORS
330
C
102
}
330
C
100
AcDbDictionary
281
     1
  3
Normal
350
F
100
AcDbDictionaryWithDefault
340
F
  0
DICTIONARY
  5
47
102
{ACAD_REACTORS
330
C
102
}
330
C
100
AcDbDictionary
281
     1
  3
A0
350
48
  3
A1
350
49
  3
A2
350
4A
  3
A3
350
4B
  3
A4
350
4C
  3
A5
350
4D
  3
A6
350
4E
  3
A7
350
4F
  3
A8
350
50
  3
A9
350
51
  3
B0
350
52
  3
B1
350
53
  3
B2
350
54
  3
B3
350
55
  3
B4
350
56
  3
B5
350
57
  3
B6
350
58
  3
B7
350
59
  3
B8
350
5A
  3
B9
350
5B
  3
C0
350
5C
  3
C1
350
5D
  3
C2
350
5E
  3
C3
350
5F
  3
C4
350
60
  3
C5
350
61
  3
C6
350
62
  3
C7
350
63
  3
C8
350
64
  3
C9
350
65
  3
D0
350
66
  3
D1
350
67
  3
D2
350
68
  0
DICTIONARY
  5
26F
102
{ACAD_REACTORS
330
C
102
}
330
C
100
AcDbDictionary
281
     1
  0
DICTIONARY
  5
69
102
{ACAD_REACTORS
330
C
102
}
330
C
100
AcDbDictionary
281
     1
  3
Standard
350
6A
  0
DICTIONARY
  5
2A
102
{ACAD_REACTORS
330
C
102
}
330
C
100
AcDbDictionary
281
     1
  3
2dWireframe
350
2F
  3
Basic
350
32
  3
Brighten
350
36
  3
ColorChange
350
3A
  3
Conceptual
350
34
  3
Dim
350
35
  3
EdgeColorOff
350
3D
  3
Facepattern
350
39
  3
Flat
350
2B
  3
FlatWithEdges
350
2C
  3
Gouraud
350
2D
  3
GouraudWithEdges
350
2E
  3
Hidden
350
31
  3
JitterOff
350
3B
  3
Linepattern
350
38
  3
OverhangOff
350
3C
  3
Realistic
350
33
  3
Shaded
350
42
  3
Shaded with edges
350
41
  3
Shades of Gray
350
3E
  3
Sketchy
350
3F
  3
Thicken
350
37
  3
Wireframe
350
30
  3
X-Ray
350
40
  0
XRECORD
  5
26B
102
{ACAD_REACTORS
330
C
102
}
330
C
100
AcDbXrecord
280
     1
 90
        1
330
6A
  0
DICTIONARY
  5
267
102
{ACAD_REACTORS
330
C
102
}
330
C
100
AcDbDictionary
281
     1
  3
CANNOSCALE
350
268
  3
CMLEADERSTYLE
350
26D
  3
CTABLESTYLE
350
26C
  0
LAYOUT
  5
1E
102
{ACAD_REACTORS
330
1A
102
}
330
1A
100
AcDbPlotSettings
  1

  2
none_device
  4

  6

 40
0.0
 41
0.0
 42
0.0
 43
0.0
 44
0.0
 45
0.0
 46
0.0
 47
0.0
 48
0.0
 49
0.0
140
0.0
141
0.0
142
1.0
143
1.0
 70
   688
 72
     0
 73
     0
 74
     5
  7

 75
    16
 76
     0
 77
     2
 78
   300
147
1.0
148
0.0
149
0.0
100
AcDbLayout
  1
Layout1
 70
     1
 71
     1
 10
0.0
 20
0.0
 11
12.0
 21
9.0
 12
0.0
 22
0.0
 32
0.0
 14
1.000000000000000E+20
 24
1.000000000000000E+20
 34
1.000000000000000E+20
 15
-1.000000000000000E+20
 25
-1.000000000000000E+20
 35
-1.000000000000000E+20
146
0.0
 13
0.0
 23
0.0
 33
0.0
 16
1.0
 26
0.0
 36
0.0
 17
0.0
 27
1.0
 37
0.0
 76
     0
330
1B
  0
LAYOUT
  5
26
102
{ACAD_REACTORS
330
1A
102
}
330
1A
100
AcDbPlotSettings
  1

  2
none_device
  4

  6

 40
0.0
 41
0.0
 42
0.0
 43
0.0
 44
0.0
 45
0.0
 46
0.0
 47
0.0
 48
0.0
 49
0.0
140
0.0
141
0.0
142
1.0
143
1.0
 70
   688
 72
     0
 73
     0
 74
     5
  7

 75
    16
 76
     0
 77
     2
 78
   300
147
1.0
148
0.0
149
0.0
100
AcDbLayout
  1
Layout2
 70
     1
 71
     2
 10
0.0
 20
0.0
 11
0.0
 21
0.0
 12
0.0
 22
0.0
 32
0.0
 14
0.0
 24
0.0
 34
0.0
 15
0.0
 25
0.0
 35
0.0
146
0.0
 13
0.0
 23
0.0
 33
0.0
 16
1.0
 26
0.0
 36
0.0
 17
0.0
 27
1.0
 37
0.0
 76
     0
330
23
  0
LAYOUT
  5
22
102
{ACAD_REACTORS
330
1A
102
}
330
1A
100
AcDbPlotSettings
  1

  2
none_device
  4
Letter_(8.50_x_11.00_Inches)
  6

 40
6.35
 41
6.35
 42
6.35000508
 43
6.35000508
 44
215.9
 45
279.4
 46
0.0
 47
0.0
 48
0.0
 49
0.0
140
0.0
141
0.0
142
1.0
143
1.0
 70
  1712
 72
     0
 73
     0
 74
     0
  7

 75
     0
 76
     0
 77
     2
 78
   300
147
1.0
148
0.0
149
0.0
100
AcDbLayout
  1
Model
 70
     1
 71
     0
 10
0.0
 20
0.0
 11
12.0
 21
9.0
 12
0.0
 22
0.0
 32
0.0
 14
1.000000000000000E+20
 24
1.000000000000000E+20
 34
1.000000000000000E+20
 15
-1.000000000000000E+20
 25
-1.000000000000000E+20
 35
-1.000000000000000E+20
146
0.0
 13
0.0
 23
0.0
 33
0.0
 16
1.0
 26
0.0
 36
0.0
 17
0.0
 27
1.0
 37
0.0
 76
     0
330
1F
331
29
  0
MATERIAL
  5
45
102
{ACAD_REACTORS
330
43
102
}
330
43
100
AcDbMaterial
  1
ByBlock
 72
     1
 94
      127
  0
MATERIAL
  5
44
102
{ACAD_REACTORS
330
43
102
}
330
43
100
AcDbMaterial
  1
ByLayer
 72
     1
 94
      127
  0
MATERIAL
  5
46
102
{ACAD_REACTORS
330
43
102
}
330
43
100
AcDbMaterial
  1
Global
 72
     1
 94
      127
  0
MLEADERSTYLE
  5
6C
102
{ACAD_REACTORS
330
6B
102
}
330
6B
100
AcDbMLeaderStyle
179
     2
170
     2
171
     1
172
     0
 90
        2
 40
0.0
 41
0.0
173
     1
 91
-1056964608
340
14
 92
       -2
290
     1
 42
0.09
291
     1
 43
0.36
  3
Standard
341
0
 44
0.18
300

342
11
174
     1
178
     6
175
     1
176
     0
 93
-1056964608
 45
0.18
292
     0
297
     0
 46
0.18
343
0
 94
-1056964608
 47
1.0
 49
1.0
140
1.0
293
     1
141
0.0
294
     1
177
     0
142
1.0
295
     0
296
     0
143
0.125
271
     0
272
     9
273
     9
298
     0
  0
MLINESTYLE
  5
18
102
{ACAD_REACTORS
330
17
102
}
330
17
100
AcDbMlineStyle
  2
Standard
 70
     0
  3

 62
   256
 51
90.0
 52
90.0
 71
     2
 49
0.5
 62
   256
  6
BYLAYER
 49
-0.5
 62
   256
  6
BYLAYER
  0
ACDBPLACEHOLDER
  5
F
102
{ACAD_REACTORS
330
E
102
}
330
E
  0
SCALE
  5
48
102
{ACAD_REACTORS
330
47
102
}
330
47
100
AcDbScale
 70
     0
300
1:1
140
1.0
141
1.0
290
     1
  0
SCALE
  5
49
102
{ACAD_REACTORS
330
47
102
}
330
47
100
AcDbScale
 70
     0
300
1:2
140
1.0
141
2.0
290
     0
  0
SCALE
  5
4A
102
{ACAD_REACTORS
330
47
102
}
330
47
100
AcDbScale
 70
     0
300
1:4
140
1.0
141
4.0
290
     0
  0
SCALE
  5
4B
102
{ACAD_REACTORS
330
47
102
}
330
47
100
AcDbScale
 70
     0
300
1:5
140
1.0
141
5.0
290
     0
  0
SCALE
  5
4C
102
{ACAD_REACTORS
330
47
102
}
330
47
100
AcDbScale
 70
     0
300
1:8
140
1.0
141
8.0
290
     0
  0
SCALE
  5
4D
102
{ACAD_REACTORS
330
47
102
}
330
47
100
AcDbScale
 70
     0
300
1:10
140
1.0
141
10.0
290
     0
  0
SCALE
  5
4E
102
{ACAD_REACTORS
330
47
102
}
330
47
100
AcDbScale
 70
     0
300
1:16
140
1.0
141
16.0
290
     0
  0
SCALE
  5
4F
102
{ACAD_REACTORS
330
47
102
}
330
47
100
AcDbScale
 70
     0
300
1:20
140
1.0
141
20.0
290
     0
  0
SCALE
  5
50
102
{ACAD_REACTORS
330
47
102
}
330
47
100
AcDbScale
 70
     0
300
1:30
140
1.0
141
30.0
290
     0
  0
SCALE
  5
51
102
{ACAD_REACTORS
330
47
102
}
330
47
100
AcDbScale
 70
     0
300
1:40
140
1.0
141
40.0
290
     0
  0
SCALE
  5
52
102
{ACAD_REACTORS
330
47
102
}
330
47
100
AcDbScale
 70
     0
300
1:50
140
1.0
141
50.0
290
     0
  0
SCALE
  5
53
102
{ACAD_REACTORS
330
47
102
}
330
47
100
AcDbScale
 70
     0
300
1:100
140
1.0
141
100.0
290
     0
  0
SCALE
  5
54
102
{ACAD_REACTORS
330
47
102
}
330
47
100
AcDbScale
 70
     0
300
2:1
140
2.0
141
1.0
290
     0
  0
SCALE
  5
55
102
{ACAD_REACTORS
330
47
102
}
330
47
100
AcDbScale
 70
     0
300
4:1
140
4.0
141
1.0
290
     0
  0
SCALE
  5
56
102
{ACAD_REACTORS
330
47
102
}
330
47
100
AcDbScale
 70
     0
300
8:1
140
8.0
141
1.0
290
     0
  0
SCALE
  5
57
102
{ACAD_REACTORS
330
47
102
}
330
47
100
AcDbScale
 70
     0
300
10:1
140
10.0
141
1.0
290
     0
  0
SCALE
  5
58
102
{ACAD_REACTORS
330
47
102
}
330
47
100
AcDbScale
 70
     0
300
100:1
140
100.0
141
1.0
290
     0
  0
SCALE
  5
59
102
{ACAD_REACTORS
330
47
102
}
330
47
100
AcDbScale
 70
     0
300
1/128" = 1'-0"
140
0.0078125
141
12.0
290
     0
  0
SCALE
  5
5A
102
{ACAD_REACTORS
330
47
102
}
330
47
100
AcDbScale
 70
     0
300
1/64" = 1'-0"
140
0.015625
141
12.0
290
     0
  0
SCALE
  5
5B
102
{ACAD_REACTORS
330
47
102
}
330
47
100
AcDbScale
 70
     0
300
1/32" = 1'-0"
140
0.03125
141
12.0
290
     0
  0
SCALE
  5
5C
102
{ACAD_REACTORS
330
47
102
}
330
47
100
AcDbScale
 70
     0
300
1/16" = 1'-0"
140
0.0625
141
12.0
290
     0
  0
SCALE
  5
5D
102
{ACAD_REACTORS
330
47
102
}
330
47
100
AcDbScale
 70
     0
300
3/32" = 1'-0"
140
0.09375
141
12.0
290
     0
  0
SCALE
  5
5E
102
{ACAD_REACTORS
330
47
102
}
330
47
100
AcDbScale
 70
     0
300
1/8" = 1'-0"
140
0.125
141
12.0
290
     0
  0
SCALE
  5
5F
102
{ACAD_REACTORS
330
47
102
}
330
47
100
AcDbScale
 70
     0
300
3/16" = 1'-0"
140
0.1875
141
12.0
290
     0
  0
SCALE
  5
60
102
{ACAD_REACTORS
330
47
102
}
330
47
100
AcDbScale
 70
     0
300
1/4" = 1'-0"
140
0.25
141
12.0
290
     0
  0
SCALE
  5
61
102
{ACAD_REACTORS
330
47
102
}
330
47
100
AcDbScale
 70
     0
300
3/8" = 1'-0"
140
0.375
141
12.0
290
     0
  0
SCALE
  5
62
102
{ACAD_REACTORS
330
47
102
}
330
47
100
AcDbScale
 70
     0
300
1/2" = 1'-0"
140
0.5
141
12.0
290
     0
  0
SCALE
  5
63
102
{ACAD_REACTORS
330
47
102
}
330
47
100
AcDbScale
 70
     0
300
3/4" = 1'-0"
140
0.75
141
12.0
290
     0
  0
SCALE
  5
64
102
{ACAD_REACTORS
330
47
102
}
330
47
100
AcDbScale
 70
     0
300
1" = 1'-0"
140
1.0
141
12.0
290
     0
  0
SCALE
  5
65
102
{ACAD_REACTORS
330
47
102
}
330
47
100
AcDbScale
 70
     0
300
1-1/2" = 1'-0"
140
1.5
141
12.0
290
     0
  0
SCALE
  5
66
102
{ACAD_REACTORS
330
47
102
}
330
47
100
AcDbScale
 70
     0
300
3" = 1'-0"
140
3.0
141
12.0
290
     0
  0
SCALE
  5
67
102
{ACAD_REACTORS
330
47
102
}
330
47
100
AcDbScale
 70
     0
300
6" = 1'-0"
140
6.0
141
12.0
290
     0
  0
SCALE
  5
68
102
{ACAD_REACTORS
330
47
102
}
330
47
100
AcDbScale
 70
     0
300
1'-0" = 1'-0"
140
12.0
141
12.0
290
     0
  0
TABLESTYLE
  5
6A
102
{ACAD_REACTORS
330
69
102
}
102
{ACAD_XDICTIONARY
360
269
102
}
330
69
100
AcDbTableStyle
  3
Standard
 70
     0
 71
     0
 40
0.06
 41
0.06
280
     0
281
     0
  7
Standard
140
0.18
170
     2
 62
     0
 63
   257
283
     0
 90
        4
 91
        0
  1

274
    -2
284
     1
 64
     0
275
    -2
285
     1
 65
     0
276
    -2
286
     1
 66
     0
277
    -2
287
     1
 67
     0
278
    -2
288
     1
 68
     0
279
    -2
289
     1
 69
     0
  7
Standard
140
0.25
170
     5
 62
     0
 63
   257
283
     0
 90
        4
 91
        0
  1

274
    -2
284
     1
 64
     0
275
    -2
285
     1
 65
     0
276
    -2
286
     1
 66
     0
277
    -2
287
     1
 67
     0
278
    -2
288
     1
 68
     0
279
    -2
289
     1
 69
     0
  7
Standard
140
0.18
170
     5
 62
     0
 63
   257
283
     0
 90
        4
 91
        0
  1

274
    -2
284
     1
 64
     0
275
    -2
285
     1
 65
     0
276
    -2
286
     1
 66
     0
277
    -2
287
     1
 67
     0
278
    -2
288
     1
 68
     0
279
    -2
289
     1
 69
     0
  0
VISUALSTYLE
  5
2F
102
{ACAD_REACTORS
330
2A
102
}
330
2A
100
AcDbVisualStyle
  2
2dWireframe
 70
     4
177
     3
291
     0
 70
    58
 90
        0
176
     1
 90
        2
176
     1
 90
        0
176
     1
 90
        0
176
     1
 40
0.6
176
     1
 40
30.0
176
     1
 62
     7
420
 16777215
176
     1
 90
        1
176
     1
 90
        4
176
     1
 62
     7
176
     1
 62
   257
176
     1
 90
        1
176
     1
 90
        1
176
     1
 40
1.0
176
     1
 90
        0
176
     1
 62
   257
176
     1
 40
1.0
176
     1
 90
        1
176
     1
 90
        6
176
     1
 90
        2
176
     1
 62
     7
176
     1
 90
        5
176
     1
 90
        0
176
     1
 90
        0
176
     1
290
     0
176
     1
 90
        1
176
     1
 40
0.0
176
     1
 90
        0
176
     1
290
     1
176
     1
290
     1
176
     1
290
     0
176
     1
290
     0
176
     1
290
     0
176
     1
290
     0
176
     1
290
     0
176
     1
290
     0
176
     1
290
     0
176
     1
 90
       50
176
     1
 40
0.0
176
     1
 40
1.0
176
     1
 90
        0
176
     1
 62
    18
420
        0
176
     1
 90
       50
176
     1
 90
        3
176
     1
 62
     5
420
      255
176
     1
290
     0
176
     1
 90
       50
176
     1
 90
       50
176
     1
 90
       50
176
     1
290
     0
176
     1
 90
       50
176
     1
 62
   256
176
     0
 40
1.0
176
     0
 90
        2
176
     1
  1
strokes_ogs.tif
176
     1
290
     0
176
     1
 40
1.0
176
     1
 40
1.0
176
     1
  0
VISUALSTYLE
  5
32
102
{ACAD_REACTORS
330
2A
102
}
330
2A
100
AcDbVisualStyle
  2
Basic
 70
     7
177
     3
291
     1
 70
    58
 90
        1
176
     1
 90
        0
176
     1
 90
        1
176
     1
 90
        0
176
     1
 40
0.6
176
     1
 40
30.0
176
     1
 62
     7
420
 16777215
176
     1
 90
        0
176
     1
 90
        4
176
     1
 62
     7
176
     1
 62
   257
176
     1
 90
        1
176
     1
 90
        1
176
     1
 40
1.0
176
     1
 90
        8
176
     1
 62
     7
176
     1
 40
1.0
176
     1
 90
        1
176
     1
 90
        6
176
     1
 90
        2
176
     1
 62
     7
176
     1
 90
        5
176
     1
 90
        0
176
     1
 90
        0
176
     1
290
     0
176
     1
 90
        1
176
     1
 40
0.0
176
     1
 90
        0
176
     1
290
     0
176
     1
290
     1
176
     1
290
     1
176
     1
290
     0
176
     1
290
     0
176
     1
290
     0
176
     1
290
     0
176
     1
290
     0
176
     1
290
     0
176
     1
 90
       50
176
     1
 40
0.0
176
     1
 40
1.0
176
     1
 90
        0
176
     1
 62
    18
420
        0
176
     1
 90
       50
176
     1
 90
        3
176
     1
 62
     5
420
      255
176
     1
290
     0
176
     1
 90
       50
176
     1
 90
       50
176
     1
 90
       50
176
     1
290
     0
176
     1
 90
       50
176
     1
 62
   256
176
     0
 40
1.0
176
     0
 90
        2
176
     1
  1
strokes_ogs.tif
176
     1
290
     0
176
     1
 40
1.0
176
     1
 40
1.0
176
     1
  0
VISUALSTYLE
  5
36
102
{ACAD_REACTORS
330
2A
102
}
330
2A
100
AcDbVisualStyle
  2
Brighten
 70
    12
177
     3
291
     1
 70
    58
 90
        2
176
     1
 90
        2
176
     1
 90
        0
176
     1
 90
        0
176
     1
 40
0.6
176
     1
 40
30.0
176
     1
 62
     7
420
 16777215
176
     1
 90
        1
176
     1
 90
        4
176
     1
 62
     7
176
     1
 62
   257
176
     1
 90
        1
176
     1
 90
        1
176
     1
 40
1.0
176
     1
 90
        8
176
     1
 62
     7
176
     1
 40
1.0
176
     1
 90
        1
176
     1
 90
        6
176
     1
 90
        2
176
     1
 62
     7
176
     1
 90
        5
176
     1
 90
        0
176
     1
 90
        0
176
     1
290
     0
176
     1
 90
        1
176
     1
 40
50.0
176
     1
 90
        0
176
     1
290
     0
176
     1
290
     1
176
     1
290
     1
176
     1
290
     0
176
     1
290
     0
176
     1
290
     0
176
     1
290
     0
176
     1
290
     0
176
     1
290
     0
176
     1
 90
       50
176
     1
 40
0.0
176
     1
 40
1.0
176
     1
 90
        0
176
     1
 62
    18
420
        0
176
     1
 90
       50
176
     1
 90
        3
176
     1
 62
     5
420
      255
176
     1
290
     0
176
     1
 90
       50
176
     1
 90
       50
176
     1
 90
       50
176
     1
290
     0
176
     1
 90
       50
176
     1
 62
   256
176
     0
 40
1.0
176
     0
 90
        2
176
     1
  1
strokes_ogs.tif
176
     1
290
     0
176
     1
 40
1.0
176
     1
 40
1.0
176
     1
  0
VISUALSTYLE
  5
3A
102
{ACAD_REACTORS
330
2A
102
}
330
2A
100
AcDbVisualStyle
  2
ColorChange
 70
    16
177
     3
291
     1
 70
    58
 90
        2
176
     1
 90
        2
176
     1
 90
        3
176
     1
 90
        0
176
     1
 40
0.6
176
     1
 40
30.0
176
     1
 62
     8
420
  8421504
176
     1
 90
        1
176
     1
 90
        4
176
     1
 62
     7
176
     1
 62
   257
176
     1
 90
        1
176
     1
 90
        1
176
     1
 40
1.0
176
     1
 90
        8
176
     1
 62
     8
420
  8421504
176
     1
 40
1.0
176
     1
 90
        1
176
     1
 90
        6
176
     1
 90
        2
176
     1
 62
     7
176
     1
 90
        5
176
     1
 90
        0
176
     1
 90
        0
176
     1
290
     0
176
     1
 90
        1
176
     1
 40
0.0
176
     1
 90
        0
176
     1
290
     0
176
     1
290
     1
176
     1
290
     1
176
     1
290
     0
176
     1
290
     0
176
     1
290
     0
176
     1
290
     0
176
     1
290
     0
176
     1
290
     0
176
     1
 90
       50
176
     1
 40
0.0
176
     1
 40
1.0
176
     1
 90
        0
176
     1
 62
    18
420
        0
176
     1
 90
       50
176
     1
 90
        3
176
     1
 62
     5
420
      255
176
     1
290
     0
176
     1
 90
       50
176
     1
 90
       50
176
     1
 90
       50
176
     1
290
     0
176
     1
 90
       50
176
     1
 62
   256
176
     0
 40
1.0
176
     0
 90
        2
176
     1
  1
strokes_ogs.tif
176
     1
290
     0
176
     1
 40
1.0
176
     1
 40
1.0
176
     1
  0
VISUALSTYLE
  5
34
102
{ACAD_REACTORS
330
2A
102
}
330
2A
100
AcDbVisualStyle
  2
Conceptual
 70
     9
177
     3
291
     0
 70
    58
 90
        3
176
     1
 90
        2
176
     1
 90
        0
176
     1
 90
        0
176
     1
 40
0.6
176
     1
 40
30.0
176
     1
 62
     7
420
 16777215
176
     1
 90
        2
176
     1
 90
        2
176
     1
 62
     7
176
     1
 62
   257
176
     1
 90
        1
176
     1
 90
        1
176
     1
 40
179.0
176
     1
 90
        8
176
     1
 62
     7
176
     1
 40
1.0
176
     1
 90
        1
176
     1
 90
        6
176
     1
 90
        2
176
     1
 62
     7
176
     1
 90
        3
176
     1
 90
        0
176
     1
 90
        0
176
     1
290
     0
176
     1
 90
        1
176
     1
 40
0.0
176
     1
 90
        0
176
     1
290
     0
176
     1
290
     1
176
     1
290
     1
176
     1
290
     0
176
     1
290
     0
176
     1
290
     0
176
     1
290
     0
176
     1
290
     0
176
     1
290
     0
176
     1
 90
       50
176
     1
 40
0.0
176
     1
 40
1.0
176
     1
 90
        0
176
     1
 62
    18
420
        0
176
     1
 90
       50
176
     1
 90
        3
176
     1
 62
     5
420
      255
176
     1
290
     0
176
     1
 90
       50
176
     1
 90
       50
176
     1
 90
       50
176
     1
290
     0
176
     1
 90
       50
176
     1
 62
   256
176
     0
 40
1.0
176
     0
 90
        2
176
     1
  1
strokes_ogs.tif
176
     1
290
     0
176
     1
 40
1.0
176
     1
 40
1.0
176
     1
  0
VISUALSTYLE
  5
35
102
{ACAD_REACTORS
330
2A
102
}
330
2A
100
AcDbVisualStyle
  2
Dim
 70
    11
177
     3
291
     1
 70
    58
 90
        2
176
     1
 90
        2
176
     1
 90
        0
176
     1
 90
        0
176
     1
 40
0.6
176
     1
 40
30.0
176
     1
 62
     7
420
 16777215
176
     1
 90
        1
176
     1
 90
        4
176
     1
 62
     7
176
     1
 62
   257
176
     1
 90
        1
176
     1
 90
        1
176
     1
 40
1.0
176
     1
 90
        8
176
     1
 62
     7
176
     1
 40
1.0
176
     1
 90
        1
176
     1
 90
        6
176
     1
 90
        2
176
     1
 62
     7
176
     1
 90
        5
176
     1
 90
        0
176
     1
 90
        0
176
     1
290
     0
176
     1
 90
        1
176
     1
 40
-50.0
176
     1
 90
        0
176
     1
290
     0
176
     1
290
     1
176
     1
290
     1
176
     1
290
     0
176
     1
290
     0
176
     1
290
     0
176
     1
290
     0
176
     1
290
     0
176
     1
290
     0
176
     1
 90
       50
176
     1
 40
0.0
176
     1
 40
1.0
176
     1
 90
        0
176
     1
 62
    18
420
        0
176
     1
 90
       50
176
     1
 90
        3
176
     1
 62
     5
420
      255
176
     1
290
     0
176
     1
 90
       50
176
     1
 90
       50
176
     1
 90
       50
176
     1
290
     0
176
     1
 90
       50
176
     1
 62
   256
176
     0
 40
1.0
176
     0
 90
        2
176
     1
  1
strokes_ogs.tif
176
     1
290
     0
176
     1
 40
1.0
176
     1
 40
1.0
176
     1
  0
VISUALSTYLE
  5
3D
102
{ACAD_REACTORS
330
2A
102
}
330
2A
100
AcDbVisualStyle
  2
EdgeColorOff
 70
    22
177
     3
291
     1
 70
    58
 90
        2
176
     0
 90
        2
176
     0
 90
        0
176
     0
 90
        0
176
     0
 40
0.6
176
     0
 40
30.0
176
     0
 62
     7
420
 16777215
176
     0
 90
        1
176
     0
 90
        4
176
     0
 62
     7
176
     0
 62
   257
176
     0
 90
        1
176
     0
 90
        1
176
     0
 40
1.0
176
     0
 90
        8
176
     2
 62
     7
176
     0
 40
1.0
176
     0
 90
        1
176
     0
 90
        6
176
     0
 90
        2
176
     0
 62
     7
176
     0
 90
        5
176
     0
 90
        0
176
     0
 90
        0
176
     0
290
     0
176
     0
 90
        1
176
     0
 40
0.0
176
     0
 90
        0
176
     0
290
     0
176
     0
290
     1
176
     0
290
     1
176
     0
290
     0
176
     0
290
     0
176
     0
290
     0
176
     0
290
     0
176
     0
290
     0
176
     0
290
     0
176
     0
 90
       50
176
     0
 40
0.0
176
     0
 40
1.0
176
     0
 90
        0
176
     0
 62
    18
420
        0
176
     0
 90
       50
176
     0
 90
        3
176
     0
 62
     5
420
      255
176
     0
290
     0
176
     0
 90
       50
176
     0
 90
       50
176
     0
 90
       50
176
     0
290
     0
176
     0
 90
       50
176
     0
 62
   256
176
     0
 40
1.0
176
     0
 90
        2
176
     0
  1
strokes_ogs.tif
176
     0
290
     0
176
     0
 40
1.0
176
     0
 40
1.0
176
     0
  0
VISUALSTYLE
  5
39
102
{ACAD_REACTORS
330
2A
102
}
330
2A
100
AcDbVisualStyle
  2
Facepattern
 70
    15
177
     3
291
     1
 70
    58
 90
        2
176
     1
 90
        2
176
     1
 90
        0
176
     1
 90
        0
176
     1
 40
0.6
176
     1
 40
30.0
176
     1
 62
     7
420
 16777215
176
     1
 90
        1
176
     1
 90
        4
176
     1
 62
     7
176
     1
 62
   257
176
     1
 90
        1
176
     1
 90
        1
176
     1
 40
1.0
176
     1
 90
        8
176
     1
 62
     7
176
     1
 40
1.0
176
     1
 90
        1
176
     1
 90
        6
176
     1
 90
        2
176
     1
 62
     7
176
     1
 90
        5
176
     1
 90
        0
176
     1
 90
        0
176
     1
290
     0
176
     1
 90
        1
176
     1
 40
0.0
176
     1
 90
        0
176
     1
290
     0
176
     1
290
     1
176
     1
290
     1
176
     1
290
     0
176
     1
290
     0
176
     1
290
     0
176
     1
290
     0
176
     1
290
     0
176
     1
290
     0
176
     1
 90
       50
176
     1
 40
0.0
176
     1
 40
1.0
176
     1
 90
        0
176
     1
 62
    18
420
        0
176
     1
 90
       50
176
     1
 90
        3
176
     1
 62
     5
420
      255
176
     1
290
     0
176
     1
 90
       50
176
     1
 90
       50
176
     1
 90
       50
176
     1
290
     0
176
     1
 90
       50
176
     1
 62
   256
176
     0
 40
1.0
176
     0
 90
        2
176
     1
  1
strokes_ogs.tif
176
     1
290
     0
176
     1
 40
1.0
176
     1
 40
1.0
176
     1
  0
VISUALSTYLE
  5
2B
102
{ACAD_REACTORS
330
2A
102
}
330
2A
100
AcDbVisualStyle
  2
Flat
 70
     0
177
     3
291
     1
 70
    58
 90
        2
176
     1
 90
        1
176
     1
 90
        1
176
     1
 90
        2
176
     1
 40
0.6
176
     1
 40
30.0
176
     1
 62
     7
420
 16777215
176
     1
 90
        0
176
     1
 90
        0
176
     1
 62
     7
176
     1
 62
   257
176
     1
 90
        1
176
     1
 90
        1
176
     1
 40
1.0
176
     1
 90
        8
176
     1
 62
     7
176
     1
 40
1.0
176
     1
 90
        1
176
     1
 90
        6
176
     1
 90
        2
176
     1
 62
     7
176
     1
 90
        5
176
     1
 90
        0
176
     1
 90
        0
176
     1
290
     0
176
     1
 90
       13
176
     1
 40
0.0
176
     1
 90
        0
176
     1
290
     0
176
     1
290
     1
176
     1
290
     1
176
     1
290
     0
176
     1
290
     0
176
     1
290
     0
176
     1
290
     0
176
     1
290
     0
176
     1
290
     0
176
     1
 90
       50
176
     1
 40
0.0
176
     1
 40
1.0
176
     1
 90
        0
176
     1
 62
    18
420
        0
176
     1
 90
       50
176
     1
 90
        3
176
     1
 62
     5
420
      255
176
     1
290
     0
176
     1
 90
       50
176
     1
 90
       50
176
     1
 90
       50
176
     1
290
     0
176
     1
 90
       50
176
     1
 62
   256
176
     0
 40
1.0
176
     0
 90
        2
176
     1
  1
strokes_ogs.tif
176
     1
290
     0
176
     1
 40
1.0
176
     1
 40
1.0
176
     1
  0
VISUALSTYLE
  5
2C
102
{ACAD_REACTORS
330
2A
102
}
330
2A
100
AcDbVisualStyle
  2
FlatWithEdges
 70
     1
177
     3
291
     1
 70
    58
 90
        2
176
     1
 90
        1
176
     1
 90
        1
176
     1
 90
        2
176
     1
 40
0.6
176
     1
 40
30.0
176
     1
 62
     7
420
 16777215
176
     1
 90
        1
176
     1
 90
        0
176
     1
 62
     7
176
     1
 62
   257
176
     1
 90
        1
176
     1
 90
        1
176
     1
 40
1.0
176
     1
 90
        0
176
     1
 62
   257
176
     1
 40
1.0
176
     1
 90
        1
176
     1
 90
        6
176
     1
 90
        2
176
     1
 62
     7
176
     1
 90
        5
176
     1
 90
        0
176
     1
 90
        0
176
     1
290
     0
176
     1
 90
       13
176
     1
 40
0.0
176
     1
 90
        0
176
     1
290
     0
176
     1
290
     1
176
     1
290
     1
176
     1
290
     0
176
     1
290
     0
176
     1
290
     0
176
     1
290
     0
176
     1
290
     0
176
     1
290
     0
176
     1
 90
       50
176
     1
 40
0.0
176
     1
 40
1.0
176
     1
 90
        0
176
     1
 62
    18
420
        0
176
     1
 90
       50
176
     1
 90
        3
176
     1
 62
     5
420
      255
176
     1
290
     0
176
     1
 90
       50
176
     1
 90
       50
176
     1
 90
       50
176
     1
290
     0
176
     1
 90
       50
176
     1
 62
   256
176
     0
 40
1.0
176
     0
 90
        2
176
     1
  1
strokes_ogs.tif
176
     1
290
     0
176
     1
 40
1.0
176
     1
 40
1.0
176
     1
  0
VISUALSTYLE
  5
2D
102
{ACAD_REACTORS
330
2A
102
}
330
2A
100
AcDbVisualStyle
  2
Gouraud
 70
     2
177
     3
291
     1
 70
    58
 90
        2
176
     1
 90
        2
176
     1
 90
        1
176
     1
 90
        2
176
     1
 40
0.6
176
     1
 40
30.0
176
     1
 62
     7
420
 16777215
176
     1
 90
        0
176
     1
 90
        0
176
     1
 62
     7
176
     1
 62
   257
176
     1
 90
        1
176
     1
 90
        1
176
     1
 40
1.0
176
     1
 90
        0
176
     1
 62
     7
176
     1
 40
1.0
176
     1
 90
        1
176
     1
 90
        6
176
     1
 90
        2
176
     1
 62
     7
176
     1
 90
        5
176
     1
 90
        0
176
     1
 90
        0
176
     1
290
     0
176
     1
 90
       13
176
     1
 40
0.0
176
     1
 90
        0
176
     1
290
     0
176
     1
290
     1
176
     1
290
     1
176
     1
290
     0
176
     1
290
     0
176
     1
290
     0
176
     1
290
     0
176
     1
290
     0
176
     1
290
     0
176
     1
 90
       50
176
     1
 40
0.0
176
     1
 40
1.0
176
     1
 90
        0
176
     1
 62
    18
420
        0
176
     1
 90
       50
176
     1
 90
        3
176
     1
 62
     5
420
      255
176
     1
290
     0
176
     1
 90
       50
176
     1
 90
       50
176
     1
 90
       50
176
     1
290
     0
176
     1
 90
       50
176
     1
 62
   256
176
     0
 40
1.0
176
     0
 90
        2
176
     1
  1
strokes_ogs.tif
176
     1
290
     0
176
     1
 40
1.0
176
     1
 40
1.0
176
     1
  0
VISUALSTYLE
  5
2E
102
{ACAD_REACTORS
330
2A
102
}
330
2A
100
AcDbVisualStyle
  2
GouraudWithEdges
 70
     3
177
     3
291
     1
 70
    58
 90
        2
176
     1
 90
        2
176
     1
 90
        1
176
     1
 90
        2
176
     1
 40
0.6
176
     1
 40
30.0
176
     1
 62
     7
420
 16777215
176
     1
 90
        1
176
     1
 90
        0
176
     1
 62
     7
176
     1
 62
   257
176
     1
 90
        1
176
     1
 90
        1
176
     1
 40
1.0
176
     1
 90
        0
176
     1
 62
   257
176
     1
 40
1.0
176
     1
 90
        1
176
     1
 90
        6
176
     1
 90
        2
176
     1
 62
     7
176
     1
 90
        5
176
     1
 90
        0
176
     1
 90
        0
176
     1
290
     0
176
     1
 90
       13
176
     1
 40
0.0
176
     1
 90
        0
176
     1
290
     0
176
     1
290
     1
176
     1
290
     1
176
     1
290
     0
176
     1
290
     0
176
     1
290
     0
176
     1
290
     0
176
     1
290
     0
176
     1
290
     0
176
     1
 90
       50
176
     1
 40
0.0
176
     1
 40
1.0
176
     1
 90
        0
176
     1
 62
    18
420
        0
176
     1
 90
       50
176
     1
 90
        3
176
     1
 62
     5
420
      255
176
     1
290
     0
176
     1
 90
       50
176
     1
 90
       50
176
     1
 90
       50
176
     1
290
     0
176
     1
 90
       50
176
     1
 62
   256
176
     0
 40
1.0
176
     0
 90
        2
176
     1
  1
strokes_ogs.tif
176
     1
290
     0
176
     1
 40
1.0
176
     1
 40
1.0
176
     1
  0
VISUALSTYLE
  5
31
102
{ACAD_REACTORS
330
2A
102
}
330
2A
100
AcDbVisualStyle
  2
Hidden
 70
     6
177
     3
291
     0
 70
    58
 90
        1
176
     1
 90
        2
176
     1
 90
        2
176
     1
 90
        0
176
     1
 40
0.6
176
     1
 40
30.0
176
     1
 62
     7
420
 16777215
176
     1
 90
        2
176
     1
 90
        2
176
     1
 62
     7
176
     1
 62
   257
176
     1
 90
        2
176
     1
 90
        1
176
     1
 40
40.0
176
     1
 90
        0
176
     1
 62
   257
176
     1
 40
1.0
176
     1
 90
        1
176
     1
 90
        6
176
     1
 90
        2
176
     1
 62
     7
176
     1
 90
        3
176
     1
 90
        0
176
     1
 90
        0
176
     1
290
     0
176
     1
 90
        1
176
     1
 40
0.0
176
     1
 90
        0
176
     1
290
     0
176
     1
290
     1
176
     1
290
     1
176
     1
290
     0
176
     1
290
     0
176
     1
290
     0
176
     1
290
     0
176
     1
290
     0
176
     1
290
     0
176
     1
 90
       50
176
     1
 40
0.0
176
     1
 40
1.0
176
     1
 90
        0
176
     1
 62
    18
420
        0
176
     1
 90
       50
176
     1
 90
        3
176
     1
 62
     5
420
      255
176
     1
290
     0
176
     1
 90
       50
176
     1
 90
       50
176
     1
 90
       50
176
     1
290
     0
176
     1
 90
       50
176
     1
 62
   256
176
     0
 40
1.0
176
     0
 90
        2
176
     1
  1
strokes_ogs.tif
176
     1
290
     0
176
     1
 40
1.0
176
     1
 40
1.0
176
     1
  0
VISUALSTYLE
  5
3B
102
{ACAD_REACTORS
330
2A
102
}
330
2A
100
AcDbVisualStyle
  2
JitterOff
 70
    20
177
     3
291
     1
 70
    58
 90
        2
176
     0
 90
        2
176
     0
 90
        0
176
     0
 90
        0
176
     0
 40
0.6
176
     0
 40
30.0
176
     0
 62
     7
420
 16777215
176
     0
 90
        1
176
     0
 90
        4
176
     0
 62
     7
176
     0
 62
   257
176
     0
 90
        1
176
     0
 90
        1
176
     0
 40
1.0
176
     0
 90
       10
176
     2
 62
     7
176
     0
 40
1.0
176
     0
 90
        1
176
     0
 90
        6
176
     0
 90
        2
176
     0
 62
     7
176
     0
 90
        5
176
     0
 90
        0
176
     0
 90
        0
176
     0
290
     0
176
     0
 90
        1
176
     0
 40
0.0
176
     0
 90
        0
176
     0
290
     0
176
     0
290
     1
176
     0
290
     1
176
     0
290
     0
176
     0
290
     0
176
     0
290
     0
176
     0
290
     0
176
     0
290
     0
176
     0
290
     0
176
     0
 90
       50
176
     0
 40
0.0
176
     0
 40
1.0
176
     0
 90
        0
176
     0
 62
    18
420
        0
176
     0
 90
       50
176
     0
 90
        3
176
     0
 62
     5
420
      255
176
     0
290
     0
176
     0
 90
       50
176
     0
 90
       50
176
     0
 90
       50
176
     0
290
     0
176
     0
 90
       50
176
     0
 62
   256
176
     0
 40
1.0
176
     0
 90
        2
176
     0
  1
strokes_ogs.tif
176
     0
290
     0
176
     0
 40
1.0
176
     0
 40
1.0
176
     0
  0
VISUALSTYLE
  5
38
102
{ACAD_REACTORS
330
2A
102
}
330
2A
100
AcDbVisualStyle
  2
Linepattern
 70
    14
177
     3
291
     1
 70
    58
 90
        2
176
     1
 90
        2
176
     1
 90
        0
176
     1
 90
        0
176
     1
 40
0.6
176
     1
 40
30.0
176
     1
 62
     7
420
 16777215
176
     1
 90
        1
176
     1
 90
        4
176
     1
 62
     7
176
     1
 62
   257
176
     1
 90
        7
176
     1
 90
        7
176
     1
 40
1.0
176
     1
 90
        8
176
     1
 62
     7
176
     1
 40
1.0
176
     1
 90
        1
176
     1
 90
        6
176
     1
 90
        2
176
     1
 62
     7
176
     1
 90
        5
176
     1
 90
        0
176
     1
 90
        0
176
     1
290
     0
176
     1
 90
        1
176
     1
 40
0.0
176
     1
 90
        0
176
     1
290
     0
176
     1
290
     1
176
     1
290
     1
176
     1
290
     0
176
     1
290
     0
176
     1
290
     0
176
     1
290
     0
176
     1
290
     0
176
     1
290
     0
176
     1
 90
       50
176
     1
 40
0.0
176
     1
 40
1.0
176
     1
 90
        0
176
     1
 62
    18
420
        0
176
     1
 90
       50
176
     1
 90
        3
176
     1
 62
     5
420
      255
176
     1
290
     0
176
     1
 90
       50
176
     1
 90
       50
176
     1
 90
       50
176
     1
290
     0
176
     1
 90
       50
176
     1
 62
   256
176
     0
 40
1.0
176
     0
 90
        2
176
     1
  1
strokes_ogs.tif
176
     1
290
     0
176
     1
 40
1.0
176
     1
 40
1.0
176
     1
  0
VISUALSTYLE
  5
3C
102
{ACAD_REACTORS
330
2A
102
}
330
2A
100
AcDbVisualStyle
  2
OverhangOff
 70
    21
177
     3
291
     1
 70
    58
 90
        2
176
     0
 90
        2
176
     0
 90
        0
176
     0
 90
        0
176
     0
 40
0.6
176
     0
 40
30.0
176
     0
 62
     7
420
 16777215
176
     0
 90
        1
176
     0
 90
        4
176
     0
 62
     7
176
     0
 62
   257
176
     0
 90
        1
176
     0
 90
        1
176
     0
 40
1.0
176
     0
 90
        9
176
     2
 62
     7
176
     0
 40
1.0
176
     0
 90
        1
176
     0
 90
        6
176
     0
 90
        2
176
     0
 62
     7
176
     0
 90
        5
176
     0
 90
        0
176
     0
 90
        0
176
     0
290
     0
176
     0
 90
        1
176
     0
 40
0.0
176
     0
 90
        0
176
     0
290
     0
176
     0
290
     1
176
     0
290
     1
176
     0
290
     0
176
     0
290
     0
176
     0
290
     0
176
     0
290
     0
176
     0
290
     0
176
     0
290
     0
176
     0
 90
       50
176
     0
 40
0.0
176
     0
 40
1.0
176
     0
 90
        0
176
     0
 62
    18
420
        0
176
     0
 90
       50
176
     0
 90
        3
176
     0
 62
     5
420
      255
176
     0
290
     0
176
     0
 90
       50
176
     0
 90
       50
176
     0
 90
       50
176
     0
290
     0
176
     0
 90
       50
176
     0
 62
   256
176
     0
 40
1.0
176
     0
 90
        2
176
     0
  1
strokes_ogs.tif
176
     0
290
     0
176
     0
 40
1.0
176
     0
 40
1.0
176
     0
  0
VISUALSTYLE
  5
33
102
{ACAD_REACTORS
330
2A
102
}
330
2A
100
AcDbVisualStyle
  2
Realistic
 70
     8
177
     3
291
     0
 70
    58
 90
        2
176
     1
 90
        3
176
     1
 90
        0
176
     1
 90
        2
176
     1
 40
0.6
176
     1
 40
30.0
176
     1
 62
     7
420
 16777215
176
     1
 90
        0
176
     1
 90
        0
176
     1
 62
     7
176
     1
 62
   257
176
     1
 90
        1
176
     1
 90
        1
176
     1
 40
1.0
176
     1
 90
        8
176
     1
 62
   257
176
     1
 40
1.0
176
     1
 90
        1
176
     1
 90
        6
176
     1
 90
        2
176
     1
 62
     7
176
     1
 90
        3
176
     1
 90
        0
176
     1
 90
        0
176
     1
290
     0
176
     1
 90
       13
176
     1
 40
0.0
176
     1
 90
        0
176
     1
290
     0
176
     1
290
     1
176
     1
290
     1
176
     1
290
     0
176
     1
290
     0
176
     1
290
     0
176
     1
290
     0
176
     1
290
     0
176
     1
290
     0
176
     1
 90
       50
176
     1
 40
0.0
176
     1
 40
1.0
176
     1
 90
        0
176
     1
 62
    18
420
        0
176
     1
 90
       50
176
     1
 90
        3
176
     1
 62
     5
420
      255
176
     1
290
     0
176
     1
 90
       50
176
     1
 90
       50
176
     1
 90
       50
176
     1
290
     0
176
     1
 90
       50
176
     1
 62
   256
176
     0
 40
1.0
176
     0
 90
        2
176
     1
  1
strokes_ogs.tif
176
     1
290
     0
176
     1
 40
1.0
176
     1
 40
1.0
176
     1
  0
VISUALSTYLE
  5
42
102
{ACAD_REACTORS
330
2A
102
}
330
2A
100
AcDbVisualStyle
  2
Shaded
 70
    27
177
     3
291
     0
 70
    58
 90
        2
176
     1
 90
        2
176
     1
 90
        1
176
     1
 90
        2
176
     1
 40
0.6
176
     1
 40
30.0
176
     1
 62
     7
420
 16777215
176
     1
 90
        0
176
     1
 90
        4
176
     1
 62
     7
176
     1
 62
   257
176
     1
 90
        1
176
     1
 90
        1
176
     1
 40
1.0
176
     1
 90
        8
176
     1
 62
   257
176
     1
 40
1.0
176
     1
 90
        1
176
     1
 90
        6
176
     1
 90
        2
176
     1
 62
     8
420
  7895160
176
     1
 90
        3
176
     1
 90
        0
176
     1
 90
        0
176
     1
290
     0
176
     1
 90
        5
176
     1
 40
0.0
176
     1
 90
        0
176
     1
290
     0
176
     1
290
     1
176
     1
290
     1
176
     1
290
     0
176
     1
290
     0
176
     1
290
     0
176
     1
290
     0
176
     1
290
     0
176
     1
290
     0
176
     1
 90
       50
176
     1
 40
0.0
176
     1
 40
1.0
176
     1
 90
        0
176
     1
 62
    18
420
        0
176
     1
 90
       50
176
     1
 90
        3
176
     1
 62
     5
420
      255
176
     1
290
     0
176
     1
 90
       50
176
     1
 90
       50
176
     1
 90
       50
176
     1
290
     0
176
     1
 90
       50
176
     1
 62
   256
176
     0
 40
1.0
176
     0
 90
        2
176
     1
  1
strokes_ogs.tif
176
     1
290
     0
176
     1
 40
1.0
176
     1
 40
1.0
176
     1
  0
VISUALSTYLE
  5
41
102
{ACAD_REACTORS
330
2A
102
}
330
2A
100
AcDbVisualStyle
  2
Shaded with edges
 70
    26
177
     3
291
     0
 70
    58
 90
        2
176
     1
 90
        2
176
     1
 90
        1
176
     1
 90
        2
176
     1
 40
0.6
176
     1
 40
30.0
176
     1
 62
     7
420
 16777215
176
     1
 90
        1
176
     1
 90
       10
176
     1
 62
     7
176
     1
 62
   257
176
     1
 90
        2
176
     1
 90
        1
176
     1
 40
1.0
176
     1
 90
        8
176
     1
 62
   257
176
     1
 40
1.0
176
     1
 90
        1
176
     1
 90
        6
176
     1
 90
        2
176
     1
 62
     7
176
     1
 90
        3
176
     1
 90
        0
176
     1
 90
        0
176
     1
290
     0
176
     1
 90
        5
176
     1
 40
0.0
176
     1
 90
        0
176
     1
290
     0
176
     1
290
     1
176
     1
290
     1
176
     1
290
     0
176
     1
290
     0
176
     1
290
     0
176
     1
290
     0
176
     1
290
     0
176
     1
290
     0
176
     1
 90
       50
176
     1
 40
0.0
176
     1
 40
1.0
176
     1
 90
        0
176
     1
 62
    18
420
        0
176
     1
 90
       50
176
     1
 90
        3
176
     1
 62
     5
420
      255
176
     1
290
     0
176
     1
 90
       50
176
     1
 90
       50
176
     1
 90
       50
176
     1
290
     0
176
     1
 90
       50
176
     1
 62
   256
176
     0
 40
1.0
176
     0
 90
        2
176
     1
  1
strokes_ogs.tif
176
     1
290
     0
176
     1
 40
1.0
176
     1
 40
1.0
176
     1
  0
VISUALSTYLE
  5
3E
102
{ACAD_REACTORS
330
2A
102
}
330
2A
100
AcDbVisualStyle
  2
Shades of Gray
 70
    23
177
     3
291
     0
 70
    58
 90
        2
176
     1
 90
        2
176
     1
 90
        3
176
     1
 90
        0
176
     1
 40
0.6
176
     1
 40
30.0
176
     1
 62
     7
420
 16777215
176
     1
 90
        2
176
     1
 90
        2
176
     1
 62
     7
176
     1
 62
     7
176
     1
 90
        1
176
     1
 90
        1
176
     1
 40
40.0
176
     1
 90
        8
176
     1
 62
     7
176
     1
 40
1.0
176
     1
 90
        1
176
     1
 90
        6
176
     1
 90
        2
176
     1
 62
     7
176
     1
 90
        3
176
     1
 90
        0
176
     1
 90
        0
176
     1
290
     0
176
     1
 90
        1
176
     1
 40
0.0
176
     1
 90
        0
176
     1
290
     0
176
     1
290
     1
176
     1
290
     1
176
     1
290
     0
176
     1
290
     0
176
     1
290
     0
176
     1
290
     0
176
     1
290
     0
176
     1
290
     0
176
     1
 90
       50
176
     1
 40
0.0
176
     1
 40
1.0
176
     1
 90
        0
176
     1
 62
    18
420
        0
176
     1
 90
       50
176
     1
 90
        3
176
     1
 62
     5
420
      255
176
     1
290
     0
176
     1
 90
       50
176
     1
 90
       50
176
     1
 90
       50
176
     1
290
     0
176
     1
 90
       50
176
     1
 62
   256
176
     0
 40
1.0
176
     0
 90
        2
176
     1
  1
strokes_ogs.tif
176
     1
290
     0
176
     1
 40
1.0
176
     1
 40
1.0
176
     1
  0
VISUALSTYLE
  5
3F
102
{ACAD_REACTORS
330
2A
102
}
330
2A
100
AcDbVisualStyle
  2
Sketchy
 70
    24
177
     3
291
     0
 70
    58
 90
        1
176
     1
 90
        2
176
     1
 90
        2
176
     1
 90
        0
176
     1
 40
0.6
176
     1
 40
30.0
176
     1
 62
     7
420
 16777215
176
     1
 90
        2
176
     1
 90
        2
176
     1
 62
     7
176
     1
 62
     7
176
     1
 90
        1
176
     1
 90
        1
176
     1
 40
40.0
176
     1
 90
       11
176
     1
 62
     7
176
     1
 40
1.0
176
     1
 90
        1
176
     1
 90
        6
176
     1
 90
        2
176
     1
 62
     7
176
     1
 90
        6
176
     1
 90
        0
176
     1
 90
        0
176
     1
290
     0
176
     1
 90
        1
176
     1
 40
0.0
176
     1
 90
        0
176
     1
290
     0
176
     1
290
     1
176
     1
290
     1
176
     1
290
     0
176
     1
290
     0
176
     1
290
     0
176
     1
290
     0
176
     1
290
     0
176
     1
290
     0
176
     1
 90
       50
176
     1
 40
0.0
176
     1
 40
1.0
176
     1
 90
        0
176
     1
 62
    18
420
        0
176
     1
 90
       50
176
     1
 90
        3
176
     1
 62
     5
420
      255
176
     1
290
     0
176
     1
 90
       50
176
     1
 90
       50
176
     1
 90
       50
176
     1
290
     0
176
     1
 90
       50
176
     1
 62
   256
176
     0
 40
1.0
176
     0
 90
        2
176
     1
  1
strokes_ogs.tif
176
     1
290
     0
176
     1
 40
1.0
176
     1
 40
1.0
176
     1
  0
VISUALSTYLE
  5
37
102
{ACAD_REACTORS
330
2A
102
}
330
2A
100
AcDbVisualStyle
  2
Thicken
 70
    13
177
     3
291
     1
 70
    58
 90
        2
176
     1
 90
        2
176
     1
 90
        0
176
     1
 90
        0
176
     1
 40
0.6
176
     1
 40
30.0
176
     1
 62
     7
420
 16777215
176
     1
 90
        1
176
     1
 90
        4
176
     1
 62
     7
176
     1
 62
   257
176
     1
 90
        1
176
     1
 90
        1
176
     1
 40
1.0
176
     1
 90
       12
176
     1
 62
     7
176
     1
 40
1.0
176
     1
 90
        1
176
     1
 90
        6
176
     1
 90
        2
176
     1
 62
     7
176
     1
 90
        5
176
     1
 90
        0
176
     1
 90
        0
176
     1
290
     0
176
     1
 90
        1
176
     1
 40
0.0
176
     1
 90
        0
176
     1
290
     0
176
     1
290
     1
176
     1
290
     1
176
     1
290
     0
176
     1
290
     0
176
     1
290
     0
176
     1
290
     0
176
     1
290
     0
176
     1
290
     0
176
     1
 90
       50
176
     1
 40
0.0
176
     1
 40
1.0
176
     1
 90
        0
176
     1
 62
    18
420
        0
176
     1
 90
       50
176
     1
 90
        3
176
     1
 62
     5
420
      255
176
     1
290
     0
176
     1
 90
       50
176
     1
 90
       50
176
     1
 90
       50
176
     1
290
     0
176
     1
 90
       50
176
     1
 62
   256
176
     0
 40
1.0
176
     0
 90
        2
176
     1
  1
strokes_ogs.tif
176
     1
290
     0
176
     1
 40
1.0
176
     1
 40
1.0
176
     1
  0
VISUALSTYLE
  5
30
102
{ACAD_REACTORS
330
2A
102
}
330
2A
100
AcDbVisualStyle
  2
Wireframe
 70
     5
177
     3
291
     0
 70
    58
 90
        0
176
     1
 90
        2
176
     1
 90
        0
176
     1
 90
        0
176
     1
 40
0.6
176
     1
 40
30.0
176
     1
 62
     7
420
 16777215
176
     1
 90
        1
176
     1
 90
        4
176
     1
 62
     7
176
     1
 62
   257
176
     1
 90
        1
176
     1
 90
        1
176
     1
 40
1.0
176
     1
 90
        0
176
     1
 62
   257
176
     1
 40
1.0
176
     1
 90
        1
176
     1
 90
        6
176
     1
 90
        2
176
     1
 62
     7
176
     1
 90
        3
176
     1
 90
        0
176
     1
 90
        0
176
     1
290
     0
176
     1
 90
        1
176
     1
 40
0.0
176
     1
 90
        0
176
     1
290
     0
176
     1
290
     1
176
     1
290
     1
176
     1
290
     0
176
     1
290
     0
176
     1
290
     0
176
     1
290
     0
176
     1
290
     0
176
     1
290
     0
176
     1
 90
       50
176
     1
 40
0.0
176
     1
 40
1.0
176
     1
 90
        0
176
     1
 62
    18
420
        0
176
     1
 90
       50
176
     1
 90
        3
176
     1
 62
     5
420
      255
176
     1
290
     0
176
     1
 90
       50
176
     1
 90
       50
176
     1
 90
       50
176
     1
290
     0
176
     1
 90
       50
176
     1
 62
   256
176
     0
 40
1.0
176
     0
 90
        2
176
     1
  1
strokes_ogs.tif
176
     1
290
     0
176
     1
 40
1.0
176
     1
 40
1.0
176
     1
  0
VISUALSTYLE
  5
40
102
{ACAD_REACTORS
330
2A
102
}
330
2A
100
AcDbVisualStyle
  2
X-Ray
 70
    25
177
     3
291
     0
 70
    58
 90
        2
176
     1
 90
        2
176
     1
 90
        1
176
     1
 90
        1
176
     1
 40
0.5
176
     1
 40
30.0
176
     1
 62
     7
420
 16777215
176
     1
 90
        1
176
     1
 90
        0
176
     1
 62
     7
176
     1
 62
   257
176
     1
 90
        1
176
     1
 90
        1
176
     1
 40
1.0
176
     1
 90
        8
176
     1
 62
     7
176
     1
 40
1.0
176
     1
 90
        1
176
     1
 90
        6
176
     1
 90
        2
176
     1
 62
     7
176
     1
 90
        3
176
     1
 90
        0
176
     1
 90
        0
176
     1
290
     0
176
     1
 90
       13
176
     1
 40
0.0
176
     1
 90
        0
176
     1
290
     0
176
     1
290
     1
176
     1
290
     1
176
     1
290
     0
176
     1
290
     0
176
     1
290
     0
176
     1
290
     0
176
     1
290
     0
176
     1
290
     0
176
     1
 90
       50
176
     1
 40
0.0
176
     1
 40
1.0
176
     1
 90
        0
176
     1
 62
    18
420
        0
176
     1
 90
       50
176
     1
 90
        3
176
     1
 62
     5
420
      255
176
     1
290
     0
176
     1
 90
       50
176
     1
 90
       50
176
     1
 90
       50
176
     1
290
     0
176
     1
 90
       50
176
     1
 62
   256
176
     0
 40
1.0
176
     0
 90
        2
176
     1
  1
strokes_ogs.tif
176
     1
290
     0
176
     1
 40
1.0
176
     1
 40
1.0
176
     1
  0
DICTIONARYVAR
  5
268
102
{ACAD_REACTORS
330
267
102
}
330
267
100
DictionaryVariables
280
     0
  1
1:1
  0
DICTIONARYVAR
  5
26D
102
{ACAD_REACTORS
330
267
102
}
330
267
100
DictionaryVariables
280
     0
  1
Standard
  0
DICTIONARYVAR
  5
26C
102
{ACAD_REACTORS
330
267
102
}
330
267
100
DictionaryVariables
280
     0
  1
Standard
  0
DICTIONARY
  5
269
330
6A
100
AcDbDictionary
280
     1
281
     1
  3
ACAD_ROUNDTRIP_2008_TABLESTYLE_CELLSTYLEMAP
360
26A
  0
CELLSTYLEMAP
  5
26A
102
{ACAD_REACTORS
330
269
102
}
330
269
100
AcDbCellStyleMap
 90
        3
300
CELLSTYLE
  1
TABLEFORMAT_BEGIN
 90
        5
170
     1
 91
        0
 92
    32768
 62
   257
 93
        1
300
CONTENTFORMAT
  1
CONTENTFORMAT_BEGIN
 90
        0
 91
        0
 92
        4
 93
        0
300

 40
0.0
140
1.0
 94
        5
 62
     0
340
11
144
0.25
309
CONTENTFORMAT_END
171
     1
301
MARGIN
  1
CELLMARGIN_BEGIN
 40
0.06
 40
0.06
 40
0.06
 40
0.06
 40
0.06
 40
0.06
309
CELLMARGIN_END
 94
        6
 95
        1
302
GRIDFORMAT
  1
GRIDFORMAT_BEGIN
 90
        0
 91
        1
 62
     0
 92
       -2
340
14
 93
        0
 40
0.045
309
GRIDFORMAT_END
 95
        2
302
GRIDFORMAT
  1
GRIDFORMAT_BEGIN
 90
        0
 91
        1
 62
     0
 92
       -2
340
14
 93
        0
 40
0.045
309
GRIDFORMAT_END
 95
        4
302
GRIDFORMAT
  1
GRIDFORMAT_BEGIN
 90
        0
 91
        1
 62
     0
 92
       -2
340
14
 93
        0
 40
0.045
309
GRIDFORMAT_END
 95
        8
302
GRIDFORMAT
  1
GRIDFORMAT_BEGIN
 90
        0
 91
        1
 62
     0
 92
       -2
340
14
 93
        0
 40
0.045
309
GRIDFORMAT_END
 95
       16
302
GRIDFORMAT
  1
GRIDFORMAT_BEGIN
 90
        0
 91
        1
 62
     0
 92
       -2
340
14
 93
        0
 40
0.045
309
GRIDFORMAT_END
 95
       32
302
GRIDFORMAT
  1
GRIDFORMAT_BEGIN
 90
        0
 91
        1
 62
     0
 92
       -2
340
14
 93
        0
 40
0.045
309
GRIDFORMAT_END
309
TABLEFORMAT_END
  1
CELLSTYLE_BEGIN
 90
        1
 91
        1
300
_TITLE
309
CELLSTYLE_END
300
CELLSTYLE
  1
TABLEFORMAT_BEGIN
 90
        5
170
     1
 91
        0
 92
        0
 62
   257
 93
        1
300
CONTENTFORMAT
  1
CONTENTFORMAT_BEGIN
 90
        0
 91
        0
 92
        4
 93
        0
300

 40
0.0
140
1.0
 94
        5
 62
     0
340
11
144
0.18
309
CONTENTFORMAT_END
171
     1
301
MARGIN
  1
CELLMARGIN_BEGIN
 40
0.06
 40
0.06
 40
0.06
 40
0.06
 40
0.06
 40
0.06
309
CELLMARGIN_END
 94
        6
 95
        1
302
GRIDFORMAT
  1
GRIDFORMAT_BEGIN
 90
        0
 91
        1
 62
     0
 92
       -2
340
14
 93
        0
 40
0.045
309
GRIDFORMAT_END
 95
        2
302
GRIDFORMAT
  1
GRIDFORMAT_BEGIN
 90
        0
 91
        1
 62
     0
 92
       -2
340
14
 93
        0
 40
0.045
309
GRIDFORMAT_END
 95
        4
302
GRIDFORMAT
  1
GRIDFORMAT_BEGIN
 90
        0
 91
        1
 62
     0
 92
       -2
340
14
 93
        0
 40
0.045
309
GRIDFORMAT_END
 95
        8
302
GRIDFORMAT
  1
GRIDFORMAT_BEGIN
 90
        0
 91
        1
 62
     0
 92
       -2
340
14
 93
        0
 40
0.045
309
GRIDFORMAT_END
 95
       16
302
GRIDFORMAT
  1
GRIDFORMAT_BEGIN
 90
        0
 91
        1
 62
     0
 92
       -2
340
14
 93
        0
 40
0.045
309
GRIDFORMAT_END
 95
       32
302
GRIDFORMAT
  1
GRIDFORMAT_BEGIN
 90
        0
 91
        1
 62
     0
 92
       -2
340
14
 93
        0
 40
0.045
309
GRIDFORMAT_END
309
TABLEFORMAT_END
  1
CELLSTYLE_BEGIN
 90
        2
 91
        1
300
_HEADER
309
CELLSTYLE_END
300
CELLSTYLE
  1
TABLEFORMAT_BEGIN
 90
        5
170
     1
 91
        0
 92
        0
 62
   257
 93
        1
300
CONTENTFORMAT
  1
CONTENTFORMAT_BEGIN
 90
        0
 91
        0
 92
        4
 93
        0
300

 40
0.0
140
1.0
 94
        2
 62
     0
340
11
144
0.18
309
CONTENTFORMAT_END
171
     1
301
MARGIN
  1
CELLMARGIN_BEGIN
 40
0.06
 40
0.06
 40
0.06
 40
0.06
 40
0.06
 40
0.06
309
CELLMARGIN_END
 94
        6
 95
        1
302
GRIDFORMAT
  1
GRIDFORMAT_BEGIN
 90
        0
 91
        1
 62
     0
 92
       -2
340
14
 93
        0
 40
0.045
309
GRIDFORMAT_END
 95
        2
302
GRIDFORMAT
  1
GRIDFORMAT_BEGIN
 90
        0
 91
        1
 62
     0
 92
       -2
340
14
 93
        0
 40
0.045
309
GRIDFORMAT_END
 95
        4
302
GRIDFORMAT
  1
GRIDFORMAT_BEGIN
 90
        0
 91
        1
 62
     0
 92
       -2
340
14
 93
        0
 40
0.045
309
GRIDFORMAT_END
 95
        8
302
GRIDFORMAT
  1
GRIDFORMAT_BEGIN
 90
        0
 91
        1
 62
     0
 92
       -2
340
14
 93
        0
 40
0.045
309
GRIDFORMAT_END
 95
       16
302
GRIDFORMAT
  1
GRIDFORMAT_BEGIN
 90
        0
 91
        1
 62
     0
 92
       -2
340
14
 93
        0
 40
0.045
309
GRIDFORMAT_END
 95
       32
302
GRIDFORMAT
  1
GRIDFORMAT_BEGIN
 90
        0
 91
        1
 62
     0
 92
       -2
340
14
 93
        0
 40
0.045
309
GRIDFORMAT_END
309
TABLEFORMAT_END
  1
CELLSTYLE_BEGIN
 90
        3
 91
        2
300
_DATA
309
CELLSTYLE_END
  0
ENDSEC
  0
EOF