0
SECTION
  2
HEADER
  9
$ACADVER
  1
AC1027
  9
$ACADMAINTVER
 70
     8
  9
$DWGCODEPAGE
  3
ANSI_1252
  9
$REQUIREDVERSIONS
160
                 0
  9
$COMMENTS
  1
File was created by Cadenas
  9
$CUSTOMPROPERTYTAG
  1
NN
  9
$CUSTOMPROPERTY
  1
Set Screw Internmediate Duty Four-Bolt Flange Inch Bore
  9
$CUSTOMPROPERTYTAG
  1
NT
  9
$CUSTOMPROPERTY
  1
VSC Intermediate Duty 4-Bolt Flange Bearings
  9
$CUSTOMPROPERTYTAG
  1
NB
  9
$CUSTOMPROPERTY
  1
068809
  9
$CUSTOMPROPERTYTAG
  1
NBSYN
  9
$CUSTOMPROPERTY
  1
$PN.
  9
$CUSTOMPROPERTYTAG
  1
LINA
  9
$CUSTOMPROPERTY
  1
068809
  9
$CUSTOMPROPERTYTAG
  1
RS
  9
$CUSTOMPROPERTY
  1
211
  9
$CUSTOMPROPERTYTAG
  1
SS
  9
$CUSTOMPROPERTY
  1
2-3/16
  9
$CUSTOMPROPERTYTAG
  1
PN
  9
$CUSTOMPROPERTY
  1
068809
  9
$CUSTOMPROPERTYTAG
  1
DESCRIPTION
  9
$CUSTOMPROPERTY
  1
F4B-VSC-203-NL
  9
$CUSTOMPROPERTYTAG
  1
LF
  9
$CUSTOMPROPERTY
  1
NO-LUBE
  9
$CUSTOMPROPERTYTAG
  1
WEIGHT
  9
$CUSTOMPROPERTY
  1
9.00
  9
$CUSTOMPROPERTYTAG
  1
A
  9
$CUSTOMPROPERTY
  1
2.22
  9
$CUSTOMPROPERTYTAG
  1
B
  9
$CUSTOMPROPERTY
  1
6.50
  9
$CUSTOMPROPERTYTAG
  1
C
  9
$CUSTOMPROPERTY
  1
2.28
  9
$CUSTOMPROPERTYTAG
  1
D
  9
$CUSTOMPROPERTY
  1
5.13
  9
$CUSTOMPROPERTYTAG
  1
F
  9
$CUSTOMPROPERTY
  1
5/8
  9
$CUSTOMPROPERTYTAG
  1
H
  9
$CUSTOMPROPERTY
  1
0.69
  9
$CUSTOMPROPERTYTAG
  1
J
  9
$CUSTOMPROPERTY
  1
0.68
  9
$CUSTOMPROPERTYTAG
  1
L
  9
$CUSTOMPROPERTY
  1
2.71
  9
$CUSTOMPROPERTYTAG
  1
N
  9
$CUSTOMPROPERTY
  1
3.25
  9
$CUSTOMPROPERTYTAG
  1
COMPANY
  9
$CUSTOMPROPERTY
  1
baldor
  9
$INSBASE
 10
0.0
 20
0.0
 30
0.0
  9
$EXTMIN
 10
1.000000000000000E+20
 20
1.000000000000000E+20
 30
1.000000000000000E+20
  9
$EXTMAX
 10
-1.000000000000000E+20
 20
-1.000000000000000E+20
 30
-1.000000000000000E+20
  9
$LIMMIN
 10
0.0
 20
0.0
  9
$LIMMAX
 10
12.0
 20
9.0
  9
$ORTHOMODE
 70
     0
  9
$REGENMODE
 70
     1
  9
$FILLMODE
 70
     1
  9
$QTEXTMODE
 70
     0
  9
$MIRRTEXT
 70
     1
  9
$LTSCALE
 40
1.0
  9
$ATTMODE
 70
     1
  9
$TEXTSIZE
 40
0.2
  9
$TRACEWID
 40
0.05
  9
$TEXTSTYLE
  7
Standard
  9
$CLAYER
  8
0
  9
$CELTYPE
  6
ByLayer
  9
$CECOLOR
 62
   256
  9
$CELTSCALE
 40
1.0
  9
$DISPSILH
 70
     0
  9
$DIMSCALE
 40
1.0
  9
$DIMASZ
 40
0.18
  9
$DIMEXO
 40
0.0625
  9
$DIMDLI
 40
0.38
  9
$DIMRND
 40
0.0
  9
$DIMDLE
 40
0.0
  9
$DIMEXE
 40
0.18
  9
$DIMTP
 40
0.0
  9
$DIMTM
 40
0.0
  9
$DIMTXT
 40
0.18
  9
$DIMCEN
 40
0.09
  9
$DIMTSZ
 40
0.0
  9
$DIMTOL
 70
     0
  9
$DIMLIM
 70
     0
  9
$DIMTIH
 70
     1
  9
$DIMTOH
 70
     1
  9
$DIMSE1
 70
     0
  9
$DIMSE2
 70
     0
  9
$DIMTAD
 70
     0
  9
$DIMZIN
 70
     0
  9
$DIMBLK
  1

  9
$DIMASO
 70
     1
  9
$DIMSHO
 70
     1
  9
$DIMPOST
  1

  9
$DIMAPOST
  1

  9
$DIMALT
 70
     0
  9
$DIMALTD
 70
     2
  9
$DIMALTF
 40
25.4
  9
$DIMLFAC
 40
1.0
  9
$DIMTOFL
 70
     0
  9
$DIMTVP
 40
0.0
  9
$DIMTIX
 70
     0
  9
$DIMSOXD
 70
     0
  9
$DIMSAH
 70
     0
  9
$DIMBLK1
  1

  9
$DIMBLK2
  1

  9
$DIMSTYLE
  2
Standard
  9
$DIMCLRD
 70
     0
  9
$DIMCLRE
 70
     0
  9
$DIMCLRT
 70
     0
  9
$DIMTFAC
 40
1.0
  9
$DIMGAP
 40
0.09
  9
$DIMJUST
 70
     0
  9
$DIMSD1
 70
     0
  9
$DIMSD2
 70
     0
  9
$DIMTOLJ
 70
     1
  9
$DIMTZIN
 70
     0
  9
$DIMALTZ
 70
     0
  9
$DIMALTTZ
 70
     0
  9
$DIMUPT
 70
     0
  9
$DIMDEC
 70
     4
  9
$DIMTDEC
 70
     4
  9
$DIMALTU
 70
     2
  9
$DIMALTTD
 70
     2
  9
$DIMTXSTY
  7
Standard
  9
$DIMAUNIT
 70
     0
  9
$DIMADEC
 70
     0
  9
$DIMALTRND
 40
0.0
  9
$DIMAZIN
 70
     0
  9
$DIMDSEP
 70
    46
  9
$DIMATFIT
 70
     3
  9
$DIMFRAC
 70
     0
  9
$DIMLDRBLK
  1

  9
$DIMLUNIT
 70
     2
  9
$DIMLWD
 70
    -2
  9
$DIMLWE
 70
    -2
  9
$DIMTMOVE
 70
     0
  9
$DIMFXL
 40
1.0
  9
$DIMFXLON
 70
     0
  9
$DIMJOGANG
 40
0.7853981633974483
  9
$DIMTFILL
 70
     0
  9
$DIMTFILLCLR
 70
     0
  9
$DIMARCSYM
 70
     0
  9
$DIMLTYPE
  6

  9
$DIMLTEX1
  6

  9
$DIMLTEX2
  6

  9
$DIMTXTDIRECTION
 70
     0
  9
$LUNITS
 70
     2
  9
$LUPREC
 70
     4
  9
$SKETCHINC
 40
0.1
  9
$FILLETRAD
 40
0.5
  9
$AUNITS
 70
     0
  9
$AUPREC
 70
     0
  9
$MENU
  1
.
  9
$ELEVATION
 40
0.0
  9
$PELEVATION
 40
0.0
  9
$THICKNESS
 40
0.0
  9
$LIMCHECK
 70
     0
  9
$CHAMFERA
 40
0.0
  9
$CHAMFERB
 40
0.0
  9
$CHAMFERC
 40
0.0
  9
$CHAMFERD
 40
0.0
  9
$SKPOLY
 70
     0
  9
$TDCREATE
 40
2458168.905983599
  9
$TDUCREATE
 40
2458168.864316933
  9
$TDUPDATE
 40
2458168.905983773
  9
$TDUUPDATE
 40
2458168.864317107
  9
$TDINDWG
 40
0.0000000116
  9
$TDUSRTIMER
 40
0.0000000116
  9
$USRTIMER
 70
     1
  9
$ANGBASE
 50
0.0
  9
$ANGDIR
 70
     0
  9
$PDMODE
 70
     0
  9
$PDSIZE
 40
0.0
  9
$PLINEWID
 40
0.0
  9
$SPLFRAME
 70
     0
  9
$SPLINETYPE
 70
     6
  9
$SPLINESEGS
 70
     8
  9
$HANDSEED
  5
16A
  9
$SURFTAB1
 70
     6
  9
$SURFTAB2
 70
     6
  9
$SURFTYPE
 70
     6
  9
$SURFU
 70
     6
  9
$SURFV
 70
     6
  9
$UCSBASE
  2

  9
$UCSNAME
  2

  9
$UCSORG
 10
0.0
 20
0.0
 30
0.0
  9
$UCSXDIR
 10
1.0
 20
0.0
 30
0.0
  9
$UCSYDIR
 10
0.0
 20
1.0
 30
0.0
  9
$UCSORTHOREF
  2

  9
$UCSORTHOVIEW
 70
     0
  9
$UCSORGTOP
 10
0.0
 20
0.0
 30
0.0
  9
$UCSORGBOTTOM
 10
0.0
 20
0.0
 30
0.0
  9
$UCSORGLEFT
 10
0.0
 20
0.0
 30
0.0
  9
$UCSORGRIGHT
 10
0.0
 20
0.0
 30
0.0
  9
$UCSORGFRONT
 10
0.0
 20
0.0
 30
0.0
  9
$UCSORGBACK
 10
0.0
 20
0.0
 30
0.0
  9
$PUCSBASE
  2

  9
$PUCSNAME
  2

  9
$PUCSORG
 10
0.0
 20
0.0
 30
0.0
  9
$PUCSXDIR
 10
1.0
 20
0.0
 30
0.0
  9
$PUCSYDIR
 10
0.0
 20
1.0
 30
0.0
  9
$PUCSORTHOREF
  2

  9
$PUCSORTHOVIEW
 70
     0
  9
$PUCSORGTOP
 10
0.0
 20
0.0
 30
0.0
  9
$PUCSORGBOTTOM
 10
0.0
 20
0.0
 30
0.0
  9
$PUCSORGLEFT
 10
0.0
 20
0.0
 30
0.0
  9
$PUCSORGRIGHT
 10
0.0
 20
0.0
 30
0.0
  9
$PUCSORGFRONT
 10
0.0
 20
0.0
 30
0.0
  9
$PUCSORGBACK
 10
0.0
 20
0.0
 30
0.0
  9
$USERI1
 70
     0
  9
$USERI2
 70
     0
  9
$USERI3
 70
     0
  9
$USERI4
 70
     0
  9
$USERI5
 70
     0
  9
$USERR1
 40
0.0
  9
$USERR2
 40
0.0
  9
$USERR3
 40
0.0
  9
$USERR4
 40
0.0
  9
$USERR5
 40
0.0
  9
$WORLDVIEW
 70
     1
  9
$SHADEDGE
 70
     3
  9
$SHADEDIF
 70
    70
  9
$TILEMODE
 70
     1
  9
$MAXACTVP
 70
    64
  9
$PINSBASE
 10
0.0
 20
0.0
 30
0.0
  9
$PLIMCHECK
 70
     0
  9
$PEXTMIN
 10
1.000000000000000E+20
 20
1.000000000000000E+20
 30
1.000000000000000E+20
  9
$PEXTMAX
 10
-1.000000000000000E+20
 20
-1.000000000000000E+20
 30
-1.000000000000000E+20
  9
$PLIMMIN
 10
0.0
 20
0.0
  9
$PLIMMAX
 10
12.0
 20
9.0
  9
$UNITMODE
 70
     0
  9
$VISRETAIN
 70
     1
  9
$PLINEGEN
 70
     0
  9
$PSLTSCALE
 70
     1
  9
$TREEDEPTH
 70
  3020
  9
$CMLSTYLE
  2
Standard
  9
$CMLJUST
 70
     0
  9
$CMLSCALE
 40
1.0
  9
$PROXYGRAPHICS
 70
     1
  9
$MEASUREMENT
 70
     0
  9
$CELWEIGHT
370
    -1
  9
$ENDCAPS
280
     0
  9
$JOINSTYLE
280
     0
  9
$LWDISPLAY
290
     0
  9
$INSUNITS
 70
     1
  9
$HYPERLINKBASE
  1

  9
$STYLESHEET
  1

  9
$XEDIT
290
     1
  9
$CEPSNTYPE
380
     0
  9
$PSTYLEMODE
290
     1
  9
$FINGERPRINTGUID
  2
{4D2B9B4B-1FD8-4ECC-9F89-6DD8A5C44FDD}
  9
$VERSIONGUID
  2
{FAEB1C32-E019-11D5-929B-00C0DF256EC4}
  9
$EXTNAMES
290
     1
  9
$PSVPSCALE
 40
0.0
  9
$OLESTARTUP
290
     0
  9
$SORTENTS
280
   127
  9
$INDEXCTL
280
     0
  9
$HIDETEXT
280
     1
  9
$XCLIPFRAME
280
     2
  9
$HALOGAP
280
     0
  9
$OBSCOLOR
 70
   257
  9
$OBSLTYPE
280
     0
  9
$INTERSECTIONDISPLAY
280
     0
  9
$INTERSECTIONCOLOR
 70
   257
  9
$DIMASSOC
280
     2
  9
$PROJECTNAME
  1

  9
$CAMERADISPLAY
290
     0
  9
$LENSLENGTH
 40
50.0
  9
$CAMERAHEIGHT
 40
0.0
  9
$STEPSPERSEC
 40
2.0
  9
$STEPSIZE
 40
6.0
  9
$3DDWFPREC
 40
2.0
  9
$PSOLWIDTH
 40
0.25
  9
$PSOLHEIGHT
 40
4.0
  9
$LOFTANG1
 40
1.570796326794897
  9
$LOFTANG2
 40
1.570796326794897
  9
$LOFTMAG1
 40
0.0
  9
$LOFTMAG2
 40
0.0
  9
$LOFTPARAM
 70
     7
  9
$LOFTNORMALS
280
     1
  9
$LATITUDE
 40
37.795
  9
$LONGITUDE
 40
-122.394
  9
$NORTHDIRECTION
 40
0.0
  9
$TIMEZONE
 70
 -8000
  9
$LIGHTGLYPHDISPLAY
280
     1
  9
$TILEMODELIGHTSYNCH
280
     1
  9
$CMATERIAL
347
44
  9
$SOLIDHIST
280
     0
  9
$SHOWHIST
280
     1
  9
$DWFFRAME
280
     2
  9
$DGNFRAME
280
     2
  9
$REALWORLDSCALE
290
     1
  9
$INTERFERECOLOR
 62
   256
  9
$CSHADOW
280
     0
  9
$SHADOWPLANELOCATION
 40
0.0
  0
ENDSEC
  0
SECTION
  2
CLASSES
  0
CLASS
  1
ACDBDICTIONARYWDFLT
  2
AcDbDictionaryWithDefault
  3
ObjectDBX Classes
 90
        0
 91
        4
280
     0
281
     0
  0
CLASS
  1
VISUALSTYLE
  2
AcDbVisualStyle
  3
ObjectDBX Classes
 90
     4095
 91
        4
280
     0
281
     0
  0
CLASS
  1
MATERIAL
  2
AcDbMaterial
  3
ObjectDBX Classes
 90
     1153
 91
        4
280
     0
281
     0
  0
CLASS
  1
SCALE
  2
AcDbScale
  3
ObjectDBX Classes
 90
     1153
 91
        4
280
     0
281
     0
  0
CLASS
  1
TABLESTYLE
  2
AcDbTableStyle
  3
ObjectDBX Classes
 90
     4095
 91
        4
280
     0
281
     0
  0
CLASS
  1
MLEADERSTYLE
  2
AcDbMLeaderStyle
  3
ACDB_MLEADERSTYLE_CLASS
 90
     4095
 91
        4
280
     0
281
     0
  0
CLASS
  1
SUN
  2
AcDbSun
  3
SCENEOE
 90
     1153
 91
        4
280
     0
281
     0
  0
CLASS
  1
DICTIONARYVAR
  2
AcDbDictionaryVar
  3
ObjectDBX Classes
 90
        0
 91
        4
280
     0
281
     0
  0
CLASS
  1
CELLSTYLEMAP
  2
AcDbCellStyleMap
  3
ObjectDBX Classes
 90
     1152
 91
        4
280
     0
281
     0
  0
ENDSEC
  0
SECTION
  2
TABLES
  0
TABLE
  2
VPORT
  5
8
330
0
100
AcDbSymbolTable
 70
     1
  0
VPORT
  5
29
330
8
100
AcDbSymbolTableRecord
100
AcDbViewportTableRecord
  2
*Active
 70
     0
 10
0.0
 20
0.0
 11
1.0
 21
1.0
 12
-1.1555
 22
0.0
 13
0.0
 23
0.0
 14
0.5
 24
0.5
 15
0.5
 25
0.5
 16
0.0
 26
0.0
 36
1.0
 17
0.0
 27
0.0
 37
0.0
 40
6.63
 41
0.3801538461538462
 42
50.0
 43
0.0
 44
0.0
 50
0.0
 51
0.0
 71
     0
 72
   100
 73
     1
 74
     3
 75
     0
 76
     0
 77
     0
 78
     0
281
     0
 65
     1
110
0.0
120
0.0
130
0.0
111
1.0
121
0.0
131
0.0
112
0.0
122
1.0
132
0.0
 79
     0
146
0.0
348
2F
 60
     3
 61
     5
292
     1
282
     1
141
0.0
142
0.0
 63
   250
361
6D
  0
ENDTAB
  0
TABLE
  2
LTYPE
  5
5
330
0
100
AcDbSymbolTable
 70
     3
  0
LTYPE
  5
14
330
5
100
AcDbSymbolTableRecord
100
AcDbLinetypeTableRecord
  2
ByBlock
 70
     0
  3

 72
    65
 73
     0
 40
0.0
  0
LTYPE
  5
15
330
5
100
AcDbSymbolTableRecord
100
AcDbLinetypeTableRecord
  2
ByLayer
 70
     0
  3

 72
    65
 73
     0
 40
0.0
  0
LTYPE
  5
16
330
5
100
AcDbSymbolTableRecord
100
AcDbLinetypeTableRecord
  2
Continuous
 70
     0
  3
Solid line
 72
    65
 73
     0
 40
0.0
  0
LTYPE
  5
93
330
5
100
AcDbSymbolTableRecord
100
AcDbLinetypeTableRecord
  2
Dashed
 70
     0
  3

 72
    65
 73
     2
 40
2.0
 49
1.0
 74
     0
 49
-1.0
 74
     0
  0
LTYPE
  5
FA
330
5
100
AcDbSymbolTableRecord
100
AcDbLinetypeTableRecord
  2
Center
 70
     0
  3

 72
    65
 73
     4
 40
1.5
 49
0.45
 74
     0
 49
-0.5
 74
     0
 49
0.05
 74
     0
 49
-0.5
 74
     0
  0
ENDTAB
  0
TABLE
  2
LAYER
  5
2
330
0
100
AcDbSymbolTable
 70
     7
  0
LAYER
  5
10
330
2
100
AcDbSymbolTableRecord
100
AcDbLayerTableRecord
  2
0
 70
     0
 62
     7
  6
Continuous
370
    -3
390
F
347
46
348
0
  0
LAYER
  5
72
330
2
100
AcDbSymbolTableRecord
100
AcDbLayerTableRecord
  2
AM_6
 70
     0
 62
    -2
  6
Continuous
370
    35
390
F
347
46
348
0
  0
LAYER
  5
94
330
2
100
AcDbSymbolTableRecord
100
AcDbLayerTableRecord
  2
AM_9
 70
     0
 62
     6
  6
Dashed
370
    25
390
F
347
46
348
0
  0
LAYER
  5
A6
330
2
100
AcDbSymbolTableRecord
100
AcDbLayerTableRecord
  2
AM_5
 70
     0
 62
     3
  6
Continuous
370
    25
390
F
347
46
348
0
  0
LAYER
  5
A9
330
2
100
AcDbSymbolTableRecord
100
AcDbLayerTableRecord
  2
AM_4
 70
     0
 62
     7
  6
Continuous
370
    50
390
F
347
46
348
0
  0
LAYER
  5
FB
330
2
100
AcDbSymbolTableRecord
100
AcDbLayerTableRecord
  2
AM_7
 70
     0
 62
     7
  6
Center
370
    25
390
F
347
46
348
0
  0
LAYER
  5
15D
330
2
100
AcDbSymbolTableRecord
100
AcDbLayerTableRecord
  2
ConnectionPoints
 70
     0
 62
     7
  6
Continuous
370
    50
390
F
347
46
348
0
  0
ENDTAB
  0
TABLE
  2
STYLE
  5
3
330
0
100
AcDbSymbolTable
 70
     1
  0
STYLE
  5
11
330
3
100
AcDbSymbolTableRecord
100
AcDbTextStyleTableRecord
  2
Standard
 70
     0
 40
0.0
 41
1.0
 50
0.0
 71
     0
 42
0.2
  3
txt
  4

  0
ENDTAB
  0
TABLE
  2
VIEW
  5
6
330
0
100
AcDbSymbolTable
 70
     0
  0
ENDTAB
  0
TABLE
  2
UCS
  5
7
330
0
100
AcDbSymbolTable
 70
     0
  0
ENDTAB
  0
TABLE
  2
APPID
  5
9
330
0
100
AcDbSymbolTable
 70
     1
  0
APPID
  5
12
330
9
100
AcDbSymbolTableRecord
100
AcDbRegAppTableRecord
  2
ACAD
 70
     0
  0
ENDTAB
  0
TABLE
  2
DIMSTYLE
  5
A
330
0
100
AcDbSymbolTable
 70
     1
100
AcDbDimStyleTable
  0
DIMSTYLE
105
27
330
A
100
AcDbSymbolTableRecord
100
AcDbDimStyleTableRecord
  2
Standard
 70
     0
178
     0
340
11
  0
ENDTAB
  0
TABLE
  2
BLOCK_RECORD
  5
1
330
0
100
AcDbSymbolTable
 70
     5
  0
BLOCK_RECORD
  5
1F
330
1
100
AcDbSymbolTableRecord
100
AcDbBlockTableRecord
  2
*Model_Space
340
22
 70
     0
280
     1
281
     0
  0
BLOCK_RECORD
  5
1B
330
1
100
AcDbSymbolTableRecord
100
AcDbBlockTableRecord
  2
*Paper_Space
340
1E
 70
     0
280
     1
281
     0
  0
BLOCK_RECORD
  5
23
330
1
100
AcDbSymbolTableRecord
100
AcDbBlockTableRecord
  2
*Paper_Space0
340
26
 70
     0
280
     1
281
     0
  0
BLOCK_RECORD
  5
6E
330
1
100
AcDbSymbolTableRecord
100
AcDbBlockTableRecord
  2
1_068809_2
340
0
102
{BLKREFS
331
6F
102
}
 70
     0
280
     1
281
     0
  0
BLOCK_RECORD
  5
88
330
1
100
AcDbSymbolTableRecord
100
AcDbBlockTableRecord
  2
2_430026_0_in_068809_2
340
0
102
{BLKREFS
331
89
102
}
 70
     0
280
     1
281
     0
  0
BLOCK_RECORD
  5
B2
330
1
100
AcDbSymbolTableRecord
100
AcDbBlockTableRecord
  2
3_389933_0_in_068809_2
340
0
102
{BLKREFS
331
B3
102
}
 70
     0
280
     1
281
     0
  0
BLOCK_RECORD
  5
10B
330
1
100
AcDbSymbolTableRecord
100
AcDbBlockTableRecord
  2
4_068809vsc_0_in_068809_2
340
0
102
{BLKREFS
331
10C
102
}
 70
     0
280
     1
281
     0
  0
ENDTAB
  0
ENDSEC
  0
SECTION
  2
BLOCKS
  0
BLOCK
  5
20
330
1F
100
AcDbEntity
  8
0
100
AcDbBlockBegin
  2
*Model_Space
 70
     0
 10
0.0
 20
0.0
 30
0.0
  3
*Model_Space
  1

  0
ENDBLK
  5
21
330
1F
100
AcDbEntity
  8
0
100
AcDbBlockEnd
  0
BLOCK
  5
1C
330
1B
100
AcDbEntity
 67
     1
  8
0
100
AcDbBlockBegin
  2
*Paper_Space
 70
     0
 10
0.0
 20
0.0
 30
0.0
  3
*Paper_Space
  1

  0
ENDBLK
  5
1D
330
1B
100
AcDbEntity
 67
     1
  8
0
100
AcDbBlockEnd
  0
BLOCK
  5
24
330
23
100
AcDbEntity
  8
0
100
AcDbBlockBegin
  2
*Paper_Space0
 70
     0
 10
0.0
 20
0.0
 30
0.0
  3
*Paper_Space0
  1

  0
ENDBLK
  5
25
330
23
100
AcDbEntity
  8
0
100
AcDbBlockEnd
  0
BLOCK
  5
70
330
6E
100
AcDbEntity
  8
0
100
AcDbBlockBegin
  2
1_068809_2
 70
     2
 10
0.0
 20
0.0
 30
0.0
  3
1_068809_2
  1

  0
ATTDEF
  5
73
330
6E
100
AcDbEntity
  8
AM_6
100
AcDbText
 10
5.08
 20
3.25
 30
0.0
 40
0.5
  1
Set Screw Internmediate Duty Four-Bolt Flange Inch Bore
100
AcDbAttributeDefinition
  3

  2
NN
 70
     8
280
     0
  0
ATTDEF
  5
74
330
6E
100
AcDbEntity
  8
AM_6
100
AcDbText
 10
5.08
 20
2.75
 30
0.0
 40
0.5
  1
VSC Intermediate Duty 4-Bolt Flange Bearings
100
AcDbAttributeDefinition
  3

  2
NT
 70
     8
280
     0
  0
ATTDEF
  5
75
330
6E
100
AcDbEntity
  8
AM_6
100
AcDbText
 10
5.08
 20
2.25
 30
0.0
 40
0.5
  1
068809
100
AcDbAttributeDefinition
  3

  2
NB
 70
     8
280
     0
  0
ATTDEF
  5
76
330
6E
100
AcDbEntity
  8
AM_6
100
AcDbText
 10
5.08
 20
1.75
 30
0.0
 40
0.5
  1
$PN.
100
AcDbAttributeDefinition
  3

  2
NBSYN
 70
     8
280
     0
  0
ATTDEF
  5
77
330
6E
100
AcDbEntity
  8
AM_6
100
AcDbText
 10
5.08
 20
1.25
 30
0.0
 40
0.5
  1
068809
100
AcDbAttributeDefinition
  3

  2
LINA
 70
     8
280
     0
  0
ATTDEF
  5
78
330
6E
100
AcDbEntity
  8
AM_6
100
AcDbText
 10
5.08
 20
0.75
 30
0.0
 40
0.5
  1
211
100
AcDbAttributeDefinition
  3

  2
RS
 70
     8
280
     0
  0
ATTDEF
  5
79
330
6E
100
AcDbEntity
  8
AM_6
100
AcDbText
 10
5.08
 20
0.25
 30
0.0
 40
0.5
  1
2-3/16
100
AcDbAttributeDefinition
  3

  2
SS
 70
     8
280
     0
  0
ATTDEF
  5
7A
330
6E
100
AcDbEntity
  8
AM_6
100
AcDbText
 10
5.08
 20
-0.25
 30
0.0
 40
0.5
  1
068809
100
AcDbAttributeDefinition
  3

  2
PN
 70
     8
280
     0
  0
ATTDEF
  5
7B
330
6E
100
AcDbEntity
  8
AM_6
100
AcDbText
 10
5.08
 20
-0.75
 30
0.0
 40
0.5
  1
F4B-VSC-203-NL
100
AcDbAttributeDefinition
  3

  2
DESCRIPTION
 70
     8
280
     0
  0
ATTDEF
  5
7C
330
6E
100
AcDbEntity
  8
AM_6
100
AcDbText
 10
5.08
 20
-1.25
 30
0.0
 40
0.5
  1
NO-LUBE
100
AcDbAttributeDefinition
  3

  2
LF
 70
     8
280
     0
  0
ATTDEF
  5
7D
330
6E
100
AcDbEntity
  8
AM_6
100
AcDbText
 10
5.08
 20
-1.75
 30
0.0
 40
0.5
  1
9.00
100
AcDbAttributeDefinition
  3

  2
WEIGHT
 70
     8
280
     0
  0
ATTDEF
  5
7E
330
6E
100
AcDbEntity
  8
AM_6
100
AcDbText
 10
5.08
 20
-2.25
 30
0.0
 40
0.5
  1
2.22
100
AcDbAttributeDefinition
  3

  2
A
 70
     8
280
     0
  0
ATTDEF
  5
7F
330
6E
100
AcDbEntity
  8
AM_6
100
AcDbText
 10
5.08
 20
-2.75
 30
0.0
 40
0.5
  1
6.50
100
AcDbAttributeDefinition
  3

  2
B
 70
     8
280
     0
  0
ATTDEF
  5
80
330
6E
100
AcDbEntity
  8
AM_6
100
AcDbText
 10
5.08
 20
-3.25
 30
0.0
 40
0.5
  1
2.28
100
AcDbAttributeDefinition
  3

  2
C
 70
     8
280
     0
  0
ATTDEF
  5
81
330
6E
100
AcDbEntity
  8
AM_6
100
AcDbText
 10
5.08
 20
-3.75
 30
0.0
 40
0.5
  1
5.13
100
AcDbAttributeDefinition
  3

  2
D
 70
     8
280
     0
  0
ATTDEF
  5
82
330
6E
100
AcDbEntity
  8
AM_6
100
AcDbText
 10
5.08
 20
-4.25
 30
0.0
 40
0.5
  1
5/8
100
AcDbAttributeDefinition
  3

  2
F
 70
     8
280
     0
  0
ATTDEF
  5
83
330
6E
100
AcDbEntity
  8
AM_6
100
AcDbText
 10
5.08
 20
-4.75
 30
0.0
 40
0.5
  1
0.69
100
AcDbAttributeDefinition
  3

  2
H
 70
     8
280
     0
  0
ATTDEF
  5
84
330
6E
100
AcDbEntity
  8
AM_6
100
AcDbText
 10
5.08
 20
-5.25
 30
0.0
 40
0.5
  1
0.68
100
AcDbAttributeDefinition
  3

  2
J
 70
     8
280
     0
  0
ATTDEF
  5
85
330
6E
100
AcDbEntity
  8
AM_6
100
AcDbText
 10
5.08
 20
-5.75
 30
0.0
 40
0.5
  1
2.71
100
AcDbAttributeDefinition
  3

  2
L
 70
     8
280
     0
  0
ATTDEF
  5
86
330
6E
100
AcDbEntity
  8
AM_6
100
AcDbText
 10
5.08
 20
-6.25
 30
0.0
 40
0.5
  1
3.25
100
AcDbAttributeDefinition
  3

  2
N
 70
     8
280
     0
  0
ATTDEF
  5
87
330
6E
100
AcDbEntity
  8
AM_6
100
AcDbText
 10
5.08
 20
-6.75
 30
0.0
 40
0.5
  1
baldor
100
AcDbAttributeDefinition
  3

  2
COMPANY
 70
     8
280
     0
  0
INSERT
  5
89
330
6E
100
AcDbEntity
  8
0
100
AcDbBlockReference
  2
2_430026_0_in_068809_2
 10
0.0
 20
0.0
 30
0.0
  0
INSERT
  5
B3
330
6E
100
AcDbEntity
  8
0
100
AcDbBlockReference
  2
3_389933_0_in_068809_2
 10
0.0
 20
0.0
 30
0.0
  0
INSERT
  5
10C
330
6E
100
AcDbEntity
  8
0
100
AcDbBlockReference
  2
4_068809vsc_0_in_068809_2
 10
0.0
 20
0.0
 30
0.0
  0
ENDBLK
  5
71
330
6E
100
AcDbEntity
  8
0
100
AcDbBlockEnd
  0
BLOCK
  5
8A
330
88
100
AcDbEntity
  8
0
100
AcDbBlockBegin
  2
2_430026_0_in_068809_2
 70
     2
 10
0.0
 20
0.0
 30
0.0
  3
2_430026_0_in_068809_2
  1

  0
ATTDEF
  5
8C
330
88
100
AcDbEntity
  8
AM_6
100
AcDbText
 10
4.154381471828122
 20
2.957
 30
0.0
 40
0.5
  1
430026 Plug
100
AcDbAttributeDefinition
  3

  2
NN
 70
     8
280
     0
  0
ATTDEF
  5
8D
330
88
100
AcDbEntity
  8
AM_6
100
AcDbText
 10
4.154381471828122
 20
2.457
 30
0.0
 40
0.5
  1
Plug
100
AcDbAttributeDefinition
  3

  2
NT
 70
     8
280
     0
  0
ATTDEF
  5
8E
330
88
100
AcDbEntity
  8
AM_6
100
AcDbText
 10
4.154381471828122
 20
1.957
 30
0.0
 40
0.5
  1
430026
100
AcDbAttributeDefinition
  3

  2
NB
 70
     8
280
     0
  0
ATTDEF
  5
8F
330
88
100
AcDbEntity
  8
AM_6
100
AcDbText
 10
4.154381471828122
 20
1.457
 30
0.0
 40
0.5
  1
$PN.
100
AcDbAttributeDefinition
  3

  2
NBSYN
 70
     8
280
     0
  0
ATTDEF
  5
90
330
88
100
AcDbEntity
  8
AM_6
100
AcDbText
 10
4.154381471828122
 20
0.9570000000000003
 30
0.0
 40
0.5
  1
430026
100
AcDbAttributeDefinition
  3

  2
LINA
 70
     8
280
     0
  0
ATTDEF
  5
91
330
88
100
AcDbEntity
  8
AM_6
100
AcDbText
 10
4.154381471828122
 20
0.4570000000000003
 30
0.0
 40
0.5
  1
430026
100
AcDbAttributeDefinition
  3

  2
PN
 70
     8
280
     0
  0
ATTDEF
  5
92
330
88
100
AcDbEntity
  8
AM_6
100
AcDbText
 10
4.154381471828122
 20
-0.0429999999999997
 30
0.0
 40
0.5
  1
baldor
100
AcDbAttributeDefinition
  3

  2
COMPANY
 70
     8
280
     0
  0
LINE
  5
95
330
88
100
AcDbEntity
  8
AM_9
100
AcDbLine
 10
-0.9367468245269449
 20
2.832
 30
0.0
 11
-0.9367468245269449
 21
2.956253175473055
 31
0.0
  0
LINE
  5
96
330
88
100
AcDbEntity
  8
AM_9
100
AcDbLine
 10
-1.153253175473054
 20
2.832
 30
0.0
 11
-1.153253175473054
 21
2.956253175473055
 31
0.0
  0
LINE
  5
97
330
88
100
AcDbEntity
  8
AM_9
100
AcDbLine
 10
-1.153253175473054
 20
2.832
 30
0.0
 11
-0.9367468245269449
 21
2.832
 31
0.0
  0
LINE
  5
98
330
88
100
AcDbEntity
  8
AM_9
100
AcDbLine
 10
-0.9739981396416373
 20
2.769500000000001
 30
0.0
 11
-1.116001860358362
 21
2.769500000000001
 31
0.0
  0
LINE
  5
99
330
88
100
AcDbEntity
  8
AM_9
100
AcDbLine
 10
-0.9739981396416373
 20
2.769500000000001
 30
0.0
 11
-0.9512499999999996
 21
2.832
 31
0.0
  0
LINE
  5
9A
330
88
100
AcDbEntity
  8
AM_9
100
AcDbLine
 10
-1.13875
 20
2.832
 30
0.0
 11
-1.116001860358362
 21
2.769500000000001
 31
0.0
  0
LINE
  5
9B
330
88
100
AcDbEntity
  8
AM_9
100
AcDbLine
 10
-0.9908734122634723
 20
2.832
 30
0.0
 11
-0.9908734122634723
 21
2.956253175473055
 31
0.0
  0
LINE
  5
9C
330
88
100
AcDbEntity
  8
AM_9
100
AcDbLine
 10
-1.099126587736527
 20
2.832
 30
0.0
 11
-1.099126587736527
 21
2.956253175473055
 31
0.0
  0
LWPOLYLINE
  5
9D
330
88
100
AcDbEntity
  8
AM_9
100
AcDbPolyline
 90
        6
 70
     0
 43
0.0
 10
-0.9367468245269449
 20
2.956253175473055
 10
-0.9480279722169797
 20
2.946921014208125
 10
-0.9604109490826394
 20
2.941996169645694
 10
-0.9690862717618837
 20
2.942342003780897
 10
-0.9778770472748914
 20
2.945880419147163
 10
-0.9908734122634723
 20
2.956253175473055
  0
LWPOLYLINE
  5
9E
330
88
100
AcDbEntity
  8
AM_9
100
AcDbPolyline
 90
        7
 70
     0
 43
0.0
 10
-0.9908734122634723
 20
2.956253175473055
 10
-1.00467513593259
 20
2.950054677315912
 10
-1.02321279879083
 20
2.944248348747025
 10
-1.043065429783028
 20
2.941769958205837
 10
-1.061515187564806
 20
2.943193560287977
 10
-1.080036449994205
 20
2.94808304216098
 10
-1.099126587736527
 20
2.956253175473055
  0
LWPOLYLINE
  5
9F
330
88
100
AcDbEntity
  8
AM_9
100
AcDbPolyline
 90
        6
 70
     0
 43
0.0
 10
-1.099126587736527
 20
2.956253175473055
 10
-1.110407735426562
 20
2.946921014208125
 10
-1.122790712292222
 20
2.941996169645694
 10
-1.131466034971466
 20
2.942342003780897
 10
-1.140256810484474
 20
2.945880419147163
 10
-1.153253175473054
 20
2.956253175473055
  0
LINE
  5
A0
330
88
100
AcDbEntity
  8
AM_9
100
AcDbLine
 10
-0.87475054823426
 20
2.6445
 30
0.0
 11
-1.215249451765739
 21
2.6445
 31
0.0
  0
LINE
  5
A1
330
88
100
AcDbEntity
  8
AM_9
100
AcDbLine
 10
-0.87475054823426
 20
2.6445
 30
0.0
 11
-0.8541264614587053
 21
2.664490260520978
 31
0.0
  0
LINE
  5
A2
330
88
100
AcDbEntity
  8
AM_9
100
AcDbLine
 10
-1.235873538541294
 20
2.664490260520978
 30
0.0
 11
-1.215249451765739
 21
2.6445
 31
0.0
  0
LINE
  5
A3
330
88
100
AcDbEntity
  8
AM_9
100
AcDbLine
 10
-0.8541264614587053
 20
2.664490260520978
 30
0.0
 11
-1.235873538541294
 21
2.664490260520978
 31
0.0
  0
LINE
  5
A4
330
88
100
AcDbEntity
  8
AM_9
100
AcDbLine
 10
-0.8541264614587053
 20
2.664490260520978
 30
0.0
 11
-0.846617857574156
 21
2.905
 31
0.0
  0
LINE
  5
A5
330
88
100
AcDbEntity
  8
AM_9
100
AcDbLine
 10
-1.243382142425843
 20
2.905
 30
0.0
 11
-1.235873538541294
 21
2.664490260520978
 31
0.0
  0
LINE
  5
A7
330
88
100
AcDbEntity
  8
AM_5
100
AcDbLine
 10
-1.214504451765739
 20
2.6445
 30
0.0
 11
-1.222637142425843
 21
2.905
 31
0.0
  0
LINE
  5
A8
330
88
100
AcDbEntity
  8
AM_5
100
AcDbLine
 10
-0.87549554823426
 20
2.6445
 30
0.0
 11
-0.8673628575741559
 21
2.905
 31
0.0
  0
LINE
  5
AA
330
88
100
AcDbEntity
  8
AM_4
100
AcDbLine
 10
-0.846617857574156
 20
2.905
 30
0.0
 11
-0.845618528171878
 21
2.937009739479022
 31
0.0
  0
LINE
  5
AB
330
88
100
AcDbEntity
  8
AM_4
100
AcDbLine
 10
-1.244381471828121
 20
2.937009739479022
 30
0.0
 11
-1.243382142425843
 21
2.905
 31
0.0
  0
LINE
  5
AC
330
88
100
AcDbEntity
  8
AM_4
100
AcDbLine
 10
-0.845618528171878
 20
2.937009739479022
 30
0.0
 11
-1.244381471828121
 21
2.937009739479022
 31
0.0
  0
LINE
  5
AD
330
88
100
AcDbEntity
  8
AM_4
100
AcDbLine
 10
-0.8649944413963233
 20
2.957
 30
0.0
 11
-1.225005558603676
 21
2.957
 31
0.0
  0
LINE
  5
AE
330
88
100
AcDbEntity
  8
AM_4
100
AcDbLine
 10
-1.225005558603676
 20
2.957
 30
0.0
 11
-1.244381471828121
 21
2.937009739479022
 31
0.0
  0
LINE
  5
AF
330
88
100
AcDbEntity
  8
AM_4
100
AcDbLine
 10
-0.845618528171878
 20
2.937009739479022
 30
0.0
 11
-0.8649944413963233
 21
2.957
 31
0.0
  0
LINE
  5
B0
330
88
100
AcDbEntity
  8
AM_5
100
AcDbLine
 10
-1.222637142425843
 20
2.905
 30
0.0
 11
-1.224260558603676
 21
2.957
 31
0.0
  0
LINE
  5
B1
330
88
100
AcDbEntity
  8
AM_5
100
AcDbLine
 10
-0.8673628575741559
 20
2.905
 30
0.0
 11
-0.8657394413963232
 21
2.957
 31
0.0
  0
ENDBLK
  5
8B
330
88
100
AcDbEntity
  8
0
100
AcDbBlockEnd
  0
BLOCK
  5
B4
330
B2
100
AcDbEntity
  8
0
100
AcDbBlockBegin
  2
3_389933_0_in_068809_2
 70
     2
 10
0.0
 20
0.0
 30
0.0
  3
3_389933_0_in_068809_2
  1

  0
ATTDEF
  5
B6
330
B2
100
AcDbEntity
  8
AM_6
100
AcDbText
 10
4.94
 20
1.968059542428233
 30
0.0
 40
0.5
  1
Set Screw Intermediate Duty Insert Inch Bore
100
AcDbAttributeDefinition
  3

  2
NN
 70
     8
280
     0
  0
ATTDEF
  5
B7
330
B2
100
AcDbEntity
  8
AM_6
100
AcDbText
 10
4.94
 20
1.468059542428233
 30
0.0
 40
0.5
  1
VSC Intermediate Duty Bearing Inserts
100
AcDbAttributeDefinition
  3

  2
NT
 70
     8
280
     0
  0
ATTDEF
  5
B8
330
B2
100
AcDbEntity
  8
AM_6
100
AcDbText
 10
4.94
 20
0.9680595424282334
 30
0.0
 40
0.5
  1
389933
100
AcDbAttributeDefinition
  3

  2
NB
 70
     8
280
     0
  0
ATTDEF
  5
B9
330
B2
100
AcDbEntity
  8
AM_6
100
AcDbText
 10
4.94
 20
0.4680595424282334
 30
0.0
 40
0.5
  1
$PN.
100
AcDbAttributeDefinition
  3

  2
NBSYN
 70
     8
280
     0
  0
ATTDEF
  5
BA
330
B2
100
AcDbEntity
  8
AM_6
100
AcDbText
 10
4.94
 20
-0.0319404575717666
 30
0.0
 40
0.5
  1
389933
100
AcDbAttributeDefinition
  3

  2
LINA
 70
     8
280
     0
  0
ATTDEF
  5
BB
330
B2
100
AcDbEntity
  8
AM_6
100
AcDbText
 10
4.94
 20
-0.5319404575717666
 30
0.0
 40
0.5
  1
211
100
AcDbAttributeDefinition
  3

  2
SERIES
 70
     8
280
     0
  0
ATTDEF
  5
BC
330
B2
100
AcDbEntity
  8
AM_6
100
AcDbText
 10
4.94
 20
-1.031940457571767
 30
0.0
 40
0.5
  1
2-3/16
100
AcDbAttributeDefinition
  3

  2
SS
 70
     8
280
     0
  0
ATTDEF
  5
BD
330
B2
100
AcDbEntity
  8
AM_6
100
AcDbText
 10
4.94
 20
-1.531940457571767
 30
0.0
 40
0.5
  1
389933
100
AcDbAttributeDefinition
  3

  2
PN
 70
     8
280
     0
  0
ATTDEF
  5
BE
330
B2
100
AcDbEntity
  8
AM_6
100
AcDbText
 10
4.94
 20
-2.031940457571767
 30
0.0
 40
0.5
  1
INS-VSC-203
100
AcDbAttributeDefinition
  3

  2
DESCRIPTION
 70
     8
280
     0
  0
ATTDEF
  5
BF
330
B2
100
AcDbEntity
  8
AM_6
100
AcDbText
 10
4.94
 20
-2.531940457571767
 30
0.0
 40
0.5
  1
1.95
100
AcDbAttributeDefinition
  3

  2
WEIGHT
 70
     8
280
     0
  0
ATTDEF
  5
C0
330
B2
100
AcDbEntity
  8
AM_6
100
AcDbText
 10
4.94
 20
-3.031940457571767
 30
0.0
 40
0.5
  1
2.22
100
AcDbAttributeDefinition
  3

  2
A
 70
     8
280
     0
  0
ATTDEF
  5
C1
330
B2
100
AcDbEntity
  8
AM_6
100
AcDbText
 10
4.94
 20
-3.531940457571767
 30
0.0
 40
0.5
  1
0.94
100
AcDbAttributeDefinition
  3

  2
C
 70
     8
280
     0
  0
ATTDEF
  5
C2
330
B2
100
AcDbEntity
  8
AM_6
100
AcDbText
 10
4.94
 20
-4.031940457571767
 30
0.0
 40
0.5
  1
3.9370
100
AcDbAttributeDefinition
  3

  2
D
 70
     8
280
     0
  0
ATTDEF
  5
C3
330
B2
100
AcDbEntity
  8
AM_6
100
AcDbText
 10
4.94
 20
-4.531940457571767
 30
0.0
 40
0.5
  1
0.250
100
AcDbAttributeDefinition
  3

  2
J
 70
     8
280
     0
  0
ATTDEF
  5
C4
330
B2
100
AcDbEntity
  8
AM_6
100
AcDbText
 10
4.94
 20
-5.031940457571767
 30
0.0
 40
0.5
  1
2.71
100
AcDbAttributeDefinition
  3

  2
L
 70
     8
280
     0
  0
ATTDEF
  5
C5
330
B2
100
AcDbEntity
  8
AM_6
100
AcDbText
 10
4.94
 20
-5.531940457571767
 30
0.0
 40
0.5
  1
3/8-24
100
AcDbAttributeDefinition
  3

  2
N
 70
     8
280
     0
  0
ATTDEF
  5
C6
330
B2
100
AcDbEntity
  8
AM_6
100
AcDbText
 10
4.94
 20
-6.031940457571767
 30
0.0
 40
0.5
  1
0.87
100
AcDbAttributeDefinition
  3

  2
W
 70
     8
280
     0
  0
ATTDEF
  5
C7
330
B2
100
AcDbEntity
  8
AM_6
100
AcDbText
 10
4.94
 20
-6.531940457571767
 30
0.0
 40
0.5
  1
1.35
100
AcDbAttributeDefinition
  3

  2
Y
 70
     8
280
     0
  0
ATTDEF
  5
C8
330
B2
100
AcDbEntity
  8
AM_6
100
AcDbText
 10
4.94
 20
-7.031940457571767
 30
0.0
 40
0.5
  1
baldor
100
AcDbAttributeDefinition
  3

  2
COMPANY
 70
     8
280
     0
  0
ARC
  5
C9
330
B2
100
AcDbEntity
  8
AM_9
100
AcDbCircle
 10
-0.6800000000000065
 20
0.0000000000000015
 30
0.0
 40
0.1250000000000067
100
AcDbArc
 50
354.4108305125858
 51
0.0
  0
ARC
  5
CA
330
B2
100
AcDbEntity
  8
AM_9
100
AcDbCircle
 10
-0.6799999999999997
 20
-0.0000000000000016
 30
0.0
 40
0.1249999999999984
100
AcDbArc
 50
300.6252141514836
 51
312.4977467796583
  0
ARC
  5
CB
330
B2
100
AcDbEntity
  8
AM_9
100
AcDbCircle
 10
-0.6799999999999986
 20
0.0000000000000686
 30
0.0
 40
0.1249999999999313
100
AcDbArc
 50
90.0
 51
91.7378874592184
  0
CIRCLE
  5
CC
330
B2
100
AcDbEntity
  8
AM_9
100
AcDbCircle
 10
-0.6799999999999998
 20
0.0
 30
0.0
 40
0.0395454545454537
  0
LINE
  5
CD
330
B2
100
AcDbEntity
  8
AM_9
100
AcDbLine
 10
-1.74005
 20
1.09375
 30
0.0
 11
-1.74005
 21
1.33245
 31
0.0
  0
LINE
  5
CE
330
B2
100
AcDbEntity
  8
AM_9
100
AcDbLine
 10
-2.06995
 20
1.33245
 30
0.0
 11
-2.06995
 21
1.09375
 31
0.0
  0
LINE
  5
CF
330
B2
100
AcDbEntity
  8
AM_9
100
AcDbLine
 10
-2.06995
 20
1.33245
 30
0.0
 11
-1.74005
 21
1.33245
 31
0.0
  0
LINE
  5
D0
330
B2
100
AcDbEntity
  8
AM_9
100
AcDbLine
 10
-1.74005
 20
1.33245
 30
0.0
 11
-1.7175
 21
1.355
 31
0.0
  0
LINE
  5
D1
330
B2
100
AcDbEntity
  8
AM_9
100
AcDbLine
 10
-2.0925
 20
1.355
 30
0.0
 11
-2.06995
 21
1.33245
 31
0.0
  0
LWPOLYLINE
  5
D2
330
B2
100
AcDbEntity
  8
AM_9
100
AcDbPolyline
 90
       20
 70
     0
 43
0.0
 10
-2.06995
 20
1.09375
 10
-2.067704387875519
 20
1.093413589559755
 10
-2.060773437516763
 20
1.092403736644923
 10
-2.049751547308716
 20
1.09088659834479
 10
-2.034332131854019
 20
1.08894782259294
 10
-2.015651395071812
 20
1.086887432640261
 10
-1.993264475927564
 20
1.084836936000415
 10
-1.968903270463301
 20
1.083127041475701
 10
-1.941951574027851
 20
1.081871516781515
 10
-1.914912231776436
 20
1.081285721878723
 10
-1.886790900768674
 20
1.081393606091148
 10
-1.860199758620185
 20
1.082168019129973
 10
-1.834130782227404
 20
1.083560337972787
 10
-1.810649766278718
 20
1.085349034460003
 10
-1.789185495287503
 20
1.087425197198318
 10
-1.771333695731525
 20
1.08947108309344
 10
-1.756814501710758
 20
1.091347562375631
 10
-1.746848178959583
 20
1.092745422547448
 10
-1.741165196936113
 20
1.093582371243695
 10
-1.74005000000039
 20
1.093749999999941
  0
LINE
  5
D3
330
B2
100
AcDbEntity
  8
AM_9
100
AcDbLine
 10
-2.2258
 20
-1.09375
 30
0.0
 11
-0.96
 21
-1.09375
 31
0.0
  0
LINE
  5
D4
330
B2
100
AcDbEntity
  8
AM_9
100
AcDbLine
 10
-0.96
 20
1.09375
 30
0.0
 11
-1.74005
 21
1.09375
 31
0.0
  0
LINE
  5
D5
330
B2
100
AcDbEntity
  8
AM_9
100
AcDbLine
 10
-2.06995
 20
1.09375
 30
0.0
 11
-2.2258
 21
1.09375
 31
0.0
  0
LINE
  5
D6
330
B2
100
AcDbEntity
  8
AM_9
100
AcDbLine
 10
-0.0735499999999998
 20
-1.09375
 30
0.0
 11
-0.0599999999999996
 21
-1.1073
 31
0.0
  0
LINE
  5
D7
330
B2
100
AcDbEntity
  8
AM_9
100
AcDbLine
 10
-0.0599999999999996
 20
1.1073
 30
0.0
 11
-0.0735499999999998
 21
1.09375
 31
0.0
  0
LINE
  5
D8
330
B2
100
AcDbEntity
  8
AM_9
100
AcDbLine
 10
-2.2258
 20
1.09375
 30
0.0
 11
-2.28
 21
1.14795
 31
0.0
  0
LINE
  5
D9
330
B2
100
AcDbEntity
  8
AM_9
100
AcDbLine
 10
-2.28
 20
-1.14795
 30
0.0
 11
-2.2258
 21
-1.09375
 31
0.0
  0
LWPOLYLINE
  5
DA
330
B2
100
AcDbEntity
  8
AM_9
100
AcDbPolyline
 90
        4
 70
     0
 43
0.0
 10
-2.060153008083778
 20
0.5123860646663679
 10
-2.065756664535901
 20
0.4954689210748547
 10
-2.069651533511013
 20
0.4712088569632766
 10
-2.069949999417354
 20
0.4622512889299453
  0
LINE
  5
DB
330
B2
100
AcDbEntity
  8
AM_9
100
AcDbLine
 10
-1.74005
 20
0.4622328993548275
 30
0.0
 11
-1.74005
 21
0.5631177028563952
 31
0.0
  0
LINE
  5
DC
330
B2
100
AcDbEntity
  8
AM_9
100
AcDbLine
 10
-2.06995
 20
0.5631177028563952
 30
0.0
 11
-2.06995
 21
0.4622038663976528
 31
0.0
  0
LWPOLYLINE
  5
DD
330
B2
100
AcDbEntity
  8
AM_9
100
AcDbPolyline
 90
       21
 70
     0
 43
0.0
 10
-2.069949999417354
 20
0.4622512889299453
 10
-2.068942707308831
 20
0.445678637918245
 10
-2.063750017443618
 20
0.4212493061473699
 10
-2.053947470266436
 20
0.3970333969515064
 10
-2.040297075313437
 20
0.3749991459178639
 10
-2.022446920391286
 20
0.3546694015717797
 10
-2.001646894580325
 20
0.3376268388137445
 10
-1.977450178363269
 20
0.3236732724024815
 10
-1.951861228762201
 20
0.3140451103477576
 10
-1.924140120741247
 20
0.3085378501190703
 10
-1.896925950020694
 20
0.3076483610245895
 10
-1.869154857405578
 20
0.3112799767034335
 10
-1.843297207063753
 20
0.3190531537836094
 10
-1.818462255728222
 20
0.3311430875949091
 10
-1.796531681073656
 20
0.3466182586003217
 10
-1.777069780631651
 20
0.3657684415989377
 10
-1.761566187536123
 20
0.3871299131180861
 10
-1.749756946582564
 20
0.4111109200439284
 10
-1.742669437344025
 20
0.4355368013032314
 10
-1.740054150347678
 20
0.4611779697467066
 10
-1.740050000145975
 20
0.4622324344188969
  0
LWPOLYLINE
  5
DE
330
B2
100
AcDbEntity
  8
AM_9
100
AcDbPolyline
 90
        4
 70
     0
 43
0.0
 10
-1.740050000145975
 20
0.4622324344188969
 10
-1.742097286664008
 20
0.4855893728785639
 10
-1.748803149105225
 20
0.5097471241781522
 10
-1.750091705935718
 20
0.5129817059203404
  0
LINE
  5
DF
330
B2
100
AcDbEntity
  8
AM_9
100
AcDbLine
 10
-0.4599999999999997
 20
-1.355
 30
0.0
 11
-0.0735499999999995
 21
-1.355
 31
0.0
  0
LINE
  5
E0
330
B2
100
AcDbEntity
  8
AM_9
100
AcDbLine
 10
-0.0735499999999995
 20
1.355
 30
0.0
 11
-0.4599999999999997
 21
1.355
 31
0.0
  0
LINE
  5
E1
330
B2
100
AcDbEntity
  8
AM_9
100
AcDbLine
 10
-0.0599999999999996
 20
1.34145
 30
0.0
 11
-0.0735499999999995
 21
1.355
 31
0.0
  0
LINE
  5
E2
330
B2
100
AcDbEntity
  8
AM_9
100
AcDbLine
 10
-0.0735499999999995
 20
-1.355
 30
0.0
 11
-0.0599999999999996
 21
-1.34145
 31
0.0
  0
LINE
  5
E3
330
B2
100
AcDbEntity
  8
AM_9
100
AcDbLine
 10
-0.0735499999999995
 20
1.355
 30
0.0
 11
-0.0735499999999995
 21
-1.355
 31
0.0
  0
LINE
  5
E4
330
B2
100
AcDbEntity
  8
AM_9
100
AcDbLine
 10
-0.0599999999999996
 20
1.34145
 30
0.0
 11
-0.0599999999999996
 21
-1.34145
 31
0.0
  0
LINE
  5
E5
330
B2
100
AcDbEntity
  8
AM_9
100
AcDbLine
 10
-1.599999999999999
 20
-1.355
 30
0.0
 11
-1.399999999999999
 21
-1.355
 31
0.0
  0
LINE
  5
E6
330
B2
100
AcDbEntity
  8
AM_9
100
AcDbLine
 10
-1.399999999999999
 20
1.355
 30
0.0
 11
-1.599999999999999
 21
1.355
 31
0.0
  0
LINE
  5
E7
330
B2
100
AcDbEntity
  8
AM_9
100
AcDbLine
 10
-1.23
 20
-1.885166666666666
 30
0.0
 11
-1.13
 21
-1.885166666666666
 31
0.0
  0
LINE
  5
E8
330
B2
100
AcDbEntity
  8
AM_9
100
AcDbLine
 10
-1.13
 20
1.885166666666667
 30
0.0
 11
-1.23
 21
1.885166666666667
 31
0.0
  0
LINE
  5
E9
330
B2
100
AcDbEntity
  8
AM_9
100
AcDbLine
 10
-0.4599999999999997
 20
1.871962139040211
 30
0.0
 11
-0.4599999999999997
 21
-1.87196213904021
 31
0.0
  0
ARC
  5
EA
330
B2
100
AcDbEntity
  8
AM_9
100
AcDbCircle
 10
-0.5099999999999999
 20
-1.871962139040209
 30
0.0
 40
0.0500000000000003
100
AcDbArc
 50
282.6456679286595
 51
0.0
  0
ARC
  5
EB
330
B2
100
AcDbEntity
  8
AM_9
100
AcDbCircle
 10
-0.5100000000000007
 20
1.87196213904021
 30
0.0
 40
0.050000000000001
100
AcDbArc
 50
0.0
 51
77.35433207133985
  0
LINE
  5
EC
330
B2
100
AcDbEntity
  8
AM_9
100
AcDbLine
 10
-1.399999999999999
 20
1.87196213904021
 30
0.0
 11
-1.399999999999999
 21
-1.87196213904021
 31
0.0
  0
ARC
  5
ED
330
B2
100
AcDbEntity
  8
AM_9
100
AcDbCircle
 10
-1.35
 20
-1.87196213904021
 30
0.0
 40
0.0499999999999998
100
AcDbArc
 50
180.0
 51
257.3543320713409
  0
ARC
  5
EE
330
B2
100
AcDbEntity
  8
AM_9
100
AcDbCircle
 10
-1.349999999999999
 20
1.87196213904021
 30
0.0
 40
0.0500000000000004
100
AcDbArc
 50
102.6456679286595
 51
180.0
  0
ARC
  5
EF
330
B2
100
AcDbEntity
  8
AM_9
100
AcDbCircle
 10
-0.930000000000094
 20
0.0000000000005069
 30
0.0
 40
1.968499999999485
100
AcDbArc
 50
98.76605344787473
 51
102.6456679286598
  0
ARC
  5
F0
330
B2
100
AcDbEntity
  8
AM_9
100
AcDbCircle
 10
-0.9299999998739759
 20
0.0000000006669767
 30
0.0
 40
1.968500000678
100
AcDbArc
 50
257.3543320720091
 51
261.2339465514564
  0
LINE
  5
F1
330
B2
100
AcDbEntity
  8
AM_9
100
AcDbLine
 10
-1.360946051602814
 20
1.920749268022233
 30
0.0
 11
-1.360946051602814
 21
-1.920749268021837
 31
0.0
  0
LINE
  5
F2
330
B2
100
AcDbEntity
  8
AM_9
100
AcDbLine
 10
-1.23
 20
1.945505654065287
 30
0.0
 11
-1.23
 21
-1.945505654064891
 31
0.0
  0
LWPOLYLINE
  5
F3
330
B2
100
AcDbEntity
  8
AM_9
100
AcDbPolyline
 90
       38
 70
     0
 43
0.0
 10
-0.6098285777503805
 20
-0.1034455001412125
 10
-0.5935030896071561
 20
-0.0902228676348486
 10
-0.5795874458212166
 20
-0.0744467525369168
 10
-0.568520156690785
 20
-0.0565156892705994
 10
-0.5605916027506987
 20
-0.0369680222131656
 10
-0.5561016021305435
 20
-0.0164614193622374
 10
-0.5550815164912866
 20
0.0045135881384257
 10
-0.5575915182955405
 20
0.0252591269938161
 10
-0.563494559943045
 20
0.0452932935116812
 10
-0.5726671633013938
 20
0.0640436252230973
 10
-0.5847963675351937
 20
0.0810016565602588
 10
-0.599656461548166
 20
0.095743780492838
 10
-0.6167308399443854
 20
0.1078054422831104
 10
-0.6357191570024044
 20
0.1168809229229203
 10
-0.6559365045570732
 20
0.1226619263955538
 10
-0.6769774507845836
 20
0.1249510136481207
 10
-0.6981035766372214
 20
0.1236820945526887
 10
-0.7187778128641891
 20
0.1188196259203881
 10
-0.7383552794545256
 20
0.1105425771356186
 10
-0.756215744834865
 20
0.0990602133618658
 10
-0.7719109894535187
 20
0.0847193603474149
 10
-0.7848689912347884
 20
0.0680017836501965
 10
-0.7948556031572391
 20
0.0493273800580039
 10
-0.8014874512404083
 20
0.0293696463213427
 10
-0.8047056106437483
 20
0.0085738365957014
 10
-0.8043759133993693
 20
-0.0123478834925633
 10
-0.800586973188721
 20
-0.0329208428990302
 10
-0.7934140590825912
 20
-0.052527655758296
 10
-0.7831109264618665
 20
-0.0706621316135842
 10
-0.7698802229934142
 20
-0.0868532761529683
 10
-0.7541736769612212
 20
-0.1006144405443491
 10
-0.7362719745584432
 20
-0.1116038284901718
 10
-0.7168132837020373
 20
-0.1194561934060904
 10
-0.6961677645525173
 20
-0.1239375479661103
 10
-0.6750711074340975
 20
-0.1249027862702581
 10
-0.6540166558449112
 20
-0.1222567535005005
 10
-0.6336956323196595
 20
-0.1161073018105401
 10
-0.6098285777503805
 20
-0.1034455001412126
  0
ARC
  5
F4
330
B2
100
AcDbEntity
  8
AM_9
100
AcDbCircle
 10
-0.9300000000000141
 20
-0.0000000000002307
 30
0.0
 40
1.968500000000228
100
AcDbArc
 50
77.35433207134187
 51
95.83132474664075
  0
ARC
  5
F5
330
B2
100
AcDbEntity
  8
AM_9
100
AcDbCircle
 10
-0.930000000000125
 20
0.0000000000021341
 30
0.0
 40
1.968500000002082
100
AcDbArc
 50
264.168675253368
 51
282.6456679286494
  0
LINE
  5
F6
330
B2
100
AcDbEntity
  8
AM_9
100
AcDbLine
 10
-1.129999999999999
 20
1.958313624014295
 30
0.0
 11
-1.129999999999999
 21
-1.958313624014266
 31
0.0
  0
LINE
  5
F7
330
B2
100
AcDbEntity
  8
AM_9
100
AcDbLine
 10
-0.499053948397185
 20
1.920749268022233
 30
0.0
 11
-0.499053948397185
 21
-1.920749268022204
 31
0.0
  0
LINE
  5
F8
330
B2
100
AcDbEntity
  8
AM_5
100
AcDbLine
 10
-1.7175
 20
1.355
 30
0.0
 11
-1.7175
 21
1.09375
 31
0.0
  0
LINE
  5
F9
330
B2
100
AcDbEntity
  8
AM_5
100
AcDbLine
 10
-2.0925
 20
1.355
 30
0.0
 11
-2.0925
 21
1.09375
 31
0.0
  0
LINE
  5
FC
330
B2
100
AcDbEntity
  8
AM_7
100
AcDbLine
 10
-0.6799999999999998
 20
-0.0415227272727263
 30
0.0
 11
-0.6799999999999998
 21
0.0415227272727264
 31
0.0
  0
LINE
  5
FD
330
B2
100
AcDbEntity
  8
AM_7
100
AcDbLine
 10
-1.905
 20
1.373034090909091
 30
0.0
 11
-1.905
 21
0.976284090909091
 31
0.0
  0
LWPOLYLINE
  5
FE
330
B2
100
AcDbEntity
  8
AM_4
100
AcDbPolyline
 90
        9
 70
     0
 43
0.0
 10
-1.905
 20
0.6064473604332055
 10
-1.932123268012242
 20
0.6045562106896353
 10
-1.959246536024484
 20
0.5987066194561638
 10
-1.984085374435054
 20
0.5893651615315848
 10
-2.007372175774567
 20
0.5762159262279791
 10
-2.027325318030654
 20
0.5601564338815448
 10
-2.044345573302795
 20
0.5407293620763246
 10
-2.057066758104996
 20
0.5193691068462618
 10
-2.060153008083778
 20
0.5123860646663679
  0
ELLIPSE
  5
FF
330
B2
100
AcDbEntity
  8
AM_4
100
AcDbEllipse
 10
-1.905
 20
0.5631177028563951
 30
0.0
 11
0.1649499999999997
 21
0.0
 31
0.0
210
0.0
220
0.0
230
1.0
 40
0.9063077870366509
 41
1.570796326794897
 42
6.283185307179586
  0
ELLIPSE
  5
100
330
B2
100
AcDbEntity
  8
AM_4
100
AcDbEllipse
 10
-1.905
 20
0.5631177028563951
 30
0.0
 11
0.1649500000000002
 21
0.0
 31
0.0
210
0.0
220
0.0
230
1.0
 40
0.90630778703665
 41
0.0
 42
1.570796326794897
  0
LWPOLYLINE
  5
101
330
B2
100
AcDbEntity
  8
AM_4
100
AcDbPolyline
 90
        9
 70
     0
 43
0.0
 10
-1.750091705935718
 20
0.5129817059203404
 10
-1.759594088090371
 20
0.5316505388931388
 10
-1.774770057976469
 20
0.5520051475014256
 10
-1.793269372752828
 20
0.5693616529543554
 10
-1.81549793639764
 20
0.5840895186028878
 10
-1.839744911974823
 20
0.5950830540856952
 10
-1.866617736792874
 20
0.6026316621700284
 10
-1.885537044590011
 20
0.6054770728183875
 10
-1.905
 20
0.6064473604332055
  0
LINE
  5
102
330
B2
100
AcDbEntity
  8
AM_4
100
AcDbLine
 10
-2.28
 20
-1.3008
 30
0.0
 11
-2.2258
 21
-1.355
 31
0.0
  0
LINE
  5
103
330
B2
100
AcDbEntity
  8
AM_4
100
AcDbLine
 10
-2.2258
 20
1.355
 30
0.0
 11
-2.28
 21
1.3008
 31
0.0
  0
LINE
  5
104
330
B2
100
AcDbEntity
  8
AM_4
100
AcDbLine
 10
-2.28
 20
1.3008
 30
0.0
 11
-2.28
 21
-1.3008
 31
0.0
  0
LWPOLYLINE
  5
105
330
B2
100
AcDbEntity
  8
AM_4
100
AcDbPolyline
 90
       39
 70
     0
 43
0.0
 10
-1.753858043035758
 20
0.4766490966707548
 10
-1.772197435801979
 20
0.4577288189094068
 10
-1.79330826340052
 20
0.44146505240636
 10
-1.819903054976561
 20
0.426713153287813
 10
-1.848637332690595
 20
0.4161104591074276
 10
-1.880298726706038
 20
0.4097647575821627
 10
-1.912623910362025
 20
0.4084088733386477
 10
-1.94553060411455
 20
0.4122989551008458
 10
-1.977288602157157
 20
0.4213627899433652
 10
-2.006881931242762
 20
0.4354006619554642
 10
-2.03347650635961
 20
0.4539801829845175
 10
-2.055462874198243
 20
0.4758725124321871
 10
-2.072967792616352
 20
0.5008932303317434
 10
-2.084603299703844
 20
0.5265799122292407
 10
-2.091152756889303
 20
0.553519791480068
 10
-2.092322904313521
 20
0.5791458782376545
 10
-2.088704971773966
 20
0.6043388558361941
 10
-2.080612886054212
 20
0.6278343608050035
 10
-2.068382737348943
 20
0.6496572304573207
 10
-2.051853622588129
 20
0.6698482235742758
 10
-2.031903791804017
 20
0.6873755479431274
 10
-2.007609424481321
 20
0.7026968753482292
 10
-1.980803687798739
 20
0.7144633818289994
 10
-1.950460161813842
 20
0.7228226109423604
 10
-1.918921244526963
 20
0.7269078276991574
 10
-1.885932071284969
 20
0.7265297702653376
 10
-1.853475054555146
 20
0.7215311256511406
 10
-1.822288051745059
 20
0.7118491908233601
 10
-1.793509166030443
 20
0.6977068549384442
 10
-1.76860873516679
 20
0.6797171114390482
 10
-1.747775795426453
 20
0.6580353728656265
 10
-1.732598278370139
 20
0.6344812397016416
 10
-1.722424658213186
 20
0.6086641575459365
 10
-1.717932184402309
 20
0.5831540615652292
 10
-1.718393131904695
 20
0.5570747032714887
 10
-1.723564079092333
 20
0.5322172874795401
 10
-1.733097145999226
 20
0.5082643499802816
 10
-1.742511959138902
 20
0.491945811737825
 10
-1.753858042870166
 20
0.4766490964421222
  0
LINE
  5
106
330
B2
100
AcDbEntity
  8
AM_4
100
AcDbLine
 10
-2.2258
 20
-1.355
 30
0.0
 11
-1.599999999999999
 21
-1.355
 31
0.0
  0
LINE
  5
107
330
B2
100
AcDbEntity
  8
AM_4
100
AcDbLine
 10
-1.599999999999999
 20
1.355
 30
0.0
 11
-1.7175
 21
1.355
 31
0.0
  0
LINE
  5
108
330
B2
100
AcDbEntity
  8
AM_4
100
AcDbLine
 10
-2.0925
 20
1.355
 30
0.0
 11
-2.2258
 21
1.355
 31
0.0
  0
LINE
  5
109
330
B2
100
AcDbEntity
  8
AM_4
100
AcDbLine
 10
-2.2258
 20
1.355
 30
0.0
 11
-2.2258
 21
-1.355
 31
0.0
  0
LWPOLYLINE
  5
10A
330
B2
100
AcDbEntity
  8
AM_4
100
AcDbPolyline
 90
       20
 70
     0
 43
0.0
 10
-1.717500000000128
 20
1.354999999999985
 10
-1.71963685394838
 20
1.354741689616092
 10
-1.726182197553468
 20
1.353968372110081
 10
-1.737248235400463
 20
1.352722538367352
 10
-1.752234526457386
 20
1.351159331747634
 10
-1.771219770156022
 20
1.349385038676101
 10
-1.794026282494023
 20
1.347560199256693
 10
-1.820151107521064
 20
1.345883915252071
 10
-1.849305604684186
 20
1.344538650240523
 10
-1.880712441321534
 20
1.343712749253725
 10
-1.913103059480519
 20
1.343540278489053
 10
-1.946177766066314
 20
1.344076404716492
 10
-1.977511596577799
 20
1.34524681766842
 10
-2.007637649857581
 20
1.346977149074339
 10
-2.033446924866897
 20
1.34892824312632
 10
-2.056168422068478
 20
1.351001186649677
 10
-2.072822117085323
 20
1.352730213654097
 10
-2.084992006307455
 20
1.354105112053715
 10
-2.091115797845277
 20
1.354832344891771
 10
-2.092499999999704
 20
1.354999999999964
  0
ENDBLK
  5
B5
330
B2
100
AcDbEntity
  8
0
100
AcDbBlockEnd
  0
BLOCK
  5
10D
330
10B
100
AcDbEntity
  8
0
100
AcDbBlockBegin
  2
4_068809vsc_0_in_068809_2
 70
     2
 10
0.0
 20
0.0
 30
0.0
  3
4_068809vsc_0_in_068809_2
  1

  0
ATTDEF
  5
10F
330
10B
100
AcDbEntity
  8
AM_6
100
AcDbText
 10
5.08
 20
3.25
 30
0.0
 40
0.5
  1
F4B-VSC -Inch - housing
100
AcDbAttributeDefinition
  3

  2
NN
 70
     8
280
     0
  0
ATTDEF
  5
110
330
10B
100
AcDbEntity
  8
AM_6
100
AcDbText
 10
5.08
 20
2.75
 30
0.0
 40
0.5
  1
VSC Intermediate Duty 4-Bolt Flange Bearings
100
AcDbAttributeDefinition
  3

  2
NT
 70
     8
280
     0
  0
ATTDEF
  5
111
330
10B
100
AcDbEntity
  8
AM_6
100
AcDbText
 10
5.08
 20
2.25
 30
0.0
 40
0.5
  1
068809vsc
100
AcDbAttributeDefinition
  3

  2
NB
 70
     8
280
     0
  0
ATTDEF
  5
112
330
10B
100
AcDbEntity
  8
AM_6
100
AcDbText
 10
5.08
 20
1.75
 30
0.0
 40
0.5
  1
$PN.
100
AcDbAttributeDefinition
  3

  2
NBSYN
 70
     8
280
     0
  0
ATTDEF
  5
113
330
10B
100
AcDbEntity
  8
AM_6
100
AcDbText
 10
5.08
 20
1.25
 30
0.0
 40
0.5
  1
068809vsc
100
AcDbAttributeDefinition
  3

  2
LINA
 70
     8
280
     0
  0
ATTDEF
  5
114
330
10B
100
AcDbEntity
  8
AM_6
100
AcDbText
 10
5.08
 20
0.75
 30
0.0
 40
0.5
  1
211
100
AcDbAttributeDefinition
  3

  2
RS
 70
     8
280
     0
  0
ATTDEF
  5
115
330
10B
100
AcDbEntity
  8
AM_6
100
AcDbText
 10
5.08
 20
0.25
 30
0.0
 40
0.5
  1
2-3/16
100
AcDbAttributeDefinition
  3

  2
SS
 70
     8
280
     0
  0
ATTDEF
  5
116
330
10B
100
AcDbEntity
  8
AM_6
100
AcDbText
 10
5.08
 20
-0.25
 30
0.0
 40
0.5
  1
068809vsc
100
AcDbAttributeDefinition
  3

  2
PN
 70
     8
280
     0
  0
ATTDEF
  5
117
330
10B
100
AcDbEntity
  8
AM_6
100
AcDbText
 10
5.08
 20
-0.75
 30
0.0
 40
0.5
  1
F4B-VSC-203-NL
100
AcDbAttributeDefinition
  3

  2
DESCRIPTION
 70
     8
280
     0
  0
ATTDEF
  5
118
330
10B
100
AcDbEntity
  8
AM_6
100
AcDbText
 10
5.08
 20
-1.25
 30
0.0
 40
0.5
  1
NO-LUBE
100
AcDbAttributeDefinition
  3

  2
LF
 70
     8
280
     0
  0
ATTDEF
  5
119
330
10B
100
AcDbEntity
  8
AM_6
100
AcDbText
 10
5.08
 20
-1.75
 30
0.0
 40
0.5
  1
9.00
100
AcDbAttributeDefinition
  3

  2
WEIGHT
 70
     8
280
     0
  0
ATTDEF
  5
11A
330
10B
100
AcDbEntity
  8
AM_6
100
AcDbText
 10
5.08
 20
-2.25
 30
0.0
 40
0.5
  1
2.22
100
AcDbAttributeDefinition
  3

  2
A
 70
     8
280
     0
  0
ATTDEF
  5
11B
330
10B
100
AcDbEntity
  8
AM_6
100
AcDbText
 10
5.08
 20
-2.75
 30
0.0
 40
0.5
  1
6.50
100
AcDbAttributeDefinition
  3

  2
B
 70
     8
280
     0
  0
ATTDEF
  5
11C
330
10B
100
AcDbEntity
  8
AM_6
100
AcDbText
 10
5.08
 20
-3.25
 30
0.0
 40
0.5
  1
2.28
100
AcDbAttributeDefinition
  3

  2
C
 70
     8
280
     0
  0
ATTDEF
  5
11D
330
10B
100
AcDbEntity
  8
AM_6
100
AcDbText
 10
5.08
 20
-3.75
 30
0.0
 40
0.5
  1
5.13
100
AcDbAttributeDefinition
  3

  2
D
 70
     8
280
     0
  0
ATTDEF
  5
11E
330
10B
100
AcDbEntity
  8
AM_6
100
AcDbText
 10
5.08
 20
-4.25
 30
0.0
 40
0.5
  1
5/8
100
AcDbAttributeDefinition
  3

  2
F
 70
     8
280
     0
  0
ATTDEF
  5
11F
330
10B
100
AcDbEntity
  8
AM_6
100
AcDbText
 10
5.08
 20
-4.75
 30
0.0
 40
0.5
  1
0.69
100
AcDbAttributeDefinition
  3

  2
H
 70
     8
280
     0
  0
ATTDEF
  5
120
330
10B
100
AcDbEntity
  8
AM_6
100
AcDbText
 10
5.08
 20
-5.25
 30
0.0
 40
0.5
  1
0.68
100
AcDbAttributeDefinition
  3

  2
J
 70
     8
280
     0
  0
ATTDEF
  5
121
330
10B
100
AcDbEntity
  8
AM_6
100
AcDbText
 10
5.08
 20
-5.75
 30
0.0
 40
0.5
  1
2.71
100
AcDbAttributeDefinition
  3

  2
L
 70
     8
280
     0
  0
ATTDEF
  5
122
330
10B
100
AcDbEntity
  8
AM_6
100
AcDbText
 10
5.08
 20
-6.25
 30
0.0
 40
0.5
  1
3.25
100
AcDbAttributeDefinition
  3

  2
N
 70
     8
280
     0
  0
ATTDEF
  5
123
330
10B
100
AcDbEntity
  8
AM_6
100
AcDbText
 10
5.08
 20
-6.75
 30
0.0
 40
0.5
  1
baldor
100
AcDbAttributeDefinition
  3

  2
COMPANY
 70
     8
280
     0
  0
LINE
  5
124
330
10B
100
AcDbEntity
  8
AM_9
100
AcDbLine
 10
-0.8642255586036759
 20
2.5925
 30
0.0
 11
-1.225774441396323
 21
2.5925
 31
0.0
  0
LINE
  5
125
330
10B
100
AcDbEntity
  8
AM_9
100
AcDbLine
 10
-0.8642255586036759
 20
2.5925
 30
0.0
 11
-0.8544694517657393
 21
2.905
 31
0.0
  0
LINE
  5
126
330
10B
100
AcDbEntity
  8
AM_9
100
AcDbLine
 10
-1.23553054823426
 20
2.905
 30
0.0
 11
-1.225774441396323
 21
2.5925
 31
0.0
  0
LINE
  5
127
330
10B
100
AcDbEntity
  8
AM_9
100
AcDbLine
 10
-0.3679999999999997
 20
3.25
 30
0.0
 11
-0.3679999999999997
 21
2.905
 31
0.0
  0
LINE
  5
128
330
10B
100
AcDbEntity
  8
AM_9
100
AcDbLine
 10
-0.6900000000000001
 20
2.905
 30
0.0
 11
-0.2299999999999999
 21
2.905
 31
0.0
  0
LINE
  5
129
330
10B
100
AcDbEntity
  8
AM_9
100
AcDbLine
 10
-0.2299999999999999
 20
3.25
 30
0.0
 11
-0.2299999999999999
 21
2.905
 31
0.0
  0
LINE
  5
12A
330
10B
100
AcDbEntity
  8
AM_9
100
AcDbLine
 10
-0.9599999999999996
 20
-1.09375
 30
0.0
 11
-0.0254999999999995
 21
-1.09375
 31
0.0
  0
LINE
  5
12B
330
10B
100
AcDbEntity
  8
AM_9
100
AcDbLine
 10
-0.9599999999999996
 20
1.09375
 30
0.0
 11
-0.0254999999999995
 21
1.09375
 31
0.0
  0
LINE
  5
12C
330
10B
100
AcDbEntity
  8
AM_9
100
AcDbLine
 10
-1.462
 20
-1.9685
 30
0.0
 11
-0.0254999999999998
 21
-1.9685
 31
0.0
  0
LINE
  5
12D
330
10B
100
AcDbEntity
  8
AM_9
100
AcDbLine
 10
-0.0254999999999998
 20
1.9685
 30
0.0
 11
-1.462
 21
1.9685
 31
0.0
  0
LINE
  5
12E
330
10B
100
AcDbEntity
  8
AM_9
100
AcDbLine
 10
-0.9599999999999996
 20
-1.09375
 30
0.0
 11
-0.9599999999999996
 21
1.09375
 31
0.0
  0
LINE
  5
12F
330
10B
100
AcDbEntity
  8
AM_9
100
AcDbLine
 10
-0.0254999999999996
 20
-2.114333333333333
 30
0.0
 11
0.0
 21
-2.114333333333333
 31
0.0
  0
LINE
  5
130
330
10B
100
AcDbEntity
  8
AM_9
100
AcDbLine
 10
0.0
 20
2.114333333333333
 30
0.0
 11
-0.0254999999999996
 21
2.114333333333333
 31
0.0
  0
LINE
  5
131
330
10B
100
AcDbEntity
  8
AM_9
100
AcDbLine
 10
-0.0254999999999996
 20
2.114333333333333
 30
0.0
 11
-0.0254999999999996
 21
-2.114333333333333
 31
0.0
  0
LINE
  5
132
330
10B
100
AcDbEntity
  8
AM_9
100
AcDbLine
 10
-1.6
 20
-2.114333333333333
 30
0.0
 11
-1.462
 21
-2.114333333333333
 31
0.0
  0
LINE
  5
133
330
10B
100
AcDbEntity
  8
AM_9
100
AcDbLine
 10
-1.462
 20
2.114333333333333
 30
0.0
 11
-1.6
 21
2.114333333333333
 31
0.0
  0
LINE
  5
134
330
10B
100
AcDbEntity
  8
AM_9
100
AcDbLine
 10
-1.462
 20
2.114333333333333
 30
0.0
 11
-1.462
 21
-2.114333333333333
 31
0.0
  0
LINE
  5
135
330
10B
100
AcDbEntity
  8
AM_9
100
AcDbLine
 10
-0.6209999999999998
 20
3.159093426996125
 30
0.0
 11
-0.6899999999999997
 21
3.159093426996125
 31
0.0
  0
LINE
  5
136
330
10B
100
AcDbEntity
  8
AM_9
100
AcDbLine
 10
-0.6209999999999998
 20
-3.159093426996126
 30
0.0
 11
-0.6899999999999997
 21
-3.159093426996126
 31
0.0
  0
LINE
  5
137
330
10B
100
AcDbEntity
  8
AM_9
100
AcDbLine
 10
-0.6209999999999998
 20
-2.557657093735573
 30
0.0
 11
-0.6209999999999998
 21
-3.25
 31
0.0
  0
LINE
  5
138
330
10B
100
AcDbEntity
  8
AM_9
100
AcDbLine
 10
-0.6209999999999998
 20
3.25
 30
0.0
 11
-0.6209999999999998
 21
2.557657093735573
 31
0.0
  0
LINE
  5
139
330
10B
100
AcDbEntity
  8
AM_9
100
AcDbLine
 10
-0.6899999999999997
 20
-2.553530133661162
 30
0.0
 11
-0.6209999999999998
 21
-2.557657093735573
 31
0.0
  0
LINE
  5
13A
330
10B
100
AcDbEntity
  8
AM_9
100
AcDbLine
 10
-0.6209999999999998
 20
2.557657093735573
 30
0.0
 11
-0.6899999999999997
 21
2.553530133661162
 31
0.0
  0
LINE
  5
13B
330
10B
100
AcDbEntity
  8
AM_9
100
AcDbLine
 10
-0.6209999999999999
 20
2.791106363402653
 30
0.0
 11
-0.6900000117812518
 21
2.784305766437436
 31
0.0
  0
LINE
  5
13C
330
10B
100
AcDbEntity
  8
AM_9
100
AcDbLine
 10
-0.6899999999999998
 20
-2.8101171875
 30
0.0
 11
-0.6209999999999999
 21
-2.81685546875
 31
0.0
  0
LINE
  5
13D
330
10B
100
AcDbEntity
  8
AM_9
100
AcDbLine
 10
-0.6899999999999997
 20
2.2525
 30
0.0
 11
0.0000000000000002
 21
2.2525
 31
0.0
  0
LINE
  5
13E
330
10B
100
AcDbEntity
  8
AM_9
100
AcDbLine
 10
0.0000000000000002
 20
2.8775
 30
0.0
 11
-0.6899999999999997
 21
2.8775
 31
0.0
  0
LINE
  5
13F
330
10B
100
AcDbEntity
  8
AM_9
100
AcDbLine
 10
-0.6899999999999997
 20
-2.8775
 30
0.0
 11
0.0000000000000002
 21
-2.8775
 31
0.0
  0
LINE
  5
140
330
10B
100
AcDbEntity
  8
AM_9
100
AcDbLine
 10
0.0000000000000002
 20
-2.2525
 30
0.0
 11
-0.6899999999999997
 21
-2.2525
 31
0.0
  0
LINE
  5
141
330
10B
100
AcDbEntity
  8
AM_5
100
AcDbLine
 10
-1.25975054823426
 20
2.905
 30
0.0
 11
-1.249994441396323
 21
2.5925
 31
0.0
  0
LINE
  5
142
330
10B
100
AcDbEntity
  8
AM_5
100
AcDbLine
 10
-0.8302494517657393
 20
2.905
 30
0.0
 11
-0.840005558603676
 21
2.5925
 31
0.0
  0
LINE
  5
143
330
10B
100
AcDbEntity
  8
AM_7
100
AcDbLine
 10
0.0344999999999998
 20
2.565
 30
0.0
 11
-0.7245
 21
2.565
 31
0.0
  0
LINE
  5
144
330
10B
100
AcDbEntity
  8
AM_7
100
AcDbLine
 10
0.0344999999999998
 20
-2.565
 30
0.0
 11
-0.7245
 21
-2.565
 31
0.0
  0
LINE
  5
145
330
10B
100
AcDbEntity
  8
AM_7
100
AcDbLine
 10
-2.391
 20
0.0000000000000002
 30
0.0
 11
0.08
 21
0.0
 31
0.0
  0
LINE
  5
146
330
10B
100
AcDbEntity
  8
AM_7
100
AcDbLine
 10
-1.045
 20
2.972625
 30
0.0
 11
-1.045
 21
2.576875
 31
0.0
  0
LINE
  5
147
330
10B
100
AcDbEntity
  8
AM_4
100
AcDbLine
 10
-1.6
 20
-2.65866004433167
 30
0.0
 11
-1.6
 21
2.905
 31
0.0
  0
LINE
  5
148
330
10B
100
AcDbEntity
  8
AM_4
100
AcDbLine
 10
-1.6
 20
2.905
 30
0.0
 11
-0.6900000000000001
 21
2.905
 31
0.0
  0
LINE
  5
149
330
10B
100
AcDbEntity
  8
AM_4
100
AcDbLine
 10
-1.531
 20
2.701392245238986
 30
0.0
 11
-1.531
 21
2.905
 31
0.0
  0
LWPOLYLINE
  5
14A
330
10B
100
AcDbEntity
  8
AM_4
100
AcDbPolyline
 90
       10
 70
     0
 43
0.0
 10
-1.6
 20
2.640407588105609
 10
-1.59999955718798
 20
2.640627371415032
 10
-1.59873558419445
 20
2.652072774489086
 10
-1.594885607784557
 20
2.663486024897699
 10
-1.589191134913158
 20
2.673171558118432
 10
-1.581016417900517
 20
2.682337318614757
 10
-1.573368430151987
 20
2.688393650609568
 10
-1.564119895395673
 20
2.693690291874312
 10
-1.546529190145058
 20
2.6995217355213
 10
-1.537706378626038
 20
2.700776820991375
  0
ARC
  5
14B
330
10B
100
AcDbEntity
  8
AM_4
100
AcDbCircle
 10
-1.531000000000001
 20
-2.658660044331671
 30
0.0
 40
0.0689999999999991
100
AcDbArc
 50
180.0
 51
264.4223948933431
  0
LINE
  5
14C
330
10B
100
AcDbEntity
  8
AM_4
100
AcDbLine
 10
-0.6900000117812518
 20
2.784305766437436
 30
0.0
 11
-1.537706378626038
 21
2.700776820991375
 31
0.0
  0
LINE
  5
14D
330
10B
100
AcDbEntity
  8
AM_4
100
AcDbLine
 10
-1.537706378626038
 20
2.700776820991375
 30
0.0
 11
-1.537706378626038
 21
-2.727333361462301
 31
0.0
  0
LINE
  5
14E
330
10B
100
AcDbEntity
  8
AM_4
100
AcDbLine
 10
-1.537706378626038
 20
-2.727333361462301
 30
0.0
 11
-0.6899999999999998
 21
-2.8101171875
 31
0.0
  0
LINE
  5
14F
330
10B
100
AcDbEntity
  8
AM_4
100
AcDbLine
 10
-0.6899999999999997
 20
-3.25
 30
0.0
 11
-0.6899999999999996
 21
-1.173133608745107
 31
0.0
  0
LINE
  5
150
330
10B
100
AcDbEntity
  8
AM_4
100
AcDbLine
 10
-0.6209999999999998
 20
-1.180281713274795
 30
0.0
 11
-0.6899999999999996
 21
-1.173133608745107
 31
0.0
  0
LINE
  5
151
330
10B
100
AcDbEntity
  8
AM_4
100
AcDbLine
 10
-0.6899999999999997
 20
1.173133608745107
 30
0.0
 11
-0.6209999999999998
 21
1.180281713274794
 31
0.0
  0
LINE
  5
152
330
10B
100
AcDbEntity
  8
AM_4
100
AcDbLine
 10
-0.6209999999999998
 20
-2.527972982836812
 30
0.0
 11
-0.6209999999999998
 21
2.527972982836798
 31
0.0
  0
LINE
  5
153
330
10B
100
AcDbEntity
  8
AM_4
100
AcDbLine
 10
0.0000000000000002
 20
-3.25
 30
0.0
 11
0.0000000000000002
 21
3.25
 31
0.0
  0
LINE
  5
154
330
10B
100
AcDbEntity
  8
AM_4
100
AcDbLine
 10
-0.6899999999999997
 20
1.173133608745107
 30
0.0
 11
-0.6899999999999997
 21
3.25
 31
0.0
  0
LINE
  5
155
330
10B
100
AcDbEntity
  8
AM_4
100
AcDbLine
 10
-0.6899999999999997
 20
3.25
 30
0.0
 11
0.0000000000000002
 21
3.25
 31
0.0
  0
LINE
  5
156
330
10B
100
AcDbEntity
  8
AM_4
100
AcDbLine
 10
-0.6899999999999997
 20
2.565
 30
0.0
 11
0.0000000000000002
 21
2.565
 31
0.0
  0
LINE
  5
157
330
10B
100
AcDbEntity
  8
AM_4
100
AcDbLine
 10
-0.6899999999999997
 20
-2.527972982836812
 30
0.0
 11
-0.6209999999999998
 21
-2.527972982836812
 31
0.0
  0
LINE
  5
158
330
10B
100
AcDbEntity
  8
AM_4
100
AcDbLine
 10
-0.6209999999999998
 20
-2.222
 30
0.0
 11
-0.6899999999999997
 21
-2.222
 31
0.0
  0
LINE
  5
159
330
10B
100
AcDbEntity
  8
AM_4
100
AcDbLine
 10
-0.6899999999999997
 20
-2.564999989792704
 30
0.0
 11
0.0000000000000002
 21
-2.564999989792704
 31
0.0
  0
LINE
  5
15A
330
10B
100
AcDbEntity
  8
AM_4
100
AcDbLine
 10
-0.6899999999999997
 20
-3.25
 30
0.0
 11
0.0000000000000002
 21
-3.25
 31
0.0
  0
LINE
  5
15B
330
10B
100
AcDbEntity
  8
AM_4
100
AcDbLine
 10
-0.6209999999999998
 20
2.527972982836798
 30
0.0
 11
-0.6899999999999997
 21
2.527972982836798
 31
0.0
  0
LINE
  5
15C
330
10B
100
AcDbEntity
  8
AM_4
100
AcDbLine
 10
-0.6209999999999998
 20
2.221999999999999
 30
0.0
 11
-0.6899999999999997
 21
2.221999999999999
 31
0.0
  0
ENDBLK
  5
10E
330
10B
100
AcDbEntity
  8
0
100
AcDbBlockEnd
  0
ENDSEC
  0
SECTION
  2
ENTITIES
  0
INSERT
  5
6F
330
1F
100
AcDbEntity
  8
0
100
AcDbBlockReference
  2
1_068809_2
 10
0.0
 20
0.0
 30
0.0
  0
POINT
  5
15E
330
1F
100
AcDbEntity
  8
ConnectionPoints
100
AcDbPoint
 10
-2.28
 20
0.0000000000000002
 30
0.0000000000000001
  0
POINT
  5
15F
330
1F
100
AcDbEntity
  8
ConnectionPoints
100
AcDbPoint
 10
-1.045
 20
2.905
 30
0.0000000000000001
  0
POINT
  5
160
330
1F
100
AcDbEntity
  8
ConnectionPoints
100
AcDbPoint
 10
-2.28
 20
0.0
 30
0.0000000000000001
  0
ENDSEC
  0
SECTION
  2
OBJECTS
  0
DICTIONARY
  5
C
330
0
100
AcDbDictionary
281
     1
  3
ACAD_DETAILVIEWSTYLE
350
168
  3
ACAD_GROUP
350
D
  3
ACAD_LAYOUT
350
1A
  3
ACAD_MATERIAL
350
43
  3
ACAD_MLEADERSTYLE
350
6B
  3
ACAD_MLINESTYLE
350
17
  3
ACAD_PLOTSETTINGS
350
19
  3
ACAD_PLOTSTYLENAME
350
E
  3
ACAD_SCALELIST
350
47
  3
ACAD_SECTIONVIEWSTYLE
350
169
  3
ACAD_TABLESTYLE
350
69
  3
ACAD_VISUALSTYLE
350
2A
  3
ACDB_RECOMPOSE_DATA
350
165
  3
AcDbVariableDictionary
350
161
  0
SUN
  5
6D
330
29
100
AcDbSun
 90
        1
290
     0
 63
     7
421
 16777215
 40
1.0
291
     1
 91
  2455826
 92
 54000000
292
     0
 70
     2
 71
   256
280
     1
  0
DICTIONARY
  5
168
102
{ACAD_REACTORS
330
C
102
}
330
C
100
AcDbDictionary
281
     1
  0
DICTIONARY
  5
D
102
{ACAD_REACTORS
330
C
102
}
330
C
100
AcDbDictionary
281
     1
  0
DICTIONARY
  5
1A
102
{ACAD_REACTORS
330
C
102
}
330
C
100
AcDbDictionary
281
     1
  3
Layout1
350
1E
  3
Layout2
350
26
  3
Model
350
22
  0
DICTIONARY
  5
43
102
{ACAD_REACTORS
330
C
102
}
330
C
100
AcDbDictionary
281
     1
  3
ByBlock
350
45
  3
ByLayer
350
44
  3
Global
350
46
  0
DICTIONARY
  5
6B
102
{ACAD_REACTORS
330
C
102
}
330
C
100
AcDbDictionary
281
     1
  3
Standard
350
6C
  0
DICTIONARY
  5
17
102
{ACAD_REACTORS
330
C
102
}
330
C
100
AcDbDictionary
281
     1
  3
Standard
350
18
  0
DICTIONARY
  5
19
102
{ACAD_REACTORS
330
C
102
}
330
C
100
AcDbDictionary
281
     1
  0
ACDBDICTIONARYWDFLT
  5
E
102
{ACAD_REACTORS
330
C
102
}
330
C
100
AcDbDictionary
281
     1
  3
Normal
350
F
100
AcDbDictionaryWithDefault
340
F
  0
DICTIONARY
  5
47
102
{ACAD_REACTORS
330
C
102
}
330
C
100
AcDbDictionary
281
     1
  3
A0
350
48
  3
A1
350
49
  3
A2
350
4A
  3
A3
350
4B
  3
A4
350
4C
  3
A5
350
4D
  3
A6
350
4E
  3
A7
350
4F
  3
A8
350
50
  3
A9
350
51
  3
B0
350
52
  3
B1
350
53
  3
B2
350
54
  3
B3
350
55
  3
B4
350
56
  3
B5
350
57
  3
B6
350
58
  3
B7
350
59
  3
B8
350
5A
  3
B9
350
5B
  3
C0
350
5C
  3
C1
350
5D
  3
C2
350
5E
  3
C3
350
5F
  3
C4
350
60
  3
C5
350
61
  3
C6
350
62
  3
C7
350
63
  3
C8
350
64
  3
C9
350
65
  3
D0
350
66
  3
D1
350
67
  3
D2
350
68
  0
DICTIONARY
  5
169
102
{ACAD_REACTORS
330
C
102
}
330
C
100
AcDbDictionary
281
     1
  0
DICTIONARY
  5
69
102
{ACAD_REACTORS
330
C
102
}
330
C
100
AcDbDictionary
281
     1
  3
Standard
350
6A
  0
DICTIONARY
  5
2A
102
{ACAD_REACTORS
330
C
102
}
330
C
100
AcDbDictionary
281
     1
  3
2dWireframe
350
2F
  3
Basic
350
32
  3
Brighten
350
36
  3
ColorChange
350
3A
  3
Conceptual
350
34
  3
Dim
350
35
  3
EdgeColorOff
350
3D
  3
Facepattern
350
39
  3
Flat
350
2B
  3
FlatWithEdges
350
2C
  3
Gouraud
350
2D
  3
GouraudWithEdges
350
2E
  3
Hidden
350
31
  3
JitterOff
350
3B
  3
Linepattern
350
38
  3
OverhangOff
350
3C
  3
Realistic
350
33
  3
Shaded
350
42
  3
Shaded with edges
350
41
  3
Shades of Gray
350
3E
  3
Sketchy
350
3F
  3
Thicken
350
37
  3
Wireframe
350
30
  3
X-Ray
350
40
  0
XRECORD
  5
165
102
{ACAD_REACTORS
330
C
102
}
330
C
100
AcDbXrecord
280
     1
 90
        1
330
6A
  0
DICTIONARY
  5
161
102
{ACAD_REACTORS
330
C
102
}
330
C
100
AcDbDictionary
281
     1
  3
CANNOSCALE
350
162
  3
CMLEADERSTYLE
350
167
  3
CTABLESTYLE
350
166
  0
LAYOUT
  5
1E
102
{ACAD_REACTORS
330
1A
102
}
330
1A
100
AcDbPlotSettings
  1

  2
none_device
  4

  6

 40
0.0
 41
0.0
 42
0.0
 43
0.0
 44
0.0
 45
0.0
 46
0.0
 47
0.0
 48
0.0
 49
0.0
140
0.0
141
0.0
142
1.0
143
1.0
 70
   688
 72
     0
 73
     0
 74
     5
  7

 75
    16
 76
     0
 77
     2
 78
   300
147
1.0
148
0.0
149
0.0
100
AcDbLayout
  1
Layout1
 70
     1
 71
     1
 10
0.0
 20
0.0
 11
12.0
 21
9.0
 12
0.0
 22
0.0
 32
0.0
 14
1.000000000000000E+20
 24
1.000000000000000E+20
 34
1.000000000000000E+20
 15
-1.000000000000000E+20
 25
-1.000000000000000E+20
 35
-1.000000000000000E+20
146
0.0
 13
0.0
 23
0.0
 33
0.0
 16
1.0
 26
0.0
 36
0.0
 17
0.0
 27
1.0
 37
0.0
 76
     0
330
1B
  0
LAYOUT
  5
26
102
{ACAD_REACTORS
330
1A
102
}
330
1A
100
AcDbPlotSettings
  1

  2
none_device
  4

  6

 40
0.0
 41
0.0
 42
0.0
 43
0.0
 44
0.0
 45
0.0
 46
0.0
 47
0.0
 48
0.0
 49
0.0
140
0.0
141
0.0
142
1.0
143
1.0
 70
   688
 72
     0
 73
     0
 74
     5
  7

 75
    16
 76
     0
 77
     2
 78
   300
147
1.0
148
0.0
149
0.0
100
AcDbLayout
  1
Layout2
 70
     1
 71
     2
 10
0.0
 20
0.0
 11
0.0
 21
0.0
 12
0.0
 22
0.0
 32
0.0
 14
0.0
 24
0.0
 34
0.0
 15
0.0
 25
0.0
 35
0.0
146
0.0
 13
0.0
 23
0.0
 33
0.0
 16
1.0
 26
0.0
 36
0.0
 17
0.0
 27
1.0
 37
0.0
 76
     0
330
23
  0
LAYOUT
  5
22
102
{ACAD_REACTORS
330
1A
102
}
330
1A
100
AcDbPlotSettings
  1

  2
none_device
  4
Letter_(8.50_x_11.00_Inches)
  6

 40
6.35
 41
6.35
 42
6.35000508
 43
6.35000508
 44
215.9
 45
279.4
 46
0.0
 47
0.0
 48
0.0
 49
0.0
140
0.0
141
0.0
142
1.0
143
1.0
 70
  1712
 72
     0
 73
     0
 74
     0
  7

 75
     0
 76
     0
 77
     2
 78
   300
147
1.0
148
0.0
149
0.0
100
AcDbLayout
  1
Model
 70
     1
 71
     0
 10
0.0
 20
0.0
 11
12.0
 21
9.0
 12
0.0
 22
0.0
 32
0.0
 14
1.000000000000000E+20
 24
1.000000000000000E+20
 34
1.000000000000000E+20
 15
-1.000000000000000E+20
 25
-1.000000000000000E+20
 35
-1.000000000000000E+20
146
0.0
 13
0.0
 23
0.0
 33
0.0
 16
1.0
 26
0.0
 36
0.0
 17
0.0
 27
1.0
 37
0.0
 76
     0
330
1F
331
29
  0
MATERIAL
  5
45
102
{ACAD_REACTORS
330
43
102
}
330
43
100
AcDbMaterial
  1
ByBlock
 72
     1
 94
      127
  0
MATERIAL
  5
44
102
{ACAD_REACTORS
330
43
102
}
330
43
100
AcDbMaterial
  1
ByLayer
 72
     1
 94
      127
  0
MATERIAL
  5
46
102
{ACAD_REACTORS
330
43
102
}
330
43
100
AcDbMaterial
  1
Global
 72
     1
 94
      127
  0
MLEADERSTYLE
  5
6C
102
{ACAD_REACTORS
330
6B
102
}
330
6B
100
AcDbMLeaderStyle
179
     2
170
     2
171
     1
172
     0
 90
        2
 40
0.0
 41
0.0
173
     1
 91
-1056964608
340
14
 92
       -2
290
     1
 42
0.09
291
     1
 43
0.36
  3
Standard
341
0
 44
0.18
300

342
11
174
     1
178
     6
175
     1
176
     0
 93
-1056964608
 45
0.18
292
     0
297
     0
 46
0.18
343
0
 94
-1056964608
 47
1.0
 49
1.0
140
1.0
293
     1
141
0.0
294
     1
177
     0
142
1.0
295
     0
296
     0
143
0.125
271
     0
272
     9
273
     9
298
     0
  0
MLINESTYLE
  5
18
102
{ACAD_REACTORS
330
17
102
}
330
17
100
AcDbMlineStyle
  2
Standard
 70
     0
  3

 62
   256
 51
90.0
 52
90.0
 71
     2
 49
0.5
 62
   256
  6
BYLAYER
 49
-0.5
 62
   256
  6
BYLAYER
  0
ACDBPLACEHOLDER
  5
F
102
{ACAD_REACTORS
330
E
102
}
330
E
  0
SCALE
  5
48
102
{ACAD_REACTORS
330
47
102
}
330
47
100
AcDbScale
 70
     0
300
1:1
140
1.0
141
1.0
290
     1
  0
SCALE
  5
49
102
{ACAD_REACTORS
330
47
102
}
330
47
100
AcDbScale
 70
     0
300
1:2
140
1.0
141
2.0
290
     0
  0
SCALE
  5
4A
102
{ACAD_REACTORS
330
47
102
}
330
47
100
AcDbScale
 70
     0
300
1:4
140
1.0
141
4.0
290
     0
  0
SCALE
  5
4B
102
{ACAD_REACTORS
330
47
102
}
330
47
100
AcDbScale
 70
     0
300
1:5
140
1.0
141
5.0
290
     0
  0
SCALE
  5
4C
102
{ACAD_REACTORS
330
47
102
}
330
47
100
AcDbScale
 70
     0
300
1:8
140
1.0
141
8.0
290
     0
  0
SCALE
  5
4D
102
{ACAD_REACTORS
330
47
102
}
330
47
100
AcDbScale
 70
     0
300
1:10
140
1.0
141
10.0
290
     0
  0
SCALE
  5
4E
102
{ACAD_REACTORS
330
47
102
}
330
47
100
AcDbScale
 70
     0
300
1:16
140
1.0
141
16.0
290
     0
  0
SCALE
  5
4F
102
{ACAD_REACTORS
330
47
102
}
330
47
100
AcDbScale
 70
     0
300
1:20
140
1.0
141
20.0
290
     0
  0
SCALE
  5
50
102
{ACAD_REACTORS
330
47
102
}
330
47
100
AcDbScale
 70
     0
300
1:30
140
1.0
141
30.0
290
     0
  0
SCALE
  5
51
102
{ACAD_REACTORS
330
47
102
}
330
47
100
AcDbScale
 70
     0
300
1:40
140
1.0
141
40.0
290
     0
  0
SCALE
  5
52
102
{ACAD_REACTORS
330
47
102
}
330
47
100
AcDbScale
 70
     0
300
1:50
140
1.0
141
50.0
290
     0
  0
SCALE
  5
53
102
{ACAD_REACTORS
330
47
102
}
330
47
100
AcDbScale
 70
     0
300
1:100
140
1.0
141
100.0
290
     0
  0
SCALE
  5
54
102
{ACAD_REACTORS
330
47
102
}
330
47
100
AcDbScale
 70
     0
300
2:1
140
2.0
141
1.0
290
     0
  0
SCALE
  5
55
102
{ACAD_REACTORS
330
47
102
}
330
47
100
AcDbScale
 70
     0
300
4:1
140
4.0
141
1.0
290
     0
  0
SCALE
  5
56
102
{ACAD_REACTORS
330
47
102
}
330
47
100
AcDbScale
 70
     0
300
8:1
140
8.0
141
1.0
290
     0
  0
SCALE
  5
57
102
{ACAD_REACTORS
330
47
102
}
330
47
100
AcDbScale
 70
     0
300
10:1
140
10.0
141
1.0
290
     0
  0
SCALE
  5
58
102
{ACAD_REACTORS
330
47
102
}
330
47
100
AcDbScale
 70
     0
300
100:1
140
100.0
141
1.0
290
     0
  0
SCALE
  5
59
102
{ACAD_REACTORS
330
47
102
}
330
47
100
AcDbScale
 70
     0
300
1/128" = 1'-0"
140
0.0078125
141
12.0
290
     0
  0
SCALE
  5
5A
102
{ACAD_REACTORS
330
47
102
}
330
47
100
AcDbScale
 70
     0
300
1/64" = 1'-0"
140
0.015625
141
12.0
290
     0
  0
SCALE
  5
5B
102
{ACAD_REACTORS
330
47
102
}
330
47
100
AcDbScale
 70
     0
300
1/32" = 1'-0"
140
0.03125
141
12.0
290
     0
  0
SCALE
  5
5C
102
{ACAD_REACTORS
330
47
102
}
330
47
100
AcDbScale
 70
     0
300
1/16" = 1'-0"
140
0.0625
141
12.0
290
     0
  0
SCALE
  5
5D
102
{ACAD_REACTORS
330
47
102
}
330
47
100
AcDbScale
 70
     0
300
3/32" = 1'-0"
140
0.09375
141
12.0
290
     0
  0
SCALE
  5
5E
102
{ACAD_REACTORS
330
47
102
}
330
47
100
AcDbScale
 70
     0
300
1/8" = 1'-0"
140
0.125
141
12.0
290
     0
  0
SCALE
  5
5F
102
{ACAD_REACTORS
330
47
102
}
330
47
100
AcDbScale
 70
     0
300
3/16" = 1'-0"
140
0.1875
141
12.0
290
     0
  0
SCALE
  5
60
102
{ACAD_REACTORS
330
47
102
}
330
47
100
AcDbScale
 70
     0
300
1/4" = 1'-0"
140
0.25
141
12.0
290
     0
  0
SCALE
  5
61
102
{ACAD_REACTORS
330
47
102
}
330
47
100
AcDbScale
 70
     0
300
3/8" = 1'-0"
140
0.375
141
12.0
290
     0
  0
SCALE
  5
62
102
{ACAD_REACTORS
330
47
102
}
330
47
100
AcDbScale
 70
     0
300
1/2" = 1'-0"
140
0.5
141
12.0
290
     0
  0
SCALE
  5
63
102
{ACAD_REACTORS
330
47
102
}
330
47
100
AcDbScale
 70
     0
300
3/4" = 1'-0"
140
0.75
141
12.0
290
     0
  0
SCALE
  5
64
102
{ACAD_REACTORS
330
47
102
}
330
47
100
AcDbScale
 70
     0
300
1" = 1'-0"
140
1.0
141
12.0
290
     0
  0
SCALE
  5
65
102
{ACAD_REACTORS
330
47
102
}
330
47
100
AcDbScale
 70
     0
300
1-1/2" = 1'-0"
140
1.5
141
12.0
290
     0
  0
SCALE
  5
66
102
{ACAD_REACTORS
330
47
102
}
330
47
100
AcDbScale
 70
     0
300
3" = 1'-0"
140
3.0
141
12.0
290
     0
  0
SCALE
  5
67
102
{ACAD_REACTORS
330
47
102
}
330
47
100
AcDbScale
 70
     0
300
6" = 1'-0"
140
6.0
141
12.0
290
     0
  0
SCALE
  5
68
102
{ACAD_REACTORS
330
47
102
}
330
47
100
AcDbScale
 70
     0
300
1'-0" = 1'-0"
140
12.0
141
12.0
290
     0
  0
TABLESTYLE
  5
6A
102
{ACAD_REACTORS
330
69
102
}
102
{ACAD_XDICTIONARY
360
163
102
}
330
69
100
AcDbTableStyle
  3
Standard
 70
     0
 71
     0
 40
0.06
 41
0.06
280
     0
281
     0
  7
Standard
140
0.18
170
     2
 62
     0
 63
   257
283
     0
 90
        4
 91
        0
  1

274
    -2
284
     1
 64
     0
275
    -2
285
     1
 65
     0
276
    -2
286
     1
 66
     0
277
    -2
287
     1
 67
     0
278
    -2
288
     1
 68
     0
279
    -2
289
     1
 69
     0
  7
Standard
140
0.25
170
     5
 62
     0
 63
   257
283
     0
 90
        4
 91
        0
  1

274
    -2
284
     1
 64
     0
275
    -2
285
     1
 65
     0
276
    -2
286
     1
 66
     0
277
    -2
287
     1
 67
     0
278
    -2
288
     1
 68
     0
279
    -2
289
     1
 69
     0
  7
Standard
140
0.18
170
     5
 62
     0
 63
   257
283
     0
 90
        4
 91
        0
  1

274
    -2
284
     1
 64
     0
275
    -2
285
     1
 65
     0
276
    -2
286
     1
 66
     0
277
    -2
287
     1
 67
     0
278
    -2
288
     1
 68
     0
279
    -2
289
     1
 69
     0
  0
VISUALSTYLE
  5
2F
102
{ACAD_REACTORS
330
2A
102
}
330
2A
100
AcDbVisualStyle
  2
2dWireframe
 70
     4
177
     3
291
     0
 70
    58
 90
        0
176
     1
 90
        2
176
     1
 90
        0
176
     1
 90
        0
176
     1
 40
0.6
176
     1
 40
30.0
176
     1
 62
     7
420
 16777215
176
     1
 90
        1
176
     1
 90
        4
176
     1
 62
     7
176
     1
 62
   257
176
     1
 90
        1
176
     1
 90
        1
176
     1
 40
1.0
176
     1
 90
        0
176
     1
 62
   257
176
     1
 40
1.0
176
     1
 90
        1
176
     1
 90
        6
176
     1
 90
        2
176
     1
 62
     7
176
     1
 90
        5
176
     1
 90
        0
176
     1
 90
        0
176
     1
290
     0
176
     1
 90
        1
176
     1
 40
0.0
176
     1
 90
        0
176
     1
290
     1
176
     1
290
     1
176
     1
290
     0
176
     1
290
     0
176
     1
290
     0
176
     1
290
     0
176
     1
290
     0
176
     1
290
     0
176
     1
290
     0
176
     1
 90
       50
176
     1
 40
0.0
176
     1
 40
1.0
176
     1
 90
        0
176
     1
 62
    18
420
        0
176
     1
 90
       50
176
     1
 90
        3
176
     1
 62
     5
420
      255
176
     1
290
     0
176
     1
 90
       50
176
     1
 90
       50
176
     1
 90
       50
176
     1
290
     0
176
     1
 90
       50
176
     1
 62
   256
176
     0
 40
1.0
176
     0
 90
        2
176
     1
  1
strokes_ogs.tif
176
     1
290
     0
176
     1
 40
1.0
176
     1
 40
1.0
176
     1
  0
VISUALSTYLE
  5
32
102
{ACAD_REACTORS
330
2A
102
}
330
2A
100
AcDbVisualStyle
  2
Basic
 70
     7
177
     3
291
     1
 70
    58
 90
        1
176
     1
 90
        0
176
     1
 90
        1
176
     1
 90
        0
176
     1
 40
0.6
176
     1
 40
30.0
176
     1
 62
     7
420
 16777215
176
     1
 90
        0
176
     1
 90
        4
176
     1
 62
     7
176
     1
 62
   257
176
     1
 90
        1
176
     1
 90
        1
176
     1
 40
1.0
176
     1
 90
        8
176
     1
 62
     7
176
     1
 40
1.0
176
     1
 90
        1
176
     1
 90
        6
176
     1
 90
        2
176
     1
 62
     7
176
     1
 90
        5
176
     1
 90
        0
176
     1
 90
        0
176
     1
290
     0
176
     1
 90
        1
176
     1
 40
0.0
176
     1
 90
        0
176
     1
290
     0
176
     1
290
     1
176
     1
290
     1
176
     1
290
     0
176
     1
290
     0
176
     1
290
     0
176
     1
290
     0
176
     1
290
     0
176
     1
290
     0
176
     1
 90
       50
176
     1
 40
0.0
176
     1
 40
1.0
176
     1
 90
        0
176
     1
 62
    18
420
        0
176
     1
 90
       50
176
     1
 90
        3
176
     1
 62
     5
420
      255
176
     1
290
     0
176
     1
 90
       50
176
     1
 90
       50
176
     1
 90
       50
176
     1
290
     0
176
     1
 90
       50
176
     1
 62
   256
176
     0
 40
1.0
176
     0
 90
        2
176
     1
  1
strokes_ogs.tif
176
     1
290
     0
176
     1
 40
1.0
176
     1
 40
1.0
176
     1
  0
VISUALSTYLE
  5
36
102
{ACAD_REACTORS
330
2A
102
}
330
2A
100
AcDbVisualStyle
  2
Brighten
 70
    12
177
     3
291
     1
 70
    58
 90
        2
176
     1
 90
        2
176
     1
 90
        0
176
     1
 90
        0
176
     1
 40
0.6
176
     1
 40
30.0
176
     1
 62
     7
420
 16777215
176
     1
 90
        1
176
     1
 90
        4
176
     1
 62
     7
176
     1
 62
   257
176
     1
 90
        1
176
     1
 90
        1
176
     1
 40
1.0
176
     1
 90
        8
176
     1
 62
     7
176
     1
 40
1.0
176
     1
 90
        1
176
     1
 90
        6
176
     1
 90
        2
176
     1
 62
     7
176
     1
 90
        5
176
     1
 90
        0
176
     1
 90
        0
176
     1
290
     0
176
     1
 90
        1
176
     1
 40
50.0
176
     1
 90
        0
176
     1
290
     0
176
     1
290
     1
176
     1
290
     1
176
     1
290
     0
176
     1
290
     0
176
     1
290
     0
176
     1
290
     0
176
     1
290
     0
176
     1
290
     0
176
     1
 90
       50
176
     1
 40
0.0
176
     1
 40
1.0
176
     1
 90
        0
176
     1
 62
    18
420
        0
176
     1
 90
       50
176
     1
 90
        3
176
     1
 62
     5
420
      255
176
     1
290
     0
176
     1
 90
       50
176
     1
 90
       50
176
     1
 90
       50
176
     1
290
     0
176
     1
 90
       50
176
     1
 62
   256
176
     0
 40
1.0
176
     0
 90
        2
176
     1
  1
strokes_ogs.tif
176
     1
290
     0
176
     1
 40
1.0
176
     1
 40
1.0
176
     1
  0
VISUALSTYLE
  5
3A
102
{ACAD_REACTORS
330
2A
102
}
330
2A
100
AcDbVisualStyle
  2
ColorChange
 70
    16
177
     3
291
     1
 70
    58
 90
        2
176
     1
 90
        2
176
     1
 90
        3
176
     1
 90
        0
176
     1
 40
0.6
176
     1
 40
30.0
176
     1
 62
     8
420
  8421504
176
     1
 90
        1
176
     1
 90
        4
176
     1
 62
     7
176
     1
 62
   257
176
     1
 90
        1
176
     1
 90
        1
176
     1
 40
1.0
176
     1
 90
        8
176
     1
 62
     8
420
  8421504
176
     1
 40
1.0
176
     1
 90
        1
176
     1
 90
        6
176
     1
 90
        2
176
     1
 62
     7
176
     1
 90
        5
176
     1
 90
        0
176
     1
 90
        0
176
     1
290
     0
176
     1
 90
        1
176
     1
 40
0.0
176
     1
 90
        0
176
     1
290
     0
176
     1
290
     1
176
     1
290
     1
176
     1
290
     0
176
     1
290
     0
176
     1
290
     0
176
     1
290
     0
176
     1
290
     0
176
     1
290
     0
176
     1
 90
       50
176
     1
 40
0.0
176
     1
 40
1.0
176
     1
 90
        0
176
     1
 62
    18
420
        0
176
     1
 90
       50
176
     1
 90
        3
176
     1
 62
     5
420
      255
176
     1
290
     0
176
     1
 90
       50
176
     1
 90
       50
176
     1
 90
       50
176
     1
290
     0
176
     1
 90
       50
176
     1
 62
   256
176
     0
 40
1.0
176
     0
 90
        2
176
     1
  1
strokes_ogs.tif
176
     1
290
     0
176
     1
 40
1.0
176
     1
 40
1.0
176
     1
  0
VISUALSTYLE
  5
34
102
{ACAD_REACTORS
330
2A
102
}
330
2A
100
AcDbVisualStyle
  2
Conceptual
 70
     9
177
     3
291
     0
 70
    58
 90
        3
176
     1
 90
        2
176
     1
 90
        0
176
     1
 90
        0
176
     1
 40
0.6
176
     1
 40
30.0
176
     1
 62
     7
420
 16777215
176
     1
 90
        2
176
     1
 90
        2
176
     1
 62
     7
176
     1
 62
   257
176
     1
 90
        1
176
     1
 90
        1
176
     1
 40
179.0
176
     1
 90
        8
176
     1
 62
     7
176
     1
 40
1.0
176
     1
 90
        1
176
     1
 90
        6
176
     1
 90
        2
176
     1
 62
     7
176
     1
 90
        3
176
     1
 90
        0
176
     1
 90
        0
176
     1
290
     0
176
     1
 90
        1
176
     1
 40
0.0
176
     1
 90
        0
176
     1
290
     0
176
     1
290
     1
176
     1
290
     1
176
     1
290
     0
176
     1
290
     0
176
     1
290
     0
176
     1
290
     0
176
     1
290
     0
176
     1
290
     0
176
     1
 90
       50
176
     1
 40
0.0
176
     1
 40
1.0
176
     1
 90
        0
176
     1
 62
    18
420
        0
176
     1
 90
       50
176
     1
 90
        3
176
     1
 62
     5
420
      255
176
     1
290
     0
176
     1
 90
       50
176
     1
 90
       50
176
     1
 90
       50
176
     1
290
     0
176
     1
 90
       50
176
     1
 62
   256
176
     0
 40
1.0
176
     0
 90
        2
176
     1
  1
strokes_ogs.tif
176
     1
290
     0
176
     1
 40
1.0
176
     1
 40
1.0
176
     1
  0
VISUALSTYLE
  5
35
102
{ACAD_REACTORS
330
2A
102
}
330
2A
100
AcDbVisualStyle
  2
Dim
 70
    11
177
     3
291
     1
 70
    58
 90
        2
176
     1
 90
        2
176
     1
 90
        0
176
     1
 90
        0
176
     1
 40
0.6
176
     1
 40
30.0
176
     1
 62
     7
420
 16777215
176
     1
 90
        1
176
     1
 90
        4
176
     1
 62
     7
176
     1
 62
   257
176
     1
 90
        1
176
     1
 90
        1
176
     1
 40
1.0
176
     1
 90
        8
176
     1
 62
     7
176
     1
 40
1.0
176
     1
 90
        1
176
     1
 90
        6
176
     1
 90
        2
176
     1
 62
     7
176
     1
 90
        5
176
     1
 90
        0
176
     1
 90
        0
176
     1
290
     0
176
     1
 90
        1
176
     1
 40
-50.0
176
     1
 90
        0
176
     1
290
     0
176
     1
290
     1
176
     1
290
     1
176
     1
290
     0
176
     1
290
     0
176
     1
290
     0
176
     1
290
     0
176
     1
290
     0
176
     1
290
     0
176
     1
 90
       50
176
     1
 40
0.0
176
     1
 40
1.0
176
     1
 90
        0
176
     1
 62
    18
420
        0
176
     1
 90
       50
176
     1
 90
        3
176
     1
 62
     5
420
      255
176
     1
290
     0
176
     1
 90
       50
176
     1
 90
       50
176
     1
 90
       50
176
     1
290
     0
176
     1
 90
       50
176
     1
 62
   256
176
     0
 40
1.0
176
     0
 90
        2
176
     1
  1
strokes_ogs.tif
176
     1
290
     0
176
     1
 40
1.0
176
     1
 40
1.0
176
     1
  0
VISUALSTYLE
  5
3D
102
{ACAD_REACTORS
330
2A
102
}
330
2A
100
AcDbVisualStyle
  2
EdgeColorOff
 70
    22
177
     3
291
     1
 70
    58
 90
        2
176
     0
 90
        2
176
     0
 90
        0
176
     0
 90
        0
176
     0
 40
0.6
176
     0
 40
30.0
176
     0
 62
     7
420
 16777215
176
     0
 90
        1
176
     0
 90
        4
176
     0
 62
     7
176
     0
 62
   257
176
     0
 90
        1
176
     0
 90
        1
176
     0
 40
1.0
176
     0
 90
        8
176
     2
 62
     7
176
     0
 40
1.0
176
     0
 90
        1
176
     0
 90
        6
176
     0
 90
        2
176
     0
 62
     7
176
     0
 90
        5
176
     0
 90
        0
176
     0
 90
        0
176
     0
290
     0
176
     0
 90
        1
176
     0
 40
0.0
176
     0
 90
        0
176
     0
290
     0
176
     0
290
     1
176
     0
290
     1
176
     0
290
     0
176
     0
290
     0
176
     0
290
     0
176
     0
290
     0
176
     0
290
     0
176
     0
290
     0
176
     0
 90
       50
176
     0
 40
0.0
176
     0
 40
1.0
176
     0
 90
        0
176
     0
 62
    18
420
        0
176
     0
 90
       50
176
     0
 90
        3
176
     0
 62
     5
420
      255
176
     0
290
     0
176
     0
 90
       50
176
     0
 90
       50
176
     0
 90
       50
176
     0
290
     0
176
     0
 90
       50
176
     0
 62
   256
176
     0
 40
1.0
176
     0
 90
        2
176
     0
  1
strokes_ogs.tif
176
     0
290
     0
176
     0
 40
1.0
176
     0
 40
1.0
176
     0
  0
VISUALSTYLE
  5
39
102
{ACAD_REACTORS
330
2A
102
}
330
2A
100
AcDbVisualStyle
  2
Facepattern
 70
    15
177
     3
291
     1
 70
    58
 90
        2
176
     1
 90
        2
176
     1
 90
        0
176
     1
 90
        0
176
     1
 40
0.6
176
     1
 40
30.0
176
     1
 62
     7
420
 16777215
176
     1
 90
        1
176
     1
 90
        4
176
     1
 62
     7
176
     1
 62
   257
176
     1
 90
        1
176
     1
 90
        1
176
     1
 40
1.0
176
     1
 90
        8
176
     1
 62
     7
176
     1
 40
1.0
176
     1
 90
        1
176
     1
 90
        6
176
     1
 90
        2
176
     1
 62
     7
176
     1
 90
        5
176
     1
 90
        0
176
     1
 90
        0
176
     1
290
     0
176
     1
 90
        1
176
     1
 40
0.0
176
     1
 90
        0
176
     1
290
     0
176
     1
290
     1
176
     1
290
     1
176
     1
290
     0
176
     1
290
     0
176
     1
290
     0
176
     1
290
     0
176
     1
290
     0
176
     1
290
     0
176
     1
 90
       50
176
     1
 40
0.0
176
     1
 40
1.0
176
     1
 90
        0
176
     1
 62
    18
420
        0
176
     1
 90
       50
176
     1
 90
        3
176
     1
 62
     5
420
      255
176
     1
290
     0
176
     1
 90
       50
176
     1
 90
       50
176
     1
 90
       50
176
     1
290
     0
176
     1
 90
       50
176
     1
 62
   256
176
     0
 40
1.0
176
     0
 90
        2
176
     1
  1
strokes_ogs.tif
176
     1
290
     0
176
     1
 40
1.0
176
     1
 40
1.0
176
     1
  0
VISUALSTYLE
  5
2B
102
{ACAD_REACTORS
330
2A
102
}
330
2A
100
AcDbVisualStyle
  2
Flat
 70
     0
177
     3
291
     1
 70
    58
 90
        2
176
     1
 90
        1
176
     1
 90
        1
176
     1
 90
        2
176
     1
 40
0.6
176
     1
 40
30.0
176
     1
 62
     7
420
 16777215
176
     1
 90
        0
176
     1
 90
        0
176
     1
 62
     7
176
     1
 62
   257
176
     1
 90
        1
176
     1
 90
        1
176
     1
 40
1.0
176
     1
 90
        8
176
     1
 62
     7
176
     1
 40
1.0
176
     1
 90
        1
176
     1
 90
        6
176
     1
 90
        2
176
     1
 62
     7
176
     1
 90
        5
176
     1
 90
        0
176
     1
 90
        0
176
     1
290
     0
176
     1
 90
       13
176
     1
 40
0.0
176
     1
 90
        0
176
     1
290
     0
176
     1
290
     1
176
     1
290
     1
176
     1
290
     0
176
     1
290
     0
176
     1
290
     0
176
     1
290
     0
176
     1
290
     0
176
     1
290
     0
176
     1
 90
       50
176
     1
 40
0.0
176
     1
 40
1.0
176
     1
 90
        0
176
     1
 62
    18
420
        0
176
     1
 90
       50
176
     1
 90
        3
176
     1
 62
     5
420
      255
176
     1
290
     0
176
     1
 90
       50
176
     1
 90
       50
176
     1
 90
       50
176
     1
290
     0
176
     1
 90
       50
176
     1
 62
   256
176
     0
 40
1.0
176
     0
 90
        2
176
     1
  1
strokes_ogs.tif
176
     1
290
     0
176
     1
 40
1.0
176
     1
 40
1.0
176
     1
  0
VISUALSTYLE
  5
2C
102
{ACAD_REACTORS
330
2A
102
}
330
2A
100
AcDbVisualStyle
  2
FlatWithEdges
 70
     1
177
     3
291
     1
 70
    58
 90
        2
176
     1
 90
        1
176
     1
 90
        1
176
     1
 90
        2
176
     1
 40
0.6
176
     1
 40
30.0
176
     1
 62
     7
420
 16777215
176
     1
 90
        1
176
     1
 90
        0
176
     1
 62
     7
176
     1
 62
   257
176
     1
 90
        1
176
     1
 90
        1
176
     1
 40
1.0
176
     1
 90
        0
176
     1
 62
   257
176
     1
 40
1.0
176
     1
 90
        1
176
     1
 90
        6
176
     1
 90
        2
176
     1
 62
     7
176
     1
 90
        5
176
     1
 90
        0
176
     1
 90
        0
176
     1
290
     0
176
     1
 90
       13
176
     1
 40
0.0
176
     1
 90
        0
176
     1
290
     0
176
     1
290
     1
176
     1
290
     1
176
     1
290
     0
176
     1
290
     0
176
     1
290
     0
176
     1
290
     0
176
     1
290
     0
176
     1
290
     0
176
     1
 90
       50
176
     1
 40
0.0
176
     1
 40
1.0
176
     1
 90
        0
176
     1
 62
    18
420
        0
176
     1
 90
       50
176
     1
 90
        3
176
     1
 62
     5
420
      255
176
     1
290
     0
176
     1
 90
       50
176
     1
 90
       50
176
     1
 90
       50
176
     1
290
     0
176
     1
 90
       50
176
     1
 62
   256
176
     0
 40
1.0
176
     0
 90
        2
176
     1
  1
strokes_ogs.tif
176
     1
290
     0
176
     1
 40
1.0
176
     1
 40
1.0
176
     1
  0
VISUALSTYLE
  5
2D
102
{ACAD_REACTORS
330
2A
102
}
330
2A
100
AcDbVisualStyle
  2
Gouraud
 70
     2
177
     3
291
     1
 70
    58
 90
        2
176
     1
 90
        2
176
     1
 90
        1
176
     1
 90
        2
176
     1
 40
0.6
176
     1
 40
30.0
176
     1
 62
     7
420
 16777215
176
     1
 90
        0
176
     1
 90
        0
176
     1
 62
     7
176
     1
 62
   257
176
     1
 90
        1
176
     1
 90
        1
176
     1
 40
1.0
176
     1
 90
        0
176
     1
 62
     7
176
     1
 40
1.0
176
     1
 90
        1
176
     1
 90
        6
176
     1
 90
        2
176
     1
 62
     7
176
     1
 90
        5
176
     1
 90
        0
176
     1
 90
        0
176
     1
290
     0
176
     1
 90
       13
176
     1
 40
0.0
176
     1
 90
        0
176
     1
290
     0
176
     1
290
     1
176
     1
290
     1
176
     1
290
     0
176
     1
290
     0
176
     1
290
     0
176
     1
290
     0
176
     1
290
     0
176
     1
290
     0
176
     1
 90
       50
176
     1
 40
0.0
176
     1
 40
1.0
176
     1
 90
        0
176
     1
 62
    18
420
        0
176
     1
 90
       50
176
     1
 90
        3
176
     1
 62
     5
420
      255
176
     1
290
     0
176
     1
 90
       50
176
     1
 90
       50
176
     1
 90
       50
176
     1
290
     0
176
     1
 90
       50
176
     1
 62
   256
176
     0
 40
1.0
176
     0
 90
        2
176
     1
  1
strokes_ogs.tif
176
     1
290
     0
176
     1
 40
1.0
176
     1
 40
1.0
176
     1
  0
VISUALSTYLE
  5
2E
102
{ACAD_REACTORS
330
2A
102
}
330
2A
100
AcDbVisualStyle
  2
GouraudWithEdges
 70
     3
177
     3
291
     1
 70
    58
 90
        2
176
     1
 90
        2
176
     1
 90
        1
176
     1
 90
        2
176
     1
 40
0.6
176
     1
 40
30.0
176
     1
 62
     7
420
 16777215
176
     1
 90
        1
176
     1
 90
        0
176
     1
 62
     7
176
     1
 62
   257
176
     1
 90
        1
176
     1
 90
        1
176
     1
 40
1.0
176
     1
 90
        0
176
     1
 62
   257
176
     1
 40
1.0
176
     1
 90
        1
176
     1
 90
        6
176
     1
 90
        2
176
     1
 62
     7
176
     1
 90
        5
176
     1
 90
        0
176
     1
 90
        0
176
     1
290
     0
176
     1
 90
       13
176
     1
 40
0.0
176
     1
 90
        0
176
     1
290
     0
176
     1
290
     1
176
     1
290
     1
176
     1
290
     0
176
     1
290
     0
176
     1
290
     0
176
     1
290
     0
176
     1
290
     0
176
     1
290
     0
176
     1
 90
       50
176
     1
 40
0.0
176
     1
 40
1.0
176
     1
 90
        0
176
     1
 62
    18
420
        0
176
     1
 90
       50
176
     1
 90
        3
176
     1
 62
     5
420
      255
176
     1
290
     0
176
     1
 90
       50
176
     1
 90
       50
176
     1
 90
       50
176
     1
290
     0
176
     1
 90
       50
176
     1
 62
   256
176
     0
 40
1.0
176
     0
 90
        2
176
     1
  1
strokes_ogs.tif
176
     1
290
     0
176
     1
 40
1.0
176
     1
 40
1.0
176
     1
  0
VISUALSTYLE
  5
31
102
{ACAD_REACTORS
330
2A
102
}
330
2A
100
AcDbVisualStyle
  2
Hidden
 70
     6
177
     3
291
     0
 70
    58
 90
        1
176
     1
 90
        2
176
     1
 90
        2
176
     1
 90
        0
176
     1
 40
0.6
176
     1
 40
30.0
176
     1
 62
     7
420
 16777215
176
     1
 90
        2
176
     1
 90
        2
176
     1
 62
     7
176
     1
 62
   257
176
     1
 90
        2
176
     1
 90
        1
176
     1
 40
40.0
176
     1
 90
        0
176
     1
 62
   257
176
     1
 40
1.0
176
     1
 90
        1
176
     1
 90
        6
176
     1
 90
        2
176
     1
 62
     7
176
     1
 90
        3
176
     1
 90
        0
176
     1
 90
        0
176
     1
290
     0
176
     1
 90
        1
176
     1
 40
0.0
176
     1
 90
        0
176
     1
290
     0
176
     1
290
     1
176
     1
290
     1
176
     1
290
     0
176
     1
290
     0
176
     1
290
     0
176
     1
290
     0
176
     1
290
     0
176
     1
290
     0
176
     1
 90
       50
176
     1
 40
0.0
176
     1
 40
1.0
176
     1
 90
        0
176
     1
 62
    18
420
        0
176
     1
 90
       50
176
     1
 90
        3
176
     1
 62
     5
420
      255
176
     1
290
     0
176
     1
 90
       50
176
     1
 90
       50
176
     1
 90
       50
176
     1
290
     0
176
     1
 90
       50
176
     1
 62
   256
176
     0
 40
1.0
176
     0
 90
        2
176
     1
  1
strokes_ogs.tif
176
     1
290
     0
176
     1
 40
1.0
176
     1
 40
1.0
176
     1
  0
VISUALSTYLE
  5
3B
102
{ACAD_REACTORS
330
2A
102
}
330
2A
100
AcDbVisualStyle
  2
JitterOff
 70
    20
177
     3
291
     1
 70
    58
 90
        2
176
     0
 90
        2
176
     0
 90
        0
176
     0
 90
        0
176
     0
 40
0.6
176
     0
 40
30.0
176
     0
 62
     7
420
 16777215
176
     0
 90
        1
176
     0
 90
        4
176
     0
 62
     7
176
     0
 62
   257
176
     0
 90
        1
176
     0
 90
        1
176
     0
 40
1.0
176
     0
 90
       10
176
     2
 62
     7
176
     0
 40
1.0
176
     0
 90
        1
176
     0
 90
        6
176
     0
 90
        2
176
     0
 62
     7
176
     0
 90
        5
176
     0
 90
        0
176
     0
 90
        0
176
     0
290
     0
176
     0
 90
        1
176
     0
 40
0.0
176
     0
 90
        0
176
     0
290
     0
176
     0
290
     1
176
     0
290
     1
176
     0
290
     0
176
     0
290
     0
176
     0
290
     0
176
     0
290
     0
176
     0
290
     0
176
     0
290
     0
176
     0
 90
       50
176
     0
 40
0.0
176
     0
 40
1.0
176
     0
 90
        0
176
     0
 62
    18
420
        0
176
     0
 90
       50
176
     0
 90
        3
176
     0
 62
     5
420
      255
176
     0
290
     0
176
     0
 90
       50
176
     0
 90
       50
176
     0
 90
       50
176
     0
290
     0
176
     0
 90
       50
176
     0
 62
   256
176
     0
 40
1.0
176
     0
 90
        2
176
     0
  1
strokes_ogs.tif
176
     0
290
     0
176
     0
 40
1.0
176
     0
 40
1.0
176
     0
  0
VISUALSTYLE
  5
38
102
{ACAD_REACTORS
330
2A
102
}
330
2A
100
AcDbVisualStyle
  2
Linepattern
 70
    14
177
     3
291
     1
 70
    58
 90
        2
176
     1
 90
        2
176
     1
 90
        0
176
     1
 90
        0
176
     1
 40
0.6
176
     1
 40
30.0
176
     1
 62
     7
420
 16777215
176
     1
 90
        1
176
     1
 90
        4
176
     1
 62
     7
176
     1
 62
   257
176
     1
 90
        7
176
     1
 90
        7
176
     1
 40
1.0
176
     1
 90
        8
176
     1
 62
     7
176
     1
 40
1.0
176
     1
 90
        1
176
     1
 90
        6
176
     1
 90
        2
176
     1
 62
     7
176
     1
 90
        5
176
     1
 90
        0
176
     1
 90
        0
176
     1
290
     0
176
     1
 90
        1
176
     1
 40
0.0
176
     1
 90
        0
176
     1
290
     0
176
     1
290
     1
176
     1
290
     1
176
     1
290
     0
176
     1
290
     0
176
     1
290
     0
176
     1
290
     0
176
     1
290
     0
176
     1
290
     0
176
     1
 90
       50
176
     1
 40
0.0
176
     1
 40
1.0
176
     1
 90
        0
176
     1
 62
    18
420
        0
176
     1
 90
       50
176
     1
 90
        3
176
     1
 62
     5
420
      255
176
     1
290
     0
176
     1
 90
       50
176
     1
 90
       50
176
     1
 90
       50
176
     1
290
     0
176
     1
 90
       50
176
     1
 62
   256
176
     0
 40
1.0
176
     0
 90
        2
176
     1
  1
strokes_ogs.tif
176
     1
290
     0
176
     1
 40
1.0
176
     1
 40
1.0
176
     1
  0
VISUALSTYLE
  5
3C
102
{ACAD_REACTORS
330
2A
102
}
330
2A
100
AcDbVisualStyle
  2
OverhangOff
 70
    21
177
     3
291
     1
 70
    58
 90
        2
176
     0
 90
        2
176
     0
 90
        0
176
     0
 90
        0
176
     0
 40
0.6
176
     0
 40
30.0
176
     0
 62
     7
420
 16777215
176
     0
 90
        1
176
     0
 90
        4
176
     0
 62
     7
176
     0
 62
   257
176
     0
 90
        1
176
     0
 90
        1
176
     0
 40
1.0
176
     0
 90
        9
176
     2
 62
     7
176
     0
 40
1.0
176
     0
 90
        1
176
     0
 90
        6
176
     0
 90
        2
176
     0
 62
     7
176
     0
 90
        5
176
     0
 90
        0
176
     0
 90
        0
176
     0
290
     0
176
     0
 90
        1
176
     0
 40
0.0
176
     0
 90
        0
176
     0
290
     0
176
     0
290
     1
176
     0
290
     1
176
     0
290
     0
176
     0
290
     0
176
     0
290
     0
176
     0
290
     0
176
     0
290
     0
176
     0
290
     0
176
     0
 90
       50
176
     0
 40
0.0
176
     0
 40
1.0
176
     0
 90
        0
176
     0
 62
    18
420
        0
176
     0
 90
       50
176
     0
 90
        3
176
     0
 62
     5
420
      255
176
     0
290
     0
176
     0
 90
       50
176
     0
 90
       50
176
     0
 90
       50
176
     0
290
     0
176
     0
 90
       50
176
     0
 62
   256
176
     0
 40
1.0
176
     0
 90
        2
176
     0
  1
strokes_ogs.tif
176
     0
290
     0
176
     0
 40
1.0
176
     0
 40
1.0
176
     0
  0
VISUALSTYLE
  5
33
102
{ACAD_REACTORS
330
2A
102
}
330
2A
100
AcDbVisualStyle
  2
Realistic
 70
     8
177
     3
291
     0
 70
    58
 90
        2
176
     1
 90
        3
176
     1
 90
        0
176
     1
 90
        2
176
     1
 40
0.6
176
     1
 40
30.0
176
     1
 62
     7
420
 16777215
176
     1
 90
        0
176
     1
 90
        0
176
     1
 62
     7
176
     1
 62
   257
176
     1
 90
        1
176
     1
 90
        1
176
     1
 40
1.0
176
     1
 90
        8
176
     1
 62
   257
176
     1
 40
1.0
176
     1
 90
        1
176
     1
 90
        6
176
     1
 90
        2
176
     1
 62
     7
176
     1
 90
        3
176
     1
 90
        0
176
     1
 90
        0
176
     1
290
     0
176
     1
 90
       13
176
     1
 40
0.0
176
     1
 90
        0
176
     1
290
     0
176
     1
290
     1
176
     1
290
     1
176
     1
290
     0
176
     1
290
     0
176
     1
290
     0
176
     1
290
     0
176
     1
290
     0
176
     1
290
     0
176
     1
 90
       50
176
     1
 40
0.0
176
     1
 40
1.0
176
     1
 90
        0
176
     1
 62
    18
420
        0
176
     1
 90
       50
176
     1
 90
        3
176
     1
 62
     5
420
      255
176
     1
290
     0
176
     1
 90
       50
176
     1
 90
       50
176
     1
 90
       50
176
     1
290
     0
176
     1
 90
       50
176
     1
 62
   256
176
     0
 40
1.0
176
     0
 90
        2
176
     1
  1
strokes_ogs.tif
176
     1
290
     0
176
     1
 40
1.0
176
     1
 40
1.0
176
     1
  0
VISUALSTYLE
  5
42
102
{ACAD_REACTORS
330
2A
102
}
330
2A
100
AcDbVisualStyle
  2
Shaded
 70
    27
177
     3
291
     0
 70
    58
 90
        2
176
     1
 90
        2
176
     1
 90
        1
176
     1
 90
        2
176
     1
 40
0.6
176
     1
 40
30.0
176
     1
 62
     7
420
 16777215
176
     1
 90
        0
176
     1
 90
        4
176
     1
 62
     7
176
     1
 62
   257
176
     1
 90
        1
176
     1
 90
        1
176
     1
 40
1.0
176
     1
 90
        8
176
     1
 62
   257
176
     1
 40
1.0
176
     1
 90
        1
176
     1
 90
        6
176
     1
 90
        2
176
     1
 62
     8
420
  7895160
176
     1
 90
        3
176
     1
 90
        0
176
     1
 90
        0
176
     1
290
     0
176
     1
 90
        5
176
     1
 40
0.0
176
     1
 90
        0
176
     1
290
     0
176
     1
290
     1
176
     1
290
     1
176
     1
290
     0
176
     1
290
     0
176
     1
290
     0
176
     1
290
     0
176
     1
290
     0
176
     1
290
     0
176
     1
 90
       50
176
     1
 40
0.0
176
     1
 40
1.0
176
     1
 90
        0
176
     1
 62
    18
420
        0
176
     1
 90
       50
176
     1
 90
        3
176
     1
 62
     5
420
      255
176
     1
290
     0
176
     1
 90
       50
176
     1
 90
       50
176
     1
 90
       50
176
     1
290
     0
176
     1
 90
       50
176
     1
 62
   256
176
     0
 40
1.0
176
     0
 90
        2
176
     1
  1
strokes_ogs.tif
176
     1
290
     0
176
     1
 40
1.0
176
     1
 40
1.0
176
     1
  0
VISUALSTYLE
  5
41
102
{ACAD_REACTORS
330
2A
102
}
330
2A
100
AcDbVisualStyle
  2
Shaded with edges
 70
    26
177
     3
291
     0
 70
    58
 90
        2
176
     1
 90
        2
176
     1
 90
        1
176
     1
 90
        2
176
     1
 40
0.6
176
     1
 40
30.0
176
     1
 62
     7
420
 16777215
176
     1
 90
        1
176
     1
 90
       10
176
     1
 62
     7
176
     1
 62
   257
176
     1
 90
        2
176
     1
 90
        1
176
     1
 40
1.0
176
     1
 90
        8
176
     1
 62
   257
176
     1
 40
1.0
176
     1
 90
        1
176
     1
 90
        6
176
     1
 90
        2
176
     1
 62
     7
176
     1
 90
        3
176
     1
 90
        0
176
     1
 90
        0
176
     1
290
     0
176
     1
 90
        5
176
     1
 40
0.0
176
     1
 90
        0
176
     1
290
     0
176
     1
290
     1
176
     1
290
     1
176
     1
290
     0
176
     1
290
     0
176
     1
290
     0
176
     1
290
     0
176
     1
290
     0
176
     1
290
     0
176
     1
 90
       50
176
     1
 40
0.0
176
     1
 40
1.0
176
     1
 90
        0
176
     1
 62
    18
420
        0
176
     1
 90
       50
176
     1
 90
        3
176
     1
 62
     5
420
      255
176
     1
290
     0
176
     1
 90
       50
176
     1
 90
       50
176
     1
 90
       50
176
     1
290
     0
176
     1
 90
       50
176
     1
 62
   256
176
     0
 40
1.0
176
     0
 90
        2
176
     1
  1
strokes_ogs.tif
176
     1
290
     0
176
     1
 40
1.0
176
     1
 40
1.0
176
     1
  0
VISUALSTYLE
  5
3E
102
{ACAD_REACTORS
330
2A
102
}
330
2A
100
AcDbVisualStyle
  2
Shades of Gray
 70
    23
177
     3
291
     0
 70
    58
 90
        2
176
     1
 90
        2
176
     1
 90
        3
176
     1
 90
        0
176
     1
 40
0.6
176
     1
 40
30.0
176
     1
 62
     7
420
 16777215
176
     1
 90
        2
176
     1
 90
        2
176
     1
 62
     7
176
     1
 62
     7
176
     1
 90
        1
176
     1
 90
        1
176
     1
 40
40.0
176
     1
 90
        8
176
     1
 62
     7
176
     1
 40
1.0
176
     1
 90
        1
176
     1
 90
        6
176
     1
 90
        2
176
     1
 62
     7
176
     1
 90
        3
176
     1
 90
        0
176
     1
 90
        0
176
     1
290
     0
176
     1
 90
        1
176
     1
 40
0.0
176
     1
 90
        0
176
     1
290
     0
176
     1
290
     1
176
     1
290
     1
176
     1
290
     0
176
     1
290
     0
176
     1
290
     0
176
     1
290
     0
176
     1
290
     0
176
     1
290
     0
176
     1
 90
       50
176
     1
 40
0.0
176
     1
 40
1.0
176
     1
 90
        0
176
     1
 62
    18
420
        0
176
     1
 90
       50
176
     1
 90
        3
176
     1
 62
     5
420
      255
176
     1
290
     0
176
     1
 90
       50
176
     1
 90
       50
176
     1
 90
       50
176
     1
290
     0
176
     1
 90
       50
176
     1
 62
   256
176
     0
 40
1.0
176
     0
 90
        2
176
     1
  1
strokes_ogs.tif
176
     1
290
     0
176
     1
 40
1.0
176
     1
 40
1.0
176
     1
  0
VISUALSTYLE
  5
3F
102
{ACAD_REACTORS
330
2A
102
}
330
2A
100
AcDbVisualStyle
  2
Sketchy
 70
    24
177
     3
291
     0
 70
    58
 90
        1
176
     1
 90
        2
176
     1
 90
        2
176
     1
 90
        0
176
     1
 40
0.6
176
     1
 40
30.0
176
     1
 62
     7
420
 16777215
176
     1
 90
        2
176
     1
 90
        2
176
     1
 62
     7
176
     1
 62
     7
176
     1
 90
        1
176
     1
 90
        1
176
     1
 40
40.0
176
     1
 90
       11
176
     1
 62
     7
176
     1
 40
1.0
176
     1
 90
        1
176
     1
 90
        6
176
     1
 90
        2
176
     1
 62
     7
176
     1
 90
        6
176
     1
 90
        0
176
     1
 90
        0
176
     1
290
     0
176
     1
 90
        1
176
     1
 40
0.0
176
     1
 90
        0
176
     1
290
     0
176
     1
290
     1
176
     1
290
     1
176
     1
290
     0
176
     1
290
     0
176
     1
290
     0
176
     1
290
     0
176
     1
290
     0
176
     1
290
     0
176
     1
 90
       50
176
     1
 40
0.0
176
     1
 40
1.0
176
     1
 90
        0
176
     1
 62
    18
420
        0
176
     1
 90
       50
176
     1
 90
        3
176
     1
 62
     5
420
      255
176
     1
290
     0
176
     1
 90
       50
176
     1
 90
       50
176
     1
 90
       50
176
     1
290
     0
176
     1
 90
       50
176
     1
 62
   256
176
     0
 40
1.0
176
     0
 90
        2
176
     1
  1
strokes_ogs.tif
176
     1
290
     0
176
     1
 40
1.0
176
     1
 40
1.0
176
     1
  0
VISUALSTYLE
  5
37
102
{ACAD_REACTORS
330
2A
102
}
330
2A
100
AcDbVisualStyle
  2
Thicken
 70
    13
177
     3
291
     1
 70
    58
 90
        2
176
     1
 90
        2
176
     1
 90
        0
176
     1
 90
        0
176
     1
 40
0.6
176
     1
 40
30.0
176
     1
 62
     7
420
 16777215
176
     1
 90
        1
176
     1
 90
        4
176
     1
 62
     7
176
     1
 62
   257
176
     1
 90
        1
176
     1
 90
        1
176
     1
 40
1.0
176
     1
 90
       12
176
     1
 62
     7
176
     1
 40
1.0
176
     1
 90
        1
176
     1
 90
        6
176
     1
 90
        2
176
     1
 62
     7
176
     1
 90
        5
176
     1
 90
        0
176
     1
 90
        0
176
     1
290
     0
176
     1
 90
        1
176
     1
 40
0.0
176
     1
 90
        0
176
     1
290
     0
176
     1
290
     1
176
     1
290
     1
176
     1
290
     0
176
     1
290
     0
176
     1
290
     0
176
     1
290
     0
176
     1
290
     0
176
     1
290
     0
176
     1
 90
       50
176
     1
 40
0.0
176
     1
 40
1.0
176
     1
 90
        0
176
     1
 62
    18
420
        0
176
     1
 90
       50
176
     1
 90
        3
176
     1
 62
     5
420
      255
176
     1
290
     0
176
     1
 90
       50
176
     1
 90
       50
176
     1
 90
       50
176
     1
290
     0
176
     1
 90
       50
176
     1
 62
   256
176
     0
 40
1.0
176
     0
 90
        2
176
     1
  1
strokes_ogs.tif
176
     1
290
     0
176
     1
 40
1.0
176
     1
 40
1.0
176
     1
  0
VISUALSTYLE
  5
30
102
{ACAD_REACTORS
330
2A
102
}
330
2A
100
AcDbVisualStyle
  2
Wireframe
 70
     5
177
     3
291
     0
 70
    58
 90
        0
176
     1
 90
        2
176
     1
 90
        0
176
     1
 90
        0
176
     1
 40
0.6
176
     1
 40
30.0
176
     1
 62
     7
420
 16777215
176
     1
 90
        1
176
     1
 90
        4
176
     1
 62
     7
176
     1
 62
   257
176
     1
 90
        1
176
     1
 90
        1
176
     1
 40
1.0
176
     1
 90
        0
176
     1
 62
   257
176
     1
 40
1.0
176
     1
 90
        1
176
     1
 90
        6
176
     1
 90
        2
176
     1
 62
     7
176
     1
 90
        3
176
     1
 90
        0
176
     1
 90
        0
176
     1
290
     0
176
     1
 90
        1
176
     1
 40
0.0
176
     1
 90
        0
176
     1
290
     0
176
     1
290
     1
176
     1
290
     1
176
     1
290
     0
176
     1
290
     0
176
     1
290
     0
176
     1
290
     0
176
     1
290
     0
176
     1
290
     0
176
     1
 90
       50
176
     1
 40
0.0
176
     1
 40
1.0
176
     1
 90
        0
176
     1
 62
    18
420
        0
176
     1
 90
       50
176
     1
 90
        3
176
     1
 62
     5
420
      255
176
     1
290
     0
176
     1
 90
       50
176
     1
 90
       50
176
     1
 90
       50
176
     1
290
     0
176
     1
 90
       50
176
     1
 62
   256
176
     0
 40
1.0
176
     0
 90
        2
176
     1
  1
strokes_ogs.tif
176
     1
290
     0
176
     1
 40
1.0
176
     1
 40
1.0
176
     1
  0
VISUALSTYLE
  5
40
102
{ACAD_REACTORS
330
2A
102
}
330
2A
100
AcDbVisualStyle
  2
X-Ray
 70
    25
177
     3
291
     0
 70
    58
 90
        2
176
     1
 90
        2
176
     1
 90
        1
176
     1
 90
        1
176
     1
 40
0.5
176
     1
 40
30.0
176
     1
 62
     7
420
 16777215
176
     1
 90
        1
176
     1
 90
        0
176
     1
 62
     7
176
     1
 62
   257
176
     1
 90
        1
176
     1
 90
        1
176
     1
 40
1.0
176
     1
 90
        8
176
     1
 62
     7
176
     1
 40
1.0
176
     1
 90
        1
176
     1
 90
        6
176
     1
 90
        2
176
     1
 62
     7
176
     1
 90
        3
176
     1
 90
        0
176
     1
 90
        0
176
     1
290
     0
176
     1
 90
       13
176
     1
 40
0.0
176
     1
 90
        0
176
     1
290
     0
176
     1
290
     1
176
     1
290
     1
176
     1
290
     0
176
     1
290
     0
176
     1
290
     0
176
     1
290
     0
176
     1
290
     0
176
     1
290
     0
176
     1
 90
       50
176
     1
 40
0.0
176
     1
 40
1.0
176
     1
 90
        0
176
     1
 62
    18
420
        0
176
     1
 90
       50
176
     1
 90
        3
176
     1
 62
     5
420
      255
176
     1
290
     0
176
     1
 90
       50
176
     1
 90
       50
176
     1
 90
       50
176
     1
290
     0
176
     1
 90
       50
176
     1
 62
   256
176
     0
 40
1.0
176
     0
 90
        2
176
     1
  1
strokes_ogs.tif
176
     1
290
     0
176
     1
 40
1.0
176
     1
 40
1.0
176
     1
  0
DICTIONARYVAR
  5
162
102
{ACAD_REACTORS
330
161
102
}
330
161
100
DictionaryVariables
280
     0
  1
1:1
  0
DICTIONARYVAR
  5
167
102
{ACAD_REACTORS
330
161
102
}
330
161
100
DictionaryVariables
280
     0
  1
Standard
  0
DICTIONARYVAR
  5
166
102
{ACAD_REACTORS
330
161
102
}
330
161
100
DictionaryVariables
280
     0
  1
Standard
  0
DICTIONARY
  5
163
330
6A
100
AcDbDictionary
280
     1
281
     1
  3
ACAD_ROUNDTRIP_2008_TABLESTYLE_CELLSTYLEMAP
360
164
  0
CELLSTYLEMAP
  5
164
102
{ACAD_REACTORS
330
163
102
}
330
163
100
AcDbCellStyleMap
 90
        3
300
CELLSTYLE
  1
TABLEFORMAT_BEGIN
 90
        5
170
     1
 91
        0
 92
    32768
 62
   257
 93
        1
300
CONTENTFORMAT
  1
CONTENTFORMAT_BEGIN
 90
        0
 91
        0
 92
        4
 93
        0
300

 40
0.0
140
1.0
 94
        5
 62
     0
340
11
144
0.25
309
CONTENTFORMAT_END
171
     1
301
MARGIN
  1
CELLMARGIN_BEGIN
 40
0.06
 40
0.06
 40
0.06
 40
0.06
 40
0.06
 40
0.06
309
CELLMARGIN_END
 94
        6
 95
        1
302
GRIDFORMAT
  1
GRIDFORMAT_BEGIN
 90
        0
 91
        1
 62
     0
 92
       -2
340
14
 93
        0
 40
0.045
309
GRIDFORMAT_END
 95
        2
302
GRIDFORMAT
  1
GRIDFORMAT_BEGIN
 90
        0
 91
        1
 62
     0
 92
       -2
340
14
 93
        0
 40
0.045
309
GRIDFORMAT_END
 95
        4
302
GRIDFORMAT
  1
GRIDFORMAT_BEGIN
 90
        0
 91
        1
 62
     0
 92
       -2
340
14
 93
        0
 40
0.045
309
GRIDFORMAT_END
 95
        8
302
GRIDFORMAT
  1
GRIDFORMAT_BEGIN
 90
        0
 91
        1
 62
     0
 92
       -2
340
14
 93
        0
 40
0.045
309
GRIDFORMAT_END
 95
       16
302
GRIDFORMAT
  1
GRIDFORMAT_BEGIN
 90
        0
 91
        1
 62
     0
 92
       -2
340
14
 93
        0
 40
0.045
309
GRIDFORMAT_END
 95
       32
302
GRIDFORMAT
  1
GRIDFORMAT_BEGIN
 90
        0
 91
        1
 62
     0
 92
       -2
340
14
 93
        0
 40
0.045
309
GRIDFORMAT_END
309
TABLEFORMAT_END
  1
CELLSTYLE_BEGIN
 90
        1
 91
        1
300
_TITLE
309
CELLSTYLE_END
300
CELLSTYLE
  1
TABLEFORMAT_BEGIN
 90
        5
170
     1
 91
        0
 92
        0
 62
   257
 93
        1
300
CONTENTFORMAT
  1
CONTENTFORMAT_BEGIN
 90
        0
 91
        0
 92
        4
 93
        0
300

 40
0.0
140
1.0
 94
        5
 62
     0
340
11
144
0.18
309
CONTENTFORMAT_END
171
     1
301
MARGIN
  1
CELLMARGIN_BEGIN
 40
0.06
 40
0.06
 40
0.06
 40
0.06
 40
0.06
 40
0.06
309
CELLMARGIN_END
 94
        6
 95
        1
302
GRIDFORMAT
  1
GRIDFORMAT_BEGIN
 90
        0
 91
        1
 62
     0
 92
       -2
340
14
 93
        0
 40
0.045
309
GRIDFORMAT_END
 95
        2
302
GRIDFORMAT
  1
GRIDFORMAT_BEGIN
 90
        0
 91
        1
 62
     0
 92
       -2
340
14
 93
        0
 40
0.045
309
GRIDFORMAT_END
 95
        4
302
GRIDFORMAT
  1
GRIDFORMAT_BEGIN
 90
        0
 91
        1
 62
     0
 92
       -2
340
14
 93
        0
 40
0.045
309
GRIDFORMAT_END
 95
        8
302
GRIDFORMAT
  1
GRIDFORMAT_BEGIN
 90
        0
 91
        1
 62
     0
 92
       -2
340
14
 93
        0
 40
0.045
309
GRIDFORMAT_END
 95
       16
302
GRIDFORMAT
  1
GRIDFORMAT_BEGIN
 90
        0
 91
        1
 62
     0
 92
       -2
340
14
 93
        0
 40
0.045
309
GRIDFORMAT_END
 95
       32
302
GRIDFORMAT
  1
GRIDFORMAT_BEGIN
 90
        0
 91
        1
 62
     0
 92
       -2
340
14
 93
        0
 40
0.045
309
GRIDFORMAT_END
309
TABLEFORMAT_END
  1
CELLSTYLE_BEGIN
 90
        2
 91
        1
300
_HEADER
309
CELLSTYLE_END
300
CELLSTYLE
  1
TABLEFORMAT_BEGIN
 90
        5
170
     1
 91
        0
 92
        0
 62
   257
 93
        1
300
CONTENTFORMAT
  1
CONTENTFORMAT_BEGIN
 90
        0
 91
        0
 92
        4
 93
        0
300

 40
0.0
140
1.0
 94
        2
 62
     0
340
11
144
0.18
309
CONTENTFORMAT_END
171
     1
301
MARGIN
  1
CELLMARGIN_BEGIN
 40
0.06
 40
0.06
 40
0.06
 40
0.06
 40
0.06
 40
0.06
309
CELLMARGIN_END
 94
        6
 95
        1
302
GRIDFORMAT
  1
GRIDFORMAT_BEGIN
 90
        0
 91
        1
 62
     0
 92
       -2
340
14
 93
        0
 40
0.045
309
GRIDFORMAT_END
 95
        2
302
GRIDFORMAT
  1
GRIDFORMAT_BEGIN
 90
        0
 91
        1
 62
     0
 92
       -2
340
14
 93
        0
 40
0.045
309
GRIDFORMAT_END
 95
        4
302
GRIDFORMAT
  1
GRIDFORMAT_BEGIN
 90
        0
 91
        1
 62
     0
 92
       -2
340
14
 93
        0
 40
0.045
309
GRIDFORMAT_END
 95
        8
302
GRIDFORMAT
  1
GRIDFORMAT_BEGIN
 90
        0
 91
        1
 62
     0
 92
       -2
340
14
 93
        0
 40
0.045
309
GRIDFORMAT_END
 95
       16
302
GRIDFORMAT
  1
GRIDFORMAT_BEGIN
 90
        0
 91
        1
 62
     0
 92
       -2
340
14
 93
        0
 40
0.045
309
GRIDFORMAT_END
 95
       32
302
GRIDFORMAT
  1
GRIDFORMAT_BEGIN
 90
        0
 91
        1
 62
     0
 92
       -2
340
14
 93
        0
 40
0.045
309
GRIDFORMAT_END
309
TABLEFORMAT_END
  1
CELLSTYLE_BEGIN
 90
        3
 91
        2
300
_DATA
309
CELLSTYLE_END
  0
ENDSEC
  0
EOF