0
SECTION
  2
HEADER
  9
$ACADVER
  1
AC1027
  9
$ACADMAINTVER
 70
     8
  9
$DWGCODEPAGE
  3
ANSI_1252
  9
$REQUIREDVERSIONS
160
                 0
  9
$COMMENTS
  1
File was created by Cadenas
  9
$CUSTOMPROPERTYTAG
  1
NN
  9
$CUSTOMPROPERTY
  1
D-Lok Medium Duty Wide Slot Take Up Inch Bore
  9
$CUSTOMPROPERTYTAG
  1
NT
  9
$CUSTOMPROPERTY
  1
DLM Medium Duty Wide Slot Take-Up Bearings
  9
$CUSTOMPROPERTYTAG
  1
NB
  9
$CUSTOMPROPERTY
  1
068232
  9
$CUSTOMPROPERTYTAG
  1
NBSYN
  9
$CUSTOMPROPERTY
  1
$PN.
  9
$CUSTOMPROPERTYTAG
  1
LINA
  9
$CUSTOMPROPERTY
  1
068232
  9
$CUSTOMPROPERTYTAG
  1
SERIES
  9
$CUSTOMPROPERTY
  1
207
  9
$CUSTOMPROPERTYTAG
  1
SS
  9
$CUSTOMPROPERTY
  1
1-3/16
  9
$CUSTOMPROPERTYTAG
  1
PN
  9
$CUSTOMPROPERTY
  1
068232
  9
$CUSTOMPROPERTYTAG
  1
DESCRIPTION
  9
$CUSTOMPROPERTY
  1
WSTU-DLM-103
  9
$CUSTOMPROPERTYTAG
  1
W
  9
$CUSTOMPROPERTY
  1
5.1
  9
$CUSTOMPROPERTYTAG
  1
FS
  9
$CUSTOMPROPERTY
  1
WS308
  9
$CUSTOMPROPERTYTAG
  1
A
  9
$CUSTOMPROPERTY
  1
1.75
  9
$CUSTOMPROPERTYTAG
  1
B
  9
$CUSTOMPROPERTY
  1
4.87
  9
$CUSTOMPROPERTYTAG
  1
C
  9
$CUSTOMPROPERTY
  1
0.531
  9
$CUSTOMPROPERTYTAG
  1
D
  9
$CUSTOMPROPERTY
  1
2.50
  9
$CUSTOMPROPERTYTAG
  1
E
  9
$CUSTOMPROPERTY
  1
3.06
  9
$CUSTOMPROPERTYTAG
  1
F
  9
$CUSTOMPROPERTY
  1
3/4
  9
$CUSTOMPROPERTYTAG
  1
G
  9
$CUSTOMPROPERTY
  1
0.50
  9
$CUSTOMPROPERTYTAG
  1
H
  9
$CUSTOMPROPERTY
  1
0.63
  9
$CUSTOMPROPERTYTAG
  1
J
  9
$CUSTOMPROPERTY
  1
2.50
  9
$CUSTOMPROPERTYTAG
  1
K
  9
$CUSTOMPROPERTY
  1
1.44
  9
$CUSTOMPROPERTYTAG
  1
L
  9
$CUSTOMPROPERTY
  1
2.69
  9
$CUSTOMPROPERTYTAG
  1
M
  9
$CUSTOMPROPERTY
  1
3.480/3.510
  9
$CUSTOMPROPERTYTAG
  1
N
  9
$CUSTOMPROPERTY
  1
4.13
  9
$CUSTOMPROPERTYTAG
  1
R
  9
$CUSTOMPROPERTY
  1
0.67
  9
$CUSTOMPROPERTYTAG
  1
S
  9
$CUSTOMPROPERTY
  1
1.08
  9
$CUSTOMPROPERTYTAG
  1
T
  9
$CUSTOMPROPERTY
  1
1.63
  9
$CUSTOMPROPERTYTAG
  1
COMPANY
  9
$CUSTOMPROPERTY
  1
baldor
  9
$INSBASE
 10
0.0
 20
0.0
 30
0.0
  9
$EXTMIN
 10
1.000000000000000E+20
 20
1.000000000000000E+20
 30
1.000000000000000E+20
  9
$EXTMAX
 10
-1.000000000000000E+20
 20
-1.000000000000000E+20
 30
-1.000000000000000E+20
  9
$LIMMIN
 10
0.0
 20
0.0
  9
$LIMMAX
 10
12.0
 20
9.0
  9
$ORTHOMODE
 70
     0
  9
$REGENMODE
 70
     1
  9
$FILLMODE
 70
     1
  9
$QTEXTMODE
 70
     0
  9
$MIRRTEXT
 70
     1
  9
$LTSCALE
 40
1.0
  9
$ATTMODE
 70
     1
  9
$TEXTSIZE
 40
0.2
  9
$TRACEWID
 40
0.05
  9
$TEXTSTYLE
  7
Standard
  9
$CLAYER
  8
0
  9
$CELTYPE
  6
ByLayer
  9
$CECOLOR
 62
   256
  9
$CELTSCALE
 40
1.0
  9
$DISPSILH
 70
     0
  9
$DIMSCALE
 40
1.0
  9
$DIMASZ
 40
0.18
  9
$DIMEXO
 40
0.0625
  9
$DIMDLI
 40
0.38
  9
$DIMRND
 40
0.0
  9
$DIMDLE
 40
0.0
  9
$DIMEXE
 40
0.18
  9
$DIMTP
 40
0.0
  9
$DIMTM
 40
0.0
  9
$DIMTXT
 40
0.18
  9
$DIMCEN
 40
0.09
  9
$DIMTSZ
 40
0.0
  9
$DIMTOL
 70
     0
  9
$DIMLIM
 70
     0
  9
$DIMTIH
 70
     1
  9
$DIMTOH
 70
     1
  9
$DIMSE1
 70
     0
  9
$DIMSE2
 70
     0
  9
$DIMTAD
 70
     0
  9
$DIMZIN
 70
     0
  9
$DIMBLK
  1

  9
$DIMASO
 70
     1
  9
$DIMSHO
 70
     1
  9
$DIMPOST
  1

  9
$DIMAPOST
  1

  9
$DIMALT
 70
     0
  9
$DIMALTD
 70
     2
  9
$DIMALTF
 40
25.4
  9
$DIMLFAC
 40
1.0
  9
$DIMTOFL
 70
     0
  9
$DIMTVP
 40
0.0
  9
$DIMTIX
 70
     0
  9
$DIMSOXD
 70
     0
  9
$DIMSAH
 70
     0
  9
$DIMBLK1
  1

  9
$DIMBLK2
  1

  9
$DIMSTYLE
  2
Standard
  9
$DIMCLRD
 70
     0
  9
$DIMCLRE
 70
     0
  9
$DIMCLRT
 70
     0
  9
$DIMTFAC
 40
1.0
  9
$DIMGAP
 40
0.09
  9
$DIMJUST
 70
     0
  9
$DIMSD1
 70
     0
  9
$DIMSD2
 70
     0
  9
$DIMTOLJ
 70
     1
  9
$DIMTZIN
 70
     0
  9
$DIMALTZ
 70
     0
  9
$DIMALTTZ
 70
     0
  9
$DIMUPT
 70
     0
  9
$DIMDEC
 70
     4
  9
$DIMTDEC
 70
     4
  9
$DIMALTU
 70
     2
  9
$DIMALTTD
 70
     2
  9
$DIMTXSTY
  7
Standard
  9
$DIMAUNIT
 70
     0
  9
$DIMADEC
 70
     0
  9
$DIMALTRND
 40
0.0
  9
$DIMAZIN
 70
     0
  9
$DIMDSEP
 70
    46
  9
$DIMATFIT
 70
     3
  9
$DIMFRAC
 70
     0
  9
$DIMLDRBLK
  1

  9
$DIMLUNIT
 70
     2
  9
$DIMLWD
 70
    -2
  9
$DIMLWE
 70
    -2
  9
$DIMTMOVE
 70
     0
  9
$DIMFXL
 40
1.0
  9
$DIMFXLON
 70
     0
  9
$DIMJOGANG
 40
0.7853981633974483
  9
$DIMTFILL
 70
     0
  9
$DIMTFILLCLR
 70
     0
  9
$DIMARCSYM
 70
     0
  9
$DIMLTYPE
  6

  9
$DIMLTEX1
  6

  9
$DIMLTEX2
  6

  9
$DIMTXTDIRECTION
 70
     0
  9
$LUNITS
 70
     2
  9
$LUPREC
 70
     4
  9
$SKETCHINC
 40
0.1
  9
$FILLETRAD
 40
0.5
  9
$AUNITS
 70
     0
  9
$AUPREC
 70
     0
  9
$MENU
  1
.
  9
$ELEVATION
 40
0.0
  9
$PELEVATION
 40
0.0
  9
$THICKNESS
 40
0.0
  9
$LIMCHECK
 70
     0
  9
$CHAMFERA
 40
0.0
  9
$CHAMFERB
 40
0.0
  9
$CHAMFERC
 40
0.0
  9
$CHAMFERD
 40
0.0
  9
$SKPOLY
 70
     0
  9
$TDCREATE
 40
2458169.00093838
  9
$TDUCREATE
 40
2458168.959271713
  9
$TDUPDATE
 40
2458169.000938565
  9
$TDUUPDATE
 40
2458168.959271898
  9
$TDINDWG
 40
0.0000000116
  9
$TDUSRTIMER
 40
0.0000000116
  9
$USRTIMER
 70
     1
  9
$ANGBASE
 50
0.0
  9
$ANGDIR
 70
     0
  9
$PDMODE
 70
     0
  9
$PDSIZE
 40
0.0
  9
$PLINEWID
 40
0.0
  9
$SPLFRAME
 70
     0
  9
$SPLINETYPE
 70
     6
  9
$SPLINESEGS
 70
     8
  9
$HANDSEED
  5
1D9
  9
$SURFTAB1
 70
     6
  9
$SURFTAB2
 70
     6
  9
$SURFTYPE
 70
     6
  9
$SURFU
 70
     6
  9
$SURFV
 70
     6
  9
$UCSBASE
  2

  9
$UCSNAME
  2

  9
$UCSORG
 10
0.0
 20
0.0
 30
0.0
  9
$UCSXDIR
 10
1.0
 20
0.0
 30
0.0
  9
$UCSYDIR
 10
0.0
 20
1.0
 30
0.0
  9
$UCSORTHOREF
  2

  9
$UCSORTHOVIEW
 70
     0
  9
$UCSORGTOP
 10
0.0
 20
0.0
 30
0.0
  9
$UCSORGBOTTOM
 10
0.0
 20
0.0
 30
0.0
  9
$UCSORGLEFT
 10
0.0
 20
0.0
 30
0.0
  9
$UCSORGRIGHT
 10
0.0
 20
0.0
 30
0.0
  9
$UCSORGFRONT
 10
0.0
 20
0.0
 30
0.0
  9
$UCSORGBACK
 10
0.0
 20
0.0
 30
0.0
  9
$PUCSBASE
  2

  9
$PUCSNAME
  2

  9
$PUCSORG
 10
0.0
 20
0.0
 30
0.0
  9
$PUCSXDIR
 10
1.0
 20
0.0
 30
0.0
  9
$PUCSYDIR
 10
0.0
 20
1.0
 30
0.0
  9
$PUCSORTHOREF
  2

  9
$PUCSORTHOVIEW
 70
     0
  9
$PUCSORGTOP
 10
0.0
 20
0.0
 30
0.0
  9
$PUCSORGBOTTOM
 10
0.0
 20
0.0
 30
0.0
  9
$PUCSORGLEFT
 10
0.0
 20
0.0
 30
0.0
  9
$PUCSORGRIGHT
 10
0.0
 20
0.0
 30
0.0
  9
$PUCSORGFRONT
 10
0.0
 20
0.0
 30
0.0
  9
$PUCSORGBACK
 10
0.0
 20
0.0
 30
0.0
  9
$USERI1
 70
     0
  9
$USERI2
 70
     0
  9
$USERI3
 70
     0
  9
$USERI4
 70
     0
  9
$USERI5
 70
     0
  9
$USERR1
 40
0.0
  9
$USERR2
 40
0.0
  9
$USERR3
 40
0.0
  9
$USERR4
 40
0.0
  9
$USERR5
 40
0.0
  9
$WORLDVIEW
 70
     1
  9
$SHADEDGE
 70
     3
  9
$SHADEDIF
 70
    70
  9
$TILEMODE
 70
     1
  9
$MAXACTVP
 70
    64
  9
$PINSBASE
 10
0.0
 20
0.0
 30
0.0
  9
$PLIMCHECK
 70
     0
  9
$PEXTMIN
 10
1.000000000000000E+20
 20
1.000000000000000E+20
 30
1.000000000000000E+20
  9
$PEXTMAX
 10
-1.000000000000000E+20
 20
-1.000000000000000E+20
 30
-1.000000000000000E+20
  9
$PLIMMIN
 10
0.0
 20
0.0
  9
$PLIMMAX
 10
12.0
 20
9.0
  9
$UNITMODE
 70
     0
  9
$VISRETAIN
 70
     1
  9
$PLINEGEN
 70
     0
  9
$PSLTSCALE
 70
     1
  9
$TREEDEPTH
 70
  3020
  9
$CMLSTYLE
  2
Standard
  9
$CMLJUST
 70
     0
  9
$CMLSCALE
 40
1.0
  9
$PROXYGRAPHICS
 70
     1
  9
$MEASUREMENT
 70
     0
  9
$CELWEIGHT
370
    -1
  9
$ENDCAPS
280
     0
  9
$JOINSTYLE
280
     0
  9
$LWDISPLAY
290
     0
  9
$INSUNITS
 70
     1
  9
$HYPERLINKBASE
  1

  9
$STYLESHEET
  1

  9
$XEDIT
290
     1
  9
$CEPSNTYPE
380
     0
  9
$PSTYLEMODE
290
     1
  9
$FINGERPRINTGUID
  2
{E1F0DA93-3D06-4631-AAB6-6186451E17C1}
  9
$VERSIONGUID
  2
{FAEB1C32-E019-11D5-929B-00C0DF256EC4}
  9
$EXTNAMES
290
     1
  9
$PSVPSCALE
 40
0.0
  9
$OLESTARTUP
290
     0
  9
$SORTENTS
280
   127
  9
$INDEXCTL
280
     0
  9
$HIDETEXT
280
     1
  9
$XCLIPFRAME
280
     2
  9
$HALOGAP
280
     0
  9
$OBSCOLOR
 70
   257
  9
$OBSLTYPE
280
     0
  9
$INTERSECTIONDISPLAY
280
     0
  9
$INTERSECTIONCOLOR
 70
   257
  9
$DIMASSOC
280
     2
  9
$PROJECTNAME
  1

  9
$CAMERADISPLAY
290
     0
  9
$LENSLENGTH
 40
50.0
  9
$CAMERAHEIGHT
 40
0.0
  9
$STEPSPERSEC
 40
2.0
  9
$STEPSIZE
 40
6.0
  9
$3DDWFPREC
 40
2.0
  9
$PSOLWIDTH
 40
0.25
  9
$PSOLHEIGHT
 40
4.0
  9
$LOFTANG1
 40
1.570796326794897
  9
$LOFTANG2
 40
1.570796326794897
  9
$LOFTMAG1
 40
0.0
  9
$LOFTMAG2
 40
0.0
  9
$LOFTPARAM
 70
     7
  9
$LOFTNORMALS
280
     1
  9
$LATITUDE
 40
37.795
  9
$LONGITUDE
 40
-122.394
  9
$NORTHDIRECTION
 40
0.0
  9
$TIMEZONE
 70
 -8000
  9
$LIGHTGLYPHDISPLAY
280
     1
  9
$TILEMODELIGHTSYNCH
280
     1
  9
$CMATERIAL
347
44
  9
$SOLIDHIST
280
     0
  9
$SHOWHIST
280
     1
  9
$DWFFRAME
280
     2
  9
$DGNFRAME
280
     2
  9
$REALWORLDSCALE
290
     1
  9
$INTERFERECOLOR
 62
   256
  9
$CSHADOW
280
     0
  9
$SHADOWPLANELOCATION
 40
0.0
  0
ENDSEC
  0
SECTION
  2
CLASSES
  0
CLASS
  1
ACDBDICTIONARYWDFLT
  2
AcDbDictionaryWithDefault
  3
ObjectDBX Classes
 90
        0
 91
        4
280
     0
281
     0
  0
CLASS
  1
VISUALSTYLE
  2
AcDbVisualStyle
  3
ObjectDBX Classes
 90
     4095
 91
        4
280
     0
281
     0
  0
CLASS
  1
MATERIAL
  2
AcDbMaterial
  3
ObjectDBX Classes
 90
     1153
 91
        4
280
     0
281
     0
  0
CLASS
  1
SCALE
  2
AcDbScale
  3
ObjectDBX Classes
 90
     1153
 91
        4
280
     0
281
     0
  0
CLASS
  1
TABLESTYLE
  2
AcDbTableStyle
  3
ObjectDBX Classes
 90
     4095
 91
        4
280
     0
281
     0
  0
CLASS
  1
MLEADERSTYLE
  2
AcDbMLeaderStyle
  3
ACDB_MLEADERSTYLE_CLASS
 90
     4095
 91
        4
280
     0
281
     0
  0
CLASS
  1
SUN
  2
AcDbSun
  3
SCENEOE
 90
     1153
 91
        4
280
     0
281
     0
  0
CLASS
  1
DICTIONARYVAR
  2
AcDbDictionaryVar
  3
ObjectDBX Classes
 90
        0
 91
        4
280
     0
281
     0
  0
CLASS
  1
CELLSTYLEMAP
  2
AcDbCellStyleMap
  3
ObjectDBX Classes
 90
     1152
 91
        4
280
     0
281
     0
  0
ENDSEC
  0
SECTION
  2
TABLES
  0
TABLE
  2
VPORT
  5
8
330
0
100
AcDbSymbolTable
 70
     1
  0
VPORT
  5
29
330
8
100
AcDbSymbolTableRecord
100
AcDbViewportTableRecord
  2
*Active
 70
     0
 10
0.0
 20
0.0
 11
1.0
 21
1.0
 12
0.0
 22
0.0
 13
0.0
 23
0.0
 14
0.5
 24
0.5
 15
0.5
 25
0.5
 16
0.0
 26
0.0
 36
1.0
 17
0.0
 27
0.0
 37
0.0
 40
4.212600000000001
 41
0.5657142857142858
 42
50.0
 43
0.0
 44
0.0
 50
0.0
 51
0.0
 71
     0
 72
   100
 73
     1
 74
     3
 75
     0
 76
     0
 77
     0
 78
     0
281
     0
 65
     1
110
0.0
120
0.0
130
0.0
111
1.0
121
0.0
131
0.0
112
0.0
122
1.0
132
0.0
 79
     0
146
0.0
348
2F
 60
     3
 61
     5
292
     1
282
     1
141
0.0
142
0.0
 63
   250
361
6D
  0
ENDTAB
  0
TABLE
  2
LTYPE
  5
5
330
0
100
AcDbSymbolTable
 70
     3
  0
LTYPE
  5
14
330
5
100
AcDbSymbolTableRecord
100
AcDbLinetypeTableRecord
  2
ByBlock
 70
     0
  3

 72
    65
 73
     0
 40
0.0
  0
LTYPE
  5
15
330
5
100
AcDbSymbolTableRecord
100
AcDbLinetypeTableRecord
  2
ByLayer
 70
     0
  3

 72
    65
 73
     0
 40
0.0
  0
LTYPE
  5
16
330
5
100
AcDbSymbolTableRecord
100
AcDbLinetypeTableRecord
  2
Continuous
 70
     0
  3
Solid line
 72
    65
 73
     0
 40
0.0
  0
LTYPE
  5
A7
330
5
100
AcDbSymbolTableRecord
100
AcDbLinetypeTableRecord
  2
Dashed
 70
     0
  3

 72
    65
 73
     2
 40
2.0
 49
1.0
 74
     0
 49
-1.0
 74
     0
  0
LTYPE
  5
19F
330
5
100
AcDbSymbolTableRecord
100
AcDbLinetypeTableRecord
  2
Center
 70
     0
  3

 72
    65
 73
     4
 40
1.5
 49
0.45
 74
     0
 49
-0.5
 74
     0
 49
0.05
 74
     0
 49
-0.5
 74
     0
  0
ENDTAB
  0
TABLE
  2
LAYER
  5
2
330
0
100
AcDbSymbolTable
 70
     6
  0
LAYER
  5
10
330
2
100
AcDbSymbolTableRecord
100
AcDbLayerTableRecord
  2
0
 70
     0
 62
     7
  6
Continuous
370
    -3
390
F
347
46
348
0
  0
LAYER
  5
72
330
2
100
AcDbSymbolTableRecord
100
AcDbLayerTableRecord
  2
AM_6
 70
     0
 62
    -2
  6
Continuous
370
    35
390
F
347
46
348
0
  0
LAYER
  5
A8
330
2
100
AcDbSymbolTableRecord
100
AcDbLayerTableRecord
  2
AM_9
 70
     0
 62
     6
  6
Dashed
370
    25
390
F
347
46
348
0
  0
LAYER
  5
C7
330
2
100
AcDbSymbolTableRecord
100
AcDbLayerTableRecord
  2
AM_4
 70
     0
 62
     7
  6
Continuous
370
    50
390
F
347
46
348
0
  0
LAYER
  5
1A0
330
2
100
AcDbSymbolTableRecord
100
AcDbLayerTableRecord
  2
AM_7
 70
     0
 62
     7
  6
Center
370
    25
390
F
347
46
348
0
  0
LAYER
  5
1CC
330
2
100
AcDbSymbolTableRecord
100
AcDbLayerTableRecord
  2
ConnectionPoints
 70
     0
 62
     7
  6
Continuous
370
    50
390
F
347
46
348
0
  0
ENDTAB
  0
TABLE
  2
STYLE
  5
3
330
0
100
AcDbSymbolTable
 70
     1
  0
STYLE
  5
11
330
3
100
AcDbSymbolTableRecord
100
AcDbTextStyleTableRecord
  2
Standard
 70
     0
 40
0.0
 41
1.0
 50
0.0
 71
     0
 42
0.2
  3
txt
  4

  0
ENDTAB
  0
TABLE
  2
VIEW
  5
6
330
0
100
AcDbSymbolTable
 70
     0
  0
ENDTAB
  0
TABLE
  2
UCS
  5
7
330
0
100
AcDbSymbolTable
 70
     0
  0
ENDTAB
  0
TABLE
  2
APPID
  5
9
330
0
100
AcDbSymbolTable
 70
     1
  0
APPID
  5
12
330
9
100
AcDbSymbolTableRecord
100
AcDbRegAppTableRecord
  2
ACAD
 70
     0
  0
ENDTAB
  0
TABLE
  2
DIMSTYLE
  5
A
330
0
100
AcDbSymbolTable
 70
     1
100
AcDbDimStyleTable
  0
DIMSTYLE
105
27
330
A
100
AcDbSymbolTableRecord
100
AcDbDimStyleTableRecord
  2
Standard
 70
     0
178
     0
340
11
  0
ENDTAB
  0
TABLE
  2
BLOCK_RECORD
  5
1
330
0
100
AcDbSymbolTable
 70
     5
  0
BLOCK_RECORD
  5
1F
330
1
100
AcDbSymbolTableRecord
100
AcDbBlockTableRecord
  2
*Model_Space
340
22
 70
     0
280
     1
281
     0
  0
BLOCK_RECORD
  5
1B
330
1
100
AcDbSymbolTableRecord
100
AcDbBlockTableRecord
  2
*Paper_Space
340
1E
 70
     0
280
     1
281
     0
  0
BLOCK_RECORD
  5
23
330
1
100
AcDbSymbolTableRecord
100
AcDbBlockTableRecord
  2
*Paper_Space0
340
26
 70
     0
280
     1
281
     0
  0
BLOCK_RECORD
  5
6E
330
1
100
AcDbSymbolTableRecord
100
AcDbBlockTableRecord
  2
1_068232_2
340
0
102
{BLKREFS
331
6F
102
}
 70
     0
280
     1
281
     0
  0
BLOCK_RECORD
  5
8F
330
1
100
AcDbSymbolTableRecord
100
AcDbBlockTableRecord
  2
2_128669_0_in_068232_2
340
0
102
{BLKREFS
331
90
102
}
 70
     0
280
     1
281
     0
  0
BLOCK_RECORD
  5
DE
330
1
100
AcDbSymbolTableRecord
100
AcDbBlockTableRecord
  2
3_405016_Inch_0_in_068232_2
340
0
102
{BLKREFS
331
DF
102
}
 70
     0
280
     1
281
     0
  0
BLOCK_RECORD
  5
152
330
1
100
AcDbSymbolTableRecord
100
AcDbBlockTableRecord
  2
4_068232H_0_in_068232_2
340
0
102
{BLKREFS
331
153
102
}
 70
     0
280
     1
281
     0
  0
ENDTAB
  0
ENDSEC
  0
SECTION
  2
BLOCKS
  0
BLOCK
  5
20
330
1F
100
AcDbEntity
  8
0
100
AcDbBlockBegin
  2
*Model_Space
 70
     0
 10
0.0
 20
0.0
 30
0.0
  3
*Model_Space
  1

  0
ENDBLK
  5
21
330
1F
100
AcDbEntity
  8
0
100
AcDbBlockEnd
  0
BLOCK
  5
1C
330
1B
100
AcDbEntity
 67
     1
  8
0
100
AcDbBlockBegin
  2
*Paper_Space
 70
     0
 10
0.0
 20
0.0
 30
0.0
  3
*Paper_Space
  1

  0
ENDBLK
  5
1D
330
1B
100
AcDbEntity
 67
     1
  8
0
100
AcDbBlockEnd
  0
BLOCK
  5
24
330
23
100
AcDbEntity
  8
0
100
AcDbBlockBegin
  2
*Paper_Space0
 70
     0
 10
0.0
 20
0.0
 30
0.0
  3
*Paper_Space0
  1

  0
ENDBLK
  5
25
330
23
100
AcDbEntity
  8
0
100
AcDbBlockEnd
  0
BLOCK
  5
70
330
6E
100
AcDbEntity
  8
0
100
AcDbBlockBegin
  2
1_068232_2
 70
     2
 10
0.0
 20
0.0
 30
0.0
  3
1_068232_2
  1

  0
ATTDEF
  5
73
330
6E
100
AcDbEntity
  8
AM_6
100
AcDbText
 10
6.168200000000001
 20
2.065
 30
0.0
 40
0.5
  1
D-Lok Medium Duty Wide Slot Take Up Inch Bore
100
AcDbAttributeDefinition
  3

  2
NN
 70
     8
280
     0
  0
ATTDEF
  5
74
330
6E
100
AcDbEntity
  8
AM_6
100
AcDbText
 10
6.168200000000001
 20
1.565
 30
0.0
 40
0.5
  1
DLM Medium Duty Wide Slot Take-Up Bearings
100
AcDbAttributeDefinition
  3

  2
NT
 70
     8
280
     0
  0
ATTDEF
  5
75
330
6E
100
AcDbEntity
  8
AM_6
100
AcDbText
 10
6.168200000000001
 20
1.065
 30
0.0
 40
0.5
  1
068232
100
AcDbAttributeDefinition
  3

  2
NB
 70
     8
280
     0
  0
ATTDEF
  5
76
330
6E
100
AcDbEntity
  8
AM_6
100
AcDbText
 10
6.168200000000001
 20
0.5650000000000004
 30
0.0
 40
0.5
  1
$PN.
100
AcDbAttributeDefinition
  3

  2
NBSYN
 70
     8
280
     0
  0
ATTDEF
  5
77
330
6E
100
AcDbEntity
  8
AM_6
100
AcDbText
 10
6.168200000000001
 20
0.0650000000000004
 30
0.0
 40
0.5
  1
068232
100
AcDbAttributeDefinition
  3

  2
LINA
 70
     8
280
     0
  0
ATTDEF
  5
78
330
6E
100
AcDbEntity
  8
AM_6
100
AcDbText
 10
6.168200000000001
 20
-0.4349999999999996
 30
0.0
 40
0.5
  1
207
100
AcDbAttributeDefinition
  3

  2
SERIES
 70
     8
280
     0
  0
ATTDEF
  5
79
330
6E
100
AcDbEntity
  8
AM_6
100
AcDbText
 10
6.168200000000001
 20
-0.9349999999999996
 30
0.0
 40
0.5
  1
1-3/16
100
AcDbAttributeDefinition
  3

  2
SS
 70
     8
280
     0
  0
ATTDEF
  5
7A
330
6E
100
AcDbEntity
  8
AM_6
100
AcDbText
 10
6.168200000000001
 20
-1.435
 30
0.0
 40
0.5
  1
068232
100
AcDbAttributeDefinition
  3

  2
PN
 70
     8
280
     0
  0
ATTDEF
  5
7B
330
6E
100
AcDbEntity
  8
AM_6
100
AcDbText
 10
6.168200000000001
 20
-1.935
 30
0.0
 40
0.5
  1
WSTU-DLM-103
100
AcDbAttributeDefinition
  3

  2
DESCRIPTION
 70
     8
280
     0
  0
ATTDEF
  5
7C
330
6E
100
AcDbEntity
  8
AM_6
100
AcDbText
 10
6.168200000000001
 20
-2.435
 30
0.0
 40
0.5
  1
5.1
100
AcDbAttributeDefinition
  3

  2
W
 70
     8
280
     0
  0
ATTDEF
  5
7D
330
6E
100
AcDbEntity
  8
AM_6
100
AcDbText
 10
6.168200000000001
 20
-2.935
 30
0.0
 40
0.5
  1
WS308
100
AcDbAttributeDefinition
  3

  2
FS
 70
     8
280
     0
  0
ATTDEF
  5
7E
330
6E
100
AcDbEntity
  8
AM_6
100
AcDbText
 10
6.168200000000001
 20
-3.435
 30
0.0
 40
0.5
  1
1.75
100
AcDbAttributeDefinition
  3

  2
A
 70
     8
280
     0
  0
ATTDEF
  5
7F
330
6E
100
AcDbEntity
  8
AM_6
100
AcDbText
 10
6.168200000000001
 20
-3.935
 30
0.0
 40
0.5
  1
4.87
100
AcDbAttributeDefinition
  3

  2
B
 70
     8
280
     0
  0
ATTDEF
  5
80
330
6E
100
AcDbEntity
  8
AM_6
100
AcDbText
 10
6.168200000000001
 20
-4.435
 30
0.0
 40
0.5
  1
0.531
100
AcDbAttributeDefinition
  3

  2
C
 70
     8
280
     0
  0
ATTDEF
  5
81
330
6E
100
AcDbEntity
  8
AM_6
100
AcDbText
 10
6.168200000000001
 20
-4.935
 30
0.0
 40
0.5
  1
2.50
100
AcDbAttributeDefinition
  3

  2
D
 70
     8
280
     0
  0
ATTDEF
  5
82
330
6E
100
AcDbEntity
  8
AM_6
100
AcDbText
 10
6.168200000000001
 20
-5.435
 30
0.0
 40
0.5
  1
3.06
100
AcDbAttributeDefinition
  3

  2
E
 70
     8
280
     0
  0
ATTDEF
  5
83
330
6E
100
AcDbEntity
  8
AM_6
100
AcDbText
 10
6.168200000000001
 20
-5.935
 30
0.0
 40
0.5
  1
3/4
100
AcDbAttributeDefinition
  3

  2
F
 70
     8
280
     0
  0
ATTDEF
  5
84
330
6E
100
AcDbEntity
  8
AM_6
100
AcDbText
 10
6.168200000000001
 20
-6.435
 30
0.0
 40
0.5
  1
0.50
100
AcDbAttributeDefinition
  3

  2
G
 70
     8
280
     0
  0
ATTDEF
  5
85
330
6E
100
AcDbEntity
  8
AM_6
100
AcDbText
 10
6.168200000000001
 20
-6.935
 30
0.0
 40
0.5
  1
0.63
100
AcDbAttributeDefinition
  3

  2
H
 70
     8
280
     0
  0
ATTDEF
  5
86
330
6E
100
AcDbEntity
  8
AM_6
100
AcDbText
 10
6.168200000000001
 20
-7.435
 30
0.0
 40
0.5
  1
2.50
100
AcDbAttributeDefinition
  3

  2
J
 70
     8
280
     0
  0
ATTDEF
  5
87
330
6E
100
AcDbEntity
  8
AM_6
100
AcDbText
 10
6.168200000000001
 20
-7.935
 30
0.0
 40
0.5
  1
1.44
100
AcDbAttributeDefinition
  3

  2
K
 70
     8
280
     0
  0
ATTDEF
  5
88
330
6E
100
AcDbEntity
  8
AM_6
100
AcDbText
 10
6.168200000000001
 20
-8.434999999999999
 30
0.0
 40
0.5
  1
2.69
100
AcDbAttributeDefinition
  3

  2
L
 70
     8
280
     0
  0
ATTDEF
  5
89
330
6E
100
AcDbEntity
  8
AM_6
100
AcDbText
 10
6.168200000000001
 20
-8.934999999999999
 30
0.0
 40
0.5
  1
3.480/3.510
100
AcDbAttributeDefinition
  3

  2
M
 70
     8
280
     0
  0
ATTDEF
  5
8A
330
6E
100
AcDbEntity
  8
AM_6
100
AcDbText
 10
6.168200000000001
 20
-9.434999999999999
 30
0.0
 40
0.5
  1
4.13
100
AcDbAttributeDefinition
  3

  2
N
 70
     8
280
     0
  0
ATTDEF
  5
8B
330
6E
100
AcDbEntity
  8
AM_6
100
AcDbText
 10
6.168200000000001
 20
-9.934999999999999
 30
0.0
 40
0.5
  1
0.67
100
AcDbAttributeDefinition
  3

  2
R
 70
     8
280
     0
  0
ATTDEF
  5
8C
330
6E
100
AcDbEntity
  8
AM_6
100
AcDbText
 10
6.168200000000001
 20
-10.435
 30
0.0
 40
0.5
  1
1.08
100
AcDbAttributeDefinition
  3

  2
S
 70
     8
280
     0
  0
ATTDEF
  5
8D
330
6E
100
AcDbEntity
  8
AM_6
100
AcDbText
 10
6.168200000000001
 20
-10.935
 30
0.0
 40
0.5
  1
1.63
100
AcDbAttributeDefinition
  3

  2
T
 70
     8
280
     0
  0
ATTDEF
  5
8E
330
6E
100
AcDbEntity
  8
AM_6
100
AcDbText
 10
6.168200000000001
 20
-11.435
 30
0.0
 40
0.5
  1
baldor
100
AcDbAttributeDefinition
  3

  2
COMPANY
 70
     8
280
     0
  0
INSERT
  5
90
330
6E
100
AcDbEntity
  8
0
100
AcDbBlockReference
  2
2_128669_0_in_068232_2
 10
0.0
 20
0.0
 30
0.0
  0
INSERT
  5
DF
330
6E
100
AcDbEntity
  8
0
100
AcDbBlockReference
  2
3_405016_Inch_0_in_068232_2
 10
0.0
 20
0.0
 30
0.0
  0
INSERT
  5
153
330
6E
100
AcDbEntity
  8
0
100
AcDbBlockReference
  2
4_068232H_0_in_068232_2
 10
0.0
 20
0.0
 30
0.0
  0
ENDBLK
  5
71
330
6E
100
AcDbEntity
  8
0
100
AcDbBlockEnd
  0
BLOCK
  5
91
330
8F
100
AcDbEntity
  8
0
100
AcDbBlockBegin
  2
2_128669_0_in_068232_2
 70
     2
 10
0.0
 20
0.0
 30
0.0
  3
2_128669_0_in_068232_2
  1

  0
ATTDEF
  5
93
330
8F
100
AcDbEntity
  8
AM_6
100
AcDbText
 10
5.67
 20
1.416645210840088
 30
0.0
 40
0.5
  1
D-Lok Medium Duty Insert Inch Bore
100
AcDbAttributeDefinition
  3

  2
NN
 70
     8
280
     0
  0
ATTDEF
  5
94
330
8F
100
AcDbEntity
  8
AM_6
100
AcDbText
 10
5.67
 20
0.916645210840088
 30
0.0
 40
0.5
  1
D-LOK
100
AcDbAttributeDefinition
  3

  2
NT
 70
     8
280
     0
  0
ATTDEF
  5
95
330
8F
100
AcDbEntity
  8
AM_6
100
AcDbText
 10
5.67
 20
0.416645210840088
 30
0.0
 40
0.5
  1
128669
100
AcDbAttributeDefinition
  3

  2
NB
 70
     8
280
     0
  0
ATTDEF
  5
96
330
8F
100
AcDbEntity
  8
AM_6
100
AcDbText
 10
5.67
 20
-0.083354789159912
 30
0.0
 40
0.5
  1
$PN.
100
AcDbAttributeDefinition
  3

  2
NBSYN
 70
     8
280
     0
  0
ATTDEF
  5
97
330
8F
100
AcDbEntity
  8
AM_6
100
AcDbText
 10
5.67
 20
-0.583354789159912
 30
0.0
 40
0.5
  1
128669
100
AcDbAttributeDefinition
  3

  2
LINA
 70
     8
280
     0
  0
ATTDEF
  5
98
330
8F
100
AcDbEntity
  8
AM_6
100
AcDbText
 10
5.67
 20
-1.083354789159912
 30
0.0
 40
0.5
  1
207
100
AcDbAttributeDefinition
  3

  2
SERIES
 70
     8
280
     0
  0
ATTDEF
  5
99
330
8F
100
AcDbEntity
  8
AM_6
100
AcDbText
 10
5.67
 20
-1.583354789159912
 30
0.0
 40
0.5
  1
1-3/16
100
AcDbAttributeDefinition
  3

  2
SS
 70
     8
280
     0
  0
ATTDEF
  5
9A
330
8F
100
AcDbEntity
  8
AM_6
100
AcDbText
 10
5.67
 20
-2.083354789159912
 30
0.0
 40
0.5
  1
128669
100
AcDbAttributeDefinition
  3

  2
PN
 70
     8
280
     0
  0
ATTDEF
  5
9B
330
8F
100
AcDbEntity
  8
AM_6
100
AcDbText
 10
5.67
 20
-2.583354789159912
 30
0.0
 40
0.5
  1
INS-DLM-103
100
AcDbAttributeDefinition
  3

  2
DESCRIPTION
 70
     8
280
     0
  0
ATTDEF
  5
9C
330
8F
100
AcDbEntity
  8
AM_6
100
AcDbText
 10
5.67
 20
-3.083354789159912
 30
0.0
 40
0.5
  1
2.2
100
AcDbAttributeDefinition
  3

  2
WEIGHT
 70
     8
280
     0
  0
ATTDEF
  5
9D
330
8F
100
AcDbEntity
  8
AM_6
100
AcDbText
 10
5.67
 20
-3.583354789159912
 30
0.0
 40
0.5
  1
1.75
100
AcDbAttributeDefinition
  3

  2
A
 70
     8
280
     0
  0
ATTDEF
  5
9E
330
8F
100
AcDbEntity
  8
AM_6
100
AcDbText
 10
5.67
 20
-4.083354789159912
 30
0.0
 40
0.5
  1
0.75
100
AcDbAttributeDefinition
  3

  2
C
 70
     8
280
     0
  0
ATTDEF
  5
9F
330
8F
100
AcDbEntity
  8
AM_6
100
AcDbText
 10
5.67
 20
-4.583354789159912
 30
0.0
 40
0.5
  1
2.8346
100
AcDbAttributeDefinition
  3

  2
D
 70
     8
280
     0
  0
ATTDEF
  5
A0
330
8F
100
AcDbEntity
  8
AM_6
100
AcDbText
 10
5.67
 20
-5.083354789159912
 30
0.0
 40
0.5
  1
0.20
100
AcDbAttributeDefinition
  3

  2
J
 70
     8
280
     0
  0
ATTDEF
  5
A1
330
8F
100
AcDbEntity
  8
AM_6
100
AcDbText
 10
5.67
 20
-5.583354789159912
 30
0.0
 40
0.5
  1
2.69
100
AcDbAttributeDefinition
  3

  2
L
 70
     8
280
     0
  0
ATTDEF
  5
A2
330
8F
100
AcDbEntity
  8
AM_6
100
AcDbText
 10
5.67
 20
-6.083354789159912
 30
0.0
 40
0.5
  1
1/4-28
100
AcDbAttributeDefinition
  3

  2
N
 70
     8
280
     0
  0
ATTDEF
  5
A3
330
8F
100
AcDbEntity
  8
AM_6
100
AcDbText
 10
5.67
 20
-6.583354789159912
 30
0.0
 40
0.5
  1
0.67
100
AcDbAttributeDefinition
  3

  2
W
 70
     8
280
     0
  0
ATTDEF
  5
A4
330
8F
100
AcDbEntity
  8
AM_6
100
AcDbText
 10
5.67
 20
-7.083354789159912
 30
0.0
 40
0.5
  1
1.08
100
AcDbAttributeDefinition
  3

  2
Y
 70
     8
280
     0
  0
ATTDEF
  5
A5
330
8F
100
AcDbEntity
  8
AM_6
100
AcDbText
 10
5.67
 20
-7.583354789159912
 30
0.0
 40
0.5
  1
1.84
100
AcDbAttributeDefinition
  3

  2
Z
 70
     8
280
     0
  0
ATTDEF
  5
A6
330
8F
100
AcDbEntity
  8
AM_6
100
AcDbText
 10
5.67
 20
-8.083354789159912
 30
0.0
 40
0.5
  1
baldor
100
AcDbAttributeDefinition
  3

  2
COMPANY
 70
     8
280
     0
  0
LINE
  5
A9
330
8F
100
AcDbEntity
  8
AM_9
100
AcDbLine
 10
-1.0262
 20
-0.59375
 30
0.0
 11
0.6162
 21
-0.59375
 31
0.0
  0
LINE
  5
AA
330
8F
100
AcDbEntity
  8
AM_9
100
AcDbLine
 10
0.6162
 20
0.59375
 30
0.0
 11
-1.0262
 21
0.59375
 31
0.0
  0
LINE
  5
AB
330
8F
100
AcDbEntity
  8
AM_9
100
AcDbLine
 10
-1.0262
 20
0.59375
 30
0.0
 11
-1.08
 21
0.6475499999999998
 31
0.0
  0
LINE
  5
AC
330
8F
100
AcDbEntity
  8
AM_9
100
AcDbLine
 10
-1.08
 20
-0.6475499999999998
 30
0.0
 11
-1.0262
 21
-0.59375
 31
0.0
  0
LINE
  5
AD
330
8F
100
AcDbEntity
  8
AM_9
100
AcDbLine
 10
0.6162
 20
-0.59375
 30
0.0
 11
0.67
 21
-0.6475499999999998
 31
0.0
  0
LINE
  5
AE
330
8F
100
AcDbEntity
  8
AM_9
100
AcDbLine
 10
0.67
 20
0.6475499999999998
 30
0.0
 11
0.6162
 21
0.59375
 31
0.0
  0
LINE
  5
AF
330
8F
100
AcDbEntity
  8
AM_9
100
AcDbLine
 10
0.67
 20
0.4640312489477403
 30
0.0
 11
0.67
 21
-0.4640312489477403
 31
0.0
  0
LINE
  5
B0
330
8F
100
AcDbEntity
  8
AM_9
100
AcDbLine
 10
0.3749999999999999
 20
-0.9199999999999999
 30
0.0
 11
0.5310000000000001
 21
-0.9199999999999999
 31
0.0
  0
LINE
  5
B1
330
8F
100
AcDbEntity
  8
AM_9
100
AcDbLine
 10
0.5310000000000001
 20
0.9199999999999999
 30
0.0
 11
0.3749999999999999
 21
0.9199999999999999
 31
0.0
  0
LINE
  5
B2
330
8F
100
AcDbEntity
  8
AM_9
100
AcDbLine
 10
0.6162000000000001
 20
0.5334065616394306
 30
0.0
 11
0.6162000000000001
 21
-0.5334065616394306
 31
0.0
  0
LINE
  5
B3
330
8F
100
AcDbEntity
  8
AM_9
100
AcDbLine
 10
-0.5309999999999998
 20
-0.9199999999999999
 30
0.0
 11
-0.3749999999999999
 21
-0.9199999999999999
 31
0.0
  0
LINE
  5
B4
330
8F
100
AcDbEntity
  8
AM_9
100
AcDbLine
 10
-0.3749999999999999
 20
0.9199999999999999
 30
0.0
 11
-0.5309999999999997
 21
0.9199999999999999
 31
0.0
  0
LINE
  5
B5
330
8F
100
AcDbEntity
  8
AM_9
100
AcDbLine
 10
-0.5399999999999996
 20
0.6104301761872525
 30
0.0
 11
-0.5399999999999996
 21
-0.6104301761872525
 31
0.0
  0
LINE
  5
B6
330
8F
100
AcDbEntity
  8
AM_9
100
AcDbLine
 10
-0.5937999999999997
 20
0.5582352192400623
 30
0.0
 11
-0.5937999999999997
 21
-0.5582352192400623
 31
0.0
  0
LINE
  5
B7
330
8F
100
AcDbEntity
  8
AM_9
100
AcDbLine
 10
-0.24
 20
-1.350633333333333
 30
0.0
 11
-0.1600000000000001
 21
-1.350633333333333
 31
0.0
  0
LINE
  5
B8
330
8F
100
AcDbEntity
  8
AM_9
100
AcDbLine
 10
-0.1600000000000001
 20
1.350633333333333
 30
0.0
 11
-0.24
 21
1.350633333333333
 31
0.0
  0
LINE
  5
B9
330
8F
100
AcDbEntity
  8
AM_9
100
AcDbLine
 10
0.3749999999999999
 20
1.335937981344943
 30
0.0
 11
0.3749999999999999
 21
-1.335937981344943
 31
0.0
  0
ARC
  5
BA
330
8F
100
AcDbEntity
  8
AM_9
100
AcDbCircle
 10
0.335
 20
-1.335937981344943
 30
0.0
 40
0.0399999999999997
100
AcDbArc
 50
284.0772302633403
 51
0.0
  0
ARC
  5
BB
330
8F
100
AcDbEntity
  8
AM_9
100
AcDbCircle
 10
0.335
 20
1.335937981344943
 30
0.0
 40
0.0399999999999999
100
AcDbArc
 50
0.0
 51
75.92276973665967
  0
LINE
  5
BC
330
8F
100
AcDbEntity
  8
AM_9
100
AcDbLine
 10
-0.3749999999999999
 20
1.335937981344943
 30
0.0
 11
-0.3749999999999999
 21
-1.335937981344943
 31
0.0
  0
ARC
  5
BD
330
8F
100
AcDbEntity
  8
AM_9
100
AcDbCircle
 10
-0.3349999999999997
 20
-1.335937981344942
 30
0.0
 40
0.0400000000000003
100
AcDbArc
 50
180.0
 51
255.9227727932858
  0
ARC
  5
BE
330
8F
100
AcDbEntity
  8
AM_9
100
AcDbCircle
 10
-0.3349999999999997
 20
1.335937981344942
 30
0.0
 40
0.0400000000000004
100
AcDbArc
 50
104.0772272067142
 51
180.0
  0
ARC
  5
BF
330
8F
100
AcDbEntity
  8
AM_9
100
AcDbCircle
 10
-0.0000000000000629
 20
0.0000000000003026
 30
0.0
 40
1.417299999999691
100
AcDbArc
 50
99.7492185249136
 51
104.0772272067137
  0
ARC
  5
C0
330
8F
100
AcDbEntity
  8
AM_9
100
AcDbCircle
 10
-0.0000000000673652
 20
-0.0000000003195484
 30
0.0
 40
1.417299999673894
100
AcDbArc
 50
255.9227727927885
 51
260.2507814755841
  0
LINE
  5
C1
330
8F
100
AcDbEntity
  8
AM_9
100
AcDbLine
 10
-0.3447291802802589
 20
1.374736731983001
 30
0.0
 11
-0.3447291802802589
 21
-1.374736731983239
 31
0.0
  0
LINE
  5
C2
330
8F
100
AcDbEntity
  8
AM_9
100
AcDbLine
 10
-0.24
 20
1.396831876068126
 30
0.0
 11
-0.24
 21
-1.396831876068364
 31
0.0
  0
ARC
  5
C3
330
8F
100
AcDbEntity
  8
AM_9
100
AcDbCircle
 10
0.0000000000000011
 20
0.0000000000000124
 30
0.0
 40
1.417299999999988
100
AcDbArc
 50
75.92277270702051
 51
96.48197920051813
  0
ARC
  5
C4
330
8F
100
AcDbEntity
  8
AM_9
100
AcDbCircle
 10
-0.0000000000000008
 20
0.0000000000000264
 30
0.0
 40
1.417300000000025
100
AcDbArc
 50
263.5180207994821
 51
284.0772272929792
  0
LINE
  5
C5
330
8F
100
AcDbEntity
  8
AM_9
100
AcDbLine
 10
-0.1599999999999999
 20
1.40823978426971
 30
0.0
 11
-0.1599999999999999
 21
-1.408239784269709
 31
0.0
  0
LINE
  5
C6
330
8F
100
AcDbEntity
  8
AM_9
100
AcDbLine
 10
0.3447291823501021
 20
1.374736731463966
 30
0.0
 11
0.3447291823501021
 21
-1.374736731463966
 31
0.0
  0
LINE
  5
C8
330
8F
100
AcDbEntity
  8
AM_4
100
AcDbLine
 10
0.67
 20
0.8661999999999999
 30
0.0
 11
0.6162000000000001
 21
0.9199999999999999
 31
0.0
  0
LINE
  5
C9
330
8F
100
AcDbEntity
  8
AM_4
100
AcDbLine
 10
0.6162000000000001
 20
-0.9199999999999999
 30
0.0
 11
0.67
 21
-0.8661999999999999
 31
0.0
  0
LINE
  5
CA
330
8F
100
AcDbEntity
  8
AM_4
100
AcDbLine
 10
0.67
 20
-0.4640312489477403
 30
0.0
 11
0.67
 21
-0.8661999999999999
 31
0.0
  0
LINE
  5
CB
330
8F
100
AcDbEntity
  8
AM_4
100
AcDbLine
 10
0.67
 20
0.8661999999999999
 30
0.0
 11
0.67
 21
0.4640312489477403
 31
0.0
  0
LINE
  5
CC
330
8F
100
AcDbEntity
  8
AM_4
100
AcDbLine
 10
0.5310000000000001
 20
-0.9199999999999999
 30
0.0
 11
0.6162000000000001
 21
-0.9199999999999999
 31
0.0
  0
LINE
  5
CD
330
8F
100
AcDbEntity
  8
AM_4
100
AcDbLine
 10
0.6162000000000001
 20
0.9199999999999999
 30
0.0
 11
0.5310000000000001
 21
0.9199999999999999
 31
0.0
  0
LINE
  5
CE
330
8F
100
AcDbEntity
  8
AM_4
100
AcDbLine
 10
0.6162000000000001
 20
-0.5334065616394306
 30
0.0
 11
0.6162000000000001
 21
-0.9199999999999999
 31
0.0
  0
LINE
  5
CF
330
8F
100
AcDbEntity
  8
AM_4
100
AcDbLine
 10
0.6162000000000001
 20
0.9199999999999999
 30
0.0
 11
0.6162000000000001
 21
0.5334065616394306
 31
0.0
  0
LINE
  5
D0
330
8F
100
AcDbEntity
  8
AM_4
100
AcDbLine
 10
-0.5399999999999998
 20
-0.9199999999999999
 30
0.0
 11
-0.5309999999999998
 21
-0.9199999999999999
 31
0.0
  0
LINE
  5
D1
330
8F
100
AcDbEntity
  8
AM_4
100
AcDbLine
 10
-0.5309999999999997
 20
0.9199999999999999
 30
0.0
 11
-0.5399999999999998
 21
0.9199999999999999
 31
0.0
  0
LINE
  5
D2
330
8F
100
AcDbEntity
  8
AM_4
100
AcDbLine
 10
-0.5399999999999997
 20
1.2912
 30
0.0
 11
-0.5937999999999997
 21
1.345
 31
0.0
  0
LINE
  5
D3
330
8F
100
AcDbEntity
  8
AM_4
100
AcDbLine
 10
-0.5937999999999997
 20
-1.345
 30
0.0
 11
-0.5399999999999997
 21
-1.2912
 31
0.0
  0
LINE
  5
D4
330
8F
100
AcDbEntity
  8
AM_4
100
AcDbLine
 10
-0.5399999999999996
 20
-0.6104301761872525
 30
0.0
 11
-0.5399999999999997
 21
-1.2912
 31
0.0
  0
LINE
  5
D5
330
8F
100
AcDbEntity
  8
AM_4
100
AcDbLine
 10
-0.5399999999999997
 20
1.2912
 30
0.0
 11
-0.5399999999999996
 21
0.6104301761872525
 31
0.0
  0
LINE
  5
D6
330
8F
100
AcDbEntity
  8
AM_4
100
AcDbLine
 10
-1.0262
 20
-1.345
 30
0.0
 11
-0.5937999999999997
 21
-1.345
 31
0.0
  0
LINE
  5
D7
330
8F
100
AcDbEntity
  8
AM_4
100
AcDbLine
 10
-0.5937999999999997
 20
1.345
 30
0.0
 11
-1.0262
 21
1.345
 31
0.0
  0
LINE
  5
D8
330
8F
100
AcDbEntity
  8
AM_4
100
AcDbLine
 10
-0.5937999999999997
 20
-0.5582352192400623
 30
0.0
 11
-0.5937999999999997
 21
-1.345
 31
0.0
  0
LINE
  5
D9
330
8F
100
AcDbEntity
  8
AM_4
100
AcDbLine
 10
-0.5937999999999997
 20
1.345
 30
0.0
 11
-0.5937999999999997
 21
0.5582352192400623
 31
0.0
  0
LINE
  5
DA
330
8F
100
AcDbEntity
  8
AM_4
100
AcDbLine
 10
-1.08
 20
-1.2912
 30
0.0
 11
-1.0262
 21
-1.345
 31
0.0
  0
LINE
  5
DB
330
8F
100
AcDbEntity
  8
AM_4
100
AcDbLine
 10
-1.0262
 20
1.345
 30
0.0
 11
-1.08
 21
1.2912
 31
0.0
  0
LINE
  5
DC
330
8F
100
AcDbEntity
  8
AM_4
100
AcDbLine
 10
-1.08
 20
1.2912
 30
0.0
 11
-1.08
 21
-1.2912
 31
0.0
  0
LINE
  5
DD
330
8F
100
AcDbEntity
  8
AM_4
100
AcDbLine
 10
-1.0262
 20
1.345
 30
0.0
 11
-1.0262
 21
-1.345
 31
0.0
  0
ENDBLK
  5
92
330
8F
100
AcDbEntity
  8
0
100
AcDbBlockEnd
  0
BLOCK
  5
E0
330
DE
100
AcDbEntity
  8
0
100
AcDbBlockBegin
  2
3_405016_Inch_0_in_068232_2
 70
     2
 10
0.0
 20
0.0
 30
0.0
  3
3_405016_Inch_0_in_068232_2
  1

  0
ATTDEF
  5
E2
330
DE
100
AcDbEntity
  8
AM_6
100
AcDbText
 10
5.21875
 20
-0.696925698355158
 30
0.0
 40
0.5
  1
405016 -Inch
100
AcDbAttributeDefinition
  3

  2
NN
 70
     8
280
     0
  0
ATTDEF
  5
E3
330
DE
100
AcDbEntity
  8
AM_6
100
AcDbText
 10
5.21875
 20
-1.196925698355158
 30
0.0
 40
0.5
  1
Grease Fitting
100
AcDbAttributeDefinition
  3

  2
NT
 70
     8
280
     0
  0
ATTDEF
  5
E4
330
DE
100
AcDbEntity
  8
AM_6
100
AcDbText
 10
5.21875
 20
-1.696925698355158
 30
0.0
 40
0.5
  1
405016-Inch
100
AcDbAttributeDefinition
  3

  2
NB
 70
     8
280
     0
  0
ATTDEF
  5
E5
330
DE
100
AcDbEntity
  8
AM_6
100
AcDbText
 10
5.21875
 20
-2.196925698355158
 30
0.0
 40
0.5
  1
$MN.-Inch
100
AcDbAttributeDefinition
  3

  2
NBSYN
 70
     8
280
     0
  0
ATTDEF
  5
E6
330
DE
100
AcDbEntity
  8
AM_6
100
AcDbText
 10
5.21875
 20
-2.696925698355158
 30
0.0
 40
0.5
  1
405016
100
AcDbAttributeDefinition
  3

  2
LINA
 70
     8
280
     0
  0
ATTDEF
  5
E7
330
DE
100
AcDbEntity
  8
AM_6
100
AcDbText
 10
5.21875
 20
-3.196925698355158
 30
0.0
 40
0.5
  1
405016
100
AcDbAttributeDefinition
  3

  2
MN
 70
     8
280
     0
  0
ATTDEF
  5
E8
330
DE
100
AcDbEntity
  8
AM_6
100
AcDbText
 10
5.21875
 20
-3.696925698355158
 30
0.0
 40
0.5
  1
7/16 HEX
100
AcDbAttributeDefinition
  3

  2
H
 70
     8
280
     0
  0
ATTDEF
  5
E9
330
DE
100
AcDbEntity
  8
AM_6
100
AcDbText
 10
5.21875
 20
-4.196925698355158
 30
0.0
 40
0.5
  1
0.383
100
AcDbAttributeDefinition
  3

  2
NDR
 70
     8
280
     0
  0
ATTDEF
  5
EA
330
DE
100
AcDbEntity
  8
AM_6
100
AcDbText
 10
5.21875
 20
-4.696925698355158
 30
0.0
 40
0.5
  1
0.337
100
AcDbAttributeDefinition
  3

  2
KDR
 70
     8
280
     0
  0
ATTDEF
  5
EB
330
DE
100
AcDbEntity
  8
AM_6
100
AcDbText
 10
5.21875
 20
-5.196925698355158
 30
0.0
 40
0.5
  1
0.1575
100
AcDbAttributeDefinition
  3

  2
BZE
 70
     8
280
     0
  0
ATTDEF
  5
EC
330
DE
100
AcDbEntity
  8
AM_6
100
AcDbText
 10
5.21875
 20
-5.696925698355158
 30
0.0
 40
0.5
  1
0.4375
100
AcDbAttributeDefinition
  3

  2
HEX
 70
     8
280
     0
  0
ATTDEF
  5
ED
330
DE
100
AcDbEntity
  8
AM_6
100
AcDbText
 10
5.21875
 20
-6.196925698355158
 30
0.0
 40
0.5
  1
0.281250
100
AcDbAttributeDefinition
  3

  2
HEX2
 70
     8
280
     0
  0
ATTDEF
  5
EE
330
DE
100
AcDbEntity
  8
AM_6
100
AcDbText
 10
5.21875
 20
-6.696925698355158
 30
0.0
 40
0.5
  1
baldor
100
AcDbAttributeDefinition
  3

  2
COMPANY
 70
     8
280
     0
  0
LWPOLYLINE
  5
EF
330
DE
100
AcDbEntity
  8
AM_9
100
AcDbPolyline
 90
        5
 70
     0
 43
0.0
 10
-0.1791093260592888
 20
-1.301738809059826
 10
-0.1842540823997055
 20
-1.268670119967152
 10
-0.1862220679364952
 20
-1.234312409178914
 10
-0.1844124966919382
 20
-1.198126446285356
 10
-0.1791093260592888
 20
-1.161113809059826
  0
LINE
  5
F0
330
DE
100
AcDbEntity
  8
AM_9
100
AcDbLine
 10
-0.1510741298357571
 20
-1.15457729571137
 30
0.0
 11
-0.1791093260592888
 21
-1.161113809059826
 31
0.0
  0
LWPOLYLINE
  5
F1
330
DE
100
AcDbEntity
  8
AM_9
100
AcDbPolyline
 90
        5
 70
     0
 43
0.0
 10
-0.1791093260592888
 20
-1.161113809059826
 10
-0.1988355121406939
 20
-1.129688517736611
 10
-0.2156330920108725
 20
-1.096997724328328
 10
-0.2290462109660021
 20
-1.062506153690794
 10
-0.2389369657326277
 20
-1.027169092407283
  0
LINE
  5
F2
330
DE
100
AcDbEntity
  8
AM_9
100
AcDbLine
 10
-0.2099962668917054
 20
-1.020421457656344
 30
0.0
 11
-0.2389369657326277
 21
-1.027169092407283
 31
0.0
  0
LINE
  5
F3
330
DE
100
AcDbEntity
  8
AM_9
100
AcDbLine
 10
-0.2389369657326277
 20
-1.027169092407283
 30
0.0
 11
-0.2711532636537957
 21
-1.031618123437406
 31
0.0
  0
LWPOLYLINE
  5
F4
330
DE
100
AcDbEntity
  8
AM_9
100
AcDbPolyline
 90
        3
 70
     0
 43
0.0
 10
-0.28139190003636
 20
-1.032753048956784
 10
-0.2911775952746243
 20
-1.03355559349426
 10
-0.2987675689889718
 20
-1.033850066725467
  0
LWPOLYLINE
  5
F5
330
DE
100
AcDbEntity
  8
AM_9
100
AcDbPolyline
 90
        5
 70
     0
 43
0.0
 10
-0.2389369657326277
 20
-1.308419092407284
 10
-0.2295338871417797
 20
-1.30799806213629
 10
-0.2166871171046321
 20
-1.306802555641742
 10
-0.1996402057054679
 20
-1.304676787031713
 10
-0.1791093260592888
 20
-1.301738809059826
  0
LINE
  5
F6
330
DE
100
AcDbEntity
  8
AM_9
100
AcDbLine
 10
-0.1510741298357571
 20
-1.29520229571137
 30
0.0
 11
-0.1791093260592888
 21
-1.301738809059826
 31
0.0
  0
LINE
  5
F7
330
DE
100
AcDbEntity
  8
AM_9
100
AcDbLine
 10
-0.4524158089341449
 20
-1.321254016496842
 30
0.0
 11
-0.3774664534000949
 21
-1.339780662014441
 31
0.0
  0
LINE
  5
F8
330
DE
100
AcDbEntity
  8
AM_9
100
AcDbLine
 10
-0.4395859245204075
 20
-1.073349390582632
 30
0.0
 11
-0.4986131040655763
 21
-1.123113178260488
 31
0.0
  0
LWPOLYLINE
  5
F9
330
DE
100
AcDbEntity
  8
AM_9
100
AcDbPolyline
 90
        3
 70
     0
 43
0.0
 10
-0.2689146070947223
 20
-1.026889734350518
 10
-0.251275593729576
 20
-1.024238843014548
 10
-0.2360765106845275
 20
-1.022187592413267
  0
LWPOLYLINE
  5
FA
330
DE
100
AcDbEntity
  8
AM_9
100
AcDbPolyline
 90
       11
 70
     0
 43
0.0
 10
-0.3778239318366978
 20
-1.078170318607268
 10
-0.3800544472222116
 20
-1.076272128686456
 10
-0.3872552825375539
 20
-1.071096519872658
 10
-0.3944014489105424
 20
-1.067321528333386
 10
-0.4015247977282124
 20
-1.064826454524461
 10
-0.4086550491847899
 20
-1.063544220337622
 10
-0.4157549552084365
 20
-1.063465456822796
 10
-0.4233027010283272
 20
-1.064747917107002
 10
-0.4302659327472895
 20
-1.067318285983902
 10
-0.4365392271458044
 20
-1.070995073132115
 10
-0.4397255852117802
 20
-1.073467609739844
  0
LWPOLYLINE
  5
FB
330
DE
100
AcDbEntity
  8
AM_9
100
AcDbPolyline
 90
        3
 70
     0
 43
0.0
 10
-0.3278497991688231
 20
-1.315783727847042
 10
-0.3258197657277979
 20
-1.311809931945316
 10
-0.324197166558703
 20
-1.308121938838462
  0
LWPOLYLINE
  5
FC
330
DE
100
AcDbEntity
  8
AM_9
100
AcDbPolyline
 90
       10
 70
     0
 43
0.0
 10
-0.3781175558134509
 20
-1.339614671831378
 10
-0.3741366574350252
 20
-1.340472339945203
 10
-0.3670145325099665
 20
-1.341072123712414
 10
-0.3592656767505995
 20
-1.340334216920819
 10
-0.3520587165071782
 20
-1.338240199717872
 10
-0.3455111915955439
 20
-1.33497058821667
 10
-0.3396650905136143
 20
-1.33068231276397
 10
-0.3344743789519929
 20
-1.325438222978987
 10
-0.329874854739974
 20
-1.319195721164166
 10
-0.3278497991688231
 20
-1.315783727847042
  0
LWPOLYLINE
  5
FD
330
DE
100
AcDbEntity
  8
AM_9
100
AcDbPolyline
 90
        3
 70
     0
 43
0.0
 10
-0.0000000000000001
 20
-0.8207787001516927
 10
0.0544416102741495
 20
-0.8513260426622647
 10
0.1093749999999999
 20
-0.8799999999999999
  0
LWPOLYLINE
  5
FE
330
DE
100
AcDbEntity
  8
AM_9
100
AcDbPolyline
 90
        3
 70
     0
 43
0.0
 10
-0.109375
 20
-0.8799999999999999
 10
-0.0546875000000001
 20
-0.8514595596074827
 10
-0.0000000000000001
 20
-0.8207787001516927
  0
LWPOLYLINE
  5
FF
330
DE
100
AcDbEntity
  8
AM_9
100
AcDbPolyline
 90
        6
 70
     0
 43
0.0
 10
-0.1510741298357571
 20
-1.29520229571137
 10
-0.1564222384464443
 20
-1.2951462587984
 10
-0.1639940363880805
 20
-1.295585121917566
 10
-0.1744063212866123
 20
-1.296646289109958
 10
-0.1876759562813858
 20
-1.298363121169831
 10
-0.2099962668917054
 20
-1.301671457656344
  0
LINE
  5
100
330
DE
100
AcDbEntity
  8
AM_9
100
AcDbLine
 10
-0.1419682268886664
 20
-1.220553460764485
 30
0.0
 11
-0.1419585098156051
 21
-1.222769408754154
 31
0.0
  0
LWPOLYLINE
  5
101
330
DE
100
AcDbEntity
  8
AM_9
100
AcDbPolyline
 90
        3
 70
     0
 43
0.0
 10
-0.1510741298357571
 20
-1.15457729571137
 10
-0.1458778226760521
 20
-1.178510622598914
 10
-0.1427353855056109
 20
-1.203092757295274
  0
LINE
  5
102
330
DE
100
AcDbEntity
  8
AM_9
100
AcDbLine
 10
-0.1782914213427151
 20
-1.070792070445555
 30
0.0
 11
-0.1765789831125444
 21
-1.074205855542361
 31
0.0
  0
LWPOLYLINE
  5
103
330
DE
100
AcDbEntity
  8
AM_9
100
AcDbPolyline
 90
        3
 70
     0
 43
0.0
 10
-0.2099962668917054
 20
-1.020421457656344
 10
-0.1943573015029059
 20
-1.042992854288234
 10
-0.1842421275811984
 20
-1.059719068802899
  0
LWPOLYLINE
  5
104
330
DE
100
AcDbEntity
  8
AM_9
100
AcDbPolyline
 90
        4
 70
     0
 43
0.0
 10
-0.2258378743019628
 20
-1.021052666893888
 10
-0.2189176876709015
 20
-1.020510369847584
 10
-0.2138633349839128
 20
-1.0203309118622
 10
-0.2099962668917054
 20
-1.020421457656344
  0
LWPOLYLINE
  5
105
330
DE
100
AcDbEntity
  8
AM_9
100
AcDbPolyline
 90
        3
 70
     0
 43
0.0
 10
-0.142216857361032
 20
-1.234248600719308
 10
-0.1441228263802215
 20
-1.256595324422914
 10
-0.151074129835757
 20
-1.29520229571137
  0
LWPOLYLINE
  5
106
330
DE
100
AcDbEntity
  8
AM_9
100
AcDbPolyline
 90
        3
 70
     0
 43
0.0
 10
-0.1419585098156051
 20
-1.222769408754154
 10
-0.1420496512545707
 20
-1.229566312422038
 10
-0.1420954609384214
 20
-1.2311097386877
  0
LWPOLYLINE
  5
107
330
DE
100
AcDbEntity
  8
AM_9
100
AcDbPolyline
 90
        3
 70
     0
 43
0.0
 10
-0.1682345095956197
 20
-1.09284549391709
 10
-0.1598729403210871
 20
-1.116768689712644
 10
-0.1510741298357571
 20
-1.15457729571137
  0
LINE
  5
108
330
DE
100
AcDbEntity
  8
AM_9
100
AcDbLine
 10
-0.1765789831125444
 20
-1.074205855542361
 30
0.0
 11
-0.1723129966058374
 21
-1.083265080602877
 31
0.0
  0
ELLIPSE
  5
109
330
DE
100
AcDbEntity
  8
AM_9
100
AcDbEllipse
 10
-0.2013892028241885
 20
-1.158270244837341
 30
0.0
 11
-0.03193085011438275
 21
0.1369518580960951
 31
0.0
210
0.0
220
0.0
230
1.0
 40
0.3659981507706672
 41
2.150416404658208
 42
6.139946939636884
  0
LWPOLYLINE
  5
10A
330
DE
100
AcDbEntity
  8
AM_9
100
AcDbPolyline
 90
        3
 70
     0
 43
0.0
 10
-0.3055458577949631
 20
-1.122852494962034
 10
-0.3030753670497809
 20
-1.148922855181632
 10
-0.2987675689889718
 20
-1.174475066725467
  0
LWPOLYLINE
  5
10B
330
DE
100
AcDbEntity
  8
AM_9
100
AcDbPolyline
 90
        4
 70
     0
 43
0.0
 10
-0.2602304684431209
 20
-1.078067949924796
 10
-0.2616913382589204
 20
-1.0634112730526
 10
-0.2647402074337707
 20
-1.04495477011276
 10
-0.2689146070947223
 20
-1.026889734350518
  0
LINE
  5
10C
330
DE
100
AcDbEntity
  8
AM_9
100
AcDbLine
 10
-0.2689146070947223
 20
-1.026889734350518
 30
0.0
 11
-0.2987675689889718
 21
-1.033850066725467
 31
0.0
  0
LWPOLYLINE
  5
10D
330
DE
100
AcDbEntity
  8
AM_9
100
AcDbPolyline
 90
        3
 70
     0
 43
0.0
 10
-0.2987675689889718
 20
-1.033850066725467
 10
-0.3030606061861223
 20
-1.061294122408012
 10
-0.3055458577949631
 20
-1.08863340646832
  0
LINE
  5
10E
330
DE
100
AcDbEntity
  8
AM_9
100
AcDbLine
 10
-0.2711532636537957
 20
-1.031618123437406
 30
0.0
 11
-0.28139190003636
 21
-1.032753048956784
 31
0.0
  0
ELLIPSE
  5
10F
330
DE
100
AcDbEntity
  8
AM_9
100
AcDbEllipse
 10
-0.2467045921760208
 20
-1.168835701380858
 30
0.0
 11
-0.03193085011438253
 21
0.1369518580960945
 31
0.0
210
0.0
220
0.0
230
1.0
 40
0.3659981507706652
 41
2.21252845596143
 42
6.139946939636897
  0
ELLIPSE
  5
110
330
DE
100
AcDbEntity
  8
AM_9
100
AcDbEllipse
 10
-0.2467045921760199
 20
-1.168835701380858
 30
0.0
 11
-0.03193085011438337
 21
0.1369518580960978
 31
0.0
210
0.0
220
0.0
230
1.0
 40
0.3659981507706621
 41
1.144545279139749
 42
1.951156734850493
  0
LWPOLYLINE
  5
111
330
DE
100
AcDbEntity
  8
AM_9
100
AcDbPolyline
 90
        3
 70
     0
 43
0.0
 10
-0.3055458577949631
 20
-1.08863340646832
 10
-0.3064767622622302
 20
-1.105869806845232
 10
-0.3055458577949631
 20
-1.122852494962034
  0
ELLIPSE
  5
112
330
DE
100
AcDbEntity
  8
AM_9
100
AcDbEllipse
 10
-0.2467045921760307
 20
-1.168835701380846
 30
0.0
 11
-0.03193085011437628
 21
0.1369518580960765
 31
0.0
210
0.0
220
0.0
230
1.0
 40
0.3659981507706561
 41
0.0560213022649192
 42
0.8626327579757973
  0
LWPOLYLINE
  5
113
330
DE
100
AcDbEntity
  8
AM_9
100
AcDbPolyline
 90
       18
 70
     0
 43
0.0
 10
-0.3250034555585795
 20
-1.310019879338905
 10
-0.3250019590350662
 20
-1.310016553239727
 10
-0.3244940205462273
 20
-1.309023746804815
 10
-0.3231345723734279
 20
-1.306831637652295
 10
-0.3207108347231901
 20
-1.303643625348238
 10
-0.3170057874863155
 20
-1.299712370055362
 10
-0.3118330812876638
 20
-1.295373411105006
 10
-0.3051254122102524
 20
-1.291077818464974
 10
-0.2970625325911166
 20
-1.287365882368454
 10
-0.2881291478169123
 20
-1.284728524272087
 10
-0.2789930774878198
 20
-1.283429629704643
 10
-0.2703473318153989
 20
-1.283440727411909
 10
-0.2627451245470191
 20
-1.284484226772299
 10
-0.2565326942863699
 20
-1.286145284339377
 10
-0.25183075104695
 20
-1.287991667566101
 10
-0.2485723885600503
 20
-1.289666814154945
 10
-0.2466059553981544
 20
-1.290910601192584
 10
-0.2457741316531806
 20
-1.291531069543034
  0
LWPOLYLINE
  5
114
330
DE
100
AcDbEntity
  8
AM_9
100
AcDbPolyline
 90
        4
 70
     0
 43
0.0
 10
-0.245724988250897
 20
-1.291571960916105
 10
-0.245943053001279
 20
-1.291372652782476
 10
-0.2469952084471903
 20
-1.290305869257204
 10
-0.247121914278882
 20
-1.290169661825768
  0
LWPOLYLINE
  5
115
330
DE
100
AcDbEntity
  8
AM_9
100
AcDbPolyline
 90
        4
 70
     0
 43
0.0
 10
-0.3007292200765972
 20
-1.060159053290061
 10
-0.3003741936979896
 20
-1.059043076220694
 10
-0.3001080990753617
 20
-1.058322382893076
 10
-0.3001080482840255
 20
-1.058322263717043
  0
LWPOLYLINE
  5
116
330
DE
100
AcDbEntity
  8
AM_9
100
AcDbPolyline
 90
       17
 70
     0
 43
0.0
 10
-0.3004257894480565
 20
-1.058970411856403
 10
-0.3015378891402775
 20
-1.060860971918606
 10
-0.3036570041955683
 20
-1.063806052554957
 10
-0.307000433185507
 20
-1.067568079079992
 10
-0.3117688027548626
 20
-1.071837509880555
 10
-0.3180730374233094
 20
-1.076195254601472
 10
-0.325810588474659
 20
-1.080116025583228
 10
-0.3345736666092199
 20
-1.083077005275144
 10
-0.34372320193905
 20
-1.084741198493226
 10
-0.3525639415310084
 20
-1.08506036297048
 10
-0.3604862497431663
 20
-1.084254637902071
 10
-0.3670898475350117
 20
-1.082714324540292
 10
-0.3721933136452004
 20
-1.08087832461612
 10
-0.3758227042554783
 20
-1.079128541074933
 10
-0.3781169665605648
 20
-1.077749053101608
 10
-0.3792365730019546
 20
-1.076946446281856
 10
-0.3793758849095507
 20
-1.076834338616799
  0
LINE
  5
117
330
DE
100
AcDbEntity
  8
AM_9
100
AcDbLine
 10
-0.1771207715546619
 20
-1.039661692407327
 30
0.0
 11
-0.2263662233581053
 21
-1.051143458059951
 31
0.0
  0
LINE
  5
118
330
DE
100
AcDbEntity
  8
AM_9
100
AcDbLine
 10
-0.176412182290271
 20
-1.26539703161473
 30
0.0
 11
-0.1343592486638227
 21
-1.255592229115782
 31
0.0
  0
LWPOLYLINE
  5
119
330
DE
100
AcDbEntity
  8
AM_9
100
AcDbPolyline
 90
       20
 70
     0
 43
0.0
 10
-0.1343659249938088
 20
-1.25559378540361
 10
-0.1293028157827817
 20
-1.252990967168627
 10
-0.1247141396218193
 20
-1.247417196040507
 10
-0.1208880884981782
 20
-1.238797239076489
 10
-0.1181545989145989
 20
-1.227880991490922
 10
-0.1164278875396128
 20
-1.214336212655024
 10
-0.1158549073091555
 20
-1.199330271317741
 10
-0.1164156227038168
 20
-1.182408286749774
 10
-0.1180609686233502
 20
-1.165004703027538
 10
-0.1208367673933812
 20
-1.146607393511457
 10
-0.1245107513506023
 20
-1.128747455120003
 10
-0.1291842652280563
 20
-1.110922481606625
 10
-0.134472979061152
 20
-1.0945960564441
 10
-0.140518627090196
 20
-1.079328872764631
 10
-0.1468270783017121
 20
-1.066370478489193
 10
-0.1535654953592165
 20
-1.055381372029879
 10
-0.1601799433259584
 20
-1.047268942862664
 10
-0.1668493358980662
 20
-1.041820477436415
 10
-0.1731116383367606
 20
-1.039480939756072
 10
-0.1771125901748264
 20
-1.039659785344162
  0
LINE
  5
11A
330
DE
100
AcDbEntity
  8
AM_9
100
AcDbLine
 10
-0.1771125901748264
 20
-1.039659785344162
 30
0.0
 11
-0.1790373738502116
 21
-1.040304054033761
 31
0.0
  0
LWPOLYLINE
  5
11B
330
DE
100
AcDbEntity
  8
AM_9
100
AcDbPolyline
 90
        3
 70
     0
 43
0.0
 10
-0.2689146070947223
 20
-1.167514734350518
 10
-0.2634308483997529
 20
-1.139890958955647
 10
-0.2602304684431306
 20
-1.112287038418517
  0
LWPOLYLINE
  5
11C
330
DE
100
AcDbEntity
  8
AM_9
100
AcDbPolyline
 90
        5
 70
     0
 43
0.0
 10
-0.179037373850178
 20
-1.194695945966246
 10
-0.1733931390117468
 20
-1.210209976006311
 10
-0.1670729780242511
 20
-1.22435797563067
 10
-0.1606047421316796
 20
-1.235955943415793
 10
-0.1545726781469366
 20
-1.244414464590283
  0
ARC
  5
11D
330
DE
100
AcDbEntity
  8
AM_9
100
AcDbCircle
 10
0.0000000000000001
 20
-1.1175
 30
0.0
 40
0.1999999999999999
100
AcDbArc
 50
219.3552493888864
 51
0.0
  0
LWPOLYLINE
  5
11E
330
DE
100
AcDbEntity
  8
AM_9
100
AcDbPolyline
 90
        6
 70
     0
 43
0.0
 10
-0.1545726781469366
 20
-1.244414464590283
 10
-0.1538031670974777
 20
-1.245334802540261
 10
-0.1472336073736393
 20
-1.251712011960484
 10
-0.1407130262602577
 20
-1.255261709638181
 10
-0.1347930597680667
 20
-1.255684256104104
 10
-0.1343659249938088
 20
-1.25559378540361
  0
LINE
  5
11F
330
DE
100
AcDbEntity
  8
AM_9
100
AcDbLine
 10
-0.2360765106845275
 20
-1.022187592413267
 30
0.0
 11
-0.2258378743019628
 21
-1.021052666893888
 31
0.0
  0
ELLIPSE
  5
120
330
DE
100
AcDbEntity
  8
AM_9
100
AcDbEllipse
 10
-0.2013892028241879
 20
-1.158270244837342
 30
0.0
 11
-0.031930850114384
 21
0.1369518580960951
 31
0.0
210
0.0
220
0.0
230
1.0
 40
0.3659981507705697
 41
0.056021302265
 42
0.8626327579757322
  0
LINE
  5
121
330
DE
100
AcDbEntity
  8
AM_9
100
AcDbLine
 10
-0.2602304684431306
 20
-1.112287038418517
 30
0.0
 11
-0.2602304684431209
 21
-1.078067949924796
 31
0.0
  0
ELLIPSE
  5
122
330
DE
100
AcDbEntity
  8
AM_9
100
AcDbEllipse
 10
-0.20138920282419
 20
-1.158270244837341
 30
0.0
 11
-0.03193085011438189
 21
0.1369518580960916
 31
0.0
210
0.0
220
0.0
230
1.0
 40
0.3659981507706622
 41
1.144545279139734
 42
1.951156734850507
  0
LWPOLYLINE
  5
123
330
DE
100
AcDbEntity
  8
AM_9
100
AcDbPolyline
 90
        3
 70
     0
 43
0.0
 10
-0.2099962668917054
 20
-1.301671457656344
 10
-0.2163479371246913
 20
-1.272339189975666
 10
-0.2258378743019629
 20
-1.243057477599441
  0
LINE
  5
124
330
DE
100
AcDbEntity
  8
AM_9
100
AcDbLine
 10
-0.2258378743019629
 20
-1.243057477599441
 30
0.0
 11
-0.2360765106845278
 21
-1.219965725501071
 31
0.0
  0
LWPOLYLINE
  5
125
330
DE
100
AcDbEntity
  8
AM_9
100
AcDbPolyline
 90
        3
 70
     0
 43
0.0
 10
-0.2360765106845278
 20
-1.219965725501071
 10
-0.2462091938631852
 20
-1.201421611213501
 10
-0.2689146070947223
 20
-1.167514734350518
  0
LINE
  5
126
330
DE
100
AcDbEntity
  8
AM_9
100
AcDbLine
 10
-0.2689146070947223
 20
-1.167514734350518
 30
0.0
 11
-0.2987675689889718
 21
-1.174475066725467
 31
0.0
  0
LWPOLYLINE
  5
127
330
DE
100
AcDbEntity
  8
AM_9
100
AcDbPolyline
 90
        3
 70
     0
 43
0.0
 10
-0.2987675689889718
 20
-1.174475066725467
 10
-0.2912216284034025
 20
-1.202576183495197
 10
-0.2813919000363599
 20
-1.23053118204459
  0
LINE
  5
128
330
DE
100
AcDbEntity
  8
AM_9
100
AcDbLine
 10
-0.2813919000363599
 20
-1.23053118204459
 30
0.0
 11
-0.2711532636537957
 21
-1.253622934142958
 31
0.0
  0
LWPOLYLINE
  5
129
330
DE
100
AcDbEntity
  8
AM_9
100
AcDbPolyline
 90
        3
 70
     0
 43
0.0
 10
-0.2711532636537957
 20
-1.253622934142958
 10
-0.2561815527589921
 20
-1.281327936735335
 10
-0.2389369657326277
 20
-1.308419092407284
  0
LINE
  5
12A
330
DE
100
AcDbEntity
  8
AM_9
100
AcDbLine
 10
-0.2099962668917054
 20
-1.301671457656344
 30
0.0
 11
-0.2389369657326277
 21
-1.308419092407284
 31
0.0
  0
LWPOLYLINE
  5
12B
330
DE
100
AcDbEntity
  8
AM_9
100
AcDbPolyline
 90
        3
 70
     0
 43
0.0
 10
0.1093749999999999
 20
-0.8299999999999998
 10
0.0546874999999999
 20
-0.8038529403925173
 10
-0.0000000000000001
 20
-0.7798462998483071
  0
LWPOLYLINE
  5
12C
330
DE
100
AcDbEntity
  8
AM_9
100
AcDbPolyline
 90
        3
 70
     0
 43
0.0
 10
-0.0000000000000001
 20
-0.7798462998483071
 10
-0.0544416102741497
 20
-0.8037405676118847
 10
-0.1093750000000001
 20
-0.8299999999999998
  0
LWPOLYLINE
  5
12D
330
DE
100
AcDbEntity
  8
AM_9
100
AcDbPolyline
 90
        3
 70
     0
 43
0.0
 10
-0.2187500000000001
 20
-0.9301537001516926
 10
-0.1643083897258505
 20
-0.9062594323881151
 10
-0.109375
 20
-0.8799999999999999
  0
LWPOLYLINE
  5
12E
330
DE
100
AcDbEntity
  8
AM_9
100
AcDbPolyline
 90
        3
 70
     0
 43
0.0
 10
0.1093749999999999
 20
-0.8799999999999999
 10
0.1640624999999999
 20
-0.9061470596074825
 10
0.2187499999999999
 20
-0.9301537001516926
  0
LINE
  5
12F
330
DE
100
AcDbEntity
  8
AM_9
100
AcDbLine
 10
-0.0000000000000001
 20
-0.8207787001516927
 30
0.0
 11
-0.0000000000000001
 21
-0.7798462998483071
 31
0.0
  0
LWPOLYLINE
  5
130
330
DE
100
AcDbEntity
  8
AM_9
100
AcDbPolyline
 90
        3
 70
     0
 43
0.0
 10
0.2187499999999999
 20
-0.8892212998483071
 10
0.1643083897258503
 20
-0.8586739573377351
 10
0.1093749999999999
 20
-0.8299999999999998
  0
LWPOLYLINE
  5
131
330
DE
100
AcDbEntity
  8
AM_9
100
AcDbPolyline
 90
        3
 70
     0
 43
0.0
 10
-0.1093750000000001
 20
-0.8299999999999998
 10
-0.1640625000000001
 20
-0.8585404403925172
 10
-0.2187500000000001
 20
-0.8892212998483071
  0
LWPOLYLINE
  5
132
330
DE
100
AcDbEntity
  8
AM_9
100
AcDbPolyline
 90
        7
 70
     0
 43
0.0
 10
-0.1790373738501785
 20
-1.194695945966246
 10
-0.1842628795203941
 20
-1.178701216295605
 10
-0.1891729979031394
 20
-1.162644458256412
 10
-0.1936098952159724
 20
-1.145877825105295
 10
-0.1971856748420371
 20
-1.128429808725254
 10
-0.1994144431868155
 20
-1.110957633207593
 10
-0.1999999999699529
 20
-1.09725755900097
  0
LINE
  5
133
330
DE
100
AcDbEntity
  8
AM_9
100
AcDbLine
 10
-0.2000000000000001
 20
-1.0440625
 30
0.0
 11
-0.2000000000000001
 21
-1.097346885409148
 31
0.0
  0
LINE
  5
134
330
DE
100
AcDbEntity
  8
AM_9
100
AcDbLine
 10
0.1999999999999998
 20
-1.1175
 30
0.0
 11
0.1999999999999999
 21
-1.0440625
 31
0.0
  0
ELLIPSE
  5
135
330
DE
100
AcDbEntity
  8
AM_9
100
AcDbEllipse
 10
-0.0000000000000039
 20
-1.117500000000002
 30
0.0
 11
-0.1999999999999941
 21
2.449293598294634E-17
 31
0.0
210
0.0
220
0.0
230
1.0
 40
0.866025403784444
 41
0.4619460205669599
 42
5.821239286612601
  0
LWPOLYLINE
  5
136
330
DE
100
AcDbEntity
  8
AM_9
100
AcDbPolyline
 90
        8
 70
     0
 43
0.0
 10
-0.1999999999699529
 20
-1.09725755900097
 10
-0.1999786710855128
 20
-1.094747492794572
 10
-0.1988321115509053
 20
-1.079477046299115
 10
-0.196164942998426
 20
-1.066547828583382
 10
-0.1920694300574958
 20
-1.055495849846331
 10
-0.1870948030566195
 20
-1.047226804053058
 10
-0.181500594761393
 20
-1.041703487144152
 10
-0.1790373738501785
 20
-1.040304054033754
  0
LINE
  5
137
330
DE
100
AcDbEntity
  8
AM_9
100
AcDbLine
 10
-0.2187500000000001
 20
-1.148903700151693
 30
0.0
 11
-0.2187500000000001
 21
-0.8892212998483071
 31
0.0
  0
LWPOLYLINE
  5
138
330
DE
100
AcDbEntity
  8
AM_9
100
AcDbPolyline
 90
        3
 70
     0
 43
0.0
 10
-0.109375
 20
-1.208125
 10
-0.1640625000000001
 20
-1.179584559607483
 10
-0.2187500000000001
 20
-1.148903700151693
  0
LWPOLYLINE
  5
139
330
DE
100
AcDbEntity
  8
AM_9
100
AcDbPolyline
 90
        3
 70
     0
 43
0.0
 10
-0.0000000000000001
 20
-1.258278700151693
 10
-0.0544416102741497
 20
-1.234384432388115
 10
-0.109375
 20
-1.208125
  0
LWPOLYLINE
  5
13A
330
DE
100
AcDbEntity
  8
AM_9
100
AcDbPolyline
 90
        3
 70
     0
 43
0.0
 10
-0.2187500000000001
 20
-1.107971299848307
 10
-0.1643083897258505
 20
-1.131865567611885
 10
-0.1093750000000001
 20
-1.158125
  0
LWPOLYLINE
  5
13B
330
DE
100
AcDbEntity
  8
AM_9
100
AcDbPolyline
 90
        3
 70
     0
 43
0.0
 10
-0.1093750000000001
 20
-1.158125
 10
-0.0546875000000001
 20
-1.186665440392517
 10
-0.0000000000000001
 20
-1.217346299848307
  0
LINE
  5
13C
330
DE
100
AcDbEntity
  8
AM_9
100
AcDbLine
 10
-0.0000000000000001
 20
-1.258278700151693
 30
0.0
 11
-0.0000000000000001
 21
-1.217346299848307
 31
0.0
  0
LWPOLYLINE
  5
13D
330
DE
100
AcDbEntity
  8
AM_9
100
AcDbPolyline
 90
        3
 70
     0
 43
0.0
 10
0.1093749999999999
 20
-1.208125
 10
0.0546874999999999
 20
-1.234272059607483
 10
-0.0000000000000001
 20
-1.258278700151693
  0
LWPOLYLINE
  5
13E
330
DE
100
AcDbEntity
  8
AM_9
100
AcDbPolyline
 90
        3
 70
     0
 43
0.0
 10
0.2187499999999999
 20
-1.148903700151693
 10
0.1643083897258503
 20
-1.179451042662265
 10
0.1093749999999999
 20
-1.208125
  0
LINE
  5
13F
330
DE
100
AcDbEntity
  8
AM_9
100
AcDbLine
 10
0.2187499999999999
 20
-1.148903700151693
 30
0.0
 11
0.2187499999999999
 21
-0.8892212998483071
 31
0.0
  0
LWPOLYLINE
  5
140
330
DE
100
AcDbEntity
  8
AM_9
100
AcDbPolyline
 90
        3
 70
     0
 43
0.0
 10
0.1093749999999999
 20
-1.158125
 10
0.1640624999999999
 20
-1.131977940392517
 10
0.2187499999999999
 20
-1.107971299848307
  0
LWPOLYLINE
  5
141
330
DE
100
AcDbEntity
  8
AM_9
100
AcDbPolyline
 90
        3
 70
     0
 43
0.0
 10
-0.0000000000000001
 20
-1.217346299848307
 10
0.0544416102741495
 20
-1.186798957337735
 10
0.1093749999999999
 20
-1.158125
  0
LINE
  5
142
330
DE
100
AcDbEntity
  8
AM_9
100
AcDbLine
 10
-0.2
 20
-0.955
 30
0.0
 11
-0.2
 21
-0.9940624999999998
 31
0.0
  0
LINE
  5
143
330
DE
100
AcDbEntity
  8
AM_9
100
AcDbLine
 10
0.1999999999999998
 20
-0.9940625
 30
0.0
 11
0.1999999999999998
 21
-0.955
 31
0.0
  0
LINE
  5
144
330
DE
100
AcDbEntity
  8
AM_9
100
AcDbLine
 10
-0.1851454569549802
 20
-0.8488099125707269
 30
0.0
 11
-0.1912304659644924
 21
-0.946022462287446
 31
0.0
  0
LINE
  5
145
330
DE
100
AcDbEntity
  8
AM_9
100
AcDbLine
 10
0.1912304659644922
 20
-0.946022462287446
 30
0.0
 11
0.18514545695498
 21
-0.8488099125707269
 31
0.0
  0
ELLIPSE
  5
146
330
DE
100
AcDbEntity
  8
AM_9
100
AcDbEllipse
 10
-0.0000000000000001
 20
-0.845625
 30
0.0
 11
0.1616637258772237
 21
0.0
 31
0.0
210
0.0
220
0.0
230
1.0
 40
0.8660254037844384
 41
0.0
 42
6.283185307179586
  0
ELLIPSE
  5
147
330
DE
100
AcDbEntity
  8
AM_9
100
AcDbEllipse
 10
-0.399430321788976
 20
-1.204444290038774
 30
0.0
 11
-0.03159560311146653
 21
0.1355139790604261
 31
0.0
210
0.0
220
0.0
230
1.0
 40
0.3659981507706653
 41
0.0
 42
6.283185307179586
  0
ELLIPSE
  5
148
330
DE
100
AcDbEntity
  8
AM_9
100
AcDbEllipse
 10
-0.4687499999999997
 20
-1.220606438444094
 30
0.0
 11
-0.0234971640207462
 21
0.1007796617096763
 31
0.0
210
0.0
220
0.0
230
1.0
 40
0.3659981507706677
 41
0.0
 42
6.283185307179586
  0
ELLIPSE
  5
149
330
DE
100
AcDbEntity
  8
AM_9
100
AcDbEllipse
 10
-0.3729962569746644
 20
-1.198281086609234
 30
0.0
 11
-0.03024351534849257
 21
0.1297148559307586
 31
0.0
210
0.0
220
0.0
230
1.0
 40
0.3659981507706678
 41
0.0
 42
6.283185307179586
  0
ELLIPSE
  5
14A
330
DE
100
AcDbEntity
  8
AM_9
100
AcDbEllipse
 10
-0.2013892028241881
 20
-1.158270244837341
 30
0.0
 11
-0.02497702053391715
 21
0.1071267867773895
 31
0.0
210
0.0
220
0.0
230
1.0
 40
0.3659981507706667
 41
0.0
 42
6.283185307179586
  0
ELLIPSE
  5
14B
330
DE
100
AcDbEntity
  8
AM_9
100
AcDbEllipse
 10
-0.0000000000000001
 20
-1.044062499999999
 30
0.0
 11
-0.2000000000000001
 21
2.449293598294708E-17
 31
0.0
210
0.0
220
0.0
230
1.0
 40
0.8660254037844395
 41
0.0
 42
6.283185307179586
  0
ELLIPSE
  5
14C
330
DE
100
AcDbEntity
  8
AM_9
100
AcDbEllipse
 10
-0.0000000000000001
 20
-1.044062500000001
 30
0.0
 11
-0.2187499999999989
 21
3.259629037943306E-9
 31
0.0
210
0.0
220
0.0
230
1.0
 40
0.8660254037844383
 41
0.0
 42
6.283185307179586
  0
ELLIPSE
  5
14D
330
DE
100
AcDbEntity
  8
AM_9
100
AcDbEllipse
 10
-0.0000000000000001
 20
-0.9940624999999992
 30
0.0
 11
-0.2187500000000001
 21
3.259629037943325E-9
 31
0.0
210
0.0
220
0.0
230
1.0
 40
0.8660254037844417
 41
0.0
 42
6.283185307179586
  0
ELLIPSE
  5
14E
330
DE
100
AcDbEntity
  8
AM_9
100
AcDbEllipse
 10
-0.0000000000000002
 20
-0.9940625
 30
0.0
 11
-0.1999999999999997
 21
2.449293598294703E-17
 31
0.0
210
0.0
220
0.0
230
1.0
 40
0.8660254037844396
 41
0.0
 42
6.283185307179586
  0
ELLIPSE
  5
14F
330
DE
100
AcDbEntity
  8
AM_9
100
AcDbEllipse
 10
0.0
 20
-0.955
 30
0.0
 11
-0.2
 21
2.980232263262467E-9
 31
0.0
210
0.0
220
0.0
230
1.0
 40
0.8660254037844389
 41
0.0
 42
6.283185307179586
  0
ELLIPSE
  5
150
330
DE
100
AcDbEntity
  8
AM_9
100
AcDbEllipse
 10
-0.0000000000000002
 20
-0.9550000000000001
 30
0.0
 11
-0.1915112338502294
 21
2.345336195354437E-17
 31
0.0
210
0.0
220
0.0
230
1.0
 40
0.8660254037844385
 41
0.0
 42
6.283185307179586
  0
ELLIPSE
  5
151
330
DE
100
AcDbEntity
  8
AM_9
100
AcDbEllipse
 10
-0.0000000000000001
 20
-0.8575017824238809
 30
0.0
 11
-0.1854172907249858
 21
2.270706915929280E-17
 31
0.0
210
0.0
220
0.0
230
1.0
 40
0.8660254037844407
 41
0.0
 42
6.283185307179586
  0
ENDBLK
  5
E1
330
DE
100
AcDbEntity
  8
0
100
AcDbBlockEnd
  0
BLOCK
  5
154
330
152
100
AcDbEntity
  8
0
100
AcDbBlockBegin
  2
4_068232H_0_in_068232_2
 70
     2
 10
0.0
 20
0.0
 30
0.0
  3
4_068232H_0_in_068232_2
  1

  0
ATTDEF
  5
156
330
152
100
AcDbEntity
  8
AM_6
100
AcDbText
 10
6.168200000000001
 20
2.065
 30
0.0
 40
0.5
  1
WSTU-DLM -Inch - housing
100
AcDbAttributeDefinition
  3

  2
NN
 70
     8
280
     0
  0
ATTDEF
  5
157
330
152
100
AcDbEntity
  8
AM_6
100
AcDbText
 10
6.168200000000001
 20
1.565
 30
0.0
 40
0.5
  1
DLM Medium Duty Wide Slot Take-Up Bearings
100
AcDbAttributeDefinition
  3

  2
NT
 70
     8
280
     0
  0
ATTDEF
  5
158
330
152
100
AcDbEntity
  8
AM_6
100
AcDbText
 10
6.168200000000001
 20
1.065
 30
0.0
 40
0.5
  1
068232H
100
AcDbAttributeDefinition
  3

  2
NB
 70
     8
280
     0
  0
ATTDEF
  5
159
330
152
100
AcDbEntity
  8
AM_6
100
AcDbText
 10
6.168200000000001
 20
0.5650000000000004
 30
0.0
 40
0.5
  1
$PN.H
100
AcDbAttributeDefinition
  3

  2
NBSYN
 70
     8
280
     0
  0
ATTDEF
  5
15A
330
152
100
AcDbEntity
  8
AM_6
100
AcDbText
 10
6.168200000000001
 20
0.0650000000000004
 30
0.0
 40
0.5
  1
068232
100
AcDbAttributeDefinition
  3

  2
LINA
 70
     8
280
     0
  0
ATTDEF
  5
15B
330
152
100
AcDbEntity
  8
AM_6
100
AcDbText
 10
6.168200000000001
 20
-0.4349999999999996
 30
0.0
 40
0.5
  1
207
100
AcDbAttributeDefinition
  3

  2
SERIES
 70
     8
280
     0
  0
ATTDEF
  5
15C
330
152
100
AcDbEntity
  8
AM_6
100
AcDbText
 10
6.168200000000001
 20
-0.9349999999999996
 30
0.0
 40
0.5
  1
1-3/16
100
AcDbAttributeDefinition
  3

  2
SS
 70
     8
280
     0
  0
ATTDEF
  5
15D
330
152
100
AcDbEntity
  8
AM_6
100
AcDbText
 10
6.168200000000001
 20
-1.435
 30
0.0
 40
0.5
  1
068232
100
AcDbAttributeDefinition
  3

  2
PN
 70
     8
280
     0
  0
ATTDEF
  5
15E
330
152
100
AcDbEntity
  8
AM_6
100
AcDbText
 10
6.168200000000001
 20
-1.935
 30
0.0
 40
0.5
  1
WSTU-DLM-103
100
AcDbAttributeDefinition
  3

  2
DESCRIPTION
 70
     8
280
     0
  0
ATTDEF
  5
15F
330
152
100
AcDbEntity
  8
AM_6
100
AcDbText
 10
6.168200000000001
 20
-2.435
 30
0.0
 40
0.5
  1
5.1
100
AcDbAttributeDefinition
  3

  2
W
 70
     8
280
     0
  0
ATTDEF
  5
160
330
152
100
AcDbEntity
  8
AM_6
100
AcDbText
 10
6.168200000000001
 20
-2.935
 30
0.0
 40
0.5
  1
WS308
100
AcDbAttributeDefinition
  3

  2
FS
 70
     8
280
     0
  0
ATTDEF
  5
161
330
152
100
AcDbEntity
  8
AM_6
100
AcDbText
 10
6.168200000000001
 20
-3.435
 30
0.0
 40
0.5
  1
1.75
100
AcDbAttributeDefinition
  3

  2
A
 70
     8
280
     0
  0
ATTDEF
  5
162
330
152
100
AcDbEntity
  8
AM_6
100
AcDbText
 10
6.168200000000001
 20
-3.935
 30
0.0
 40
0.5
  1
4.87
100
AcDbAttributeDefinition
  3

  2
B
 70
     8
280
     0
  0
ATTDEF
  5
163
330
152
100
AcDbEntity
  8
AM_6
100
AcDbText
 10
6.168200000000001
 20
-4.435
 30
0.0
 40
0.5
  1
0.531
100
AcDbAttributeDefinition
  3

  2
C
 70
     8
280
     0
  0
ATTDEF
  5
164
330
152
100
AcDbEntity
  8
AM_6
100
AcDbText
 10
6.168200000000001
 20
-4.935
 30
0.0
 40
0.5
  1
2.50
100
AcDbAttributeDefinition
  3

  2
D
 70
     8
280
     0
  0
ATTDEF
  5
165
330
152
100
AcDbEntity
  8
AM_6
100
AcDbText
 10
6.168200000000001
 20
-5.435
 30
0.0
 40
0.5
  1
3.06
100
AcDbAttributeDefinition
  3

  2
E
 70
     8
280
     0
  0
ATTDEF
  5
166
330
152
100
AcDbEntity
  8
AM_6
100
AcDbText
 10
6.168200000000001
 20
-5.935
 30
0.0
 40
0.5
  1
3/4
100
AcDbAttributeDefinition
  3

  2
F
 70
     8
280
     0
  0
ATTDEF
  5
167
330
152
100
AcDbEntity
  8
AM_6
100
AcDbText
 10
6.168200000000001
 20
-6.435
 30
0.0
 40
0.5
  1
0.50
100
AcDbAttributeDefinition
  3

  2
G
 70
     8
280
     0
  0
ATTDEF
  5
168
330
152
100
AcDbEntity
  8
AM_6
100
AcDbText
 10
6.168200000000001
 20
-6.935
 30
0.0
 40
0.5
  1
0.63
100
AcDbAttributeDefinition
  3

  2
H
 70
     8
280
     0
  0
ATTDEF
  5
169
330
152
100
AcDbEntity
  8
AM_6
100
AcDbText
 10
6.168200000000001
 20
-7.435
 30
0.0
 40
0.5
  1
2.50
100
AcDbAttributeDefinition
  3

  2
J
 70
     8
280
     0
  0
ATTDEF
  5
16A
330
152
100
AcDbEntity
  8
AM_6
100
AcDbText
 10
6.168200000000001
 20
-7.935
 30
0.0
 40
0.5
  1
1.44
100
AcDbAttributeDefinition
  3

  2
K
 70
     8
280
     0
  0
ATTDEF
  5
16B
330
152
100
AcDbEntity
  8
AM_6
100
AcDbText
 10
6.168200000000001
 20
-8.434999999999999
 30
0.0
 40
0.5
  1
2.69
100
AcDbAttributeDefinition
  3

  2
L
 70
     8
280
     0
  0
ATTDEF
  5
16C
330
152
100
AcDbEntity
  8
AM_6
100
AcDbText
 10
6.168200000000001
 20
-8.934999999999999
 30
0.0
 40
0.5
  1
3.480/3.510
100
AcDbAttributeDefinition
  3

  2
M
 70
     8
280
     0
  0
ATTDEF
  5
16D
330
152
100
AcDbEntity
  8
AM_6
100
AcDbText
 10
6.168200000000001
 20
-9.434999999999999
 30
0.0
 40
0.5
  1
4.13
100
AcDbAttributeDefinition
  3

  2
N
 70
     8
280
     0
  0
ATTDEF
  5
16E
330
152
100
AcDbEntity
  8
AM_6
100
AcDbText
 10
6.168200000000001
 20
-9.934999999999999
 30
0.0
 40
0.5
  1
0.67
100
AcDbAttributeDefinition
  3

  2
R
 70
     8
280
     0
  0
ATTDEF
  5
16F
330
152
100
AcDbEntity
  8
AM_6
100
AcDbText
 10
6.168200000000001
 20
-10.435
 30
0.0
 40
0.5
  1
1.08
100
AcDbAttributeDefinition
  3

  2
S
 70
     8
280
     0
  0
ATTDEF
  5
170
330
152
100
AcDbEntity
  8
AM_6
100
AcDbText
 10
6.168200000000001
 20
-10.935
 30
0.0
 40
0.5
  1
1.63
100
AcDbAttributeDefinition
  3

  2
T
 70
     8
280
     0
  0
ATTDEF
  5
171
330
152
100
AcDbEntity
  8
AM_6
100
AcDbText
 10
6.168200000000001
 20
-11.435
 30
0.0
 40
0.5
  1
3065
100
AcDbAttributeDefinition
  3

  2
CAPS
 70
     8
280
     0
  0
ATTDEF
  5
172
330
152
100
AcDbEntity
  8
AM_6
100
AcDbText
 10
6.168200000000001
 20
-11.935
 30
0.0
 40
0.5
  1
5759
100
AcDbAttributeDefinition
  3

  2
CAPD
 70
     8
280
     0
  0
ATTDEF
  5
173
330
152
100
AcDbEntity
  8
AM_6
100
AcDbText
 10
6.168200000000001
 20
-12.435
 30
0.0
 40
0.5
  1
baldor
100
AcDbAttributeDefinition
  3

  2
COMPANY
 70
     8
280
     0
  0
LWPOLYLINE
  5
174
330
152
100
AcDbEntity
  8
AM_9
100
AcDbPolyline
 90
       30
 70
     0
 43
0.0
 10
-0.42
 20
-0.9050000000000004
 10
-0.4178608928548749
 20
-0.8681395498701032
 10
-0.4114932698768951
 20
-0.8311872966057657
 10
-0.3998269422112149
 20
-0.7914246898270435
 10
-0.3833797369292361
 20
-0.7524473058421357
 10
-0.3624666191404816
 20
-0.7150121749991774
 10
-0.3367992326932234
 20
-0.6789909931326891
 10
-0.3069658553815768
 20
-0.645363973425605
 10
-0.2734972949159585
 20
-0.6148140093337753
 10
-0.2358285285680137
 20
-0.5872195058613602
 10
-0.1950003596585956
 20
-0.5635670748694825
 10
-0.1517648781619225
 20
-0.5444085638961808
 10
-0.1067650719458342
 20
-0.5301735506779384
 10
-0.0602054796099795
 20
-0.5208785420192743
 10
-0.0129995829463221
 20
-0.5167658376377972
 10
0.0332151216078921
 20
-0.5179003056352988
 10
0.0791538722055678
 20
-0.5240119000357434
 10
0.1239498089025686
 20
-0.5349467972880967
 10
0.1669816704852783
 20
-0.5505329179087138
 10
0.2080945763061652
 20
-0.5705127444052086
 10
0.2465723875298552
 20
-0.5944382096757345
 10
0.2828293036850059
 20
-0.6227238240949708
 10
0.3156854850438328
 20
-0.6544673628220756
 10
0.3445552918620341
 20
-0.6890041794894259
 10
0.3694504016148745
 20
-0.7265301279582449
 10
0.3897270211007119
 20
-0.7660963123666089
 10
0.4049768356818482
 20
-0.806874282410135
 10
0.4132773349899586
 20
-0.8394775596775308
 10
0.4183079079747739
 20
-0.8723270373432833
 10
0.4199999999999999
 20
-0.9050000000000004
  0
ELLIPSE
  5
175
330
152
100
AcDbEntity
  8
AM_9
100
AcDbEllipse
 10
-0.0000000000000001
 20
-0.9549999999999997
 30
0.0
 11
-0.32
 21
3.918869757271530E-17
 31
0.0
210
0.0
220
0.0
230
1.0
 40
0.8660254037844386
 41
0.0
 42
6.283185307179586
  0
ELLIPSE
  5
176
330
152
100
AcDbEntity
  8
AM_9
100
AcDbEllipse
 10
-0.0000000000000001
 20
-0.9049999999999999
 30
0.0
 11
0.42
 21
0.0
 31
0.0
210
0.0
220
0.0
230
1.0
 40
0.8660254037844388
 41
0.2406755961491847
 42
2.878164493549473
  0
LINE
  5
177
330
152
100
AcDbEntity
  8
AM_9
100
AcDbLine
 10
0.4199321444849971
 20
-0.9117924927956456
 30
0.0
 11
0.4199997935683024
 21
-0.9046253354578079
 31
0.0
  0
LINE
  5
178
330
152
100
AcDbEntity
  8
AM_9
100
AcDbLine
 10
0.4196686584502177
 20
-0.9200073929192534
 30
0.0
 11
0.4199321444849971
 21
-0.9117924927956456
 31
0.0
  0
LWPOLYLINE
  5
179
330
152
100
AcDbEntity
  8
AM_9
100
AcDbPolyline
 90
        9
 70
     0
 43
0.0
 10
0.3751138800271064
 20
-1.07490187522539
 10
0.382901821148422
 20
-1.060226407928756
 10
0.3921889665203899
 20
-1.040186315192343
 10
0.4001709224714841
 20
-1.019718172470861
 10
0.4068257104109926
 20
-0.9988917979782751
 10
0.4121361353117538
 20
-0.9777771876527579
 10
0.4160895617124303
 20
-0.9564442152835059
 10
0.4186776684664011
 20
-0.9349624021036751
 10
0.4196686584502177
 20
-0.9200073929192534
  0
LWPOLYLINE
  5
17A
330
152
100
AcDbEntity
  8
AM_9
100
AcDbPolyline
 90
       14
 70
     0
 43
0.0
 10
0.1695770840054596
 20
-1.250128757582161
 10
0.1843515338397958
 20
-1.243981254672587
 10
0.2058320388555086
 20
-1.233885396303055
 10
0.2266323397776444
 20
-1.222689005838932
 10
0.246680730385846
 20
-1.210428638231738
 10
0.2659077716091428
 20
-1.197145084866825
 10
0.2842467042077373
 20
-1.182883316264741
 10
0.3016338814089412
 20
-1.167692360845893
 10
0.3180092050278686
 20
-1.151625111095686
 10
0.3333165448465817
 20
-1.134738053586033
 10
0.3475041191354361
 20
-1.117090925741692
 10
0.3605248148265355
 20
-1.098746309177842
 10
0.3723364292407653
 20
-1.079769175833274
 10
0.3751138800271064
 20
-1.07490187522539
  0
LWPOLYLINE
  5
17B
330
152
100
AcDbEntity
  8
AM_9
100
AcDbPolyline
 90
       16
 70
     0
 43
0.0
 10
-0.1600513702282287
 20
-1.253767497134229
 10
-0.1448300115697812
 20
-1.259076098738475
 10
-0.1219371288486512
 20
-1.265941659583372
 10
-0.0986354768373719
 20
-1.271618818066
 10
-0.0750020422152985
 20
-1.276088411473215
 10
-0.0511146981159285
 20
-1.279335227402969
 10
-0.0270519676755198
 20
-1.281347968670172
 10
-0.0028928149711434
 20
-1.282119217172308
 10
0.0212835412952816
 20
-1.281645403702974
 10
0.04539756066033
 20
-1.279926812120536
 10
0.0693696211669496
 20
-1.276967625635349
 10
0.0931206965399611
 20
-1.2727758784869
 10
0.1165721324220447
 20
-1.267363492473046
 10
0.1396458242622699
 20
-1.260746331472547
 10
0.1622644170603461
 20
-1.252944267817155
 10
0.1695770840054596
 20
-1.250128757582161
  0
LINE
  5
17C
330
152
100
AcDbEntity
  8
AM_9
100
AcDbLine
 10
-0.1697555955453621
 20
-1.25005817834973
 30
0.0
 11
-0.1600513702282287
 21
-1.253767497134229
 31
0.0
  0
LWPOLYLINE
  5
17D
330
152
100
AcDbEntity
  8
AM_9
100
AcDbPolyline
 90
        5
 70
     0
 43
0.0
 10
-0.2400901899181759
 20
-1.214628485567022
 10
-0.2308209350204654
 20
-1.220252161512605
 10
-0.2103052934390313
 20
-1.23160027677623
 10
-0.1890875869217526
 20
-1.241876306730065
 10
-0.1697555955453621
 20
-1.25005817834973
  0
LWPOLYLINE
  5
17E
330
152
100
AcDbEntity
  8
AM_9
100
AcDbPolyline
 90
       11
 70
     0
 43
0.0
 10
-0.3750640852162261
 20
-1.074990691343675
 10
-0.3737316963431068
 20
-1.077345825580132
 10
-0.3621907490699181
 20
-1.096220023359464
 10
-0.3494614768868345
 20
-1.114478104996908
 10
-0.3355822552452548
 20
-1.132060445710087
 10
-0.3205955583487983
 20
-1.148908898215184
 10
-0.3045479878291248
 20
-1.16496710492902
 10
-0.2874902298445685
 20
-1.180180838780569
 10
-0.2694769354360779
 20
-1.19449835366413
 10
-0.2505665263191632
 20
-1.207870724867701
 10
-0.2400901899181759
 20
-1.214628485567022
  0
LWPOLYLINE
  5
17F
330
152
100
AcDbEntity
  8
AM_9
100
AcDbPolyline
 90
        9
 70
     0
 43
0.0
 10
-0.4191265008244726
 20
-0.9293587994606558
 10
-0.4188291447676128
 20
-0.9331966778382432
 10
-0.4163614285851139
 20
-0.9546319203919994
 10
-0.4125414382063965
 20
-0.9758944615552516
 10
-0.4073822334734246
 20
-0.9969186839655134
 10
-0.4009001894308236
 20
-1.017639719252547
 10
-0.3931150367935566
 20
-1.037993417888031
 10
-0.3840499537968295
 20
-1.057916346284135
 10
-0.3750640852162261
 20
-1.074990691343675
  0
LINE
  5
180
330
152
100
AcDbEntity
  8
AM_9
100
AcDbLine
 10
-0.4199997597837284
 20
-0.9054041621174054
 30
0.0
 11
-0.4199876211227502
 21
-0.9079012945963971
 31
0.0
  0
LWPOLYLINE
  5
181
330
152
100
AcDbEntity
  8
AM_9
100
AcDbPolyline
 90
       30
 70
     0
 43
0.0
 10
0.4199999999999999
 20
-0.9050000000000001
 10
0.4173966002677059
 20
-0.9448657108813436
 10
0.4096924849270715
 20
-0.9837686943436185
 10
0.3970467797624679
 20
-1.021003572106879
 10
0.3795447483902353
 20
-1.056213230562367
 10
0.3574219315420436
 20
-1.089220667500804
 10
0.3310906534503461
 20
-1.119523968367886
 10
0.3002188432331236
 20
-1.147334395573282
 10
0.2655225508332846
 20
-1.172042970142225
 10
0.2276196077460851
 20
-1.193307554382794
 10
0.1862659080017824
 20
-1.211187634269654
 10
0.1423326393034129
 20
-1.225351978675725
 10
0.0966553833165292
 20
-1.235591763437621
 10
0.0504848542330865
 20
-1.241730223884975
 10
0.0035023509959672
 20
-1.243995005929774
 10
-0.0433722704751945
 20
-1.242351357523445
 10
-0.0887196498885541
 20
-1.236916828898348
 10
-0.133100118912488
 20
-1.227770800798485
 10
-0.1757061924047719
 20
-1.215042980438932
 10
-0.2164860536605716
 20
-1.198591974895485
 10
-0.2547338952416729
 20
-1.178630142444583
 10
-0.2897888332490917
 20
-1.15542402985254
 10
-0.3220395391111088
 20
-1.128351801603308
 10
-0.3503440127957136
 20
-1.098118190030131
 10
-0.3741743906182985
 20
-1.065171652663414
 10
-0.3932744399485925
 20
-1.029578176472838
 10
-0.4074404493675607
 20
-0.991716861411338
 10
-0.4163755218067594
 20
-0.9522631508846527
 10
-0.4190916163452014
 20
-0.9287898318085624
 10
-0.42
 20
-0.9050000000000004
  0
ELLIPSE
  5
182
330
152
100
AcDbEntity
  8
AM_9
100
AcDbEllipse
 10
-0.0000000000000008
 20
-0.9049999999999991
 30
0.0
 11
0.4200000000000007
 21
6.258487701416028E-9
 31
0.0
210
0.0
220
0.0
230
1.0
 40
0.8660254037844388
 41
4.390071946950902
 42
6.283187037607677
  0
ELLIPSE
  5
183
330
152
100
AcDbEntity
  8
AM_9
100
AcDbEllipse
 10
0.0000000000001583
 20
-0.9049999999995433
 30
0.0
 11
0.420000000000455
 21
0.0
 31
0.0
210
0.0
220
0.0
230
1.0
 40
0.8660254037846317
 41
4.3215628498093
 42
4.39007196028728
  0
ELLIPSE
  5
184
330
152
100
AcDbEntity
  8
AM_9
100
AcDbEllipse
 10
0.0000000000000139
 20
-0.9049999999999718
 30
0.0
 11
0.4200000000000285
 21
0.0
 31
0.0
210
0.0
220
0.0
230
1.0
 40
0.866025403784452
 41
4.104143401474488
 42
4.321562849809242
  0
ELLIPSE
  5
185
330
152
100
AcDbEntity
  8
AM_9
100
AcDbEllipse
 10
0.0000000000000031
 20
-0.9049999999999998
 30
0.0
 11
0.4200000000000039
 21
0.0
 31
0.0
210
0.0
220
0.0
230
1.0
 40
0.8660254037844352
 41
3.182843656632141
 42
4.104143401474476
  0
ELLIPSE
  5
186
330
152
100
AcDbEntity
  8
AM_9
100
AcDbEllipse
 10
-0.0000000000000017
 20
-0.9049999999999824
 30
0.0
 11
0.4199999999999984
 21
0.0
 31
0.0
210
0.0
220
0.0
230
1.0
 40
0.8660254037844431
 41
3.141592653589793
 42
3.182843656632186
  0
LINE
  5
187
330
152
100
AcDbEntity
  8
AM_9
100
AcDbLine
 10
-0.4984
 20
-1.309045453756286
 30
0.0
 11
-0.5310000000000001
 21
-1.263586467164
 31
0.0
  0
LINE
  5
188
330
152
100
AcDbEntity
  8
AM_9
100
AcDbLine
 10
0.5310000000000001
 20
-1.263586467164001
 30
0.0
 11
0.4984000000000001
 21
-1.309045453756286
 31
0.0
  0
LINE
  5
189
330
152
100
AcDbEntity
  8
AM_9
100
AcDbLine
 10
0.4984000000000001
 20
-1.309045453756286
 30
0.0
 11
-0.4984
 21
-1.309045453756286
 31
0.0
  0
LINE
  5
18A
330
152
100
AcDbEntity
  8
AM_9
100
AcDbLine
 10
-0.4984
 20
-1.309045453756286
 30
0.0
 11
-0.4984
 21
1.309045453756286
 31
0.0
  0
LINE
  5
18B
330
152
100
AcDbEntity
  8
AM_9
100
AcDbLine
 10
0.4984000000000001
 20
-1.309045453756286
 30
0.0
 11
0.4984000000000001
 21
1.309045453756286
 31
0.0
  0
LINE
  5
18C
330
152
100
AcDbEntity
  8
AM_9
100
AcDbLine
 10
-0.4984
 20
1.309045453756286
 30
0.0
 11
0.4984000000000001
 21
1.309045453756286
 31
0.0
  0
LINE
  5
18D
330
152
100
AcDbEntity
  8
AM_9
100
AcDbLine
 10
-0.5310000000000001
 20
1.263586467164001
 30
0.0
 11
-0.4984
 21
1.309045453756286
 31
0.0
  0
LINE
  5
18E
330
152
100
AcDbEntity
  8
AM_9
100
AcDbLine
 10
0.4984000000000001
 20
1.309045453756286
 30
0.0
 11
0.5309999999999999
 21
1.263586467164
 31
0.0
  0
LINE
  5
18F
330
152
100
AcDbEntity
  8
AM_9
100
AcDbLine
 10
-0.2389499999999999
 20
-1.422633131853473
 30
0.0
 11
0.5309999999999999
 21
-1.422633131853473
 31
0.0
  0
LINE
  5
190
330
152
100
AcDbEntity
  8
AM_9
100
AcDbLine
 10
-0.2389499999999999
 20
-1.476675
 30
0.0
 11
0.5309999999999999
 21
-1.476675
 31
0.0
  0
LINE
  5
191
330
152
100
AcDbEntity
  8
AM_9
100
AcDbLine
 10
-0.2389499999999999
 20
-1.476675
 30
0.0
 11
-0.2389499999999999
 21
-1.360902370569697
 31
0.0
  0
LINE
  5
192
330
152
100
AcDbEntity
  8
AM_9
100
AcDbLine
 10
-0.2389499999999999
 20
1.360902370569697
 30
0.0
 11
-0.2389499999999999
 21
1.476675
 31
0.0
  0
LINE
  5
193
330
152
100
AcDbEntity
  8
AM_9
100
AcDbLine
 10
-0.2389499999999999
 20
1.422633131853473
 30
0.0
 11
0.5309999999999999
 21
1.422633131853473
 31
0.0
  0
LINE
  5
194
330
152
100
AcDbEntity
  8
AM_9
100
AcDbLine
 10
0.5310000000000001
 20
1.476675
 30
0.0
 11
-0.2389499999999999
 21
1.476675
 31
0.0
  0
LINE
  5
195
330
152
100
AcDbEntity
  8
AM_9
100
AcDbLine
 10
-0.2389499999999999
 20
1.360902370569697
 30
0.0
 11
0.5309999999999996
 21
1.360902370569697
 31
0.0
  0
LINE
  5
196
330
152
100
AcDbEntity
  8
AM_9
100
AcDbLine
 10
0.5309999999999996
 20
-1.360902370569697
 30
0.0
 11
-0.2389499999999999
 21
-1.360902370569697
 31
0.0
  0
LINE
  5
197
330
152
100
AcDbEntity
  8
AM_9
100
AcDbLine
 10
-0.5310000000000002
 20
-1.4173
 30
0.0
 11
-0.2389499999999999
 21
-1.4173
 31
0.0
  0
LINE
  5
198
330
152
100
AcDbEntity
  8
AM_9
100
AcDbLine
 10
-0.2389499999999999
 20
1.4173
 30
0.0
 11
-0.5310000000000001
 21
1.4173
 31
0.0
  0
LINE
  5
199
330
152
100
AcDbEntity
  8
AM_9
100
AcDbLine
 10
0.5310000000000001
 20
0.6182750197121019
 30
0.0
 11
0.5310000000000001
 21
-0.618275019712102
 31
0.0
  0
LINE
  5
19A
330
152
100
AcDbEntity
  8
AM_9
100
AcDbLine
 10
-0.5309999999999999
 20
0.6182750197121017
 30
0.0
 11
-0.5309999999999999
 21
-0.6182750197121017
 31
0.0
  0
LINE
  5
19B
330
152
100
AcDbEntity
  8
AM_9
100
AcDbLine
 10
-0.5309999999999999
 20
-0.6669000000000012
 30
0.0
 11
0.5310000000000001
 21
-0.6669000000000012
 31
0.0
  0
LINE
  5
19C
330
152
100
AcDbEntity
  8
AM_9
100
AcDbLine
 10
-0.5309999999999999
 20
-0.72
 30
0.0
 11
0.5310000000000001
 21
-0.72
 31
0.0
  0
LINE
  5
19D
330
152
100
AcDbEntity
  8
AM_9
100
AcDbLine
 10
-0.5309999999999999
 20
0.6668999999999996
 30
0.0
 11
0.5310000000000001
 21
0.6668999999999996
 31
0.0
  0
LINE
  5
19E
330
152
100
AcDbEntity
  8
AM_9
100
AcDbLine
 10
-0.5309999999999999
 20
0.7200000000000002
 30
0.0
 11
0.5310000000000001
 21
0.7200000000000002
 31
0.0
  0
LINE
  5
1A1
330
152
100
AcDbEntity
  8
AM_7
100
AcDbLine
 10
0.0000000000000002
 20
-0.3937499999999999
 30
0.0
 11
0.0000000000000002
 21
0.3937499999999999
 31
0.0
  0
LINE
  5
1A2
330
152
100
AcDbEntity
  8
AM_7
100
AcDbLine
 10
1.1682
 20
0.0
 30
0.0
 11
-1.1682
 21
0.0
 31
0.0
  0
LINE
  5
1A3
330
152
100
AcDbEntity
  8
AM_4
100
AcDbLine
 10
0.2654999999999997
 20
-2.065
 30
0.0
 11
0.2654999999999998
 21
-1.755
 31
0.0
  0
LWPOLYLINE
  5
1A4
330
152
100
AcDbEntity
  8
AM_4
100
AcDbPolyline
 90
       19
 70
     0
 43
0.0
 10
0.8149999999999994
 20
-2.011900000000001
 10
0.8147979384686711
 20
-2.016527969939901
 10
0.8141932916849476
 20
-2.021120718234114
 10
0.813190661375949
 20
-2.025643291294944
 10
0.8117976781637312
 20
-2.030061269610593
 10
0.8100249434916454
 20
-2.034341029698431
 10
0.8078859489409531
 20
-2.03845
 10
0.805396973551745
 20
-2.042356908770241
 10
0.8025769599296173
 20
-2.046032022074356
 10
0.7994473700810053
 20
-2.049447370081006
 10
0.7960320220743549
 20
-2.052576959929618
 10
0.7923569087702403
 20
-2.055396973551745
 10
0.7884499999999998
 20
-2.057885948940954
 10
0.7843410296984309
 20
-2.060024943491646
 10
0.7800612696105929
 20
-2.061797678163732
 10
0.7756432912949437
 20
-2.06319066137595
 10
0.7711207182341141
 20
-2.064193291684948
 10
0.7665279699399007
 20
-2.064797938468671
 10
0.7619000000000001
 20
-2.065
  0
LINE
  5
1A5
330
152
100
AcDbEntity
  8
AM_4
100
AcDbLine
 10
0.2654999999999997
 20
-2.065
 30
0.0
 11
0.7619
 21
-2.065
 31
0.0
  0
LINE
  5
1A6
330
152
100
AcDbEntity
  8
AM_4
100
AcDbLine
 10
-0.2655000000000001
 20
-1.755
 30
0.0
 11
-0.2655000000000001
 21
-2.065
 31
0.0
  0
LWPOLYLINE
  5
1A7
330
152
100
AcDbEntity
  8
AM_4
100
AcDbPolyline
 90
       19
 70
     0
 43
0.0
 10
-0.7619
 20
-2.065
 10
-0.7665279699399007
 20
-2.064797938468672
 10
-0.7711207182341139
 20
-2.064193291684948
 10
-0.7756432912949437
 20
-2.06319066137595
 10
-0.7800612696105929
 20
-2.061797678163732
 10
-0.7843410296984309
 20
-2.060024943491646
 10
-0.7884499999999997
 20
-2.057885948940954
 10
-0.7923569087702401
 20
-2.055396973551746
 10
-0.7960320220743548
 20
-2.052576959929618
 10
-0.7994473700810053
 20
-2.049447370081006
 10
-0.8025769599296173
 20
-2.046032022074356
 10
-0.805396973551745
 20
-2.042356908770241
 10
-0.8078859489409532
 20
-2.038450000000001
 10
-0.8100249434916457
 20
-2.034341029698432
 10
-0.8117976781637313
 20
-2.030061269610594
 10
-0.8131906613759491
 20
-2.025643291294945
 10
-0.8141932916849479
 20
-2.021120718234116
 10
-0.8147979384686714
 20
-2.016527969939902
 10
-0.8149999999999997
 20
-2.011900000791252
  0
LINE
  5
1A8
330
152
100
AcDbEntity
  8
AM_4
100
AcDbLine
 10
-0.7619000000000006
 20
-2.065
 30
0.0
 11
-0.2655000000000001
 21
-2.065
 31
0.0
  0
LINE
  5
1A9
330
152
100
AcDbEntity
  8
AM_4
100
AcDbLine
 10
-0.2654999999999998
 20
2.065
 30
0.0
 11
-0.2655
 21
1.755
 31
0.0
  0
LINE
  5
1AA
330
152
100
AcDbEntity
  8
AM_4
100
AcDbLine
 10
-0.7619000000000001
 20
2.065
 30
0.0
 11
-0.2654999999999998
 21
2.065
 31
0.0
  0
LWPOLYLINE
  5
1AB
330
152
100
AcDbEntity
  8
AM_4
100
AcDbPolyline
 90
       19
 70
     0
 43
0.0
 10
-0.8149999999999996
 20
2.011900000000001
 10
-0.8147979384686713
 20
2.016527969939901
 10
-0.814193291684948
 20
2.021120718234114
 10
-0.8131906613759492
 20
2.025643291294944
 10
-0.8117976781637315
 20
2.030061269610593
 10
-0.8100249434916459
 20
2.034341029698431
 10
-0.8078859489409534
 20
2.03845
 10
-0.8053969735517452
 20
2.042356908770241
 10
-0.8025769599296175
 20
2.046032022074356
 10
-0.7994473700810055
 20
2.049447370081006
 10
-0.7960320220743552
 20
2.052576959929618
 10
-0.7923569087702405
 20
2.055396973551745
 10
-0.78845
 20
2.057885948940954
 10
-0.7843410296984312
 20
2.060024943491646
 10
-0.7800612696105931
 20
2.061797678163732
 10
-0.775643291294944
 20
2.06319066137595
 10
-0.7711207182341142
 20
2.064193291684948
 10
-0.7665279699399008
 20
2.064797938468672
 10
-0.7619000000000002
 20
2.065
  0
LINE
  5
1AC
330
152
100
AcDbEntity
  8
AM_4
100
AcDbLine
 10
0.5310000000000002
 20
0.618275019712102
 30
0.0
 11
0.5310000000000001
 21
1.599999999999999
 31
0.0
  0
LINE
  5
1AD
330
152
100
AcDbEntity
  8
AM_4
100
AcDbLine
 10
-0.5309999999999999
 20
1.599999999999999
 30
0.0
 11
-0.5309999999999999
 21
0.6182750197121015
 31
0.0
  0
LINE
  5
1AE
330
152
100
AcDbEntity
  8
AM_4
100
AcDbLine
 10
-0.815
 20
2.0119
 30
0.0
 11
-0.8149999999999997
 21
1.884
 31
0.0
  0
LINE
  5
1AF
330
152
100
AcDbEntity
  8
AM_4
100
AcDbLine
 10
0.2655000000000001
 20
1.755
 30
0.0
 11
-0.2655
 21
1.755
 31
0.0
  0
LINE
  5
1B0
330
152
100
AcDbEntity
  8
AM_4
100
AcDbLine
 10
0.5310000000000001
 20
1.599999999999999
 30
0.0
 11
0.8150000000000001
 21
1.884
 31
0.0
  0
LINE
  5
1B1
330
152
100
AcDbEntity
  8
AM_4
100
AcDbLine
 10
0.8150000000000001
 20
1.884
 30
0.0
 11
0.8150000000000001
 21
2.0119
 31
0.0
  0
LINE
  5
1B2
330
152
100
AcDbEntity
  8
AM_4
100
AcDbLine
 10
0.2655
 20
2.065
 30
0.0
 11
0.2655000000000001
 21
1.755
 31
0.0
  0
LINE
  5
1B3
330
152
100
AcDbEntity
  8
AM_4
100
AcDbLine
 10
-0.2654999999999998
 20
2.0119
 30
0.0
 11
-0.815
 21
2.0119
 31
0.0
  0
LINE
  5
1B4
330
152
100
AcDbEntity
  8
AM_4
100
AcDbLine
 10
-0.8149999999999997
 20
1.884
 30
0.0
 11
-0.5309999999999999
 21
1.599999999999999
 31
0.0
  0
LINE
  5
1B5
330
152
100
AcDbEntity
  8
AM_4
100
AcDbLine
 10
0.8150000000000001
 20
2.0119
 30
0.0
 11
0.2655
 21
2.011900000000001
 31
0.0
  0
LWPOLYLINE
  5
1B6
330
152
100
AcDbEntity
  8
AM_4
100
AcDbPolyline
 90
       19
 70
     0
 43
0.0
 10
0.7619000000000008
 20
2.065
 10
0.7665279699399015
 20
2.064797938468672
 10
0.7711207182341148
 20
2.064193291684948
 10
0.7756432912949444
 20
2.06319066137595
 10
0.7800612696105935
 20
2.061797678163732
 10
0.7843410296984316
 20
2.060024943491646
 10
0.7884500000000004
 20
2.057885948940954
 10
0.792356908770241
 20
2.055396973551745
 10
0.7960320220743556
 20
2.052576959929618
 10
0.799447370081006
 20
2.049447370081006
 10
0.802576959929618
 20
2.046032022074356
 10
0.8053969735517457
 20
2.042356908770241
 10
0.8078859489409538
 20
2.038450000000001
 10
0.8100249434916463
 20
2.034341029698432
 10
0.8117976781637318
 20
2.030061269610594
 10
0.8131906613759496
 20
2.025643291294944
 10
0.8141932916849484
 20
2.021120718234115
 10
0.8147979384686718
 20
2.016527969939901
 10
0.8150000000000001
 20
2.011900000000001
  0
LINE
  5
1B7
330
152
100
AcDbEntity
  8
AM_4
100
AcDbLine
 10
0.2655
 20
2.065
 30
0.0
 11
0.7619000000000008
 21
2.065
 31
0.0
  0
LINE
  5
1B8
330
152
100
AcDbEntity
  8
AM_4
100
AcDbLine
 10
0.5309999999999999
 20
-1.599999999999999
 30
0.0
 11
0.531
 21
-0.6182750197121019
 31
0.0
  0
LINE
  5
1B9
330
152
100
AcDbEntity
  8
AM_4
100
AcDbLine
 10
-0.5309999999999998
 20
-0.6182750197121014
 30
0.0
 11
-0.5310000000000001
 21
-1.599999999999999
 31
0.0
  0
LINE
  5
1BA
330
152
100
AcDbEntity
  8
AM_4
100
AcDbLine
 10
-0.5310000000000001
 20
-1.599999999999999
 30
0.0
 11
-0.8150000000000001
 21
-1.884
 31
0.0
  0
LINE
  5
1BB
330
152
100
AcDbEntity
  8
AM_4
100
AcDbLine
 10
-0.8150000000000001
 20
-1.884
 30
0.0
 11
-0.8150000000000001
 21
-2.011900000000001
 31
0.0
  0
LINE
  5
1BC
330
152
100
AcDbEntity
  8
AM_4
100
AcDbLine
 10
-0.2655000000000001
 20
-2.0119
 30
0.0
 11
-0.8150000000000001
 21
-2.011900000000001
 31
0.0
  0
LINE
  5
1BD
330
152
100
AcDbEntity
  8
AM_4
100
AcDbLine
 10
-0.2655000000000001
 20
-1.755
 30
0.0
 11
0.2654999999999998
 21
-1.755
 31
0.0
  0
LINE
  5
1BE
330
152
100
AcDbEntity
  8
AM_4
100
AcDbLine
 10
0.815
 20
-2.0119
 30
0.0
 11
0.2654999999999997
 21
-2.0119
 31
0.0
  0
LINE
  5
1BF
330
152
100
AcDbEntity
  8
AM_4
100
AcDbLine
 10
0.815
 20
-2.0119
 30
0.0
 11
0.815
 21
-1.884
 31
0.0
  0
LINE
  5
1C0
330
152
100
AcDbEntity
  8
AM_4
100
AcDbLine
 10
0.815
 20
-1.884
 30
0.0
 11
0.5309999999999999
 21
-1.599999999999999
 31
0.0
  0
LWPOLYLINE
  5
1C1
330
152
100
AcDbEntity
  8
AM_4
100
AcDbPolyline
 90
       19
 70
     0
 43
0.0
 10
-0.4778999999999999
 20
-1.25
 10
-0.4825279699399005
 20
-1.249797938468672
 10
-0.4871207182341138
 20
-1.249193291684948
 10
-0.4916432912949437
 20
-1.248190661375949
 10
-0.4960612696105928
 20
-1.246797678163732
 10
-0.5003410296984309
 20
-1.245024943491646
 10
-0.5044499999999997
 20
-1.242885948940954
 10
-0.5083569087702403
 20
-1.240396973551745
 10
-0.5120320220743549
 20
-1.237576959929618
 10
-0.5154473700810054
 20
-1.234447370081006
 10
-0.5185769599296174
 20
-1.231032022074355
 10
-0.5213969735517451
 20
-1.227356908770241
 10
-0.5238859489409533
 20
-1.22345
 10
-0.5260249434916457
 20
-1.219341029698431
 10
-0.5277976781637314
 20
-1.215061269610593
 10
-0.5291906613759492
 20
-1.210643291294944
 10
-0.5301932916849479
 20
-1.206120718234114
 10
-0.5307979384686713
 20
-1.201527969939901
 10
-0.5309999999999996
 20
-1.196900000000001
  0
LWPOLYLINE
  5
1C2
330
152
100
AcDbEntity
  8
AM_4
100
AcDbPolyline
 90
       19
 70
     0
 43
0.0
 10
0.531
 20
-1.1969
 10
0.5307979384686717
 20
-1.201527969939901
 10
0.5301932916849482
 20
-1.206120718234114
 10
0.5291906613759495
 20
-1.210643291294944
 10
0.5277976781637318
 20
-1.215061269610593
 10
0.5260249434916462
 20
-1.219341029698431
 10
0.5238859489409537
 20
-1.22345
 10
0.5213969735517455
 20
-1.227356908770241
 10
0.5185769599296178
 20
-1.231032022074355
 10
0.5154473700810058
 20
-1.234447370081006
 10
0.5120320220743554
 20
-1.237576959929618
 10
0.5083569087702408
 20
-1.240396973551745
 10
0.5044500000000002
 20
-1.242885948940954
 10
0.5003410296984314
 20
-1.245024943491646
 10
0.4960612696105933
 20
-1.246797678163732
 10
0.4916432912949442
 20
-1.248190661375949
 10
0.4871207182341143
 20
-1.249193291684948
 10
0.482527969939901
 20
-1.249797938468672
 10
0.4779000000000004
 20
-1.25
  0
LINE
  5
1C3
330
152
100
AcDbEntity
  8
AM_4
100
AcDbLine
 10
-0.4778999999999999
 20
-1.25
 30
0.0
 11
0.4779000000000003
 21
-1.25
 31
0.0
  0
ARC
  5
1C4
330
152
100
AcDbEntity
  8
AM_4
100
AcDbCircle
 10
-0.0000000000000004
 20
0.0000000000000001
 30
0.0
 40
0.8149999999999993
100
AcDbArc
 50
130.6573395297826
 51
229.3426604702175
  0
CIRCLE
  5
1C5
330
152
100
AcDbEntity
  8
AM_4
100
AcDbCircle
 10
0.0000000000000002
 20
0.0
 30
0.0
 40
0.3749999999999999
  0
ARC
  5
1C6
330
152
100
AcDbEntity
  8
AM_4
100
AcDbCircle
 10
0.0
 20
0.0000000000000001
 30
0.0
 40
0.8150000000000001
100
AcDbArc
 50
310.6573395297826
 51
49.3426604702174
  0
LINE
  5
1C7
330
152
100
AcDbEntity
  8
AM_4
100
AcDbLine
 10
0.5310000000000002
 20
-1.1969
 30
0.0
 11
-0.5309999999999998
 21
-1.1969
 31
0.0
  0
LINE
  5
1C8
330
152
100
AcDbEntity
  8
AM_4
100
AcDbLine
 10
-0.4778999999999989
 20
1.25
 30
0.0
 11
0.4779
 21
1.25
 31
0.0
  0
LWPOLYLINE
  5
1C9
330
152
100
AcDbEntity
  8
AM_4
100
AcDbPolyline
 90
       19
 70
     0
 43
0.0
 10
-0.5309999999999993
 20
1.1969
 10
-0.5307979384686708
 20
1.201527969939901
 10
-0.5301932916849474
 20
1.206120718234114
 10
-0.5291906613759487
 20
1.210643291294944
 10
-0.5277976781637309
 20
1.215061269610593
 10
-0.5260249434916453
 20
1.219341029698431
 10
-0.523885948940953
 20
1.22345
 10
-0.5213969735517447
 20
1.227356908770241
 10
-0.518576959929617
 20
1.231032022074355
 10
-0.5154473700810049
 20
1.234447370081006
 10
-0.5120320220743545
 20
1.237576959929618
 10
-0.5083569087702399
 20
1.240396973551745
 10
-0.5044499999999994
 20
1.242885948940954
 10
-0.5003410296984305
 20
1.245024943491646
 10
-0.4960612696105924
 20
1.246797678163732
 10
-0.4916432912949433
 20
1.248190661375949
 10
-0.4871207182341135
 20
1.249193291684948
 10
-0.4825279699399002
 20
1.249797938468672
 10
-0.4778999999999995
 20
1.25
  0
LINE
  5
1CA
330
152
100
AcDbEntity
  8
AM_4
100
AcDbLine
 10
0.5310000000000001
 20
1.196900000000001
 30
0.0
 11
-0.5309999999999996
 21
1.1969
 31
0.0
  0
LWPOLYLINE
  5
1CB
330
152
100
AcDbEntity
  8
AM_4
100
AcDbPolyline
 90
       19
 70
     0
 43
0.0
 10
0.4778999999999998
 20
1.25
 10
0.4825279699399004
 20
1.249797938468672
 10
0.4871207182341137
 20
1.249193291684948
 10
0.4916432912949436
 20
1.248190661375949
 10
0.4960612696105927
 20
1.246797678163732
 10
0.5003410296984309
 20
1.245024943491646
 10
0.5044499999999996
 20
1.242885948940954
 10
0.5083569087702402
 20
1.240396973551746
 10
0.5120320220743548
 20
1.237576959929618
 10
0.5154473700810053
 20
1.234447370081006
 10
0.5185769599296174
 20
1.231032022074355
 10
0.5213969735517451
 20
1.227356908770241
 10
0.5238859489409534
 20
1.22345
 10
0.5260249434916459
 20
1.219341029698431
 10
0.5277976781637315
 20
1.215061269610594
 10
0.5291906613759492
 20
1.210643291294944
 10
0.530193291684948
 20
1.206120718234115
 10
0.5307979384686714
 20
1.201527969939901
 10
0.5309999999999997
 20
1.196900000000001
  0
ENDBLK
  5
155
330
152
100
AcDbEntity
  8
0
100
AcDbBlockEnd
  0
ENDSEC
  0
SECTION
  2
ENTITIES
  0
INSERT
  5
6F
330
1F
100
AcDbEntity
  8
0
100
AcDbBlockReference
  2
1_068232_2
 10
0.0
 20
0.0
 30
0.0
  0
POINT
  5
1CD
330
1F
100
AcDbEntity
  8
ConnectionPoints
100
AcDbPoint
 10
-0.0000000000000001
 20
-0.955
 30
-1.654108521228278
  0
POINT
  5
1CE
330
1F
100
AcDbEntity
  8
ConnectionPoints
100
AcDbPoint
 10
-0.0000000000000001
 20
-0.955
 30
-1.654108521228278
  0
POINT
  5
1CF
330
1F
100
AcDbEntity
  8
ConnectionPoints
100
AcDbPoint
 10
-1.08
 20
0.0
 30
0.0000000000000001
  0
ENDSEC
  0
SECTION
  2
OBJECTS
  0
DICTIONARY
  5
C
330
0
100
AcDbDictionary
281
     1
  3
ACAD_DETAILVIEWSTYLE
350
1D7
  3
ACAD_GROUP
350
D
  3
ACAD_LAYOUT
350
1A
  3
ACAD_MATERIAL
350
43
  3
ACAD_MLEADERSTYLE
350
6B
  3
ACAD_MLINESTYLE
350
17
  3
ACAD_PLOTSETTINGS
350
19
  3
ACAD_PLOTSTYLENAME
350
E
  3
ACAD_SCALELIST
350
47
  3
ACAD_SECTIONVIEWSTYLE
350
1D8
  3
ACAD_TABLESTYLE
350
69
  3
ACAD_VISUALSTYLE
350
2A
  3
ACDB_RECOMPOSE_DATA
350
1D4
  3
AcDbVariableDictionary
350
1D0
  0
SUN
  5
6D
330
29
100
AcDbSun
 90
        1
290
     0
 63
     7
421
 16777215
 40
1.0
291
     1
 91
  2455826
 92
 54000000
292
     0
 70
     2
 71
   256
280
     1
  0
DICTIONARY
  5
1D7
102
{ACAD_REACTORS
330
C
102
}
330
C
100
AcDbDictionary
281
     1
  0
DICTIONARY
  5
D
102
{ACAD_REACTORS
330
C
102
}
330
C
100
AcDbDictionary
281
     1
  0
DICTIONARY
  5
1A
102
{ACAD_REACTORS
330
C
102
}
330
C
100
AcDbDictionary
281
     1
  3
Layout1
350
1E
  3
Layout2
350
26
  3
Model
350
22
  0
DICTIONARY
  5
43
102
{ACAD_REACTORS
330
C
102
}
330
C
100
AcDbDictionary
281
     1
  3
ByBlock
350
45
  3
ByLayer
350
44
  3
Global
350
46
  0
DICTIONARY
  5
6B
102
{ACAD_REACTORS
330
C
102
}
330
C
100
AcDbDictionary
281
     1
  3
Standard
350
6C
  0
DICTIONARY
  5
17
102
{ACAD_REACTORS
330
C
102
}
330
C
100
AcDbDictionary
281
     1
  3
Standard
350
18
  0
DICTIONARY
  5
19
102
{ACAD_REACTORS
330
C
102
}
330
C
100
AcDbDictionary
281
     1
  0
ACDBDICTIONARYWDFLT
  5
E
102
{ACAD_REACTORS
330
C
102
}
330
C
100
AcDbDictionary
281
     1
  3
Normal
350
F
100
AcDbDictionaryWithDefault
340
F
  0
DICTIONARY
  5
47
102
{ACAD_REACTORS
330
C
102
}
330
C
100
AcDbDictionary
281
     1
  3
A0
350
48
  3
A1
350
49
  3
A2
350
4A
  3
A3
350
4B
  3
A4
350
4C
  3
A5
350
4D
  3
A6
350
4E
  3
A7
350
4F
  3
A8
350
50
  3
A9
350
51
  3
B0
350
52
  3
B1
350
53
  3
B2
350
54
  3
B3
350
55
  3
B4
350
56
  3
B5
350
57
  3
B6
350
58
  3
B7
350
59
  3
B8
350
5A
  3
B9
350
5B
  3
C0
350
5C
  3
C1
350
5D
  3
C2
350
5E
  3
C3
350
5F
  3
C4
350
60
  3
C5
350
61
  3
C6
350
62
  3
C7
350
63
  3
C8
350
64
  3
C9
350
65
  3
D0
350
66
  3
D1
350
67
  3
D2
350
68
  0
DICTIONARY
  5
1D8
102
{ACAD_REACTORS
330
C
102
}
330
C
100
AcDbDictionary
281
     1
  0
DICTIONARY
  5
69
102
{ACAD_REACTORS
330
C
102
}
330
C
100
AcDbDictionary
281
     1
  3
Standard
350
6A
  0
DICTIONARY
  5
2A
102
{ACAD_REACTORS
330
C
102
}
330
C
100
AcDbDictionary
281
     1
  3
2dWireframe
350
2F
  3
Basic
350
32
  3
Brighten
350
36
  3
ColorChange
350
3A
  3
Conceptual
350
34
  3
Dim
350
35
  3
EdgeColorOff
350
3D
  3
Facepattern
350
39
  3
Flat
350
2B
  3
FlatWithEdges
350
2C
  3
Gouraud
350
2D
  3
GouraudWithEdges
350
2E
  3
Hidden
350
31
  3
JitterOff
350
3B
  3
Linepattern
350
38
  3
OverhangOff
350
3C
  3
Realistic
350
33
  3
Shaded
350
42
  3
Shaded with edges
350
41
  3
Shades of Gray
350
3E
  3
Sketchy
350
3F
  3
Thicken
350
37
  3
Wireframe
350
30
  3
X-Ray
350
40
  0
XRECORD
  5
1D4
102
{ACAD_REACTORS
330
C
102
}
330
C
100
AcDbXrecord
280
     1
 90
        1
330
6A
  0
DICTIONARY
  5
1D0
102
{ACAD_REACTORS
330
C
102
}
330
C
100
AcDbDictionary
281
     1
  3
CANNOSCALE
350
1D1
  3
CMLEADERSTYLE
350
1D6
  3
CTABLESTYLE
350
1D5
  0
LAYOUT
  5
1E
102
{ACAD_REACTORS
330
1A
102
}
330
1A
100
AcDbPlotSettings
  1

  2
none_device
  4

  6

 40
0.0
 41
0.0
 42
0.0
 43
0.0
 44
0.0
 45
0.0
 46
0.0
 47
0.0
 48
0.0
 49
0.0
140
0.0
141
0.0
142
1.0
143
1.0
 70
   688
 72
     0
 73
     0
 74
     5
  7

 75
    16
 76
     0
 77
     2
 78
   300
147
1.0
148
0.0
149
0.0
100
AcDbLayout
  1
Layout1
 70
     1
 71
     1
 10
0.0
 20
0.0
 11
12.0
 21
9.0
 12
0.0
 22
0.0
 32
0.0
 14
1.000000000000000E+20
 24
1.000000000000000E+20
 34
1.000000000000000E+20
 15
-1.000000000000000E+20
 25
-1.000000000000000E+20
 35
-1.000000000000000E+20
146
0.0
 13
0.0
 23
0.0
 33
0.0
 16
1.0
 26
0.0
 36
0.0
 17
0.0
 27
1.0
 37
0.0
 76
     0
330
1B
  0
LAYOUT
  5
26
102
{ACAD_REACTORS
330
1A
102
}
330
1A
100
AcDbPlotSettings
  1

  2
none_device
  4

  6

 40
0.0
 41
0.0
 42
0.0
 43
0.0
 44
0.0
 45
0.0
 46
0.0
 47
0.0
 48
0.0
 49
0.0
140
0.0
141
0.0
142
1.0
143
1.0
 70
   688
 72
     0
 73
     0
 74
     5
  7

 75
    16
 76
     0
 77
     2
 78
   300
147
1.0
148
0.0
149
0.0
100
AcDbLayout
  1
Layout2
 70
     1
 71
     2
 10
0.0
 20
0.0
 11
0.0
 21
0.0
 12
0.0
 22
0.0
 32
0.0
 14
0.0
 24
0.0
 34
0.0
 15
0.0
 25
0.0
 35
0.0
146
0.0
 13
0.0
 23
0.0
 33
0.0
 16
1.0
 26
0.0
 36
0.0
 17
0.0
 27
1.0
 37
0.0
 76
     0
330
23
  0
LAYOUT
  5
22
102
{ACAD_REACTORS
330
1A
102
}
330
1A
100
AcDbPlotSettings
  1

  2
none_device
  4
Letter_(8.50_x_11.00_Inches)
  6

 40
6.35
 41
6.35
 42
6.35000508
 43
6.35000508
 44
215.9
 45
279.4
 46
0.0
 47
0.0
 48
0.0
 49
0.0
140
0.0
141
0.0
142
1.0
143
1.0
 70
  1712
 72
     0
 73
     0
 74
     0
  7

 75
     0
 76
     0
 77
     2
 78
   300
147
1.0
148
0.0
149
0.0
100
AcDbLayout
  1
Model
 70
     1
 71
     0
 10
0.0
 20
0.0
 11
12.0
 21
9.0
 12
0.0
 22
0.0
 32
0.0
 14
1.000000000000000E+20
 24
1.000000000000000E+20
 34
1.000000000000000E+20
 15
-1.000000000000000E+20
 25
-1.000000000000000E+20
 35
-1.000000000000000E+20
146
0.0
 13
0.0
 23
0.0
 33
0.0
 16
1.0
 26
0.0
 36
0.0
 17
0.0
 27
1.0
 37
0.0
 76
     0
330
1F
331
29
  0
MATERIAL
  5
45
102
{ACAD_REACTORS
330
43
102
}
330
43
100
AcDbMaterial
  1
ByBlock
 72
     1
 94
      127
  0
MATERIAL
  5
44
102
{ACAD_REACTORS
330
43
102
}
330
43
100
AcDbMaterial
  1
ByLayer
 72
     1
 94
      127
  0
MATERIAL
  5
46
102
{ACAD_REACTORS
330
43
102
}
330
43
100
AcDbMaterial
  1
Global
 72
     1
 94
      127
  0
MLEADERSTYLE
  5
6C
102
{ACAD_REACTORS
330
6B
102
}
330
6B
100
AcDbMLeaderStyle
179
     2
170
     2
171
     1
172
     0
 90
        2
 40
0.0
 41
0.0
173
     1
 91
-1056964608
340
14
 92
       -2
290
     1
 42
0.09
291
     1
 43
0.36
  3
Standard
341
0
 44
0.18
300

342
11
174
     1
178
     6
175
     1
176
     0
 93
-1056964608
 45
0.18
292
     0
297
     0
 46
0.18
343
0
 94
-1056964608
 47
1.0
 49
1.0
140
1.0
293
     1
141
0.0
294
     1
177
     0
142
1.0
295
     0
296
     0
143
0.125
271
     0
272
     9
273
     9
298
     0
  0
MLINESTYLE
  5
18
102
{ACAD_REACTORS
330
17
102
}
330
17
100
AcDbMlineStyle
  2
Standard
 70
     0
  3

 62
   256
 51
90.0
 52
90.0
 71
     2
 49
0.5
 62
   256
  6
BYLAYER
 49
-0.5
 62
   256
  6
BYLAYER
  0
ACDBPLACEHOLDER
  5
F
102
{ACAD_REACTORS
330
E
102
}
330
E
  0
SCALE
  5
48
102
{ACAD_REACTORS
330
47
102
}
330
47
100
AcDbScale
 70
     0
300
1:1
140
1.0
141
1.0
290
     1
  0
SCALE
  5
49
102
{ACAD_REACTORS
330
47
102
}
330
47
100
AcDbScale
 70
     0
300
1:2
140
1.0
141
2.0
290
     0
  0
SCALE
  5
4A
102
{ACAD_REACTORS
330
47
102
}
330
47
100
AcDbScale
 70
     0
300
1:4
140
1.0
141
4.0
290
     0
  0
SCALE
  5
4B
102
{ACAD_REACTORS
330
47
102
}
330
47
100
AcDbScale
 70
     0
300
1:5
140
1.0
141
5.0
290
     0
  0
SCALE
  5
4C
102
{ACAD_REACTORS
330
47
102
}
330
47
100
AcDbScale
 70
     0
300
1:8
140
1.0
141
8.0
290
     0
  0
SCALE
  5
4D
102
{ACAD_REACTORS
330
47
102
}
330
47
100
AcDbScale
 70
     0
300
1:10
140
1.0
141
10.0
290
     0
  0
SCALE
  5
4E
102
{ACAD_REACTORS
330
47
102
}
330
47
100
AcDbScale
 70
     0
300
1:16
140
1.0
141
16.0
290
     0
  0
SCALE
  5
4F
102
{ACAD_REACTORS
330
47
102
}
330
47
100
AcDbScale
 70
     0
300
1:20
140
1.0
141
20.0
290
     0
  0
SCALE
  5
50
102
{ACAD_REACTORS
330
47
102
}
330
47
100
AcDbScale
 70
     0
300
1:30
140
1.0
141
30.0
290
     0
  0
SCALE
  5
51
102
{ACAD_REACTORS
330
47
102
}
330
47
100
AcDbScale
 70
     0
300
1:40
140
1.0
141
40.0
290
     0
  0
SCALE
  5
52
102
{ACAD_REACTORS
330
47
102
}
330
47
100
AcDbScale
 70
     0
300
1:50
140
1.0
141
50.0
290
     0
  0
SCALE
  5
53
102
{ACAD_REACTORS
330
47
102
}
330
47
100
AcDbScale
 70
     0
300
1:100
140
1.0
141
100.0
290
     0
  0
SCALE
  5
54
102
{ACAD_REACTORS
330
47
102
}
330
47
100
AcDbScale
 70
     0
300
2:1
140
2.0
141
1.0
290
     0
  0
SCALE
  5
55
102
{ACAD_REACTORS
330
47
102
}
330
47
100
AcDbScale
 70
     0
300
4:1
140
4.0
141
1.0
290
     0
  0
SCALE
  5
56
102
{ACAD_REACTORS
330
47
102
}
330
47
100
AcDbScale
 70
     0
300
8:1
140
8.0
141
1.0
290
     0
  0
SCALE
  5
57
102
{ACAD_REACTORS
330
47
102
}
330
47
100
AcDbScale
 70
     0
300
10:1
140
10.0
141
1.0
290
     0
  0
SCALE
  5
58
102
{ACAD_REACTORS
330
47
102
}
330
47
100
AcDbScale
 70
     0
300
100:1
140
100.0
141
1.0
290
     0
  0
SCALE
  5
59
102
{ACAD_REACTORS
330
47
102
}
330
47
100
AcDbScale
 70
     0
300
1/128" = 1'-0"
140
0.0078125
141
12.0
290
     0
  0
SCALE
  5
5A
102
{ACAD_REACTORS
330
47
102
}
330
47
100
AcDbScale
 70
     0
300
1/64" = 1'-0"
140
0.015625
141
12.0
290
     0
  0
SCALE
  5
5B
102
{ACAD_REACTORS
330
47
102
}
330
47
100
AcDbScale
 70
     0
300
1/32" = 1'-0"
140
0.03125
141
12.0
290
     0
  0
SCALE
  5
5C
102
{ACAD_REACTORS
330
47
102
}
330
47
100
AcDbScale
 70
     0
300
1/16" = 1'-0"
140
0.0625
141
12.0
290
     0
  0
SCALE
  5
5D
102
{ACAD_REACTORS
330
47
102
}
330
47
100
AcDbScale
 70
     0
300
3/32" = 1'-0"
140
0.09375
141
12.0
290
     0
  0
SCALE
  5
5E
102
{ACAD_REACTORS
330
47
102
}
330
47
100
AcDbScale
 70
     0
300
1/8" = 1'-0"
140
0.125
141
12.0
290
     0
  0
SCALE
  5
5F
102
{ACAD_REACTORS
330
47
102
}
330
47
100
AcDbScale
 70
     0
300
3/16" = 1'-0"
140
0.1875
141
12.0
290
     0
  0
SCALE
  5
60
102
{ACAD_REACTORS
330
47
102
}
330
47
100
AcDbScale
 70
     0
300
1/4" = 1'-0"
140
0.25
141
12.0
290
     0
  0
SCALE
  5
61
102
{ACAD_REACTORS
330
47
102
}
330
47
100
AcDbScale
 70
     0
300
3/8" = 1'-0"
140
0.375
141
12.0
290
     0
  0
SCALE
  5
62
102
{ACAD_REACTORS
330
47
102
}
330
47
100
AcDbScale
 70
     0
300
1/2" = 1'-0"
140
0.5
141
12.0
290
     0
  0
SCALE
  5
63
102
{ACAD_REACTORS
330
47
102
}
330
47
100
AcDbScale
 70
     0
300
3/4" = 1'-0"
140
0.75
141
12.0
290
     0
  0
SCALE
  5
64
102
{ACAD_REACTORS
330
47
102
}
330
47
100
AcDbScale
 70
     0
300
1" = 1'-0"
140
1.0
141
12.0
290
     0
  0
SCALE
  5
65
102
{ACAD_REACTORS
330
47
102
}
330
47
100
AcDbScale
 70
     0
300
1-1/2" = 1'-0"
140
1.5
141
12.0
290
     0
  0
SCALE
  5
66
102
{ACAD_REACTORS
330
47
102
}
330
47
100
AcDbScale
 70
     0
300
3" = 1'-0"
140
3.0
141
12.0
290
     0
  0
SCALE
  5
67
102
{ACAD_REACTORS
330
47
102
}
330
47
100
AcDbScale
 70
     0
300
6" = 1'-0"
140
6.0
141
12.0
290
     0
  0
SCALE
  5
68
102
{ACAD_REACTORS
330
47
102
}
330
47
100
AcDbScale
 70
     0
300
1'-0" = 1'-0"
140
12.0
141
12.0
290
     0
  0
TABLESTYLE
  5
6A
102
{ACAD_REACTORS
330
69
102
}
102
{ACAD_XDICTIONARY
360
1D2
102
}
330
69
100
AcDbTableStyle
  3
Standard
 70
     0
 71
     0
 40
0.06
 41
0.06
280
     0
281
     0
  7
Standard
140
0.18
170
     2
 62
     0
 63
   257
283
     0
 90
        4
 91
        0
  1

274
    -2
284
     1
 64
     0
275
    -2
285
     1
 65
     0
276
    -2
286
     1
 66
     0
277
    -2
287
     1
 67
     0
278
    -2
288
     1
 68
     0
279
    -2
289
     1
 69
     0
  7
Standard
140
0.25
170
     5
 62
     0
 63
   257
283
     0
 90
        4
 91
        0
  1

274
    -2
284
     1
 64
     0
275
    -2
285
     1
 65
     0
276
    -2
286
     1
 66
     0
277
    -2
287
     1
 67
     0
278
    -2
288
     1
 68
     0
279
    -2
289
     1
 69
     0
  7
Standard
140
0.18
170
     5
 62
     0
 63
   257
283
     0
 90
        4
 91
        0
  1

274
    -2
284
     1
 64
     0
275
    -2
285
     1
 65
     0
276
    -2
286
     1
 66
     0
277
    -2
287
     1
 67
     0
278
    -2
288
     1
 68
     0
279
    -2
289
     1
 69
     0
  0
VISUALSTYLE
  5
2F
102
{ACAD_REACTORS
330
2A
102
}
330
2A
100
AcDbVisualStyle
  2
2dWireframe
 70
     4
177
     3
291
     0
 70
    58
 90
        0
176
     1
 90
        2
176
     1
 90
        0
176
     1
 90
        0
176
     1
 40
0.6
176
     1
 40
30.0
176
     1
 62
     7
420
 16777215
176
     1
 90
        1
176
     1
 90
        4
176
     1
 62
     7
176
     1
 62
   257
176
     1
 90
        1
176
     1
 90
        1
176
     1
 40
1.0
176
     1
 90
        0
176
     1
 62
   257
176
     1
 40
1.0
176
     1
 90
        1
176
     1
 90
        6
176
     1
 90
        2
176
     1
 62
     7
176
     1
 90
        5
176
     1
 90
        0
176
     1
 90
        0
176
     1
290
     0
176
     1
 90
        1
176
     1
 40
0.0
176
     1
 90
        0
176
     1
290
     1
176
     1
290
     1
176
     1
290
     0
176
     1
290
     0
176
     1
290
     0
176
     1
290
     0
176
     1
290
     0
176
     1
290
     0
176
     1
290
     0
176
     1
 90
       50
176
     1
 40
0.0
176
     1
 40
1.0
176
     1
 90
        0
176
     1
 62
    18
420
        0
176
     1
 90
       50
176
     1
 90
        3
176
     1
 62
     5
420
      255
176
     1
290
     0
176
     1
 90
       50
176
     1
 90
       50
176
     1
 90
       50
176
     1
290
     0
176
     1
 90
       50
176
     1
 62
   256
176
     0
 40
1.0
176
     0
 90
        2
176
     1
  1
strokes_ogs.tif
176
     1
290
     0
176
     1
 40
1.0
176
     1
 40
1.0
176
     1
  0
VISUALSTYLE
  5
32
102
{ACAD_REACTORS
330
2A
102
}
330
2A
100
AcDbVisualStyle
  2
Basic
 70
     7
177
     3
291
     1
 70
    58
 90
        1
176
     1
 90
        0
176
     1
 90
        1
176
     1
 90
        0
176
     1
 40
0.6
176
     1
 40
30.0
176
     1
 62
     7
420
 16777215
176
     1
 90
        0
176
     1
 90
        4
176
     1
 62
     7
176
     1
 62
   257
176
     1
 90
        1
176
     1
 90
        1
176
     1
 40
1.0
176
     1
 90
        8
176
     1
 62
     7
176
     1
 40
1.0
176
     1
 90
        1
176
     1
 90
        6
176
     1
 90
        2
176
     1
 62
     7
176
     1
 90
        5
176
     1
 90
        0
176
     1
 90
        0
176
     1
290
     0
176
     1
 90
        1
176
     1
 40
0.0
176
     1
 90
        0
176
     1
290
     0
176
     1
290
     1
176
     1
290
     1
176
     1
290
     0
176
     1
290
     0
176
     1
290
     0
176
     1
290
     0
176
     1
290
     0
176
     1
290
     0
176
     1
 90
       50
176
     1
 40
0.0
176
     1
 40
1.0
176
     1
 90
        0
176
     1
 62
    18
420
        0
176
     1
 90
       50
176
     1
 90
        3
176
     1
 62
     5
420
      255
176
     1
290
     0
176
     1
 90
       50
176
     1
 90
       50
176
     1
 90
       50
176
     1
290
     0
176
     1
 90
       50
176
     1
 62
   256
176
     0
 40
1.0
176
     0
 90
        2
176
     1
  1
strokes_ogs.tif
176
     1
290
     0
176
     1
 40
1.0
176
     1
 40
1.0
176
     1
  0
VISUALSTYLE
  5
36
102
{ACAD_REACTORS
330
2A
102
}
330
2A
100
AcDbVisualStyle
  2
Brighten
 70
    12
177
     3
291
     1
 70
    58
 90
        2
176
     1
 90
        2
176
     1
 90
        0
176
     1
 90
        0
176
     1
 40
0.6
176
     1
 40
30.0
176
     1
 62
     7
420
 16777215
176
     1
 90
        1
176
     1
 90
        4
176
     1
 62
     7
176
     1
 62
   257
176
     1
 90
        1
176
     1
 90
        1
176
     1
 40
1.0
176
     1
 90
        8
176
     1
 62
     7
176
     1
 40
1.0
176
     1
 90
        1
176
     1
 90
        6
176
     1
 90
        2
176
     1
 62
     7
176
     1
 90
        5
176
     1
 90
        0
176
     1
 90
        0
176
     1
290
     0
176
     1
 90
        1
176
     1
 40
50.0
176
     1
 90
        0
176
     1
290
     0
176
     1
290
     1
176
     1
290
     1
176
     1
290
     0
176
     1
290
     0
176
     1
290
     0
176
     1
290
     0
176
     1
290
     0
176
     1
290
     0
176
     1
 90
       50
176
     1
 40
0.0
176
     1
 40
1.0
176
     1
 90
        0
176
     1
 62
    18
420
        0
176
     1
 90
       50
176
     1
 90
        3
176
     1
 62
     5
420
      255
176
     1
290
     0
176
     1
 90
       50
176
     1
 90
       50
176
     1
 90
       50
176
     1
290
     0
176
     1
 90
       50
176
     1
 62
   256
176
     0
 40
1.0
176
     0
 90
        2
176
     1
  1
strokes_ogs.tif
176
     1
290
     0
176
     1
 40
1.0
176
     1
 40
1.0
176
     1
  0
VISUALSTYLE
  5
3A
102
{ACAD_REACTORS
330
2A
102
}
330
2A
100
AcDbVisualStyle
  2
ColorChange
 70
    16
177
     3
291
     1
 70
    58
 90
        2
176
     1
 90
        2
176
     1
 90
        3
176
     1
 90
        0
176
     1
 40
0.6
176
     1
 40
30.0
176
     1
 62
     8
420
  8421504
176
     1
 90
        1
176
     1
 90
        4
176
     1
 62
     7
176
     1
 62
   257
176
     1
 90
        1
176
     1
 90
        1
176
     1
 40
1.0
176
     1
 90
        8
176
     1
 62
     8
420
  8421504
176
     1
 40
1.0
176
     1
 90
        1
176
     1
 90
        6
176
     1
 90
        2
176
     1
 62
     7
176
     1
 90
        5
176
     1
 90
        0
176
     1
 90
        0
176
     1
290
     0
176
     1
 90
        1
176
     1
 40
0.0
176
     1
 90
        0
176
     1
290
     0
176
     1
290
     1
176
     1
290
     1
176
     1
290
     0
176
     1
290
     0
176
     1
290
     0
176
     1
290
     0
176
     1
290
     0
176
     1
290
     0
176
     1
 90
       50
176
     1
 40
0.0
176
     1
 40
1.0
176
     1
 90
        0
176
     1
 62
    18
420
        0
176
     1
 90
       50
176
     1
 90
        3
176
     1
 62
     5
420
      255
176
     1
290
     0
176
     1
 90
       50
176
     1
 90
       50
176
     1
 90
       50
176
     1
290
     0
176
     1
 90
       50
176
     1
 62
   256
176
     0
 40
1.0
176
     0
 90
        2
176
     1
  1
strokes_ogs.tif
176
     1
290
     0
176
     1
 40
1.0
176
     1
 40
1.0
176
     1
  0
VISUALSTYLE
  5
34
102
{ACAD_REACTORS
330
2A
102
}
330
2A
100
AcDbVisualStyle
  2
Conceptual
 70
     9
177
     3
291
     0
 70
    58
 90
        3
176
     1
 90
        2
176
     1
 90
        0
176
     1
 90
        0
176
     1
 40
0.6
176
     1
 40
30.0
176
     1
 62
     7
420
 16777215
176
     1
 90
        2
176
     1
 90
        2
176
     1
 62
     7
176
     1
 62
   257
176
     1
 90
        1
176
     1
 90
        1
176
     1
 40
179.0
176
     1
 90
        8
176
     1
 62
     7
176
     1
 40
1.0
176
     1
 90
        1
176
     1
 90
        6
176
     1
 90
        2
176
     1
 62
     7
176
     1
 90
        3
176
     1
 90
        0
176
     1
 90
        0
176
     1
290
     0
176
     1
 90
        1
176
     1
 40
0.0
176
     1
 90
        0
176
     1
290
     0
176
     1
290
     1
176
     1
290
     1
176
     1
290
     0
176
     1
290
     0
176
     1
290
     0
176
     1
290
     0
176
     1
290
     0
176
     1
290
     0
176
     1
 90
       50
176
     1
 40
0.0
176
     1
 40
1.0
176
     1
 90
        0
176
     1
 62
    18
420
        0
176
     1
 90
       50
176
     1
 90
        3
176
     1
 62
     5
420
      255
176
     1
290
     0
176
     1
 90
       50
176
     1
 90
       50
176
     1
 90
       50
176
     1
290
     0
176
     1
 90
       50
176
     1
 62
   256
176
     0
 40
1.0
176
     0
 90
        2
176
     1
  1
strokes_ogs.tif
176
     1
290
     0
176
     1
 40
1.0
176
     1
 40
1.0
176
     1
  0
VISUALSTYLE
  5
35
102
{ACAD_REACTORS
330
2A
102
}
330
2A
100
AcDbVisualStyle
  2
Dim
 70
    11
177
     3
291
     1
 70
    58
 90
        2
176
     1
 90
        2
176
     1
 90
        0
176
     1
 90
        0
176
     1
 40
0.6
176
     1
 40
30.0
176
     1
 62
     7
420
 16777215
176
     1
 90
        1
176
     1
 90
        4
176
     1
 62
     7
176
     1
 62
   257
176
     1
 90
        1
176
     1
 90
        1
176
     1
 40
1.0
176
     1
 90
        8
176
     1
 62
     7
176
     1
 40
1.0
176
     1
 90
        1
176
     1
 90
        6
176
     1
 90
        2
176
     1
 62
     7
176
     1
 90
        5
176
     1
 90
        0
176
     1
 90
        0
176
     1
290
     0
176
     1
 90
        1
176
     1
 40
-50.0
176
     1
 90
        0
176
     1
290
     0
176
     1
290
     1
176
     1
290
     1
176
     1
290
     0
176
     1
290
     0
176
     1
290
     0
176
     1
290
     0
176
     1
290
     0
176
     1
290
     0
176
     1
 90
       50
176
     1
 40
0.0
176
     1
 40
1.0
176
     1
 90
        0
176
     1
 62
    18
420
        0
176
     1
 90
       50
176
     1
 90
        3
176
     1
 62
     5
420
      255
176
     1
290
     0
176
     1
 90
       50
176
     1
 90
       50
176
     1
 90
       50
176
     1
290
     0
176
     1
 90
       50
176
     1
 62
   256
176
     0
 40
1.0
176
     0
 90
        2
176
     1
  1
strokes_ogs.tif
176
     1
290
     0
176
     1
 40
1.0
176
     1
 40
1.0
176
     1
  0
VISUALSTYLE
  5
3D
102
{ACAD_REACTORS
330
2A
102
}
330
2A
100
AcDbVisualStyle
  2
EdgeColorOff
 70
    22
177
     3
291
     1
 70
    58
 90
        2
176
     0
 90
        2
176
     0
 90
        0
176
     0
 90
        0
176
     0
 40
0.6
176
     0
 40
30.0
176
     0
 62
     7
420
 16777215
176
     0
 90
        1
176
     0
 90
        4
176
     0
 62
     7
176
     0
 62
   257
176
     0
 90
        1
176
     0
 90
        1
176
     0
 40
1.0
176
     0
 90
        8
176
     2
 62
     7
176
     0
 40
1.0
176
     0
 90
        1
176
     0
 90
        6
176
     0
 90
        2
176
     0
 62
     7
176
     0
 90
        5
176
     0
 90
        0
176
     0
 90
        0
176
     0
290
     0
176
     0
 90
        1
176
     0
 40
0.0
176
     0
 90
        0
176
     0
290
     0
176
     0
290
     1
176
     0
290
     1
176
     0
290
     0
176
     0
290
     0
176
     0
290
     0
176
     0
290
     0
176
     0
290
     0
176
     0
290
     0
176
     0
 90
       50
176
     0
 40
0.0
176
     0
 40
1.0
176
     0
 90
        0
176
     0
 62
    18
420
        0
176
     0
 90
       50
176
     0
 90
        3
176
     0
 62
     5
420
      255
176
     0
290
     0
176
     0
 90
       50
176
     0
 90
       50
176
     0
 90
       50
176
     0
290
     0
176
     0
 90
       50
176
     0
 62
   256
176
     0
 40
1.0
176
     0
 90
        2
176
     0
  1
strokes_ogs.tif
176
     0
290
     0
176
     0
 40
1.0
176
     0
 40
1.0
176
     0
  0
VISUALSTYLE
  5
39
102
{ACAD_REACTORS
330
2A
102
}
330
2A
100
AcDbVisualStyle
  2
Facepattern
 70
    15
177
     3
291
     1
 70
    58
 90
        2
176
     1
 90
        2
176
     1
 90
        0
176
     1
 90
        0
176
     1
 40
0.6
176
     1
 40
30.0
176
     1
 62
     7
420
 16777215
176
     1
 90
        1
176
     1
 90
        4
176
     1
 62
     7
176
     1
 62
   257
176
     1
 90
        1
176
     1
 90
        1
176
     1
 40
1.0
176
     1
 90
        8
176
     1
 62
     7
176
     1
 40
1.0
176
     1
 90
        1
176
     1
 90
        6
176
     1
 90
        2
176
     1
 62
     7
176
     1
 90
        5
176
     1
 90
        0
176
     1
 90
        0
176
     1
290
     0
176
     1
 90
        1
176
     1
 40
0.0
176
     1
 90
        0
176
     1
290
     0
176
     1
290
     1
176
     1
290
     1
176
     1
290
     0
176
     1
290
     0
176
     1
290
     0
176
     1
290
     0
176
     1
290
     0
176
     1
290
     0
176
     1
 90
       50
176
     1
 40
0.0
176
     1
 40
1.0
176
     1
 90
        0
176
     1
 62
    18
420
        0
176
     1
 90
       50
176
     1
 90
        3
176
     1
 62
     5
420
      255
176
     1
290
     0
176
     1
 90
       50
176
     1
 90
       50
176
     1
 90
       50
176
     1
290
     0
176
     1
 90
       50
176
     1
 62
   256
176
     0
 40
1.0
176
     0
 90
        2
176
     1
  1
strokes_ogs.tif
176
     1
290
     0
176
     1
 40
1.0
176
     1
 40
1.0
176
     1
  0
VISUALSTYLE
  5
2B
102
{ACAD_REACTORS
330
2A
102
}
330
2A
100
AcDbVisualStyle
  2
Flat
 70
     0
177
     3
291
     1
 70
    58
 90
        2
176
     1
 90
        1
176
     1
 90
        1
176
     1
 90
        2
176
     1
 40
0.6
176
     1
 40
30.0
176
     1
 62
     7
420
 16777215
176
     1
 90
        0
176
     1
 90
        0
176
     1
 62
     7
176
     1
 62
   257
176
     1
 90
        1
176
     1
 90
        1
176
     1
 40
1.0
176
     1
 90
        8
176
     1
 62
     7
176
     1
 40
1.0
176
     1
 90
        1
176
     1
 90
        6
176
     1
 90
        2
176
     1
 62
     7
176
     1
 90
        5
176
     1
 90
        0
176
     1
 90
        0
176
     1
290
     0
176
     1
 90
       13
176
     1
 40
0.0
176
     1
 90
        0
176
     1
290
     0
176
     1
290
     1
176
     1
290
     1
176
     1
290
     0
176
     1
290
     0
176
     1
290
     0
176
     1
290
     0
176
     1
290
     0
176
     1
290
     0
176
     1
 90
       50
176
     1
 40
0.0
176
     1
 40
1.0
176
     1
 90
        0
176
     1
 62
    18
420
        0
176
     1
 90
       50
176
     1
 90
        3
176
     1
 62
     5
420
      255
176
     1
290
     0
176
     1
 90
       50
176
     1
 90
       50
176
     1
 90
       50
176
     1
290
     0
176
     1
 90
       50
176
     1
 62
   256
176
     0
 40
1.0
176
     0
 90
        2
176
     1
  1
strokes_ogs.tif
176
     1
290
     0
176
     1
 40
1.0
176
     1
 40
1.0
176
     1
  0
VISUALSTYLE
  5
2C
102
{ACAD_REACTORS
330
2A
102
}
330
2A
100
AcDbVisualStyle
  2
FlatWithEdges
 70
     1
177
     3
291
     1
 70
    58
 90
        2
176
     1
 90
        1
176
     1
 90
        1
176
     1
 90
        2
176
     1
 40
0.6
176
     1
 40
30.0
176
     1
 62
     7
420
 16777215
176
     1
 90
        1
176
     1
 90
        0
176
     1
 62
     7
176
     1
 62
   257
176
     1
 90
        1
176
     1
 90
        1
176
     1
 40
1.0
176
     1
 90
        0
176
     1
 62
   257
176
     1
 40
1.0
176
     1
 90
        1
176
     1
 90
        6
176
     1
 90
        2
176
     1
 62
     7
176
     1
 90
        5
176
     1
 90
        0
176
     1
 90
        0
176
     1
290
     0
176
     1
 90
       13
176
     1
 40
0.0
176
     1
 90
        0
176
     1
290
     0
176
     1
290
     1
176
     1
290
     1
176
     1
290
     0
176
     1
290
     0
176
     1
290
     0
176
     1
290
     0
176
     1
290
     0
176
     1
290
     0
176
     1
 90
       50
176
     1
 40
0.0
176
     1
 40
1.0
176
     1
 90
        0
176
     1
 62
    18
420
        0
176
     1
 90
       50
176
     1
 90
        3
176
     1
 62
     5
420
      255
176
     1
290
     0
176
     1
 90
       50
176
     1
 90
       50
176
     1
 90
       50
176
     1
290
     0
176
     1
 90
       50
176
     1
 62
   256
176
     0
 40
1.0
176
     0
 90
        2
176
     1
  1
strokes_ogs.tif
176
     1
290
     0
176
     1
 40
1.0
176
     1
 40
1.0
176
     1
  0
VISUALSTYLE
  5
2D
102
{ACAD_REACTORS
330
2A
102
}
330
2A
100
AcDbVisualStyle
  2
Gouraud
 70
     2
177
     3
291
     1
 70
    58
 90
        2
176
     1
 90
        2
176
     1
 90
        1
176
     1
 90
        2
176
     1
 40
0.6
176
     1
 40
30.0
176
     1
 62
     7
420
 16777215
176
     1
 90
        0
176
     1
 90
        0
176
     1
 62
     7
176
     1
 62
   257
176
     1
 90
        1
176
     1
 90
        1
176
     1
 40
1.0
176
     1
 90
        0
176
     1
 62
     7
176
     1
 40
1.0
176
     1
 90
        1
176
     1
 90
        6
176
     1
 90
        2
176
     1
 62
     7
176
     1
 90
        5
176
     1
 90
        0
176
     1
 90
        0
176
     1
290
     0
176
     1
 90
       13
176
     1
 40
0.0
176
     1
 90
        0
176
     1
290
     0
176
     1
290
     1
176
     1
290
     1
176
     1
290
     0
176
     1
290
     0
176
     1
290
     0
176
     1
290
     0
176
     1
290
     0
176
     1
290
     0
176
     1
 90
       50
176
     1
 40
0.0
176
     1
 40
1.0
176
     1
 90
        0
176
     1
 62
    18
420
        0
176
     1
 90
       50
176
     1
 90
        3
176
     1
 62
     5
420
      255
176
     1
290
     0
176
     1
 90
       50
176
     1
 90
       50
176
     1
 90
       50
176
     1
290
     0
176
     1
 90
       50
176
     1
 62
   256
176
     0
 40
1.0
176
     0
 90
        2
176
     1
  1
strokes_ogs.tif
176
     1
290
     0
176
     1
 40
1.0
176
     1
 40
1.0
176
     1
  0
VISUALSTYLE
  5
2E
102
{ACAD_REACTORS
330
2A
102
}
330
2A
100
AcDbVisualStyle
  2
GouraudWithEdges
 70
     3
177
     3
291
     1
 70
    58
 90
        2
176
     1
 90
        2
176
     1
 90
        1
176
     1
 90
        2
176
     1
 40
0.6
176
     1
 40
30.0
176
     1
 62
     7
420
 16777215
176
     1
 90
        1
176
     1
 90
        0
176
     1
 62
     7
176
     1
 62
   257
176
     1
 90
        1
176
     1
 90
        1
176
     1
 40
1.0
176
     1
 90
        0
176
     1
 62
   257
176
     1
 40
1.0
176
     1
 90
        1
176
     1
 90
        6
176
     1
 90
        2
176
     1
 62
     7
176
     1
 90
        5
176
     1
 90
        0
176
     1
 90
        0
176
     1
290
     0
176
     1
 90
       13
176
     1
 40
0.0
176
     1
 90
        0
176
     1
290
     0
176
     1
290
     1
176
     1
290
     1
176
     1
290
     0
176
     1
290
     0
176
     1
290
     0
176
     1
290
     0
176
     1
290
     0
176
     1
290
     0
176
     1
 90
       50
176
     1
 40
0.0
176
     1
 40
1.0
176
     1
 90
        0
176
     1
 62
    18
420
        0
176
     1
 90
       50
176
     1
 90
        3
176
     1
 62
     5
420
      255
176
     1
290
     0
176
     1
 90
       50
176
     1
 90
       50
176
     1
 90
       50
176
     1
290
     0
176
     1
 90
       50
176
     1
 62
   256
176
     0
 40
1.0
176
     0
 90
        2
176
     1
  1
strokes_ogs.tif
176
     1
290
     0
176
     1
 40
1.0
176
     1
 40
1.0
176
     1
  0
VISUALSTYLE
  5
31
102
{ACAD_REACTORS
330
2A
102
}
330
2A
100
AcDbVisualStyle
  2
Hidden
 70
     6
177
     3
291
     0
 70
    58
 90
        1
176
     1
 90
        2
176
     1
 90
        2
176
     1
 90
        0
176
     1
 40
0.6
176
     1
 40
30.0
176
     1
 62
     7
420
 16777215
176
     1
 90
        2
176
     1
 90
        2
176
     1
 62
     7
176
     1
 62
   257
176
     1
 90
        2
176
     1
 90
        1
176
     1
 40
40.0
176
     1
 90
        0
176
     1
 62
   257
176
     1
 40
1.0
176
     1
 90
        1
176
     1
 90
        6
176
     1
 90
        2
176
     1
 62
     7
176
     1
 90
        3
176
     1
 90
        0
176
     1
 90
        0
176
     1
290
     0
176
     1
 90
        1
176
     1
 40
0.0
176
     1
 90
        0
176
     1
290
     0
176
     1
290
     1
176
     1
290
     1
176
     1
290
     0
176
     1
290
     0
176
     1
290
     0
176
     1
290
     0
176
     1
290
     0
176
     1
290
     0
176
     1
 90
       50
176
     1
 40
0.0
176
     1
 40
1.0
176
     1
 90
        0
176
     1
 62
    18
420
        0
176
     1
 90
       50
176
     1
 90
        3
176
     1
 62
     5
420
      255
176
     1
290
     0
176
     1
 90
       50
176
     1
 90
       50
176
     1
 90
       50
176
     1
290
     0
176
     1
 90
       50
176
     1
 62
   256
176
     0
 40
1.0
176
     0
 90
        2
176
     1
  1
strokes_ogs.tif
176
     1
290
     0
176
     1
 40
1.0
176
     1
 40
1.0
176
     1
  0
VISUALSTYLE
  5
3B
102
{ACAD_REACTORS
330
2A
102
}
330
2A
100
AcDbVisualStyle
  2
JitterOff
 70
    20
177
     3
291
     1
 70
    58
 90
        2
176
     0
 90
        2
176
     0
 90
        0
176
     0
 90
        0
176
     0
 40
0.6
176
     0
 40
30.0
176
     0
 62
     7
420
 16777215
176
     0
 90
        1
176
     0
 90
        4
176
     0
 62
     7
176
     0
 62
   257
176
     0
 90
        1
176
     0
 90
        1
176
     0
 40
1.0
176
     0
 90
       10
176
     2
 62
     7
176
     0
 40
1.0
176
     0
 90
        1
176
     0
 90
        6
176
     0
 90
        2
176
     0
 62
     7
176
     0
 90
        5
176
     0
 90
        0
176
     0
 90
        0
176
     0
290
     0
176
     0
 90
        1
176
     0
 40
0.0
176
     0
 90
        0
176
     0
290
     0
176
     0
290
     1
176
     0
290
     1
176
     0
290
     0
176
     0
290
     0
176
     0
290
     0
176
     0
290
     0
176
     0
290
     0
176
     0
290
     0
176
     0
 90
       50
176
     0
 40
0.0
176
     0
 40
1.0
176
     0
 90
        0
176
     0
 62
    18
420
        0
176
     0
 90
       50
176
     0
 90
        3
176
     0
 62
     5
420
      255
176
     0
290
     0
176
     0
 90
       50
176
     0
 90
       50
176
     0
 90
       50
176
     0
290
     0
176
     0
 90
       50
176
     0
 62
   256
176
     0
 40
1.0
176
     0
 90
        2
176
     0
  1
strokes_ogs.tif
176
     0
290
     0
176
     0
 40
1.0
176
     0
 40
1.0
176
     0
  0
VISUALSTYLE
  5
38
102
{ACAD_REACTORS
330
2A
102
}
330
2A
100
AcDbVisualStyle
  2
Linepattern
 70
    14
177
     3
291
     1
 70
    58
 90
        2
176
     1
 90
        2
176
     1
 90
        0
176
     1
 90
        0
176
     1
 40
0.6
176
     1
 40
30.0
176
     1
 62
     7
420
 16777215
176
     1
 90
        1
176
     1
 90
        4
176
     1
 62
     7
176
     1
 62
   257
176
     1
 90
        7
176
     1
 90
        7
176
     1
 40
1.0
176
     1
 90
        8
176
     1
 62
     7
176
     1
 40
1.0
176
     1
 90
        1
176
     1
 90
        6
176
     1
 90
        2
176
     1
 62
     7
176
     1
 90
        5
176
     1
 90
        0
176
     1
 90
        0
176
     1
290
     0
176
     1
 90
        1
176
     1
 40
0.0
176
     1
 90
        0
176
     1
290
     0
176
     1
290
     1
176
     1
290
     1
176
     1
290
     0
176
     1
290
     0
176
     1
290
     0
176
     1
290
     0
176
     1
290
     0
176
     1
290
     0
176
     1
 90
       50
176
     1
 40
0.0
176
     1
 40
1.0
176
     1
 90
        0
176
     1
 62
    18
420
        0
176
     1
 90
       50
176
     1
 90
        3
176
     1
 62
     5
420
      255
176
     1
290
     0
176
     1
 90
       50
176
     1
 90
       50
176
     1
 90
       50
176
     1
290
     0
176
     1
 90
       50
176
     1
 62
   256
176
     0
 40
1.0
176
     0
 90
        2
176
     1
  1
strokes_ogs.tif
176
     1
290
     0
176
     1
 40
1.0
176
     1
 40
1.0
176
     1
  0
VISUALSTYLE
  5
3C
102
{ACAD_REACTORS
330
2A
102
}
330
2A
100
AcDbVisualStyle
  2
OverhangOff
 70
    21
177
     3
291
     1
 70
    58
 90
        2
176
     0
 90
        2
176
     0
 90
        0
176
     0
 90
        0
176
     0
 40
0.6
176
     0
 40
30.0
176
     0
 62
     7
420
 16777215
176
     0
 90
        1
176
     0
 90
        4
176
     0
 62
     7
176
     0
 62
   257
176
     0
 90
        1
176
     0
 90
        1
176
     0
 40
1.0
176
     0
 90
        9
176
     2
 62
     7
176
     0
 40
1.0
176
     0
 90
        1
176
     0
 90
        6
176
     0
 90
        2
176
     0
 62
     7
176
     0
 90
        5
176
     0
 90
        0
176
     0
 90
        0
176
     0
290
     0
176
     0
 90
        1
176
     0
 40
0.0
176
     0
 90
        0
176
     0
290
     0
176
     0
290
     1
176
     0
290
     1
176
     0
290
     0
176
     0
290
     0
176
     0
290
     0
176
     0
290
     0
176
     0
290
     0
176
     0
290
     0
176
     0
 90
       50
176
     0
 40
0.0
176
     0
 40
1.0
176
     0
 90
        0
176
     0
 62
    18
420
        0
176
     0
 90
       50
176
     0
 90
        3
176
     0
 62
     5
420
      255
176
     0
290
     0
176
     0
 90
       50
176
     0
 90
       50
176
     0
 90
       50
176
     0
290
     0
176
     0
 90
       50
176
     0
 62
   256
176
     0
 40
1.0
176
     0
 90
        2
176
     0
  1
strokes_ogs.tif
176
     0
290
     0
176
     0
 40
1.0
176
     0
 40
1.0
176
     0
  0
VISUALSTYLE
  5
33
102
{ACAD_REACTORS
330
2A
102
}
330
2A
100
AcDbVisualStyle
  2
Realistic
 70
     8
177
     3
291
     0
 70
    58
 90
        2
176
     1
 90
        3
176
     1
 90
        0
176
     1
 90
        2
176
     1
 40
0.6
176
     1
 40
30.0
176
     1
 62
     7
420
 16777215
176
     1
 90
        0
176
     1
 90
        0
176
     1
 62
     7
176
     1
 62
   257
176
     1
 90
        1
176
     1
 90
        1
176
     1
 40
1.0
176
     1
 90
        8
176
     1
 62
   257
176
     1
 40
1.0
176
     1
 90
        1
176
     1
 90
        6
176
     1
 90
        2
176
     1
 62
     7
176
     1
 90
        3
176
     1
 90
        0
176
     1
 90
        0
176
     1
290
     0
176
     1
 90
       13
176
     1
 40
0.0
176
     1
 90
        0
176
     1
290
     0
176
     1
290
     1
176
     1
290
     1
176
     1
290
     0
176
     1
290
     0
176
     1
290
     0
176
     1
290
     0
176
     1
290
     0
176
     1
290
     0
176
     1
 90
       50
176
     1
 40
0.0
176
     1
 40
1.0
176
     1
 90
        0
176
     1
 62
    18
420
        0
176
     1
 90
       50
176
     1
 90
        3
176
     1
 62
     5
420
      255
176
     1
290
     0
176
     1
 90
       50
176
     1
 90
       50
176
     1
 90
       50
176
     1
290
     0
176
     1
 90
       50
176
     1
 62
   256
176
     0
 40
1.0
176
     0
 90
        2
176
     1
  1
strokes_ogs.tif
176
     1
290
     0
176
     1
 40
1.0
176
     1
 40
1.0
176
     1
  0
VISUALSTYLE
  5
42
102
{ACAD_REACTORS
330
2A
102
}
330
2A
100
AcDbVisualStyle
  2
Shaded
 70
    27
177
     3
291
     0
 70
    58
 90
        2
176
     1
 90
        2
176
     1
 90
        1
176
     1
 90
        2
176
     1
 40
0.6
176
     1
 40
30.0
176
     1
 62
     7
420
 16777215
176
     1
 90
        0
176
     1
 90
        4
176
     1
 62
     7
176
     1
 62
   257
176
     1
 90
        1
176
     1
 90
        1
176
     1
 40
1.0
176
     1
 90
        8
176
     1
 62
   257
176
     1
 40
1.0
176
     1
 90
        1
176
     1
 90
        6
176
     1
 90
        2
176
     1
 62
     8
420
  7895160
176
     1
 90
        3
176
     1
 90
        0
176
     1
 90
        0
176
     1
290
     0
176
     1
 90
        5
176
     1
 40
0.0
176
     1
 90
        0
176
     1
290
     0
176
     1
290
     1
176
     1
290
     1
176
     1
290
     0
176
     1
290
     0
176
     1
290
     0
176
     1
290
     0
176
     1
290
     0
176
     1
290
     0
176
     1
 90
       50
176
     1
 40
0.0
176
     1
 40
1.0
176
     1
 90
        0
176
     1
 62
    18
420
        0
176
     1
 90
       50
176
     1
 90
        3
176
     1
 62
     5
420
      255
176
     1
290
     0
176
     1
 90
       50
176
     1
 90
       50
176
     1
 90
       50
176
     1
290
     0
176
     1
 90
       50
176
     1
 62
   256
176
     0
 40
1.0
176
     0
 90
        2
176
     1
  1
strokes_ogs.tif
176
     1
290
     0
176
     1
 40
1.0
176
     1
 40
1.0
176
     1
  0
VISUALSTYLE
  5
41
102
{ACAD_REACTORS
330
2A
102
}
330
2A
100
AcDbVisualStyle
  2
Shaded with edges
 70
    26
177
     3
291
     0
 70
    58
 90
        2
176
     1
 90
        2
176
     1
 90
        1
176
     1
 90
        2
176
     1
 40
0.6
176
     1
 40
30.0
176
     1
 62
     7
420
 16777215
176
     1
 90
        1
176
     1
 90
       10
176
     1
 62
     7
176
     1
 62
   257
176
     1
 90
        2
176
     1
 90
        1
176
     1
 40
1.0
176
     1
 90
        8
176
     1
 62
   257
176
     1
 40
1.0
176
     1
 90
        1
176
     1
 90
        6
176
     1
 90
        2
176
     1
 62
     7
176
     1
 90
        3
176
     1
 90
        0
176
     1
 90
        0
176
     1
290
     0
176
     1
 90
        5
176
     1
 40
0.0
176
     1
 90
        0
176
     1
290
     0
176
     1
290
     1
176
     1
290
     1
176
     1
290
     0
176
     1
290
     0
176
     1
290
     0
176
     1
290
     0
176
     1
290
     0
176
     1
290
     0
176
     1
 90
       50
176
     1
 40
0.0
176
     1
 40
1.0
176
     1
 90
        0
176
     1
 62
    18
420
        0
176
     1
 90
       50
176
     1
 90
        3
176
     1
 62
     5
420
      255
176
     1
290
     0
176
     1
 90
       50
176
     1
 90
       50
176
     1
 90
       50
176
     1
290
     0
176
     1
 90
       50
176
     1
 62
   256
176
     0
 40
1.0
176
     0
 90
        2
176
     1
  1
strokes_ogs.tif
176
     1
290
     0
176
     1
 40
1.0
176
     1
 40
1.0
176
     1
  0
VISUALSTYLE
  5
3E
102
{ACAD_REACTORS
330
2A
102
}
330
2A
100
AcDbVisualStyle
  2
Shades of Gray
 70
    23
177
     3
291
     0
 70
    58
 90
        2
176
     1
 90
        2
176
     1
 90
        3
176
     1
 90
        0
176
     1
 40
0.6
176
     1
 40
30.0
176
     1
 62
     7
420
 16777215
176
     1
 90
        2
176
     1
 90
        2
176
     1
 62
     7
176
     1
 62
     7
176
     1
 90
        1
176
     1
 90
        1
176
     1
 40
40.0
176
     1
 90
        8
176
     1
 62
     7
176
     1
 40
1.0
176
     1
 90
        1
176
     1
 90
        6
176
     1
 90
        2
176
     1
 62
     7
176
     1
 90
        3
176
     1
 90
        0
176
     1
 90
        0
176
     1
290
     0
176
     1
 90
        1
176
     1
 40
0.0
176
     1
 90
        0
176
     1
290
     0
176
     1
290
     1
176
     1
290
     1
176
     1
290
     0
176
     1
290
     0
176
     1
290
     0
176
     1
290
     0
176
     1
290
     0
176
     1
290
     0
176
     1
 90
       50
176
     1
 40
0.0
176
     1
 40
1.0
176
     1
 90
        0
176
     1
 62
    18
420
        0
176
     1
 90
       50
176
     1
 90
        3
176
     1
 62
     5
420
      255
176
     1
290
     0
176
     1
 90
       50
176
     1
 90
       50
176
     1
 90
       50
176
     1
290
     0
176
     1
 90
       50
176
     1
 62
   256
176
     0
 40
1.0
176
     0
 90
        2
176
     1
  1
strokes_ogs.tif
176
     1
290
     0
176
     1
 40
1.0
176
     1
 40
1.0
176
     1
  0
VISUALSTYLE
  5
3F
102
{ACAD_REACTORS
330
2A
102
}
330
2A
100
AcDbVisualStyle
  2
Sketchy
 70
    24
177
     3
291
     0
 70
    58
 90
        1
176
     1
 90
        2
176
     1
 90
        2
176
     1
 90
        0
176
     1
 40
0.6
176
     1
 40
30.0
176
     1
 62
     7
420
 16777215
176
     1
 90
        2
176
     1
 90
        2
176
     1
 62
     7
176
     1
 62
     7
176
     1
 90
        1
176
     1
 90
        1
176
     1
 40
40.0
176
     1
 90
       11
176
     1
 62
     7
176
     1
 40
1.0
176
     1
 90
        1
176
     1
 90
        6
176
     1
 90
        2
176
     1
 62
     7
176
     1
 90
        6
176
     1
 90
        0
176
     1
 90
        0
176
     1
290
     0
176
     1
 90
        1
176
     1
 40
0.0
176
     1
 90
        0
176
     1
290
     0
176
     1
290
     1
176
     1
290
     1
176
     1
290
     0
176
     1
290
     0
176
     1
290
     0
176
     1
290
     0
176
     1
290
     0
176
     1
290
     0
176
     1
 90
       50
176
     1
 40
0.0
176
     1
 40
1.0
176
     1
 90
        0
176
     1
 62
    18
420
        0
176
     1
 90
       50
176
     1
 90
        3
176
     1
 62
     5
420
      255
176
     1
290
     0
176
     1
 90
       50
176
     1
 90
       50
176
     1
 90
       50
176
     1
290
     0
176
     1
 90
       50
176
     1
 62
   256
176
     0
 40
1.0
176
     0
 90
        2
176
     1
  1
strokes_ogs.tif
176
     1
290
     0
176
     1
 40
1.0
176
     1
 40
1.0
176
     1
  0
VISUALSTYLE
  5
37
102
{ACAD_REACTORS
330
2A
102
}
330
2A
100
AcDbVisualStyle
  2
Thicken
 70
    13
177
     3
291
     1
 70
    58
 90
        2
176
     1
 90
        2
176
     1
 90
        0
176
     1
 90
        0
176
     1
 40
0.6
176
     1
 40
30.0
176
     1
 62
     7
420
 16777215
176
     1
 90
        1
176
     1
 90
        4
176
     1
 62
     7
176
     1
 62
   257
176
     1
 90
        1
176
     1
 90
        1
176
     1
 40
1.0
176
     1
 90
       12
176
     1
 62
     7
176
     1
 40
1.0
176
     1
 90
        1
176
     1
 90
        6
176
     1
 90
        2
176
     1
 62
     7
176
     1
 90
        5
176
     1
 90
        0
176
     1
 90
        0
176
     1
290
     0
176
     1
 90
        1
176
     1
 40
0.0
176
     1
 90
        0
176
     1
290
     0
176
     1
290
     1
176
     1
290
     1
176
     1
290
     0
176
     1
290
     0
176
     1
290
     0
176
     1
290
     0
176
     1
290
     0
176
     1
290
     0
176
     1
 90
       50
176
     1
 40
0.0
176
     1
 40
1.0
176
     1
 90
        0
176
     1
 62
    18
420
        0
176
     1
 90
       50
176
     1
 90
        3
176
     1
 62
     5
420
      255
176
     1
290
     0
176
     1
 90
       50
176
     1
 90
       50
176
     1
 90
       50
176
     1
290
     0
176
     1
 90
       50
176
     1
 62
   256
176
     0
 40
1.0
176
     0
 90
        2
176
     1
  1
strokes_ogs.tif
176
     1
290
     0
176
     1
 40
1.0
176
     1
 40
1.0
176
     1
  0
VISUALSTYLE
  5
30
102
{ACAD_REACTORS
330
2A
102
}
330
2A
100
AcDbVisualStyle
  2
Wireframe
 70
     5
177
     3
291
     0
 70
    58
 90
        0
176
     1
 90
        2
176
     1
 90
        0
176
     1
 90
        0
176
     1
 40
0.6
176
     1
 40
30.0
176
     1
 62
     7
420
 16777215
176
     1
 90
        1
176
     1
 90
        4
176
     1
 62
     7
176
     1
 62
   257
176
     1
 90
        1
176
     1
 90
        1
176
     1
 40
1.0
176
     1
 90
        0
176
     1
 62
   257
176
     1
 40
1.0
176
     1
 90
        1
176
     1
 90
        6
176
     1
 90
        2
176
     1
 62
     7
176
     1
 90
        3
176
     1
 90
        0
176
     1
 90
        0
176
     1
290
     0
176
     1
 90
        1
176
     1
 40
0.0
176
     1
 90
        0
176
     1
290
     0
176
     1
290
     1
176
     1
290
     1
176
     1
290
     0
176
     1
290
     0
176
     1
290
     0
176
     1
290
     0
176
     1
290
     0
176
     1
290
     0
176
     1
 90
       50
176
     1
 40
0.0
176
     1
 40
1.0
176
     1
 90
        0
176
     1
 62
    18
420
        0
176
     1
 90
       50
176
     1
 90
        3
176
     1
 62
     5
420
      255
176
     1
290
     0
176
     1
 90
       50
176
     1
 90
       50
176
     1
 90
       50
176
     1
290
     0
176
     1
 90
       50
176
     1
 62
   256
176
     0
 40
1.0
176
     0
 90
        2
176
     1
  1
strokes_ogs.tif
176
     1
290
     0
176
     1
 40
1.0
176
     1
 40
1.0
176
     1
  0
VISUALSTYLE
  5
40
102
{ACAD_REACTORS
330
2A
102
}
330
2A
100
AcDbVisualStyle
  2
X-Ray
 70
    25
177
     3
291
     0
 70
    58
 90
        2
176
     1
 90
        2
176
     1
 90
        1
176
     1
 90
        1
176
     1
 40
0.5
176
     1
 40
30.0
176
     1
 62
     7
420
 16777215
176
     1
 90
        1
176
     1
 90
        0
176
     1
 62
     7
176
     1
 62
   257
176
     1
 90
        1
176
     1
 90
        1
176
     1
 40
1.0
176
     1
 90
        8
176
     1
 62
     7
176
     1
 40
1.0
176
     1
 90
        1
176
     1
 90
        6
176
     1
 90
        2
176
     1
 62
     7
176
     1
 90
        3
176
     1
 90
        0
176
     1
 90
        0
176
     1
290
     0
176
     1
 90
       13
176
     1
 40
0.0
176
     1
 90
        0
176
     1
290
     0
176
     1
290
     1
176
     1
290
     1
176
     1
290
     0
176
     1
290
     0
176
     1
290
     0
176
     1
290
     0
176
     1
290
     0
176
     1
290
     0
176
     1
 90
       50
176
     1
 40
0.0
176
     1
 40
1.0
176
     1
 90
        0
176
     1
 62
    18
420
        0
176
     1
 90
       50
176
     1
 90
        3
176
     1
 62
     5
420
      255
176
     1
290
     0
176
     1
 90
       50
176
     1
 90
       50
176
     1
 90
       50
176
     1
290
     0
176
     1
 90
       50
176
     1
 62
   256
176
     0
 40
1.0
176
     0
 90
        2
176
     1
  1
strokes_ogs.tif
176
     1
290
     0
176
     1
 40
1.0
176
     1
 40
1.0
176
     1
  0
DICTIONARYVAR
  5
1D1
102
{ACAD_REACTORS
330
1D0
102
}
330
1D0
100
DictionaryVariables
280
     0
  1
1:1
  0
DICTIONARYVAR
  5
1D6
102
{ACAD_REACTORS
330
1D0
102
}
330
1D0
100
DictionaryVariables
280
     0
  1
Standard
  0
DICTIONARYVAR
  5
1D5
102
{ACAD_REACTORS
330
1D0
102
}
330
1D0
100
DictionaryVariables
280
     0
  1
Standard
  0
DICTIONARY
  5
1D2
330
6A
100
AcDbDictionary
280
     1
281
     1
  3
ACAD_ROUNDTRIP_2008_TABLESTYLE_CELLSTYLEMAP
360
1D3
  0
CELLSTYLEMAP
  5
1D3
102
{ACAD_REACTORS
330
1D2
102
}
330
1D2
100
AcDbCellStyleMap
 90
        3
300
CELLSTYLE
  1
TABLEFORMAT_BEGIN
 90
        5
170
     1
 91
        0
 92
    32768
 62
   257
 93
        1
300
CONTENTFORMAT
  1
CONTENTFORMAT_BEGIN
 90
        0
 91
        0
 92
        4
 93
        0
300

 40
0.0
140
1.0
 94
        5
 62
     0
340
11
144
0.25
309
CONTENTFORMAT_END
171
     1
301
MARGIN
  1
CELLMARGIN_BEGIN
 40
0.06
 40
0.06
 40
0.06
 40
0.06
 40
0.06
 40
0.06
309
CELLMARGIN_END
 94
        6
 95
        1
302
GRIDFORMAT
  1
GRIDFORMAT_BEGIN
 90
        0
 91
        1
 62
     0
 92
       -2
340
14
 93
        0
 40
0.045
309
GRIDFORMAT_END
 95
        2
302
GRIDFORMAT
  1
GRIDFORMAT_BEGIN
 90
        0
 91
        1
 62
     0
 92
       -2
340
14
 93
        0
 40
0.045
309
GRIDFORMAT_END
 95
        4
302
GRIDFORMAT
  1
GRIDFORMAT_BEGIN
 90
        0
 91
        1
 62
     0
 92
       -2
340
14
 93
        0
 40
0.045
309
GRIDFORMAT_END
 95
        8
302
GRIDFORMAT
  1
GRIDFORMAT_BEGIN
 90
        0
 91
        1
 62
     0
 92
       -2
340
14
 93
        0
 40
0.045
309
GRIDFORMAT_END
 95
       16
302
GRIDFORMAT
  1
GRIDFORMAT_BEGIN
 90
        0
 91
        1
 62
     0
 92
       -2
340
14
 93
        0
 40
0.045
309
GRIDFORMAT_END
 95
       32
302
GRIDFORMAT
  1
GRIDFORMAT_BEGIN
 90
        0
 91
        1
 62
     0
 92
       -2
340
14
 93
        0
 40
0.045
309
GRIDFORMAT_END
309
TABLEFORMAT_END
  1
CELLSTYLE_BEGIN
 90
        1
 91
        1
300
_TITLE
309
CELLSTYLE_END
300
CELLSTYLE
  1
TABLEFORMAT_BEGIN
 90
        5
170
     1
 91
        0
 92
        0
 62
   257
 93
        1
300
CONTENTFORMAT
  1
CONTENTFORMAT_BEGIN
 90
        0
 91
        0
 92
        4
 93
        0
300

 40
0.0
140
1.0
 94
        5
 62
     0
340
11
144
0.18
309
CONTENTFORMAT_END
171
     1
301
MARGIN
  1
CELLMARGIN_BEGIN
 40
0.06
 40
0.06
 40
0.06
 40
0.06
 40
0.06
 40
0.06
309
CELLMARGIN_END
 94
        6
 95
        1
302
GRIDFORMAT
  1
GRIDFORMAT_BEGIN
 90
        0
 91
        1
 62
     0
 92
       -2
340
14
 93
        0
 40
0.045
309
GRIDFORMAT_END
 95
        2
302
GRIDFORMAT
  1
GRIDFORMAT_BEGIN
 90
        0
 91
        1
 62
     0
 92
       -2
340
14
 93
        0
 40
0.045
309
GRIDFORMAT_END
 95
        4
302
GRIDFORMAT
  1
GRIDFORMAT_BEGIN
 90
        0
 91
        1
 62
     0
 92
       -2
340
14
 93
        0
 40
0.045
309
GRIDFORMAT_END
 95
        8
302
GRIDFORMAT
  1
GRIDFORMAT_BEGIN
 90
        0
 91
        1
 62
     0
 92
       -2
340
14
 93
        0
 40
0.045
309
GRIDFORMAT_END
 95
       16
302
GRIDFORMAT
  1
GRIDFORMAT_BEGIN
 90
        0
 91
        1
 62
     0
 92
       -2
340
14
 93
        0
 40
0.045
309
GRIDFORMAT_END
 95
       32
302
GRIDFORMAT
  1
GRIDFORMAT_BEGIN
 90
        0
 91
        1
 62
     0
 92
       -2
340
14
 93
        0
 40
0.045
309
GRIDFORMAT_END
309
TABLEFORMAT_END
  1
CELLSTYLE_BEGIN
 90
        2
 91
        1
300
_HEADER
309
CELLSTYLE_END
300
CELLSTYLE
  1
TABLEFORMAT_BEGIN
 90
        5
170
     1
 91
        0
 92
        0
 62
   257
 93
        1
300
CONTENTFORMAT
  1
CONTENTFORMAT_BEGIN
 90
        0
 91
        0
 92
        4
 93
        0
300

 40
0.0
140
1.0
 94
        2
 62
     0
340
11
144
0.18
309
CONTENTFORMAT_END
171
     1
301
MARGIN
  1
CELLMARGIN_BEGIN
 40
0.06
 40
0.06
 40
0.06
 40
0.06
 40
0.06
 40
0.06
309
CELLMARGIN_END
 94
        6
 95
        1
302
GRIDFORMAT
  1
GRIDFORMAT_BEGIN
 90
        0
 91
        1
 62
     0
 92
       -2
340
14
 93
        0
 40
0.045
309
GRIDFORMAT_END
 95
        2
302
GRIDFORMAT
  1
GRIDFORMAT_BEGIN
 90
        0
 91
        1
 62
     0
 92
       -2
340
14
 93
        0
 40
0.045
309
GRIDFORMAT_END
 95
        4
302
GRIDFORMAT
  1
GRIDFORMAT_BEGIN
 90
        0
 91
        1
 62
     0
 92
       -2
340
14
 93
        0
 40
0.045
309
GRIDFORMAT_END
 95
        8
302
GRIDFORMAT
  1
GRIDFORMAT_BEGIN
 90
        0
 91
        1
 62
     0
 92
       -2
340
14
 93
        0
 40
0.045
309
GRIDFORMAT_END
 95
       16
302
GRIDFORMAT
  1
GRIDFORMAT_BEGIN
 90
        0
 91
        1
 62
     0
 92
       -2
340
14
 93
        0
 40
0.045
309
GRIDFORMAT_END
 95
       32
302
GRIDFORMAT
  1
GRIDFORMAT_BEGIN
 90
        0
 91
        1
 62
     0
 92
       -2
340
14
 93
        0
 40
0.045
309
GRIDFORMAT_END
309
TABLEFORMAT_END
  1
CELLSTYLE_BEGIN
 90
        3
 91
        2
300
_DATA
309
CELLSTYLE_END
  0
ENDSEC
  0
EOF