0
SECTION
  2
HEADER
  9
$ACADVER
  1
AC1027
  9
$ACADMAINTVER
 70
     8
  9
$DWGCODEPAGE
  3
ANSI_1252
  9
$REQUIREDVERSIONS
160
                 0
  9
$COMMENTS
  1
File was created by Cadenas
  9
$CUSTOMPROPERTYTAG
  1
NN
  9
$CUSTOMPROPERTY
  1
Set Screw Two-Bolt Pillow Block Inch Bore - Stainless Housing, Corrosion Resistant Insert
  9
$CUSTOMPROPERTYTAG
  1
NT
  9
$CUSTOMPROPERTY
  1
SC Pillow Block Bearings -(Normal Duty) -Corrosion Resistant Insert -E-Z KLEEN
  9
$CUSTOMPROPERTYTAG
  1
NB
  9
$CUSTOMPROPERTY
  1
067839
  9
$CUSTOMPROPERTYTAG
  1
NBSYN
  9
$CUSTOMPROPERTY
  1
$PN.
  9
$CUSTOMPROPERTYTAG
  1
LINA
  9
$CUSTOMPROPERTY
  1
067839
  9
$CUSTOMPROPERTYTAG
  1
SERIES
  9
$CUSTOMPROPERTY
  1
205
  9
$CUSTOMPROPERTYTAG
  1
SS
  9
$CUSTOMPROPERTY
  1
15/16
  9
$CUSTOMPROPERTYTAG
  1
PN
  9
$CUSTOMPROPERTY
  1
067839
  9
$CUSTOMPROPERTYTAG
  1
DESCRIPTION
  9
$CUSTOMPROPERTY
  1
P2B-SCEZ-015-SHCR
  9
$CUSTOMPROPERTYTAG
  1
WEIGHT
  9
$CUSTOMPROPERTY
  1
1.62
  9
$CUSTOMPROPERTYTAG
  1
A
  9
$CUSTOMPROPERTY
  1
1.34
  9
$CUSTOMPROPERTYTAG
  1
B
  9
$CUSTOMPROPERTY
  1
5.50
  9
$CUSTOMPROPERTYTAG
  1
C
  9
$CUSTOMPROPERTY
  1
1.12
  9
$CUSTOMPROPERTYTAG
  1
DMIN
  9
$CUSTOMPROPERTY
  1
3.68
  9
$CUSTOMPROPERTYTAG
  1
DMAX
  9
$CUSTOMPROPERTY
  1
4.50
  9
$CUSTOMPROPERTYTAG
  1
F
  9
$CUSTOMPROPERTY
  1
3/8
  9
$CUSTOMPROPERTYTAG
  1
G
  9
$CUSTOMPROPERTY
  1
0.85
  9
$CUSTOMPROPERTYTAG
  1
H
  9
$CUSTOMPROPERTY
  1
0.53
  9
$CUSTOMPROPERTYTAG
  1
J
  9
$CUSTOMPROPERTY
  1
2.71
  9
$CUSTOMPROPERTYTAG
  1
L
  9
$CUSTOMPROPERTY
  1
1.32
  9
$CUSTOMPROPERTYTAG
  1
M
  9
$CUSTOMPROPERTY
  1
1.44
  9
$CUSTOMPROPERTYTAG
  1
R
  9
$CUSTOMPROPERTY
  1
0.56
  9
$CUSTOMPROPERTYTAG
  1
S
  9
$CUSTOMPROPERTY
  1
0.78
  9
$CUSTOMPROPERTYTAG
  1
COMPANY
  9
$CUSTOMPROPERTY
  1
baldor
  9
$INSBASE
 10
0.0
 20
0.0
 30
0.0
  9
$EXTMIN
 10
1.000000000000000E+20
 20
1.000000000000000E+20
 30
1.000000000000000E+20
  9
$EXTMAX
 10
-1.000000000000000E+20
 20
-1.000000000000000E+20
 30
-1.000000000000000E+20
  9
$LIMMIN
 10
0.0
 20
0.0
  9
$LIMMAX
 10
12.0
 20
9.0
  9
$ORTHOMODE
 70
     0
  9
$REGENMODE
 70
     1
  9
$FILLMODE
 70
     1
  9
$QTEXTMODE
 70
     0
  9
$MIRRTEXT
 70
     1
  9
$LTSCALE
 40
1.0
  9
$ATTMODE
 70
     1
  9
$TEXTSIZE
 40
0.2
  9
$TRACEWID
 40
0.05
  9
$TEXTSTYLE
  7
Standard
  9
$CLAYER
  8
0
  9
$CELTYPE
  6
ByLayer
  9
$CECOLOR
 62
   256
  9
$CELTSCALE
 40
1.0
  9
$DISPSILH
 70
     0
  9
$DIMSCALE
 40
1.0
  9
$DIMASZ
 40
0.18
  9
$DIMEXO
 40
0.0625
  9
$DIMDLI
 40
0.38
  9
$DIMRND
 40
0.0
  9
$DIMDLE
 40
0.0
  9
$DIMEXE
 40
0.18
  9
$DIMTP
 40
0.0
  9
$DIMTM
 40
0.0
  9
$DIMTXT
 40
0.18
  9
$DIMCEN
 40
0.09
  9
$DIMTSZ
 40
0.0
  9
$DIMTOL
 70
     0
  9
$DIMLIM
 70
     0
  9
$DIMTIH
 70
     1
  9
$DIMTOH
 70
     1
  9
$DIMSE1
 70
     0
  9
$DIMSE2
 70
     0
  9
$DIMTAD
 70
     0
  9
$DIMZIN
 70
     0
  9
$DIMBLK
  1

  9
$DIMASO
 70
     1
  9
$DIMSHO
 70
     1
  9
$DIMPOST
  1

  9
$DIMAPOST
  1

  9
$DIMALT
 70
     0
  9
$DIMALTD
 70
     2
  9
$DIMALTF
 40
25.4
  9
$DIMLFAC
 40
1.0
  9
$DIMTOFL
 70
     0
  9
$DIMTVP
 40
0.0
  9
$DIMTIX
 70
     0
  9
$DIMSOXD
 70
     0
  9
$DIMSAH
 70
     0
  9
$DIMBLK1
  1

  9
$DIMBLK2
  1

  9
$DIMSTYLE
  2
Standard
  9
$DIMCLRD
 70
     0
  9
$DIMCLRE
 70
     0
  9
$DIMCLRT
 70
     0
  9
$DIMTFAC
 40
1.0
  9
$DIMGAP
 40
0.09
  9
$DIMJUST
 70
     0
  9
$DIMSD1
 70
     0
  9
$DIMSD2
 70
     0
  9
$DIMTOLJ
 70
     1
  9
$DIMTZIN
 70
     0
  9
$DIMALTZ
 70
     0
  9
$DIMALTTZ
 70
     0
  9
$DIMUPT
 70
     0
  9
$DIMDEC
 70
     4
  9
$DIMTDEC
 70
     4
  9
$DIMALTU
 70
     2
  9
$DIMALTTD
 70
     2
  9
$DIMTXSTY
  7
Standard
  9
$DIMAUNIT
 70
     0
  9
$DIMADEC
 70
     0
  9
$DIMALTRND
 40
0.0
  9
$DIMAZIN
 70
     0
  9
$DIMDSEP
 70
    46
  9
$DIMATFIT
 70
     3
  9
$DIMFRAC
 70
     0
  9
$DIMLDRBLK
  1

  9
$DIMLUNIT
 70
     2
  9
$DIMLWD
 70
    -2
  9
$DIMLWE
 70
    -2
  9
$DIMTMOVE
 70
     0
  9
$DIMFXL
 40
1.0
  9
$DIMFXLON
 70
     0
  9
$DIMJOGANG
 40
0.7853981633974483
  9
$DIMTFILL
 70
     0
  9
$DIMTFILLCLR
 70
     0
  9
$DIMARCSYM
 70
     0
  9
$DIMLTYPE
  6

  9
$DIMLTEX1
  6

  9
$DIMLTEX2
  6

  9
$DIMTXTDIRECTION
 70
     0
  9
$LUNITS
 70
     2
  9
$LUPREC
 70
     4
  9
$SKETCHINC
 40
0.1
  9
$FILLETRAD
 40
0.5
  9
$AUNITS
 70
     0
  9
$AUPREC
 70
     0
  9
$MENU
  1
.
  9
$ELEVATION
 40
0.0
  9
$PELEVATION
 40
0.0
  9
$THICKNESS
 40
0.0
  9
$LIMCHECK
 70
     0
  9
$CHAMFERA
 40
0.0
  9
$CHAMFERB
 40
0.0
  9
$CHAMFERC
 40
0.0
  9
$CHAMFERD
 40
0.0
  9
$SKPOLY
 70
     0
  9
$TDCREATE
 40
2458168.996276262
  9
$TDUCREATE
 40
2458168.954609595
  9
$TDUPDATE
 40
2458168.996276262
  9
$TDUUPDATE
 40
2458168.954609595
  9
$TDINDWG
 40
0.0000000116
  9
$TDUSRTIMER
 40
0.0000000116
  9
$USRTIMER
 70
     1
  9
$ANGBASE
 50
0.0
  9
$ANGDIR
 70
     0
  9
$PDMODE
 70
     0
  9
$PDSIZE
 40
0.0
  9
$PLINEWID
 40
0.0
  9
$SPLFRAME
 70
     0
  9
$SPLINETYPE
 70
     6
  9
$SPLINESEGS
 70
     8
  9
$HANDSEED
  5
18A
  9
$SURFTAB1
 70
     6
  9
$SURFTAB2
 70
     6
  9
$SURFTYPE
 70
     6
  9
$SURFU
 70
     6
  9
$SURFV
 70
     6
  9
$UCSBASE
  2

  9
$UCSNAME
  2

  9
$UCSORG
 10
0.0
 20
0.0
 30
0.0
  9
$UCSXDIR
 10
1.0
 20
0.0
 30
0.0
  9
$UCSYDIR
 10
0.0
 20
1.0
 30
0.0
  9
$UCSORTHOREF
  2

  9
$UCSORTHOVIEW
 70
     0
  9
$UCSORGTOP
 10
0.0
 20
0.0
 30
0.0
  9
$UCSORGBOTTOM
 10
0.0
 20
0.0
 30
0.0
  9
$UCSORGLEFT
 10
0.0
 20
0.0
 30
0.0
  9
$UCSORGRIGHT
 10
0.0
 20
0.0
 30
0.0
  9
$UCSORGFRONT
 10
0.0
 20
0.0
 30
0.0
  9
$UCSORGBACK
 10
0.0
 20
0.0
 30
0.0
  9
$PUCSBASE
  2

  9
$PUCSNAME
  2

  9
$PUCSORG
 10
0.0
 20
0.0
 30
0.0
  9
$PUCSXDIR
 10
1.0
 20
0.0
 30
0.0
  9
$PUCSYDIR
 10
0.0
 20
1.0
 30
0.0
  9
$PUCSORTHOREF
  2

  9
$PUCSORTHOVIEW
 70
     0
  9
$PUCSORGTOP
 10
0.0
 20
0.0
 30
0.0
  9
$PUCSORGBOTTOM
 10
0.0
 20
0.0
 30
0.0
  9
$PUCSORGLEFT
 10
0.0
 20
0.0
 30
0.0
  9
$PUCSORGRIGHT
 10
0.0
 20
0.0
 30
0.0
  9
$PUCSORGFRONT
 10
0.0
 20
0.0
 30
0.0
  9
$PUCSORGBACK
 10
0.0
 20
0.0
 30
0.0
  9
$USERI1
 70
     0
  9
$USERI2
 70
     0
  9
$USERI3
 70
     0
  9
$USERI4
 70
     0
  9
$USERI5
 70
     0
  9
$USERR1
 40
0.0
  9
$USERR2
 40
0.0
  9
$USERR3
 40
0.0
  9
$USERR4
 40
0.0
  9
$USERR5
 40
0.0
  9
$WORLDVIEW
 70
     1
  9
$SHADEDGE
 70
     3
  9
$SHADEDIF
 70
    70
  9
$TILEMODE
 70
     1
  9
$MAXACTVP
 70
    64
  9
$PINSBASE
 10
0.0
 20
0.0
 30
0.0
  9
$PLIMCHECK
 70
     0
  9
$PEXTMIN
 10
1.000000000000000E+20
 20
1.000000000000000E+20
 30
1.000000000000000E+20
  9
$PEXTMAX
 10
-1.000000000000000E+20
 20
-1.000000000000000E+20
 30
-1.000000000000000E+20
  9
$PLIMMIN
 10
0.0
 20
0.0
  9
$PLIMMAX
 10
12.0
 20
9.0
  9
$UNITMODE
 70
     0
  9
$VISRETAIN
 70
     1
  9
$PLINEGEN
 70
     0
  9
$PSLTSCALE
 70
     1
  9
$TREEDEPTH
 70
  3020
  9
$CMLSTYLE
  2
Standard
  9
$CMLJUST
 70
     0
  9
$CMLSCALE
 40
1.0
  9
$PROXYGRAPHICS
 70
     1
  9
$MEASUREMENT
 70
     0
  9
$CELWEIGHT
370
    -1
  9
$ENDCAPS
280
     0
  9
$JOINSTYLE
280
     0
  9
$LWDISPLAY
290
     0
  9
$INSUNITS
 70
     1
  9
$HYPERLINKBASE
  1

  9
$STYLESHEET
  1

  9
$XEDIT
290
     1
  9
$CEPSNTYPE
380
     0
  9
$PSTYLEMODE
290
     1
  9
$FINGERPRINTGUID
  2
{4A202C46-1E92-42B2-BE20-77630BB7F598}
  9
$VERSIONGUID
  2
{FAEB1C32-E019-11D5-929B-00C0DF256EC4}
  9
$EXTNAMES
290
     1
  9
$PSVPSCALE
 40
0.0
  9
$OLESTARTUP
290
     0
  9
$SORTENTS
280
   127
  9
$INDEXCTL
280
     0
  9
$HIDETEXT
280
     1
  9
$XCLIPFRAME
280
     2
  9
$HALOGAP
280
     0
  9
$OBSCOLOR
 70
   257
  9
$OBSLTYPE
280
     0
  9
$INTERSECTIONDISPLAY
280
     0
  9
$INTERSECTIONCOLOR
 70
   257
  9
$DIMASSOC
280
     2
  9
$PROJECTNAME
  1

  9
$CAMERADISPLAY
290
     0
  9
$LENSLENGTH
 40
50.0
  9
$CAMERAHEIGHT
 40
0.0
  9
$STEPSPERSEC
 40
2.0
  9
$STEPSIZE
 40
6.0
  9
$3DDWFPREC
 40
2.0
  9
$PSOLWIDTH
 40
0.25
  9
$PSOLHEIGHT
 40
4.0
  9
$LOFTANG1
 40
1.570796326794897
  9
$LOFTANG2
 40
1.570796326794897
  9
$LOFTMAG1
 40
0.0
  9
$LOFTMAG2
 40
0.0
  9
$LOFTPARAM
 70
     7
  9
$LOFTNORMALS
280
     1
  9
$LATITUDE
 40
37.795
  9
$LONGITUDE
 40
-122.394
  9
$NORTHDIRECTION
 40
0.0
  9
$TIMEZONE
 70
 -8000
  9
$LIGHTGLYPHDISPLAY
280
     1
  9
$TILEMODELIGHTSYNCH
280
     1
  9
$CMATERIAL
347
44
  9
$SOLIDHIST
280
     0
  9
$SHOWHIST
280
     1
  9
$DWFFRAME
280
     2
  9
$DGNFRAME
280
     2
  9
$REALWORLDSCALE
290
     1
  9
$INTERFERECOLOR
 62
   256
  9
$CSHADOW
280
     0
  9
$SHADOWPLANELOCATION
 40
0.0
  0
ENDSEC
  0
SECTION
  2
CLASSES
  0
CLASS
  1
ACDBDICTIONARYWDFLT
  2
AcDbDictionaryWithDefault
  3
ObjectDBX Classes
 90
        0
 91
        4
280
     0
281
     0
  0
CLASS
  1
VISUALSTYLE
  2
AcDbVisualStyle
  3
ObjectDBX Classes
 90
     4095
 91
        4
280
     0
281
     0
  0
CLASS
  1
MATERIAL
  2
AcDbMaterial
  3
ObjectDBX Classes
 90
     1153
 91
        4
280
     0
281
     0
  0
CLASS
  1
SCALE
  2
AcDbScale
  3
ObjectDBX Classes
 90
     1153
 91
        4
280
     0
281
     0
  0
CLASS
  1
TABLESTYLE
  2
AcDbTableStyle
  3
ObjectDBX Classes
 90
     4095
 91
        4
280
     0
281
     0
  0
CLASS
  1
MLEADERSTYLE
  2
AcDbMLeaderStyle
  3
ACDB_MLEADERSTYLE_CLASS
 90
     4095
 91
        4
280
     0
281
     0
  0
CLASS
  1
SUN
  2
AcDbSun
  3
SCENEOE
 90
     1153
 91
        4
280
     0
281
     0
  0
CLASS
  1
DICTIONARYVAR
  2
AcDbDictionaryVar
  3
ObjectDBX Classes
 90
        0
 91
        4
280
     0
281
     0
  0
CLASS
  1
CELLSTYLEMAP
  2
AcDbCellStyleMap
  3
ObjectDBX Classes
 90
     1152
 91
        4
280
     0
281
     0
  0
ENDSEC
  0
SECTION
  2
TABLES
  0
TABLE
  2
VPORT
  5
8
330
0
100
AcDbSymbolTable
 70
     1
  0
VPORT
  5
29
330
8
100
AcDbSymbolTableRecord
100
AcDbViewportTableRecord
  2
*Active
 70
     0
 10
0.0
 20
0.0
 11
1.0
 21
1.0
 12
-0.1099999999999994
 22
-0.085
 13
0.0
 23
0.0
 14
0.5
 24
0.5
 15
0.5
 25
0.5
 16
0.0
 26
0.0
 36
1.0
 17
0.0
 27
0.0
 37
0.0
 40
2.7642
 41
0.5439114391143912
 42
50.0
 43
0.0
 44
0.0
 50
0.0
 51
0.0
 71
     0
 72
   100
 73
     1
 74
     3
 75
     0
 76
     0
 77
     0
 78
     0
281
     0
 65
     1
110
0.0
120
0.0
130
0.0
111
1.0
121
0.0
131
0.0
112
0.0
122
1.0
132
0.0
 79
     0
146
0.0
348
2F
 60
     3
 61
     5
292
     1
282
     1
141
0.0
142
0.0
 63
   250
361
6D
  0
ENDTAB
  0
TABLE
  2
LTYPE
  5
5
330
0
100
AcDbSymbolTable
 70
     3
  0
LTYPE
  5
14
330
5
100
AcDbSymbolTableRecord
100
AcDbLinetypeTableRecord
  2
ByBlock
 70
     0
  3

 72
    65
 73
     0
 40
0.0
  0
LTYPE
  5
15
330
5
100
AcDbSymbolTableRecord
100
AcDbLinetypeTableRecord
  2
ByLayer
 70
     0
  3

 72
    65
 73
     0
 40
0.0
  0
LTYPE
  5
16
330
5
100
AcDbSymbolTableRecord
100
AcDbLinetypeTableRecord
  2
Continuous
 70
     0
  3
Solid line
 72
    65
 73
     0
 40
0.0
  0
LTYPE
  5
9D
330
5
100
AcDbSymbolTableRecord
100
AcDbLinetypeTableRecord
  2
Dashed
 70
     0
  3

 72
    65
 73
     2
 40
2.0
 49
1.0
 74
     0
 49
-1.0
 74
     0
  0
LTYPE
  5
12C
330
5
100
AcDbSymbolTableRecord
100
AcDbLinetypeTableRecord
  2
Center
 70
     0
  3

 72
    65
 73
     4
 40
1.5
 49
0.45
 74
     0
 49
-0.5
 74
     0
 49
0.05
 74
     0
 49
-0.5
 74
     0
  0
ENDTAB
  0
TABLE
  2
LAYER
  5
2
330
0
100
AcDbSymbolTable
 70
     7
  0
LAYER
  5
10
330
2
100
AcDbSymbolTableRecord
100
AcDbLayerTableRecord
  2
0
 70
     0
 62
     7
  6
Continuous
370
    -3
390
F
347
46
348
0
  0
LAYER
  5
72
330
2
100
AcDbSymbolTableRecord
100
AcDbLayerTableRecord
  2
AM_6
 70
     0
 62
    -2
  6
Continuous
370
    35
390
F
347
46
348
0
  0
LAYER
  5
9E
330
2
100
AcDbSymbolTableRecord
100
AcDbLayerTableRecord
  2
AM_9
 70
     0
 62
     6
  6
Dashed
370
    25
390
F
347
46
348
0
  0
LAYER
  5
BB
330
2
100
AcDbSymbolTableRecord
100
AcDbLayerTableRecord
  2
AM_4
 70
     0
 62
     7
  6
Continuous
370
    50
390
F
347
46
348
0
  0
LAYER
  5
129
330
2
100
AcDbSymbolTableRecord
100
AcDbLayerTableRecord
  2
AM_5
 70
     0
 62
     3
  6
Continuous
370
    25
390
F
347
46
348
0
  0
LAYER
  5
12D
330
2
100
AcDbSymbolTableRecord
100
AcDbLayerTableRecord
  2
AM_7
 70
     0
 62
     7
  6
Center
370
    25
390
F
347
46
348
0
  0
LAYER
  5
17C
330
2
100
AcDbSymbolTableRecord
100
AcDbLayerTableRecord
  2
ConnectionPoints
 70
     0
 62
     7
  6
Continuous
370
    50
390
F
347
46
348
0
  0
ENDTAB
  0
TABLE
  2
STYLE
  5
3
330
0
100
AcDbSymbolTable
 70
     1
  0
STYLE
  5
11
330
3
100
AcDbSymbolTableRecord
100
AcDbTextStyleTableRecord
  2
Standard
 70
     0
 40
0.0
 41
1.0
 50
0.0
 71
     0
 42
0.2
  3
txt
  4

  0
ENDTAB
  0
TABLE
  2
VIEW
  5
6
330
0
100
AcDbSymbolTable
 70
     0
  0
ENDTAB
  0
TABLE
  2
UCS
  5
7
330
0
100
AcDbSymbolTable
 70
     0
  0
ENDTAB
  0
TABLE
  2
APPID
  5
9
330
0
100
AcDbSymbolTable
 70
     1
  0
APPID
  5
12
330
9
100
AcDbSymbolTableRecord
100
AcDbRegAppTableRecord
  2
ACAD
 70
     0
  0
ENDTAB
  0
TABLE
  2
DIMSTYLE
  5
A
330
0
100
AcDbSymbolTable
 70
     1
100
AcDbDimStyleTable
  0
DIMSTYLE
105
27
330
A
100
AcDbSymbolTableRecord
100
AcDbDimStyleTableRecord
  2
Standard
 70
     0
178
     0
340
11
  0
ENDTAB
  0
TABLE
  2
BLOCK_RECORD
  5
1
330
0
100
AcDbSymbolTable
 70
     5
  0
BLOCK_RECORD
  5
1F
330
1
100
AcDbSymbolTableRecord
100
AcDbBlockTableRecord
  2
*Model_Space
340
22
 70
     0
280
     1
281
     0
  0
BLOCK_RECORD
  5
1B
330
1
100
AcDbSymbolTableRecord
100
AcDbBlockTableRecord
  2
*Paper_Space
340
1E
 70
     0
280
     1
281
     0
  0
BLOCK_RECORD
  5
23
330
1
100
AcDbSymbolTableRecord
100
AcDbBlockTableRecord
  2
*Paper_Space0
340
26
 70
     0
280
     1
281
     0
  0
BLOCK_RECORD
  5
6E
330
1
100
AcDbSymbolTableRecord
100
AcDbBlockTableRecord
  2
1_067839_2
340
0
102
{BLKREFS
331
6F
102
}
 70
     0
280
     1
281
     0
  0
BLOCK_RECORD
  5
8B
330
1
100
AcDbSymbolTableRecord
100
AcDbBlockTableRecord
  2
2_405020c_Inch_0_in_067839_2
340
0
102
{BLKREFS
331
8C
102
}
 70
     0
280
     1
281
     0
  0
BLOCK_RECORD
  5
D8
330
1
100
AcDbSymbolTableRecord
100
AcDbBlockTableRecord
  2
3_INS_SC_015_CR_0_in_067839_2
340
0
102
{BLKREFS
331
D9
102
}
 70
     0
280
     1
281
     0
  0
BLOCK_RECORD
  5
143
330
1
100
AcDbSymbolTableRecord
100
AcDbBlockTableRecord
  2
4_067839H_0_in_067839_2
340
0
102
{BLKREFS
331
144
102
}
 70
     0
280
     1
281
     0
  0
ENDTAB
  0
ENDSEC
  0
SECTION
  2
BLOCKS
  0
BLOCK
  5
20
330
1F
100
AcDbEntity
  8
0
100
AcDbBlockBegin
  2
*Model_Space
 70
     0
 10
0.0
 20
0.0
 30
0.0
  3
*Model_Space
  1

  0
ENDBLK
  5
21
330
1F
100
AcDbEntity
  8
0
100
AcDbBlockEnd
  0
BLOCK
  5
1C
330
1B
100
AcDbEntity
 67
     1
  8
0
100
AcDbBlockBegin
  2
*Paper_Space
 70
     0
 10
0.0
 20
0.0
 30
0.0
  3
*Paper_Space
  1

  0
ENDBLK
  5
1D
330
1B
100
AcDbEntity
 67
     1
  8
0
100
AcDbBlockEnd
  0
BLOCK
  5
24
330
23
100
AcDbEntity
  8
0
100
AcDbBlockBegin
  2
*Paper_Space0
 70
     0
 10
0.0
 20
0.0
 30
0.0
  3
*Paper_Space0
  1

  0
ENDBLK
  5
25
330
23
100
AcDbEntity
  8
0
100
AcDbBlockEnd
  0
BLOCK
  5
70
330
6E
100
AcDbEntity
  8
0
100
AcDbBlockBegin
  2
1_067839_2
 70
     2
 10
0.0
 20
0.0
 30
0.0
  3
1_067839_2
  1

  0
ATTDEF
  5
73
330
6E
100
AcDbEntity
  8
AM_6
100
AcDbText
 10
5.627
 20
1.27
 30
0.0
 40
0.5
  1
Set Screw Two-Bolt Pillow Block Inch Bore - Stainless Housing, Corrosion Resistant Insert
100
AcDbAttributeDefinition
  3

  2
NN
 70
     8
280
     0
  0
ATTDEF
  5
74
330
6E
100
AcDbEntity
  8
AM_6
100
AcDbText
 10
5.627
 20
0.77
 30
0.0
 40
0.5
  1
SC Pillow Block Bearings -(Normal Duty) -Corrosion Resistant Insert -E-Z KLEEN
100
AcDbAttributeDefinition
  3

  2
NT
 70
     8
280
     0
  0
ATTDEF
  5
75
330
6E
100
AcDbEntity
  8
AM_6
100
AcDbText
 10
5.627
 20
0.27
 30
0.0
 40
0.5
  1
067839
100
AcDbAttributeDefinition
  3

  2
NB
 70
     8
280
     0
  0
ATTDEF
  5
76
330
6E
100
AcDbEntity
  8
AM_6
100
AcDbText
 10
5.627
 20
-0.23
 30
0.0
 40
0.5
  1
$PN.
100
AcDbAttributeDefinition
  3

  2
NBSYN
 70
     8
280
     0
  0
ATTDEF
  5
77
330
6E
100
AcDbEntity
  8
AM_6
100
AcDbText
 10
5.627
 20
-0.73
 30
0.0
 40
0.5
  1
067839
100
AcDbAttributeDefinition
  3

  2
LINA
 70
     8
280
     0
  0
ATTDEF
  5
78
330
6E
100
AcDbEntity
  8
AM_6
100
AcDbText
 10
5.627
 20
-1.23
 30
0.0
 40
0.5
  1
205
100
AcDbAttributeDefinition
  3

  2
SERIES
 70
     8
280
     0
  0
ATTDEF
  5
79
330
6E
100
AcDbEntity
  8
AM_6
100
AcDbText
 10
5.627
 20
-1.73
 30
0.0
 40
0.5
  1
15/16
100
AcDbAttributeDefinition
  3

  2
SS
 70
     8
280
     0
  0
ATTDEF
  5
7A
330
6E
100
AcDbEntity
  8
AM_6
100
AcDbText
 10
5.627
 20
-2.23
 30
0.0
 40
0.5
  1
067839
100
AcDbAttributeDefinition
  3

  2
PN
 70
     8
280
     0
  0
ATTDEF
  5
7B
330
6E
100
AcDbEntity
  8
AM_6
100
AcDbText
 10
5.627
 20
-2.73
 30
0.0
 40
0.5
  1
P2B-SCEZ-015-SHCR
100
AcDbAttributeDefinition
  3

  2
DESCRIPTION
 70
     8
280
     0
  0
ATTDEF
  5
7C
330
6E
100
AcDbEntity
  8
AM_6
100
AcDbText
 10
5.627
 20
-3.23
 30
0.0
 40
0.5
  1
1.62
100
AcDbAttributeDefinition
  3

  2
WEIGHT
 70
     8
280
     0
  0
ATTDEF
  5
7D
330
6E
100
AcDbEntity
  8
AM_6
100
AcDbText
 10
5.627
 20
-3.73
 30
0.0
 40
0.5
  1
1.34
100
AcDbAttributeDefinition
  3

  2
A
 70
     8
280
     0
  0
ATTDEF
  5
7E
330
6E
100
AcDbEntity
  8
AM_6
100
AcDbText
 10
5.627
 20
-4.23
 30
0.0
 40
0.5
  1
5.50
100
AcDbAttributeDefinition
  3

  2
B
 70
     8
280
     0
  0
ATTDEF
  5
7F
330
6E
100
AcDbEntity
  8
AM_6
100
AcDbText
 10
5.627
 20
-4.73
 30
0.0
 40
0.5
  1
1.12
100
AcDbAttributeDefinition
  3

  2
C
 70
     8
280
     0
  0
ATTDEF
  5
80
330
6E
100
AcDbEntity
  8
AM_6
100
AcDbText
 10
5.627
 20
-5.23
 30
0.0
 40
0.5
  1
3.68
100
AcDbAttributeDefinition
  3

  2
DMIN
 70
     8
280
     0
  0
ATTDEF
  5
81
330
6E
100
AcDbEntity
  8
AM_6
100
AcDbText
 10
5.627
 20
-5.73
 30
0.0
 40
0.5
  1
4.50
100
AcDbAttributeDefinition
  3

  2
DMAX
 70
     8
280
     0
  0
ATTDEF
  5
82
330
6E
100
AcDbEntity
  8
AM_6
100
AcDbText
 10
5.627
 20
-6.23
 30
0.0
 40
0.5
  1
3/8
100
AcDbAttributeDefinition
  3

  2
F
 70
     8
280
     0
  0
ATTDEF
  5
83
330
6E
100
AcDbEntity
  8
AM_6
100
AcDbText
 10
5.627
 20
-6.73
 30
0.0
 40
0.5
  1
0.85
100
AcDbAttributeDefinition
  3

  2
G
 70
     8
280
     0
  0
ATTDEF
  5
84
330
6E
100
AcDbEntity
  8
AM_6
100
AcDbText
 10
5.627
 20
-7.23
 30
0.0
 40
0.5
  1
0.53
100
AcDbAttributeDefinition
  3

  2
H
 70
     8
280
     0
  0
ATTDEF
  5
85
330
6E
100
AcDbEntity
  8
AM_6
100
AcDbText
 10
5.627
 20
-7.73
 30
0.0
 40
0.5
  1
2.71
100
AcDbAttributeDefinition
  3

  2
J
 70
     8
280
     0
  0
ATTDEF
  5
86
330
6E
100
AcDbEntity
  8
AM_6
100
AcDbText
 10
5.627
 20
-8.23
 30
0.0
 40
0.5
  1
1.32
100
AcDbAttributeDefinition
  3

  2
L
 70
     8
280
     0
  0
ATTDEF
  5
87
330
6E
100
AcDbEntity
  8
AM_6
100
AcDbText
 10
5.627
 20
-8.73
 30
0.0
 40
0.5
  1
1.44
100
AcDbAttributeDefinition
  3

  2
M
 70
     8
280
     0
  0
ATTDEF
  5
88
330
6E
100
AcDbEntity
  8
AM_6
100
AcDbText
 10
5.627
 20
-9.23
 30
0.0
 40
0.5
  1
0.56
100
AcDbAttributeDefinition
  3

  2
R
 70
     8
280
     0
  0
ATTDEF
  5
89
330
6E
100
AcDbEntity
  8
AM_6
100
AcDbText
 10
5.627
 20
-9.73
 30
0.0
 40
0.5
  1
0.78
100
AcDbAttributeDefinition
  3

  2
S
 70
     8
280
     0
  0
ATTDEF
  5
8A
330
6E
100
AcDbEntity
  8
AM_6
100
AcDbText
 10
5.627
 20
-10.23
 30
0.0
 40
0.5
  1
baldor
100
AcDbAttributeDefinition
  3

  2
COMPANY
 70
     8
280
     0
  0
INSERT
  5
8C
330
6E
100
AcDbEntity
  8
0
100
AcDbBlockReference
  2
2_405020c_Inch_0_in_067839_2
 10
0.0
 20
0.0
 30
0.0
  0
INSERT
  5
D9
330
6E
100
AcDbEntity
  8
0
100
AcDbBlockReference
  2
3_INS_SC_015_CR_0_in_067839_2
 10
0.0
 20
0.0
 30
0.0
  0
INSERT
  5
144
330
6E
100
AcDbEntity
  8
0
100
AcDbBlockReference
  2
4_067839H_0_in_067839_2
 10
0.0
 20
0.0
 30
0.0
  0
ENDBLK
  5
71
330
6E
100
AcDbEntity
  8
0
100
AcDbBlockEnd
  0
BLOCK
  5
8D
330
8B
100
AcDbEntity
  8
0
100
AcDbBlockBegin
  2
2_405020c_Inch_0_in_067839_2
 70
     2
 10
0.0
 20
0.0
 30
0.0
  3
2_405020c_Inch_0_in_067839_2
  1

  0
ATTDEF
  5
8F
330
8B
100
AcDbEntity
  8
AM_6
100
AcDbText
 10
5.066900000000002
 20
1.206438556502783
 30
0.0
 40
0.5
  1
405020C -Inch
100
AcDbAttributeDefinition
  3

  2
NN
 70
     8
280
     0
  0
ATTDEF
  5
90
330
8B
100
AcDbEntity
  8
AM_6
100
AcDbText
 10
5.066900000000002
 20
0.7064385565027831
 30
0.0
 40
0.5
  1
Grease fitting
100
AcDbAttributeDefinition
  3

  2
NT
 70
     8
280
     0
  0
ATTDEF
  5
91
330
8B
100
AcDbEntity
  8
AM_6
100
AcDbText
 10
5.066900000000002
 20
0.2064385565027831
 30
0.0
 40
0.5
  1
405020c-Inch
100
AcDbAttributeDefinition
  3

  2
NB
 70
     8
280
     0
  0
ATTDEF
  5
92
330
8B
100
AcDbEntity
  8
AM_6
100
AcDbText
 10
5.066900000000002
 20
-0.2935614434972169
 30
0.0
 40
0.5
  1
$MN.-Inch
100
AcDbAttributeDefinition
  3

  2
NBSYN
 70
     8
280
     0
  0
ATTDEF
  5
93
330
8B
100
AcDbEntity
  8
AM_6
100
AcDbText
 10
5.066900000000002
 20
-0.7935614434972169
 30
0.0
 40
0.5
  1
405020c
100
AcDbAttributeDefinition
  3

  2
LINA
 70
     8
280
     0
  0
ATTDEF
  5
94
330
8B
100
AcDbEntity
  8
AM_6
100
AcDbText
 10
5.066900000000002
 20
-1.293561443497217
 30
0.0
 40
0.5
  1
405020c
100
AcDbAttributeDefinition
  3

  2
MN
 70
     8
280
     0
  0
ATTDEF
  5
95
330
8B
100
AcDbEntity
  8
AM_6
100
AcDbText
 10
5.066900000000002
 20
-1.793561443497217
 30
0.0
 40
0.5
  1
0.230
100
AcDbAttributeDefinition
  3

  2
NDR
 70
     8
280
     0
  0
ATTDEF
  5
96
330
8B
100
AcDbEntity
  8
AM_6
100
AcDbText
 10
5.066900000000002
 20
-2.293561443497217
 30
0.0
 40
0.5
  1
0.210
100
AcDbAttributeDefinition
  3

  2
KDR
 70
     8
280
     0
  0
ATTDEF
  5
97
330
8B
100
AcDbEntity
  8
AM_6
100
AcDbText
 10
5.066900000000002
 20
-2.793561443497217
 30
0.0
 40
0.5
  1
0.157
100
AcDbAttributeDefinition
  3

  2
BZE
 70
     8
280
     0
  0
ATTDEF
  5
98
330
8B
100
AcDbEntity
  8
AM_6
100
AcDbText
 10
5.066900000000002
 20
-3.293561443497217
 30
0.0
 40
0.5
  1
9/32
100
AcDbAttributeDefinition
  3

  2
WAF
 70
     8
280
     0
  0
ATTDEF
  5
99
330
8B
100
AcDbEntity
  8
AM_6
100
AcDbText
 10
5.066900000000002
 20
-3.793561443497217
 30
0.0
 40
0.5
  1
0.2813
100
AcDbAttributeDefinition
  3

  2
WAF1
 70
     8
280
     0
  0
ATTDEF
  5
9A
330
8B
100
AcDbEntity
  8
AM_6
100
AcDbText
 10
5.066900000000002
 20
-4.293561443497217
 30
0.0
 40
0.5
  1
0.545
100
AcDbAttributeDefinition
  3

  2
BL
 70
     8
280
     0
  0
ATTDEF
  5
9B
330
8B
100
AcDbEntity
  8
AM_6
100
AcDbText
 10
5.066900000000002
 20
-4.793561443497217
 30
0.0
 40
0.5
  1
0.200
100
AcDbAttributeDefinition
  3

  2
TL
 70
     8
280
     0
  0
ATTDEF
  5
9C
330
8B
100
AcDbEntity
  8
AM_6
100
AcDbText
 10
5.066900000000002
 20
-5.293561443497217
 30
0.0
 40
0.5
  1
baldor
100
AcDbAttributeDefinition
  3

  2
COMPANY
 70
     8
280
     0
  0
LWPOLYLINE
  5
9F
330
8B
100
AcDbEntity
  8
AM_9
100
AcDbPolyline
 90
        3
 70
     0
 43
0.0
 10
-0.07375
 20
1.016988435495045
 10
-0.038745600068301
 20
0.9996731322414368
 10
-0.003425
 20
0.9841557951875287
  0
LWPOLYLINE
  5
A0
330
8B
100
AcDbEntity
  8
AM_9
100
AcDbPolyline
 90
        3
 70
     0
 43
0.0
 10
-0.144075
 20
0.9841557951875287
 10
-0.1089125
 20
0.9995989749758778
 10
-0.07375
 20
1.016988435495045
  0
ELLIPSE
  5
A1
330
8B
100
AcDbEntity
  8
AM_9
100
AcDbEllipse
 10
-0.07375
 20
0.7566042558696058
 30
0.0
 11
0.1000886227036577
 21
0.0
 31
0.0
210
0.0
220
0.0
230
1.0
 40
0.7071067811865474
 41
0.0
 42
6.283185307179586
  0
LWPOLYLINE
  5
A2
330
8B
100
AcDbEntity
  8
AM_9
100
AcDbPolyline
 90
        3
 70
     0
 43
0.0
 10
-0.003425
 20
1.031296247266632
 10
-0.0385875
 20
1.044563128505154
 10
-0.07375
 20
1.055883729012858
  0
LWPOLYLINE
  5
A3
330
8B
100
AcDbEntity
  8
AM_9
100
AcDbPolyline
 90
        3
 70
     0
 43
0.0
 10
-0.07375
 20
1.055883729012858
 10
-0.1087543999316989
 20
1.044618059404807
 10
-0.144075
 20
1.031296247266632
  0
LWPOLYLINE
  5
A4
330
8B
100
AcDbEntity
  8
AM_9
100
AcDbPolyline
 90
        3
 70
     0
 43
0.0
 10
-0.2144
 20
0.9595683134413023
 10
-0.179395600068301
 20
0.9708339830493533
 10
-0.144075
 20
0.9841557951875287
  0
LINE
  5
A5
330
8B
100
AcDbEntity
  8
AM_9
100
AcDbLine
 10
-0.07375
 20
1.055883729012858
 30
0.0
 11
-0.07375
 21
1.016988435495045
 31
0.0
  0
LWPOLYLINE
  5
A6
330
8B
100
AcDbEntity
  8
AM_9
100
AcDbPolyline
 90
        3
 70
     0
 43
0.0
 10
-0.003425
 20
0.9841557951875287
 10
0.0317375
 20
0.9708889139490067
 10
0.0669
 20
0.9595683134413023
  0
LWPOLYLINE
  5
A7
330
8B
100
AcDbEntity
  8
AM_9
100
AcDbPolyline
 90
        3
 70
     0
 43
0.0
 10
-0.144075
 20
1.031296247266632
 10
-0.1792375
 20
1.015853067478283
 10
-0.1891523332292532
 20
1.011127206618821
  0
LWPOLYLINE
  5
A8
330
8B
100
AcDbEntity
  8
AM_9
100
AcDbPolyline
 90
        3
 70
     0
 43
0.0
 10
0.0417161842916501
 20
1.011096288191949
 10
0.0318956000683011
 20
1.015778910212724
 10
-0.003425
 20
1.031296247266632
  0
LINE
  5
A9
330
8B
100
AcDbEntity
  8
AM_9
100
AcDbLine
 10
0.0366123268442187
 20
0.7614669983318912
 30
0.0
 11
0.0425368265162187
 21
0.8954509475030743
 31
0.0
  0
LINE
  5
AA
330
8B
100
AcDbEntity
  8
AM_9
100
AcDbLine
 10
-0.1900368265162186
 20
0.8954509475030743
 30
0.0
 11
-0.1841123268442186
 21
0.7614669983318912
 31
0.0
  0
ELLIPSE
  5
AB
330
8B
100
AcDbEntity
  8
AM_9
100
AcDbEllipse
 10
-0.073749999999997
 20
0.9451660641860191
 30
0.0
 11
-0.1406499999999958
 21
1.722465723000700E-17
 31
0.0
210
0.0
220
0.0
230
1.0
 40
0.7071067811865561
 41
3.798906696793619
 42
4.585090320836698
  0
ELLIPSE
  5
AC
330
8B
100
AcDbEntity
  8
AM_9
100
AcDbEllipse
 10
-0.0737500000000021
 20
0.9451660641860415
 30
0.0
 11
-0.140649999999949
 21
1.722465723000128E-17
 31
0.0
210
0.0
220
0.0
230
1.0
 40
0.7071067811866397
 41
4.712080751182928
 42
5.625871263975997
  0
ELLIPSE
  5
AD
330
8B
100
AcDbEntity
  8
AM_9
100
AcDbEllipse
 10
-0.0737500000000013
 20
0.9673130370715505
 30
0.0
 11
-0.1093294505797697
 21
1.338899617050537E-17
 31
0.0
210
0.0
220
0.0
230
1.0
 40
0.7071067811865526
 41
5.370769325249875
 42
5.928986666165875
  0
ELLIPSE
  5
AE
330
8B
100
AcDbEntity
  8
AM_9
100
AcDbEllipse
 10
-0.07375
 20
0.9673130370715504
 30
0.0
 11
-0.1093294505797714
 21
1.338899617050558E-17
 31
0.0
210
0.0
220
0.0
230
1.0
 40
0.7071067811865483
 41
3.495791294603503
 42
4.150342414767016
  0
LWPOLYLINE
  5
AF
330
8B
100
AcDbEntity
  8
AM_9
100
AcDbPolyline
 90
        4
 70
     0
 43
0.0
 10
0.0188667444703625
 20
0.9825920660715814
 10
0.0174727712000442
 20
0.9796717139539735
 10
0.015151628673986
 20
0.9758806422865461
 10
0.0141210607631086
 20
0.9744451531970733
  0
LWPOLYLINE
  5
B0
330
8B
100
AcDbEntity
  8
AM_9
100
AcDbPolyline
 90
       22
 70
     0
 43
0.0
 10
-0.0737499999999999
 20
1.044620632959906
 10
-0.0690511465908711
 20
1.044549194049066
 10
-0.0596110420538268
 20
1.043970983124989
 10
-0.0503287343057384
 20
1.042822344205446
 10
-0.0413130665837593
 20
1.04112598493861
 10
-0.0326652029604661
 20
1.038915759709439
 10
-0.0244799031843006
 20
1.036236471295384
 10
-0.0168433559984763
 20
1.033143334447614
 10
-0.0098308637706311
 20
1.029701090193723
 10
-0.0035044136131928
 20
1.025982620339263
 10
0.0020897752715354
 20
1.022066863951863
 10
0.0069190437283219
 20
1.018039896270937
 10
0.01097419832052
 20
1.013985982748305
 10
0.0142693979906958
 20
1.009981329388252
 10
0.0168405756054709
 20
1.006085637939656
 10
0.0187419323172863
 20
1.002328234922253
 10
0.0200361618837854
 20
0.998685053101865
 10
0.020769304367545
 20
0.9950354010942726
 10
0.0209007746924276
 20
0.9910798851362088
 10
0.0203334084718232
 20
0.9871091734001889
 10
0.019188746078214
 20
0.9833933816660007
 10
0.0188667444703625
 20
0.9825920660715814
  0
LWPOLYLINE
  5
B1
330
8B
100
AcDbEntity
  8
AM_9
100
AcDbPolyline
 90
       22
 70
     0
 43
0.0
 10
-0.1657002003264609
 20
0.9811055488260234
 10
-0.1660149288548392
 20
0.9817826847296074
 10
-0.1673901466774925
 20
0.9854373937789931
 10
-0.1682006547601629
 20
0.9890734087749992
 10
-0.1684254500620048
 20
0.9929590950885213
 10
-0.1679440587616376
 20
0.9970107286854434
 10
-0.1668747198227421
 20
1.000737074202687
 10
-0.165236900290152
 20
1.004452273711222
 10
-0.1629991324327345
 20
1.00823310749692
 10
-0.1597784396108013
 20
1.012497353157154
 10
-0.1558140622196904
 20
1.016728764715074
 10
-0.1511001778023029
 20
1.020882292238477
 10
-0.1456407647454541
 20
1.024900282307002
 10
-0.1394578073723775
 20
1.028715085185458
 10
-0.1325904929272259
 20
1.032256653403658
 10
-0.1250995428066094
 20
1.035454976696888
 10
-0.1170520451230347
 20
1.038249532154823
 10
-0.1085263204298623
 20
1.040586788305194
 10
-0.0996105181161361
 20
1.042421519888355
 10
-0.0904006343444848
 20
1.043717943910348
 10
-0.0809985589909116
 20
1.044450504566514
 10
-0.0737499999999999
 20
1.044620632959906
  0
LWPOLYLINE
  5
B2
330
8B
100
AcDbEntity
  8
AM_9
100
AcDbPolyline
 90
        3
 70
     0
 43
0.0
 10
-0.1617944619323136
 20
0.9746786880331424
 10
-0.1640240113390229
 20
0.9780059188400893
 10
-0.1657002003264609
 20
0.9811055488260234
  0
ELLIPSE
  5
B3
330
8B
100
AcDbEntity
  8
AM_9
100
AcDbEllipse
 10
-0.0737499999999999
 20
1.007254849008056
 30
0.0
 11
-0.0993694002872663
 21
1.216924179949928E-17
 31
0.0
210
0.0
220
0.0
230
1.0
 40
0.707106781186547
 41
2.656480407116016
 42
4.71238898038469
  0
ELLIPSE
  5
B4
330
8B
100
AcDbEntity
  8
AM_9
100
AcDbEllipse
 10
-0.0737499999999999
 20
1.055586177712532
 30
0.0
 11
-0.1312419113468906
 21
1.607249866449502E-17
 31
0.0
210
0.0
220
0.0
230
1.0
 40
0.7071067811865471
 41
2.729577012876318
 42
6.768297553653364
  0
ELLIPSE
  5
B5
330
8B
100
AcDbEntity
  8
AM_9
100
AcDbEllipse
 10
-0.0737499999998933
 20
1.055586177712495
 30
0.0
 11
-0.1312419113467719
 21
1.607249866448049E-17
 31
0.0
210
0.0
220
0.0
230
1.0
 40
0.7071067811865469
 41
-3.626704900063598
 42
-3.566657708304691
  0
ELLIPSE
  5
B6
330
8B
100
AcDbEntity
  8
AM_9
100
AcDbEllipse
 10
-0.0737499999999996
 20
1.08434242117781
 30
0.0
 11
-0.1319517646676803
 21
1.615943062421195E-17
 31
0.0
210
0.0
220
0.0
230
1.0
 40
0.707106781186547
 41
3.586108074972438
 42
5.838989752001535
  0
ELLIPSE
  5
B7
330
8B
100
AcDbEntity
  8
AM_9
100
AcDbEllipse
 10
-0.07375
 20
1.131206997850996
 30
0.0
 11
-0.1038190510530389
 21
1.271416685626197E-17
 31
0.0
210
0.0
220
0.0
230
1.0
 40
0.7071067811865518
 41
3.5799744285438
 42
5.838124090666772
  0
ELLIPSE
  5
B8
330
8B
100
AcDbEntity
  8
AM_9
100
AcDbEllipse
 10
-0.0737500000000001
 20
0.8980256121069151
 30
0.0
 11
-0.1163438171532774
 21
1.424800832773460E-17
 31
0.0
210
0.0
220
0.0
230
1.0
 40
0.7071067811865477
 41
0.0
 42
6.283185307179586
  0
ELLIPSE
  5
B9
330
8B
100
AcDbEntity
  8
AM_9
100
AcDbEllipse
 10
-0.0737499999999998
 20
0.7639069979483916
 30
0.0
 11
-0.1104162595939889
 21
1.352209188856018E-17
 31
0.0
210
0.0
220
0.0
230
1.0
 40
0.7071067811865474
 41
0.0
 42
6.283185307179586
  0
ELLIPSE
  5
BA
330
8B
100
AcDbEntity
  8
AM_9
100
AcDbEllipse
 10
-0.0737499999999987
 20
0.8980256121069158
 30
0.0
 11
-0.1406500000000013
 21
1.722465723000768E-17
 31
0.0
210
0.0
220
0.0
230
1.0
 40
0.7071067811865475
 41
0.0
 42
6.283185307179586
  0
LINE
  5
BC
330
8B
100
AcDbEntity
  8
AM_4
100
AcDbLine
 10
-0.1891523332292532
 20
1.011127206618821
 30
0.0
 11
-0.2144
 21
0.998463606959116
 31
0.0
  0
LINE
  5
BD
330
8B
100
AcDbEntity
  8
AM_4
100
AcDbLine
 10
0.0669
 20
0.998463606959116
 30
0.0
 11
0.0417161842916501
 21
1.011096288191949
 31
0.0
  0
LWPOLYLINE
  5
BE
330
8B
100
AcDbEntity
  8
AM_4
100
AcDbPolyline
 90
        3
 70
     0
 43
0.0
 10
-0.003425
 20
0.8118954290263017
 10
-0.0385875
 20
0.7986285477877797
 10
-0.0737499999999999
 20
0.7873079472800754
  0
LWPOLYLINE
  5
BF
330
8B
100
AcDbEntity
  8
AM_4
100
AcDbPolyline
 90
        3
 70
     0
 43
0.0
 10
0.0669
 20
0.8447280693338177
 10
0.0318956000683011
 20
0.8274127660802097
 10
-0.003425
 20
0.8118954290263017
  0
LINE
  5
C0
330
8B
100
AcDbEntity
  8
AM_4
100
AcDbLine
 10
0.0669
 20
0.998463606959116
 30
0.0
 11
0.0669
 21
0.8447280693338177
 31
0.0
  0
LWPOLYLINE
  5
C1
330
8B
100
AcDbEntity
  8
AM_4
100
AcDbPolyline
 90
        3
 70
     0
 43
0.0
 10
-0.0034249999999999
 20
0.859035881105405
 10
0.0317375000000001
 20
0.872302762343927
 10
0.0669
 20
0.8836233628516313
  0
LWPOLYLINE
  5
C2
330
8B
100
AcDbEntity
  8
AM_4
100
AcDbPolyline
 90
        3
 70
     0
 43
0.0
 10
-0.0737499999999999
 20
0.826203240797889
 10
-0.038745600068301
 20
0.8435185440514968
 10
-0.0034249999999999
 20
0.859035881105405
  0
LINE
  5
C3
330
8B
100
AcDbEntity
  8
AM_4
100
AcDbLine
 10
-0.2144
 20
0.998463606959116
 30
0.0
 11
-0.2144
 21
0.8447280693338177
 31
0.0
  0
LWPOLYLINE
  5
C4
330
8B
100
AcDbEntity
  8
AM_4
100
AcDbPolyline
 90
        3
 70
     0
 43
0.0
 10
-0.144075
 20
0.8118954290263017
 10
-0.1792375
 20
0.8273386088146508
 10
-0.2144
 20
0.8447280693338177
  0
LWPOLYLINE
  5
C5
330
8B
100
AcDbEntity
  8
AM_4
100
AcDbPolyline
 90
        3
 70
     0
 43
0.0
 10
-0.0737499999999999
 20
0.7873079472800754
 10
-0.1087543999316989
 20
0.7985736168881263
 10
-0.144075
 20
0.8118954290263017
  0
LINE
  5
C6
330
8B
100
AcDbEntity
  8
AM_4
100
AcDbLine
 10
-0.0737499999999999
 20
0.826203240797889
 30
0.0
 11
-0.0737499999999999
 21
0.7873079472800754
 31
0.0
  0
LWPOLYLINE
  5
C7
330
8B
100
AcDbEntity
  8
AM_4
100
AcDbPolyline
 90
        3
 70
     0
 43
0.0
 10
-0.1440749999999999
 20
0.859035881105405
 10
-0.1089124999999999
 20
0.8435927013170559
 10
-0.0737499999999999
 20
0.826203240797889
  0
LWPOLYLINE
  5
C8
330
8B
100
AcDbEntity
  8
AM_4
100
AcDbPolyline
 90
        3
 70
     0
 43
0.0
 10
-0.2144
 20
0.8836233628516313
 10
-0.179395600068301
 20
0.8723576932435804
 10
-0.1440749999999999
 20
0.859035881105405
  0
ELLIPSE
  5
C9
330
8B
100
AcDbEntity
  8
AM_4
100
AcDbEllipse
 10
-0.0737499999999993
 20
0.9451660641860182
 30
0.0
 11
-0.1406500000000007
 21
1.722465723000761E-17
 31
0.0
210
0.0
220
0.0
230
1.0
 40
0.7071067811865472
 41
5.62587126397576
 42
10.08209200397321
  0
ELLIPSE
  5
CA
330
8B
100
AcDbEntity
  8
AM_4
100
AcDbEllipse
 10
-0.07375
 20
0.9673130370715505
 30
0.0
 11
-0.1093294505797713
 21
1.338899617050556E-17
 31
0.0
210
0.0
220
0.0
230
1.0
 40
0.7071067811865487
 41
5.928986666165877
 42
9.778976601783087
  0
LINE
  5
CB
330
8B
100
AcDbEntity
  8
AM_4
100
AcDbLine
 10
0.0141544185632924
 20
0.9744898454943952
 30
0.0
 11
0.0423495625890071
 21
1.012311873208437
 31
0.0
  0
LINE
  5
CC
330
8B
100
AcDbEntity
  8
AM_4
100
AcDbLine
 10
-0.189849562589007
 20
1.012311873208437
 30
0.0
 11
-0.1616544185632922
 21
0.9744898454943952
 31
0.0
  0
ELLIPSE
  5
CD
330
8B
100
AcDbEntity
  8
AM_4
100
AcDbEllipse
 10
-0.0737499999999999
 20
1.007254849008056
 30
0.0
 11
-0.09936940028726646
 21
1.480719463585771E-9
 31
0.0
210
0.0
220
0.0
230
1.0
 40
0.7071067811865458
 41
0.4851122652560713
 42
2.656480425898307
  0
LWPOLYLINE
  5
CE
330
8B
100
AcDbEntity
  8
AM_4
100
AcDbPolyline
 90
       15
 70
     0
 43
0.0
 10
-0.1928042987812358
 20
1.124576300005969
 10
-0.194935892207664
 20
1.121279193313827
 10
-0.1998647848526405
 20
1.112371255164414
 10
-0.2037986971497195
 20
1.103183962751097
 10
-0.2067273933087316
 20
1.093801380050492
 10
-0.2086515581328463
 20
1.084303362292438
 10
-0.2095799258474113
 20
1.074765041889632
 10
-0.2095269726148988
 20
1.065256557076308
 10
-0.2085111178750424
 20
1.055843430936006
 10
-0.2065555168076415
 20
1.046594581449913
 10
-0.2036842831023395
 20
1.037563631834697
 10
-0.1999209451192203
 20
1.028799682504581
 10
-0.1952880043553073
 20
1.020348715072997
 10
-0.1898074176722539
 20
1.012255377011877
 10
-0.1892554549361133
 20
1.011522485078093
  0
LWPOLYLINE
  5
CF
330
8B
100
AcDbEntity
  8
AM_4
100
AcDbPolyline
 90
       15
 70
     0
 43
0.0
 10
0.0419110930072783
 20
1.011727831694913
 10
0.0438946932641954
 20
1.014438439691883
 10
0.0494285336904114
 20
1.023129831063589
 10
0.0539806500186771
 20
1.032154266276615
 10
0.0575323960162625
 20
1.041425608694736
 10
0.0600780678871581
 20
1.05086130542242
 10
0.0616217214528471
 20
1.060383258413956
 10
0.0621745220985008
 20
1.069918210397287
 10
0.0617526192205323
 20
1.079397975490279
 10
0.0603762375401708
 20
1.088755233463816
 10
0.0580692992282236
 20
1.097927195288391
 10
0.0548557934899018
 20
1.106862102318713
 10
0.0507588661911408
 20
1.115512229815995
 10
0.0458006955131051
 20
1.12383232954851
 10
0.0452908728675905
 20
1.124596233120965
  0
ELLIPSE
  5
D0
330
8B
100
AcDbEntity
  8
AM_4
100
AcDbEllipse
 10
-0.07375
 20
1.055586177712532
 30
0.0
 11
-0.1312419113468907
 21
1.607249866449504E-17
 31
0.0
210
0.0
220
0.0
230
1.0
 40
0.7071067811865499
 41
0.4929445241244039
 42
2.650827328754364
  0
ELLIPSE
  5
D1
330
8B
100
AcDbEntity
  8
AM_4
100
AcDbEllipse
 10
-0.0737499999999999
 20
1.141977451616274
 30
0.0
 11
0.08080642971672804
 21
0.0
 31
0.0
210
0.0
220
0.0
230
1.0
 40
0.7071067811865461
 41
0.0
 42
6.283185307179586
  0
LWPOLYLINE
  5
D2
330
8B
100
AcDbEntity
  8
AM_4
100
AcDbPolyline
 90
       13
 70
     0
 43
0.0
 10
-0.0737499999999999
 20
1.206438556502783
 10
-0.0794099739894241
 20
1.206323464663395
 10
-0.0895692378968436
 20
1.205534841898646
 10
-0.0996027548572437
 20
1.204000360087787
 10
-0.1094223131315081
 20
1.201725520300394
 10
-0.1189422787880663
 20
1.198718953816088
 10
-0.1280759791955682
 20
1.194993191471212
 10
-0.1367347767127546
 20
1.190566087312847
 10
-0.1448233263799503
 20
1.18546610926382
 10
-0.1522472502779327
 20
1.179732733667996
 10
-0.1589139210004656
 20
1.173420412213584
 10
-0.1647380548790221
 20
1.166599981599256
 10
-0.1674017638641995
 20
1.162891627736568
  0
LWPOLYLINE
  5
D3
330
8B
100
AcDbEntity
  8
AM_4
100
AcDbPolyline
 90
       14
 70
     0
 43
0.0
 10
0.0200870154918204
 20
1.162615832872696
 10
0.0198157212407648
 20
1.163018856710449
 10
0.0147098439842477
 20
1.169746493211469
 10
0.008778384170156
 20
1.176073835108128
 10
0.0020626653155753
 20
1.181941573582706
 10
-0.0053813153734527
 20
1.187289301602995
 10
-0.0134826665881067
 20
1.192059715784869
 10
-0.0221585680600764
 20
1.196202682204867
 10
-0.0313189075447089
 20
1.199677667585529
 10
-0.0408695281632057
 20
1.20245383750208
 10
-0.0507163627277039
 20
1.204509622053263
 10
-0.0607695838586051
 20
1.205831271409393
 10
-0.0709408237305228
 20
1.206410221236212
 10
-0.0737499999999999
 20
1.206438556502783
  0
LINE
  5
D4
330
8B
100
AcDbEntity
  8
AM_4
100
AcDbLine
 10
-0.1677518950300903
 20
1.162368184384129
 30
0.0
 11
-0.1932243720493999
 21
1.123947614160021
 31
0.0
  0
LINE
  5
D5
330
8B
100
AcDbEntity
  8
AM_4
100
AcDbLine
 10
0.0457243720494001
 20
1.123947614160021
 30
0.0
 11
0.0202518950300905
 21
1.162368184384129
 31
0.0
  0
ELLIPSE
  5
D6
330
8B
100
AcDbEntity
  8
AM_4
100
AcDbEllipse
 10
-0.0737499999999999
 20
1.08434242117781
 30
0.0
 11
-0.1319517646676799
 21
1.615943062421190E-17
 31
0.0
210
0.0
220
0.0
230
1.0
 40
0.7071067811865462
 41
5.844803532225579
 42
9.863159735723386
  0
ELLIPSE
  5
D7
330
8B
100
AcDbEntity
  8
AM_4
100
AcDbEllipse
 10
-0.0737499999999999
 20
1.131206997850996
 30
0.0
 11
-0.1038190510530391
 21
1.547024427447801E-9
 31
0.0
210
0.0
220
0.0
230
1.0
 40
0.7071067811865487
 41
5.844803551400512
 42
9.863159754898316
  0
ENDBLK
  5
8E
330
8B
100
AcDbEntity
  8
0
100
AcDbBlockEnd
  0
BLOCK
  5
DA
330
D8
100
AcDbEntity
  8
0
100
AcDbBlockBegin
  2
3_INS_SC_015_CR_0_in_067839_2
 70
     2
 10
0.0
 20
0.0
 30
0.0
  3
3_INS_SC_015_CR_0_in_067839_2
  1

  0
ATTDEF
  5
DC
330
D8
100
AcDbEntity
  8
AM_6
100
AcDbText
 10
5.627
 20
1.023071041524577
 30
0.0
 40
0.5
  1
Set Screw Insert Inch Bore - Corrosion Resistant
100
AcDbAttributeDefinition
  3

  2
NN
 70
     8
280
     0
  0
ATTDEF
  5
DD
330
D8
100
AcDbEntity
  8
AM_6
100
AcDbText
 10
5.627
 20
0.523071041524577
 30
0.0
 40
0.5
  1
SC Normal Duty Bearing Inserts
100
AcDbAttributeDefinition
  3

  2
NT
 70
     8
280
     0
  0
ATTDEF
  5
DE
330
D8
100
AcDbEntity
  8
AM_6
100
AcDbText
 10
5.627
 20
0.023071041524577
 30
0.0
 40
0.5
  1
INS-SC-015-CR
100
AcDbAttributeDefinition
  3

  2
NB
 70
     8
280
     0
  0
ATTDEF
  5
DF
330
D8
100
AcDbEntity
  8
AM_6
100
AcDbText
 10
5.627
 20
-0.476928958475423
 30
0.0
 40
0.5
  1
$PN.
100
AcDbAttributeDefinition
  3

  2
NBSYN
 70
     8
280
     0
  0
ATTDEF
  5
E0
330
D8
100
AcDbEntity
  8
AM_6
100
AcDbText
 10
5.627
 20
-0.976928958475423
 30
0.0
 40
0.5
  1
INS-SC-015-CR
100
AcDbAttributeDefinition
  3

  2
LINA
 70
     8
280
     0
  0
ATTDEF
  5
E1
330
D8
100
AcDbEntity
  8
AM_6
100
AcDbText
 10
5.627
 20
-1.476928958475423
 30
0.0
 40
0.5
  1
205
100
AcDbAttributeDefinition
  3

  2
SERIES
 70
     8
280
     0
  0
ATTDEF
  5
E2
330
D8
100
AcDbEntity
  8
AM_6
100
AcDbText
 10
5.627
 20
-1.976928958475423
 30
0.0
 40
0.5
  1
15/16
100
AcDbAttributeDefinition
  3

  2
SS
 70
     8
280
     0
  0
ATTDEF
  5
E3
330
D8
100
AcDbEntity
  8
AM_6
100
AcDbText
 10
5.627
 20
-2.476928958475423
 30
0.0
 40
0.5
  1
INS-SC-015-CR
100
AcDbAttributeDefinition
  3

  2
PN
 70
     8
280
     0
  0
ATTDEF
  5
E4
330
D8
100
AcDbEntity
  8
AM_6
100
AcDbText
 10
5.627
 20
-2.976928958475423
 30
0.0
 40
0.5
  1
INS-SC-015-CR
100
AcDbAttributeDefinition
  3

  2
DESCRIPTION
 70
     8
280
     0
  0
ATTDEF
  5
E5
330
D8
100
AcDbEntity
  8
AM_6
100
AcDbText
 10
5.627
 20
-3.476928958475423
 30
0.0
 40
0.5
  1
1.34
100
AcDbAttributeDefinition
  3

  2
A
 70
     8
280
     0
  0
ATTDEF
  5
E6
330
D8
100
AcDbEntity
  8
AM_6
100
AcDbText
 10
5.627
 20
-3.976928958475423
 30
0.0
 40
0.5
  1
0.59
100
AcDbAttributeDefinition
  3

  2
C
 70
     8
280
     0
  0
ATTDEF
  5
E7
330
D8
100
AcDbEntity
  8
AM_6
100
AcDbText
 10
5.627
 20
-4.476928958475423
 30
0.0
 40
0.5
  1
2.0472
100
AcDbAttributeDefinition
  3

  2
D
 70
     8
280
     0
  0
ATTDEF
  5
E8
330
D8
100
AcDbEntity
  8
AM_6
100
AcDbText
 10
5.627
 20
-4.976928958475423
 30
0.0
 40
0.5
  1
0.16
100
AcDbAttributeDefinition
  3

  2
J
 70
     8
280
     0
  0
ATTDEF
  5
E9
330
D8
100
AcDbEntity
  8
AM_6
100
AcDbText
 10
5.627
 20
-5.476928958475423
 30
0.0
 40
0.5
  1
1.32
100
AcDbAttributeDefinition
  3

  2
L
 70
     8
280
     0
  0
ATTDEF
  5
EA
330
D8
100
AcDbEntity
  8
AM_6
100
AcDbText
 10
5.627
 20
-5.976928958475423
 30
0.0
 40
0.5
  1
1/4 - 28
100
AcDbAttributeDefinition
  3

  2
N
 70
     8
280
     0
  0
ATTDEF
  5
EB
330
D8
100
AcDbEntity
  8
AM_6
100
AcDbText
 10
5.627
 20
-6.476928958475423
 30
0.0
 40
0.5
  1
0.56
100
AcDbAttributeDefinition
  3

  2
W
 70
     8
280
     0
  0
ATTDEF
  5
EC
330
D8
100
AcDbEntity
  8
AM_6
100
AcDbText
 10
5.627
 20
-6.976928958475423
 30
0.0
 40
0.5
  1
0.78
100
AcDbAttributeDefinition
  3

  2
Y
 70
     8
280
     0
  0
ATTDEF
  5
ED
330
D8
100
AcDbEntity
  8
AM_6
100
AcDbText
 10
5.627
 20
-7.476928958475423
 30
0.0
 40
0.5
  1
baldor
100
AcDbAttributeDefinition
  3

  2
COMPANY
 70
     8
280
     0
  0
ARC
  5
EE
330
D8
100
AcDbEntity
  8
AM_9
100
AcDbCircle
 10
0.1600000000000692
 20
0.000000000000002
 30
0.0
 40
0.083333333333269
100
AcDbArc
 50
357.4694709137021
 51
6.238968613942144
  0
CIRCLE
  5
EF
330
D8
100
AcDbEntity
  8
AM_9
100
AcDbCircle
 10
0.1599999999999999
 20
-0.0000000000000001
 30
0.0
 40
0.0296969696969725
  0
LWPOLYLINE
  5
F0
330
D8
100
AcDbEntity
  8
AM_9
100
AcDbPolyline
 90
       11
 70
     0
 43
0.0
 10
0.0998220049365585
 20
-0.0576450877706115
 10
0.0926103722195699
 20
-0.0489779703813697
 10
0.0855847672968826
 20
-0.0373786966785834
 10
0.0804585460710755
 20
-0.0244812806268473
 10
0.0775161804251006
 20
-0.0109015832307393
 10
0.0768705847066462
 20
0.0030585558686963
 10
0.0785289230632627
 20
0.016932750853798
 10
0.082487245800877
 20
0.0303484269433954
 10
0.0886048810832379
 20
0.04290529784352
 10
0.0944971907122711
 20
0.0514931639474632
 10
0.1005067441188569
 20
0.0583520818194215
  0
LINE
  5
F1
330
D8
100
AcDbEntity
  8
AM_9
100
AcDbLine
 10
-0.557221732426352
 20
0.45882600921253
 30
0.0
 11
-0.517778267573648
 21
0.45882600921253
 31
0.0
  0
LINE
  5
F2
330
D8
100
AcDbEntity
  8
AM_9
100
AcDbLine
 10
-0.4395500000000001
 20
0.46875
 30
0.0
 11
-0.4395500000000001
 21
0.6410047816350097
 31
0.0
  0
LINE
  5
F3
330
D8
100
AcDbEntity
  8
AM_9
100
AcDbLine
 10
-0.6354500000000001
 20
0.6410047816350097
 30
0.0
 11
-0.6354500000000001
 21
0.46875
 31
0.0
  0
LINE
  5
F4
330
D8
100
AcDbEntity
  8
AM_9
100
AcDbLine
 10
-0.6354500000000001
 20
0.6410047816350097
 30
0.0
 11
-0.4395500000000001
 21
0.6410047816350097
 31
0.0
  0
LINE
  5
F5
330
D8
100
AcDbEntity
  8
AM_9
100
AcDbLine
 10
-0.4395500000000001
 20
0.6410047816350097
 30
0.0
 11
-0.4205547816350099
 21
0.6599999999999998
 31
0.0
  0
LINE
  5
F6
330
D8
100
AcDbEntity
  8
AM_9
100
AcDbLine
 10
-0.6544452183649901
 20
0.6599999999999998
 30
0.0
 11
-0.6354500000000001
 21
0.6410047816350097
 31
0.0
  0
LWPOLYLINE
  5
F7
330
D8
100
AcDbEntity
  8
AM_9
100
AcDbPolyline
 90
        4
 70
     0
 43
0.0
 10
-0.557221732426352
 20
0.45882600921253
 10
-0.5453453971334462
 20
0.4583718240718851
 10
-0.5329555453218814
 20
0.4583150069586159
 10
-0.517778267573648
 20
0.45882600921253
  0
LWPOLYLINE
  5
F8
330
D8
100
AcDbEntity
  8
AM_9
100
AcDbPolyline
 90
       10
 70
     0
 43
0.0
 10
-0.517778267573648
 20
0.45882600921253
 10
-0.502216072303505
 20
0.459757887973324
 10
-0.4872357735351548
 20
0.4611494903630593
 10
-0.4740948043092302
 20
0.4627662248269473
 10
-0.4623900273499789
 20
0.4645146585324158
 10
-0.4529821443782705
 20
0.4661283384636634
 10
-0.4457482146215897
 20
0.4674941177385292
 10
-0.4413348023904449
 20
0.4683802997899087
 10
-0.4395686064745697
 20
0.4687461123442334
 10
-0.4395500000007067
 20
0.4687499999998523
  0
LWPOLYLINE
  5
F9
330
D8
100
AcDbEntity
  8
AM_9
100
AcDbPolyline
 90
        5
 70
     0
 43
0.0
 10
-0.5572217324263522
 20
0.1069534342480084
 10
-0.553626870402734
 20
0.1061072425096436
 10
-0.5400815024664853
 20
0.1044611588372138
 10
-0.5259891730967318
 20
0.1052756342548978
 10
-0.5177782675736478
 20
0.1069534342480084
  0
LWPOLYLINE
  5
FA
330
D8
100
AcDbEntity
  8
AM_9
100
AcDbPolyline
 90
        4
 70
     0
 43
0.0
 10
-0.5177782675736483
 20
0.280863066661635
 10
-0.5317163750575374
 20
0.2827655521984688
 10
-0.5443848944307446
 20
0.2826917785247733
 10
-0.5572217324263516
 20
0.280863066661635
  0
LINE
  5
FB
330
D8
100
AcDbEntity
  8
AM_9
100
AcDbLine
 10
0.5213956272191864
 20
-0.46875
 30
0.0
 11
0.5336000000000002
 21
-0.46875
 31
0.0
  0
LINE
  5
FC
330
D8
100
AcDbEntity
  8
AM_9
100
AcDbLine
 10
-0.7535999999999998
 20
-0.46875
 30
0.0
 11
-0.1679999999999999
 21
-0.46875
 31
0.0
  0
LINE
  5
FD
330
D8
100
AcDbEntity
  8
AM_9
100
AcDbLine
 10
-0.1680000000000001
 20
0.46875
 30
0.0
 11
-0.4395500000000002
 21
0.46875
 31
0.0
  0
LINE
  5
FE
330
D8
100
AcDbEntity
  8
AM_9
100
AcDbLine
 10
0.5336000000000002
 20
0.46875
 30
0.0
 11
0.4393750051636324
 21
0.46875
 31
0.0
  0
LINE
  5
FF
330
D8
100
AcDbEntity
  8
AM_9
100
AcDbLine
 10
-0.6354500000000001
 20
0.46875
 30
0.0
 11
-0.7535999999999998
 21
0.46875
 31
0.0
  0
LWPOLYLINE
  5
100
330
D8
100
AcDbEntity
  8
AM_9
100
AcDbPolyline
 90
       10
 70
     0
 43
0.0
 10
-0.6354499999992933
 20
0.4687499999998523
 10
-0.6344347847282986
 20
0.4685389124611974
 10
-0.6307116625244497
 20
0.4677828278491761
 10
-0.6245982667710909
 20
0.4666031162289083
 10
-0.6159284695108774
 20
0.4650627751495691
 10
-0.605204531009433
 20
0.463374862847789
 10
-0.5922525442225691
 20
0.4616602658869879
 10
-0.5779639733536518
 20
0.4601844120997201
 10
-0.5620433596054137
 20
0.459058532761042
 10
-0.5572217324263518
 20
0.4588260092125298
  0
LINE
  5
101
330
D8
100
AcDbEntity
  8
AM_9
100
AcDbLine
 10
0.5336000000000002
 20
-0.46875
 30
0.0
 11
0.56
 21
-0.49515
 31
0.0
  0
LINE
  5
102
330
D8
100
AcDbEntity
  8
AM_9
100
AcDbLine
 10
0.56
 20
0.49515
 30
0.0
 11
0.5336000000000002
 21
0.46875
 31
0.0
  0
LINE
  5
103
330
D8
100
AcDbEntity
  8
AM_9
100
AcDbLine
 10
-0.7535999999999998
 20
0.46875
 30
0.0
 11
-0.7799999999999999
 21
0.49515
 31
0.0
  0
LINE
  5
104
330
D8
100
AcDbEntity
  8
AM_9
100
AcDbLine
 10
-0.7799999999999999
 20
-0.49515
 30
0.0
 11
-0.7535999999999998
 21
-0.46875
 31
0.0
  0
ELLIPSE
  5
105
330
D8
100
AcDbEntity
  8
AM_9
100
AcDbEllipse
 10
-0.5375
 20
0.1939082504548206
 30
0.0
 11
0.0979499999999992
 21
0.0
 31
0.0
210
0.0
220
0.0
230
1.0
 40
0.9063077870366468
 41
4.509658239507221
 42
4.915119721262156
  0
LWPOLYLINE
  5
106
330
D8
100
AcDbEntity
  8
AM_9
100
AcDbPolyline
 90
        5
 70
     0
 43
0.0
 10
-0.6264771122038663
 20
0.234462194619617
 10
-0.6292517853784102
 20
0.2286489548512776
 10
-0.633665197609555
 20
0.2148155036330799
 10
-0.6354313935254302
 20
0.1998308992403129
 10
-0.6354499996250806
 20
0.1981100773106948
  0
LWPOLYLINE
  5
107
330
D8
100
AcDbEntity
  8
AM_9
100
AcDbPolyline
 90
       10
 70
     0
 43
0.0
 10
-0.5177782675736478
 20
0.1069534342480084
 10
-0.5022160723035048
 20
0.1114889179418165
 10
-0.4872357735351546
 20
0.1186971960818457
 10
-0.47409480430923
 20
0.1279093189755103
 10
-0.4623900273499788
 20
0.1393323917423738
 10
-0.4529821443782704
 20
0.1521258460462771
 10
-0.4457482146215896
 20
0.1664941479740412
 10
-0.4413348023904449
 20
0.1810766326285186
 10
-0.4395686064745697
 20
0.1963704351529489
 10
-0.4395500003749194
 20
0.1980945430049925
  0
LINE
  5
108
330
D8
100
AcDbEntity
  8
AM_9
100
AcDbLine
 10
-0.4395500000000001
 20
0.1980902494454465
 30
0.0
 11
-0.4395499999999999
 21
0.2709003265820645
 31
0.0
  0
LINE
  5
109
330
D8
100
AcDbEntity
  8
AM_9
100
AcDbLine
 10
-0.63545
 20
0.2709003265820645
 30
0.0
 11
-0.63545
 21
0.1980902494454465
 31
0.0
  0
ELLIPSE
  5
10A
330
D8
100
AcDbEntity
  8
AM_9
100
AcDbEllipse
 10
-0.5375000000000012
 20
0.2709003265820644
 30
0.0
 11
0.09795000000000126
 21
0.0
 31
0.0
210
0.0
220
0.0
230
1.0
 40
0.906307787036649
 41
5.599031424801155
 42
6.283185307179586
  0
ELLIPSE
  5
10B
330
D8
100
AcDbEntity
  8
AM_9
100
AcDbEllipse
 10
-0.5374999999999998
 20
0.2709003265820645
 30
0.0
 11
0.09794999999999981
 21
0.0
 31
0.0
210
0.0
220
0.0
230
1.0
 40
0.9063077870366492
 41
0.0
 42
0.5259016667945886
  0
LWPOLYLINE
  5
10C
330
D8
100
AcDbEntity
  8
AM_9
100
AcDbPolyline
 90
       10
 70
     0
 43
0.0
 10
-0.6354499996250806
 20
0.1981100773106948
 10
-0.6344347847282986
 20
0.185265050999699
 10
-0.6307116625244498
 20
0.1704170365227962
 10
-0.6245982667710911
 20
0.1565817448864546
 10
-0.6159284695108777
 20
0.14336315282519
 10
-0.6052045310094335
 20
0.1316790731423332
 10
-0.5922525442225695
 20
0.1214975650807262
 10
-0.5779639733536521
 20
0.1136385165294581
 10
-0.5620433596054141
 20
0.1080656664106229
 10
-0.557221732426352
 20
0.1069534342480075
  0
LWPOLYLINE
  5
10D
330
D8
100
AcDbEntity
  8
AM_9
100
AcDbPolyline
 90
        3
 70
     0
 43
0.0
 10
-0.4485613259007036
 20
0.2345346922605834
 10
-0.4504017332289093
 20
0.2378082509204556
 10
-0.4585376691037655
 20
0.2491101628736646
  0
LWPOLYLINE
  5
10E
330
D8
100
AcDbEntity
  8
AM_9
100
AcDbPolyline
 90
        4
 70
     0
 43
0.0
 10
-0.4395500003749194
 20
0.1980945430049925
 10
-0.4405652152717015
 20
0.2107611504847596
 10
-0.4442883374755505
 20
0.2249700946327397
 10
-0.4485613259007036
 20
0.2345346922605834
  0
LWPOLYLINE
  5
10F
330
D8
100
AcDbEntity
  8
AM_9
100
AcDbPolyline
 90
        7
 70
     0
 43
0.0
 10
-0.4502226912236821
 20
0.3423597366856269
 10
-0.4472912187184292
 20
0.3396204484745914
 10
-0.4352878062087918
 20
0.325539104533333
 10
-0.4270891663459394
 20
0.3106864109588432
 10
-0.4220813764447215
 20
0.2945650323562777
 10
-0.4207645784413314
 20
0.2847318319226947
 10
-0.4206614749840242
 20
0.2747496993626046
  0
LWPOLYLINE
  5
110
330
D8
100
AcDbEntity
  8
AM_9
100
AcDbPolyline
 90
        7
 70
     0
 43
0.0
 10
-0.4206614749840242
 20
0.2747496993626046
 10
-0.4230068190580289
 20
0.2589268953188114
 10
-0.4282761286528374
 20
0.2435347413480874
 10
-0.4359349025159874
 20
0.2295730863123447
 10
-0.4458236521894932
 20
0.2167838686633847
 10
-0.4584962801140242
 20
0.204785884196659
 10
-0.4625485515669948
 20
0.2016315156756667
  0
LINE
  5
111
330
D8
100
AcDbEntity
  8
AM_9
100
AcDbLine
 10
-0.5381278341185189
 20
-0.6599999999999998
 30
0.0
 11
-0.295
 21
-0.6599999999999998
 31
0.0
  0
LINE
  5
112
330
D8
100
AcDbEntity
  8
AM_9
100
AcDbLine
 10
-0.295
 20
0.6599999999999998
 30
0.0
 11
-0.4205547816350099
 21
0.6599999999999998
 31
0.0
  0
LINE
  5
113
330
D8
100
AcDbEntity
  8
AM_9
100
AcDbLine
 10
-0.4205547816351988
 20
0.6599999999999714
 30
0.0
 11
-0.4224578971601096
 21
0.6597157713091804
 31
0.0
  0
LINE
  5
114
330
D8
100
AcDbEntity
  8
AM_9
100
AcDbLine
 10
0.5336000000000001
 20
-0.66
 30
0.0
 11
0.5377635690287002
 21
-0.6558364309712998
 31
0.0
  0
LINE
  5
115
330
D8
100
AcDbEntity
  8
AM_9
100
AcDbLine
 10
0.295
 20
-0.6599999999999998
 30
0.0
 11
0.5336000000000001
 21
-0.6599999999999998
 31
0.0
  0
LINE
  5
116
330
D8
100
AcDbEntity
  8
AM_9
100
AcDbLine
 10
0.4226427982642994
 20
0.6599999999999998
 30
0.0
 11
0.295
 21
0.6599999999999998
 31
0.0
  0
LINE
  5
117
330
D8
100
AcDbEntity
  8
AM_9
100
AcDbLine
 10
0.5336000000000001
 20
-0.6082466192070991
 30
0.0
 11
0.5336000000000001
 21
-0.6599999999999998
 31
0.0
  0
LINE
  5
118
330
D8
100
AcDbEntity
  8
AM_9
100
AcDbLine
 10
-0.192
 20
-0.9702666666666667
 30
0.0
 11
-0.128
 21
-0.9702666666666667
 31
0.0
  0
LINE
  5
119
330
D8
100
AcDbEntity
  8
AM_9
100
AcDbLine
 10
-0.128
 20
0.9702666666666667
 30
0.0
 11
-0.192
 21
0.9702666666666667
 31
0.0
  0
LINE
  5
11A
330
D8
100
AcDbEntity
  8
AM_9
100
AcDbLine
 10
0.295
 20
0.9560865860370598
 30
0.0
 11
0.295
 21
-0.9560865860370598
 31
0.0
  0
ARC
  5
11B
330
D8
100
AcDbEntity
  8
AM_9
100
AcDbCircle
 10
0.2630000000000001
 20
-0.9560865860370601
 30
0.0
 40
0.0319999999999998
100
AcDbArc
 50
285.3804988373585
 51
0.0
  0
ARC
  5
11C
330
D8
100
AcDbEntity
  8
AM_9
100
AcDbCircle
 10
0.2630000000000001
 20
0.9560865860370601
 30
0.0
 40
0.0319999999999999
100
AcDbArc
 50
0.0
 51
74.61950116264151
  0
ARC
  5
11D
330
D8
100
AcDbEntity
  8
AM_9
100
AcDbCircle
 10
-0.2629999999999998
 20
-0.9560865860370596
 30
0.0
 40
0.0320000000000001
100
AcDbArc
 50
180.0
 51
254.6195040508821
  0
ARC
  5
11E
330
D8
100
AcDbEntity
  8
AM_9
100
AcDbCircle
 10
-0.2629999999999999
 20
0.9560865860370598
 30
0.0
 40
0.032
100
AcDbArc
 50
105.3804959491178
 51
180.0
  0
ARC
  5
11F
330
D8
100
AcDbEntity
  8
AM_9
100
AcDbCircle
 10
-0.00000000000001
 20
0.0000000000000391
 30
0.0
 40
1.02359999999996
100
AcDbArc
 50
100.8111968128524
 51
105.3804959491177
  0
ARC
  5
120
330
D8
100
AcDbEntity
  8
AM_9
100
AcDbCircle
 10
0.000000000035662
 20
0.0000000001534174
 30
0.0
 40
1.023600000157258
100
AcDbArc
 50
254.6195040512333
 51
259.1888031867961
  0
LINE
  5
121
330
D8
100
AcDbEntity
  8
AM_9
100
AcDbLine
 10
-0.2714872932634126
 20
0.9869405299188527
 30
0.0
 11
-0.2714872932634126
 21
-0.9869405299187242
 31
0.0
  0
LINE
  5
122
330
D8
100
AcDbEntity
  8
AM_9
100
AcDbLine
 10
-0.192
 20
1.005431728164573
 30
0.0
 11
-0.192
 21
-1.005431728164445
 31
0.0
  0
LINE
  5
123
330
D8
100
AcDbEntity
  8
AM_9
100
AcDbLine
 10
0.1014115723552389
 20
-0.0592607845928474
 30
0.0
 11
0.0998220049365585
 21
-0.0576450877706115
 31
0.0
  0
LWPOLYLINE
  5
124
330
D8
100
AcDbEntity
  8
AM_9
100
AcDbPolyline
 90
       29
 70
     0
 43
0.0
 10
0.1014115723552388
 20
-0.0592607845928472
 10
0.1122572125092136
 20
-0.0682910770184721
 10
0.1244385545153875
 20
-0.0753646338775037
 10
0.1376488155010544
 20
-0.0802714778236893
 10
0.151478884774984
 20
-0.0828965321335413
 10
0.1656454750493335
 20
-0.0831335764339513
 10
0.1796530072915967
 20
-0.0809827373508805
 10
0.1931401049402622
 20
-0.0764509633461542
 10
0.205685124860909
 20
-0.0696944317064742
 10
0.2168525045621359
 20
-0.0609161169194325
 10
0.2263973607961701
 20
-0.0503570742175163
 10
0.2339317943882969
 20
-0.0384325934593227
 10
0.2393706154945486
 20
-0.025391924709674
 10
0.2424893527356591
 20
-0.0117689816543159
 10
0.2433045319147957
 20
0.0021907548703592
 10
0.2417779932801229
 20
0.0159815306936513
 10
0.2380041670955638
 20
0.0293222502576557
 10
0.2320634919566852
 20
0.0418323624497423
 10
0.2241618592451173
 20
0.0531761249307899
 10
0.214419555364124
 20
0.0631001390498478
 10
0.2031954686663219
 20
0.0712642682635697
 10
0.1906318840595586
 20
0.0774906157349104
 10
0.1772251641845619
 20
0.0815336627612185
 10
0.1631871904171057
 20
0.0832641300730712
 10
0.1490594410189611
 20
0.0826120367357423
 10
0.1351741684621358
 20
0.079540583969936
 10
0.1219918495139532
 20
0.0741608046145351
 10
0.1111428203951423
 20
0.0675017483333972
 10
0.1014115723541883
 20
0.0592607845918085
  0
ARC
  5
125
330
D8
100
AcDbEntity
  8
AM_9
100
AcDbCircle
 10
0.0
 20
0.0000000000000022
 30
0.0
 40
1.023599999999998
100
AcDbArc
 50
74.61950396058948
 51
97.18357665371072
  0
ARC
  5
126
330
D8
100
AcDbEntity
  8
AM_9
100
AcDbCircle
 10
-0.0000000000000323
 20
0.0000000000004614
 30
0.0
 40
1.023600000000445
100
AcDbArc
 50
262.8164233462942
 51
285.3804960394056
  0
LINE
  5
127
330
D8
100
AcDbEntity
  8
AM_9
100
AcDbLine
 10
-0.1279999999999998
 20
1.015565340093881
 30
0.0
 11
-0.1279999999999998
 21
-1.015565340093872
 31
0.0
  0
LINE
  5
128
330
D8
100
AcDbEntity
  8
AM_9
100
AcDbLine
 10
0.2714872948187388
 20
0.9869405294910142
 30
0.0
 11
0.2714872948187388
 21
-0.9869405294910052
 31
0.0
  0
LINE
  5
12A
330
D8
100
AcDbEntity
  8
AM_5
100
AcDbLine
 10
-0.4125
 20
0.46875
 30
0.0
 11
-0.4125
 21
0.6599999999999998
 31
0.0
  0
LINE
  5
12B
330
D8
100
AcDbEntity
  8
AM_5
100
AcDbLine
 10
-0.6625
 20
0.46875
 30
0.0
 11
-0.6625
 21
0.6599999999999998
 31
0.0
  0
LINE
  5
12E
330
D8
100
AcDbEntity
  8
AM_7
100
AcDbLine
 10
0.1599999999999999
 20
-0.0311818181818212
 30
0.0
 11
0.1599999999999999
 21
0.0311818181818211
 31
0.0
  0
LINE
  5
12F
330
D8
100
AcDbEntity
  8
AM_7
100
AcDbLine
 10
-0.847
 20
0.0
 30
0.0
 11
0.6269999999999999
 21
0.0
 31
0.0
  0
LINE
  5
130
330
D8
100
AcDbEntity
  8
AM_7
100
AcDbLine
 10
-0.5375
 20
0.6798687202561338
 30
0.0
 11
-0.5375
 21
0.419962070591406
 31
0.0
  0
LWPOLYLINE
  5
131
330
D8
100
AcDbEntity
  8
AM_4
100
AcDbPolyline
 90
        7
 70
     0
 43
0.0
 10
-0.5572217324263516
 20
0.2808630666616349
 10
-0.5727839276964946
 20
0.2771152409319065
 10
-0.5877642264648447
 20
0.2710831959578457
 10
-0.6009051956907695
 20
0.2632375960818306
 10
-0.6126099726500208
 20
0.253292363341715
 10
-0.6220178556217293
 20
0.2418628502529111
 10
-0.6264771122038663
 20
0.234462194619617
  0
ELLIPSE
  5
132
330
D8
100
AcDbEntity
  8
AM_4
100
AcDbEllipse
 10
-0.5375
 20
0.1939082504548218
 30
0.0
 11
0.0979500000000003
 21
1.459568738937383E-9
 31
0.0
210
0.0
220
0.0
230
1.0
 40
0.9063077870366453
 41
1.368065572293351
 42
1.773527054048269
  0
ELLIPSE
  5
133
330
D8
100
AcDbEntity
  8
AM_4
100
AcDbEllipse
 10
-0.5375
 20
0.2709003265820645
 30
0.0
 11
0.09794999999999998
 21
0.0
 31
0.0
210
0.0
220
0.0
230
1.0
 40
0.90630778703665
 41
3.141592653589793
 42
5.599031424801148
  0
ELLIPSE
  5
134
330
D8
100
AcDbEntity
  8
AM_4
100
AcDbEllipse
 10
-0.5374999999999999
 20
0.2709003265820648
 30
0.0
 11
0.09794999999999987
 21
0.0
 31
0.0
210
0.0
220
0.0
230
1.0
 40
0.9063077870366476
 41
0.5259016667945859
 42
3.141592653589793
  0
LWPOLYLINE
  5
135
330
D8
100
AcDbEntity
  8
AM_4
100
AcDbPolyline
 90
        7
 70
     0
 43
0.0
 10
-0.4585376691037655
 20
0.2491101628736646
 10
-0.4590715304891228
 20
0.2497248904428438
 10
-0.4697954689905671
 20
0.2599822849998026
 10
-0.4827474557774311
 20
0.2687145530870901
 10
-0.4970360266463484
 20
0.275326156114041
 10
-0.5129566403945865
 20
0.2799473718947923
 10
-0.5177782675736485
 20
0.2808630666616356
  0
LWPOLYLINE
  5
136
330
D8
100
AcDbEntity
  8
AM_4
100
AcDbPolyline
 90
       29
 70
     0
 43
0.0
 10
-0.4625485515669948
 20
0.2016315156756667
 10
-0.4729699481751795
 20
0.1947177643390278
 10
-0.4901964113082437
 20
0.1862806071916221
 10
-0.5085999592550255
 20
0.1805295769206162
 10
-0.5288160944415213
 20
0.1775494416395138
 10
-0.5492671266627337
 20
0.1777840020908433
 10
-0.5698350297017148
 20
0.1813837601865159
 10
-0.589478796956315
 20
0.1882421821255527
 10
-0.6074656289128556
 20
0.1981430486101681
 10
-0.623365888499601
 20
0.2108143316084803
 10
-0.6360439473616639
 20
0.2252343070470349
 10
-0.6457523029496319
 20
0.2414236703803242
 10
-0.6516104344390986
 20
0.2574289313067232
 10
-0.6542941108041649
 20
0.2739540770169125
 10
-0.6537759398670202
 20
0.2892252011485631
 10
-0.6504415215901896
 20
0.3040234672692083
 10
-0.6445040454015506
 20
0.3177308355725635
 10
-0.6361946477186203
 20
0.3302924191042326
 10
-0.62519732793276
 20
0.3419733544985236
 10
-0.6122416833167247
 20
0.3519494540433007
 10
-0.5964457430728898
 20
0.3606409378324031
 10
-0.5792289197642856
 20
0.3670944909756368
 10
-0.5597665062562687
 20
0.3714155205989788
 10
-0.5397166842617946
 20
0.3730683048788331
 10
-0.5189402803683477
 20
0.3719253269484317
 10
-0.4986857769239588
 20
0.3679281415066467
 10
-0.4795018300478562
 20
0.3610661668525831
 10
-0.4620245905247538
 20
0.3514641221075212
 10
-0.4502226912236821
 20
0.3423597366856269
  0
LINE
  5
137
330
D8
100
AcDbEntity
  8
AM_4
100
AcDbLine
 10
-0.7535999999999998
 20
-0.6599999999999998
 30
0.0
 11
-0.5381278341185189
 21
-0.6599999999999998
 31
0.0
  0
LINE
  5
138
330
D8
100
AcDbEntity
  8
AM_4
100
AcDbLine
 10
-0.6544452183649901
 20
0.6599999999999999
 30
0.0
 11
-0.7535999999999998
 21
0.6599999999999998
 31
0.0
  0
LWPOLYLINE
  5
139
330
D8
100
AcDbEntity
  8
AM_4
100
AcDbPolyline
 90
       19
 70
     0
 43
0.0
 10
-0.4224578971601096
 20
0.6597157713091804
 10
-0.4258068200912996
 20
0.6592264484058573
 10
-0.4324416610495383
 20
0.6582979989657364
 10
-0.4414657641280407
 20
0.6571232456520627
 10
-0.4528691235174713
 20
0.6557852061745101
 10
-0.466783926965304
 20
0.6543762611678848
 10
-0.4827216400526053
 20
0.6530679658486555
 10
-0.5008061147716124
 20
0.6519825085941158
 10
-0.5203206269952017
 20
0.651291056094025
 10
-0.540654510009623
 20
0.6511032745384523
 10
-0.5614702068852303
 20
0.6514749680500729
 10
-0.5812923201595684
 20
0.6523577463412169
 10
-0.6004114338406048
 20
0.653694632074233
 10
-0.6168436870884977
 20
0.6552207402206923
 10
-0.6313676238678517
 20
0.6568563949699773
 10
-0.6419479438301265
 20
0.6582153302738686
 10
-0.649708239114298
 20
0.6593008046797804
 10
-0.6535486445030078
 20
0.6598655424087831
 10
-0.654445218364502
 20
0.6599999999999263
  0
LINE
  5
13A
330
D8
100
AcDbEntity
  8
AM_4
100
AcDbLine
 10
0.56
 20
0.6336
 30
0.0
 11
0.5336000000000001
 21
0.66
 31
0.0
  0
LINE
  5
13B
330
D8
100
AcDbEntity
  8
AM_4
100
AcDbLine
 10
0.5377635690287002
 20
-0.6558364309712998
 30
0.0
 11
0.56
 21
-0.6336
 31
0.0
  0
LINE
  5
13C
330
D8
100
AcDbEntity
  8
AM_4
100
AcDbLine
 10
0.56
 20
0.6336
 30
0.0
 11
0.56
 21
-0.6336
 31
0.0
  0
LINE
  5
13D
330
D8
100
AcDbEntity
  8
AM_4
100
AcDbLine
 10
-0.7799999999999999
 20
-0.6336
 30
0.0
 11
-0.7535999999999998
 21
-0.66
 31
0.0
  0
LINE
  5
13E
330
D8
100
AcDbEntity
  8
AM_4
100
AcDbLine
 10
-0.7535999999999998
 20
0.66
 30
0.0
 11
-0.7799999999999999
 21
0.6336
 31
0.0
  0
LINE
  5
13F
330
D8
100
AcDbEntity
  8
AM_4
100
AcDbLine
 10
-0.7799999999999999
 20
0.6336
 30
0.0
 11
-0.7799999999999999
 21
-0.6336
 31
0.0
  0
LINE
  5
140
330
D8
100
AcDbEntity
  8
AM_4
100
AcDbLine
 10
-0.7535999999999998
 20
0.66
 30
0.0
 11
-0.7535999999999998
 21
-0.66
 31
0.0
  0
LINE
  5
141
330
D8
100
AcDbEntity
  8
AM_4
100
AcDbLine
 10
0.5336000000000001
 20
0.6599999999999998
 30
0.0
 11
0.4226427982642994
 21
0.6599999999999998
 31
0.0
  0
LINE
  5
142
330
D8
100
AcDbEntity
  8
AM_4
100
AcDbLine
 10
0.5336000000000001
 20
0.6599999999999998
 30
0.0
 11
0.5336000000000001
 21
-0.6082466192070991
 31
0.0
  0
ENDBLK
  5
DB
330
D8
100
AcDbEntity
  8
0
100
AcDbBlockEnd
  0
BLOCK
  5
145
330
143
100
AcDbEntity
  8
0
100
AcDbBlockBegin
  2
4_067839H_0_in_067839_2
 70
     2
 10
0.0
 20
0.0
 30
0.0
  3
4_067839H_0_in_067839_2
  1

  0
ATTDEF
  5
147
330
143
100
AcDbEntity
  8
AM_6
100
AcDbText
 10
5.56
 20
1.27
 30
0.0
 40
0.5
  1
P2B-SCEZ-SHCR I-Housing
100
AcDbAttributeDefinition
  3

  2
NN
 70
     8
280
     0
  0
ATTDEF
  5
148
330
143
100
AcDbEntity
  8
AM_6
100
AcDbText
 10
5.56
 20
0.77
 30
0.0
 40
0.5
  1
SC Pillow Block Bearings -(Normal Duty) -Corrosion Resistant Insert -E-Z KLEEN
100
AcDbAttributeDefinition
  3

  2
NT
 70
     8
280
     0
  0
ATTDEF
  5
149
330
143
100
AcDbEntity
  8
AM_6
100
AcDbText
 10
5.56
 20
0.27
 30
0.0
 40
0.5
  1
067839H
100
AcDbAttributeDefinition
  3

  2
NB
 70
     8
280
     0
  0
ATTDEF
  5
14A
330
143
100
AcDbEntity
  8
AM_6
100
AcDbText
 10
5.56
 20
-0.23
 30
0.0
 40
0.5
  1
$PN.H
100
AcDbAttributeDefinition
  3

  2
NBSYN
 70
     8
280
     0
  0
ATTDEF
  5
14B
330
143
100
AcDbEntity
  8
AM_6
100
AcDbText
 10
5.56
 20
-0.73
 30
0.0
 40
0.5
  1
067839
100
AcDbAttributeDefinition
  3

  2
LINA
 70
     8
280
     0
  0
ATTDEF
  5
14C
330
143
100
AcDbEntity
  8
AM_6
100
AcDbText
 10
5.56
 20
-1.23
 30
0.0
 40
0.5
  1
205
100
AcDbAttributeDefinition
  3

  2
SERIES
 70
     8
280
     0
  0
ATTDEF
  5
14D
330
143
100
AcDbEntity
  8
AM_6
100
AcDbText
 10
5.56
 20
-1.73
 30
0.0
 40
0.5
  1
15/16
100
AcDbAttributeDefinition
  3

  2
SS
 70
     8
280
     0
  0
ATTDEF
  5
14E
330
143
100
AcDbEntity
  8
AM_6
100
AcDbText
 10
5.56
 20
-2.23
 30
0.0
 40
0.5
  1
067839
100
AcDbAttributeDefinition
  3

  2
PN
 70
     8
280
     0
  0
ATTDEF
  5
14F
330
143
100
AcDbEntity
  8
AM_6
100
AcDbText
 10
5.56
 20
-2.73
 30
0.0
 40
0.5
  1
P2B-SCEZ-015-SHCR
100
AcDbAttributeDefinition
  3

  2
DESCRIPTION
 70
     8
280
     0
  0
ATTDEF
  5
150
330
143
100
AcDbEntity
  8
AM_6
100
AcDbText
 10
5.56
 20
-3.23
 30
0.0
 40
0.5
  1
1.34
100
AcDbAttributeDefinition
  3

  2
A
 70
     8
280
     0
  0
ATTDEF
  5
151
330
143
100
AcDbEntity
  8
AM_6
100
AcDbText
 10
5.56
 20
-3.73
 30
0.0
 40
0.5
  1
5.50
100
AcDbAttributeDefinition
  3

  2
B
 70
     8
280
     0
  0
ATTDEF
  5
152
330
143
100
AcDbEntity
  8
AM_6
100
AcDbText
 10
5.56
 20
-4.23
 30
0.0
 40
0.5
  1
1.12
100
AcDbAttributeDefinition
  3

  2
C
 70
     8
280
     0
  0
ATTDEF
  5
153
330
143
100
AcDbEntity
  8
AM_6
100
AcDbText
 10
5.56
 20
-4.73
 30
0.0
 40
0.5
  1
3.68
100
AcDbAttributeDefinition
  3

  2
DMIN
 70
     8
280
     0
  0
ATTDEF
  5
154
330
143
100
AcDbEntity
  8
AM_6
100
AcDbText
 10
5.56
 20
-5.23
 30
0.0
 40
0.5
  1
4.50
100
AcDbAttributeDefinition
  3

  2
DMAX
 70
     8
280
     0
  0
ATTDEF
  5
155
330
143
100
AcDbEntity
  8
AM_6
100
AcDbText
 10
5.56
 20
-5.73
 30
0.0
 40
0.5
  1
3/8
100
AcDbAttributeDefinition
  3

  2
F
 70
     8
280
     0
  0
ATTDEF
  5
156
330
143
100
AcDbEntity
  8
AM_6
100
AcDbText
 10
5.56
 20
-6.23
 30
0.0
 40
0.5
  1
0.85
100
AcDbAttributeDefinition
  3

  2
G
 70
     8
280
     0
  0
ATTDEF
  5
157
330
143
100
AcDbEntity
  8
AM_6
100
AcDbText
 10
5.56
 20
-6.73
 30
0.0
 40
0.5
  1
0.53
100
AcDbAttributeDefinition
  3

  2
H
 70
     8
280
     0
  0
ATTDEF
  5
158
330
143
100
AcDbEntity
  8
AM_6
100
AcDbText
 10
5.56
 20
-7.23
 30
0.0
 40
0.5
  1
2.71
100
AcDbAttributeDefinition
  3

  2
J
 70
     8
280
     0
  0
ATTDEF
  5
159
330
143
100
AcDbEntity
  8
AM_6
100
AcDbText
 10
5.56
 20
-7.73
 30
0.0
 40
0.5
  1
1.32
100
AcDbAttributeDefinition
  3

  2
L
 70
     8
280
     0
  0
ATTDEF
  5
15A
330
143
100
AcDbEntity
  8
AM_6
100
AcDbText
 10
5.56
 20
-8.23
 30
0.0
 40
0.5
  1
1.44
100
AcDbAttributeDefinition
  3

  2
M
 70
     8
280
     0
  0
ATTDEF
  5
15B
330
143
100
AcDbEntity
  8
AM_6
100
AcDbText
 10
5.56
 20
-8.73
 30
0.0
 40
0.5
  1
0.56
100
AcDbAttributeDefinition
  3

  2
R
 70
     8
280
     0
  0
ATTDEF
  5
15C
330
143
100
AcDbEntity
  8
AM_6
100
AcDbText
 10
5.56
 20
-9.23
 30
0.0
 40
0.5
  1
0.78
100
AcDbAttributeDefinition
  3

  2
S
 70
     8
280
     0
  0
ATTDEF
  5
15D
330
143
100
AcDbEntity
  8
AM_6
100
AcDbText
 10
5.56
 20
-9.73
 30
0.0
 40
0.5
  1
baldor
100
AcDbAttributeDefinition
  3

  2
COMPANY
 70
     8
280
     0
  0
LINE
  5
15E
330
143
100
AcDbEntity
  8
AM_9
100
AcDbLine
 10
0.4806882740996312
 20
-1.334
 30
0.0
 11
0.4806882740996312
 21
-0.46875
 31
0.0
  0
LINE
  5
15F
330
143
100
AcDbEntity
  8
AM_9
100
AcDbLine
 10
-0.4806882740996312
 20
-1.334
 30
0.0
 11
-0.4806882740996312
 21
-0.5904224335168852
 31
0.0
  0
LINE
  5
160
330
143
100
AcDbEntity
  8
AM_9
100
AcDbLine
 10
-0.4866882740996314
 20
-1.334
 30
0.0
 11
0.4866882740996314
 21
-1.334
 31
0.0
  0
LINE
  5
161
330
143
100
AcDbEntity
  8
AM_9
100
AcDbLine
 10
-0.168
 20
-0.46875
 30
0.0
 11
0.5213956272191862
 21
-0.46875
 31
0.0
  0
LINE
  5
162
330
143
100
AcDbEntity
  8
AM_9
100
AcDbLine
 10
-0.168
 20
0.4687499999999996
 30
0.0
 11
0.4393750051636324
 21
0.4687499999999996
 31
0.0
  0
LINE
  5
163
330
143
100
AcDbEntity
  8
AM_9
100
AcDbLine
 10
-0.5599999999999999
 20
-1.407311725900368
 30
0.0
 11
-0.4866882740996314
 21
-1.334
 31
0.0
  0
LINE
  5
164
330
143
100
AcDbEntity
  8
AM_9
100
AcDbLine
 10
0.4866882740996314
 20
-1.334
 30
0.0
 11
0.56
 21
-1.407311725900368
 31
0.0
  0
LINE
  5
165
330
143
100
AcDbEntity
  8
AM_9
100
AcDbLine
 10
-0.295
 20
-1.0236
 30
0.0
 11
0.4806882740996312
 21
-1.0236
 31
0.0
  0
LINE
  5
166
330
143
100
AcDbEntity
  8
AM_9
100
AcDbLine
 10
0.3908319202062735
 20
1.0236
 30
0.0
 11
-0.295
 21
1.0236
 31
0.0
  0
LINE
  5
167
330
143
100
AcDbEntity
  8
AM_9
100
AcDbLine
 10
-0.168
 20
-0.46875
 30
0.0
 11
-0.168
 21
0.4687499999999996
 31
0.0
  0
LINE
  5
168
330
143
100
AcDbEntity
  8
AM_9
100
AcDbLine
 10
-0.5254255934503863
 20
-0.5148127248009831
 30
0.0
 11
-0.4806882740996315
 21
-0.5904224335168851
 31
0.0
  0
LINE
  5
169
330
143
100
AcDbEntity
  8
AM_9
100
AcDbLine
 10
-0.4806882740996311
 20
-1.0861
 30
0.0
 11
-0.2949999999999999
 21
-1.0861
 31
0.0
  0
LINE
  5
16A
330
143
100
AcDbEntity
  8
AM_9
100
AcDbLine
 10
-0.2949999999999999
 20
1.0861
 30
0.0
 11
-0.3853638787359032
 21
1.0861
 31
0.0
  0
LINE
  5
16B
330
143
100
AcDbEntity
  8
AM_9
100
AcDbLine
 10
-0.2949999999999999
 20
1.0861
 30
0.0
 11
-0.2949999999999999
 21
-1.0861
 31
0.0
  0
LINE
  5
16C
330
143
100
AcDbEntity
  8
AM_9
100
AcDbLine
 10
0.2200000000000001
 20
-0.9099999999999998
 30
0.0
 11
0.2200000000000001
 21
-1.44
 31
0.0
  0
LINE
  5
16D
330
143
100
AcDbEntity
  8
AM_9
100
AcDbLine
 10
-0.2199999999999999
 20
-0.9099999999999998
 30
0.0
 11
-0.2199999999999999
 21
-1.44
 31
0.0
  0
LINE
  5
16E
330
143
100
AcDbEntity
  8
AM_4
100
AcDbLine
 10
0.3692747135134857
 20
1.27
 30
0.0
 11
-0.3692747135134858
 21
1.27
 31
0.0
  0
LINE
  5
16F
330
143
100
AcDbEntity
  8
AM_4
100
AcDbLine
 10
-0.4803853161914092
 20
-0.0000000000000003
 30
0.0
 11
0.4803853161914093
 21
-0.0000000000000003
 31
0.0
  0
LINE
  5
170
330
143
100
AcDbEntity
  8
AM_4
100
AcDbLine
 10
-0.5553631007640307
 20
-0.8569999992102384
 30
0.0
 11
0.5553631007640311
 21
-0.8569999992102385
 31
0.0
  0
LINE
  5
171
330
143
100
AcDbEntity
  8
AM_4
100
AcDbLine
 10
-0.3692747135134858
 20
1.27
 30
0.0
 11
-0.5599999999999999
 21
-0.9099999999999998
 31
0.0
  0
LINE
  5
172
330
143
100
AcDbEntity
  8
AM_4
100
AcDbLine
 10
0.5600000000000003
 20
-0.9099999999999998
 30
0.0
 11
0.3692747135134857
 21
1.27
 31
0.0
  0
LINE
  5
173
330
143
100
AcDbEntity
  8
AM_4
100
AcDbLine
 10
-0.4199999999999999
 20
-0.9629999999999989
 30
0.0
 11
0.4200000000000002
 21
-0.9629999999999989
 31
0.0
  0
LINE
  5
174
330
143
100
AcDbEntity
  8
AM_4
100
AcDbLine
 10
0.4200000000000002
 20
-0.9629999999999989
 30
0.0
 11
0.4200000000000002
 21
-1.44
 31
0.0
  0
LINE
  5
175
330
143
100
AcDbEntity
  8
AM_4
100
AcDbLine
 10
-0.5599999999999999
 20
-1.44
 30
0.0
 11
0.5600000000000002
 21
-1.44
 31
0.0
  0
LINE
  5
176
330
143
100
AcDbEntity
  8
AM_4
100
AcDbLine
 10
0.56
 20
-0.9099999999999998
 30
0.0
 11
0.5600000000000002
 21
-1.44
 31
0.0
  0
LINE
  5
177
330
143
100
AcDbEntity
  8
AM_4
100
AcDbLine
 10
-0.5599999999999999
 20
-0.9099999999999998
 30
0.0
 11
0.56
 21
-0.9099999999999998
 31
0.0
  0
LWPOLYLINE
  5
178
330
143
100
AcDbEntity
  8
AM_4
100
AcDbPolyline
 90
       19
 70
     0
 43
0.0
 10
0.4200000000000002
 20
-0.9629999999999989
 10
0.4202016810011376
 20
-0.958380745634373
 10
0.4208051890903532
 20
-0.9537966465836517
 10
0.4218059312066795
 20
-0.9492825906095655
 10
0.423196291098347
 20
-0.9448729324037387
 10
0.4249656872870576
 20
-0.9406012321277422
 10
0.4271006535994248
 20
-0.9364999999999993
 10
0.4295849416526835
 20
-0.9326004488733939
 10
0.4323996445146941
 20
-0.9289322566866128
 10
0.4355233405971128
 20
-0.9255233405971125
 10
0.4389322566866132
 20
-0.9223996445146937
 10
0.4426004488733943
 20
-0.919584941652683
 10
0.4464999999999997
 20
-0.9171006535994245
 10
0.4506012321277426
 20
-0.9149656872870572
 10
0.4548729324037391
 20
-0.9131962910983465
 10
0.4592825906095658
 20
-0.9118059312066791
 10
0.4637966465836521
 20
-0.9108051890903528
 10
0.4683807456343734
 20
-0.9102016810011372
 10
0.4729999999999991
 20
-0.9099999999999997
  0
LINE
  5
179
330
143
100
AcDbEntity
  8
AM_4
100
AcDbLine
 10
-0.5599999999999999
 20
-0.9099999999999998
 30
0.0
 11
-0.5599999999999999
 21
-1.44
 31
0.0
  0
LINE
  5
17A
330
143
100
AcDbEntity
  8
AM_4
100
AcDbLine
 10
-0.4199999999999999
 20
-0.9629999999999989
 30
0.0
 11
-0.4199999999999999
 21
-1.44
 31
0.0
  0
LWPOLYLINE
  5
17B
330
143
100
AcDbEntity
  8
AM_4
100
AcDbPolyline
 90
       19
 70
     0
 43
0.0
 10
-0.4729999999999989
 20
-0.9099999999999997
 10
-0.4683807456343732
 20
-0.9102016810011372
 10
-0.4637966465836518
 20
-0.9108051890903528
 10
-0.4592825906095656
 20
-0.9118059312066791
 10
-0.4548729324037388
 20
-0.9131962910983464
 10
-0.4506012321277423
 20
-0.9149656872870572
 10
-0.4464999999999994
 20
-0.9171006535994243
 10
-0.4426004488733941
 20
-0.919584941652683
 10
-0.438932256686613
 20
-0.9223996445146937
 10
-0.4355233405971126
 20
-0.9255233405971124
 10
-0.4323996445146938
 20
-0.9289322566866128
 10
-0.4295849416526831
 20
-0.9326004488733939
 10
-0.4271006535994245
 20
-0.9364999999999993
 10
-0.4249656872870573
 20
-0.9406012321277422
 10
-0.4231962910983467
 20
-0.9448729324037387
 10
-0.4218059312066792
 20
-0.9492825906095654
 10
-0.4208051890903529
 20
-0.9537966465836516
 10
-0.4202016810011374
 20
-0.958380745634373
 10
-0.4199999999999999
 20
-0.9629999999999989
  0
ENDBLK
  5
146
330
143
100
AcDbEntity
  8
0
100
AcDbBlockEnd
  0
ENDSEC
  0
SECTION
  2
ENTITIES
  0
INSERT
  5
6F
330
1F
100
AcDbEntity
  8
0
100
AcDbBlockReference
  2
1_067839_2
 10
0.0
 20
0.0
 30
0.0
  0
POINT
  5
17D
330
1F
100
AcDbEntity
  8
ConnectionPoints
100
AcDbPoint
 10
0.56
 20
0.0
 30
0.0
  0
POINT
  5
17E
330
1F
100
AcDbEntity
  8
ConnectionPoints
100
AcDbPoint
 10
-0.78
 20
0.0
 30
0.0
  0
POINT
  5
17F
330
1F
100
AcDbEntity
  8
ConnectionPoints
100
AcDbPoint
 10
-0.0737499999999999
 20
0.8980256121069153
 30
0.8980256121069154
  0
POINT
  5
180
330
1F
100
AcDbEntity
  8
ConnectionPoints
100
AcDbPoint
 10
-0.78
 20
0.0
 30
0.0
  0
ENDSEC
  0
SECTION
  2
OBJECTS
  0
DICTIONARY
  5
C
330
0
100
AcDbDictionary
281
     1
  3
ACAD_DETAILVIEWSTYLE
350
188
  3
ACAD_GROUP
350
D
  3
ACAD_LAYOUT
350
1A
  3
ACAD_MATERIAL
350
43
  3
ACAD_MLEADERSTYLE
350
6B
  3
ACAD_MLINESTYLE
350
17
  3
ACAD_PLOTSETTINGS
350
19
  3
ACAD_PLOTSTYLENAME
350
E
  3
ACAD_SCALELIST
350
47
  3
ACAD_SECTIONVIEWSTYLE
350
189
  3
ACAD_TABLESTYLE
350
69
  3
ACAD_VISUALSTYLE
350
2A
  3
ACDB_RECOMPOSE_DATA
350
185
  3
AcDbVariableDictionary
350
181
  0
SUN
  5
6D
330
29
100
AcDbSun
 90
        1
290
     0
 63
     7
421
 16777215
 40
1.0
291
     1
 91
  2455826
 92
 54000000
292
     0
 70
     2
 71
   256
280
     1
  0
DICTIONARY
  5
188
102
{ACAD_REACTORS
330
C
102
}
330
C
100
AcDbDictionary
281
     1
  0
DICTIONARY
  5
D
102
{ACAD_REACTORS
330
C
102
}
330
C
100
AcDbDictionary
281
     1
  0
DICTIONARY
  5
1A
102
{ACAD_REACTORS
330
C
102
}
330
C
100
AcDbDictionary
281
     1
  3
Layout1
350
1E
  3
Layout2
350
26
  3
Model
350
22
  0
DICTIONARY
  5
43
102
{ACAD_REACTORS
330
C
102
}
330
C
100
AcDbDictionary
281
     1
  3
ByBlock
350
45
  3
ByLayer
350
44
  3
Global
350
46
  0
DICTIONARY
  5
6B
102
{ACAD_REACTORS
330
C
102
}
330
C
100
AcDbDictionary
281
     1
  3
Standard
350
6C
  0
DICTIONARY
  5
17
102
{ACAD_REACTORS
330
C
102
}
330
C
100
AcDbDictionary
281
     1
  3
Standard
350
18
  0
DICTIONARY
  5
19
102
{ACAD_REACTORS
330
C
102
}
330
C
100
AcDbDictionary
281
     1
  0
ACDBDICTIONARYWDFLT
  5
E
102
{ACAD_REACTORS
330
C
102
}
330
C
100
AcDbDictionary
281
     1
  3
Normal
350
F
100
AcDbDictionaryWithDefault
340
F
  0
DICTIONARY
  5
47
102
{ACAD_REACTORS
330
C
102
}
330
C
100
AcDbDictionary
281
     1
  3
A0
350
48
  3
A1
350
49
  3
A2
350
4A
  3
A3
350
4B
  3
A4
350
4C
  3
A5
350
4D
  3
A6
350
4E
  3
A7
350
4F
  3
A8
350
50
  3
A9
350
51
  3
B0
350
52
  3
B1
350
53
  3
B2
350
54
  3
B3
350
55
  3
B4
350
56
  3
B5
350
57
  3
B6
350
58
  3
B7
350
59
  3
B8
350
5A
  3
B9
350
5B
  3
C0
350
5C
  3
C1
350
5D
  3
C2
350
5E
  3
C3
350
5F
  3
C4
350
60
  3
C5
350
61
  3
C6
350
62
  3
C7
350
63
  3
C8
350
64
  3
C9
350
65
  3
D0
350
66
  3
D1
350
67
  3
D2
350
68
  0
DICTIONARY
  5
189
102
{ACAD_REACTORS
330
C
102
}
330
C
100
AcDbDictionary
281
     1
  0
DICTIONARY
  5
69
102
{ACAD_REACTORS
330
C
102
}
330
C
100
AcDbDictionary
281
     1
  3
Standard
350
6A
  0
DICTIONARY
  5
2A
102
{ACAD_REACTORS
330
C
102
}
330
C
100
AcDbDictionary
281
     1
  3
2dWireframe
350
2F
  3
Basic
350
32
  3
Brighten
350
36
  3
ColorChange
350
3A
  3
Conceptual
350
34
  3
Dim
350
35
  3
EdgeColorOff
350
3D
  3
Facepattern
350
39
  3
Flat
350
2B
  3
FlatWithEdges
350
2C
  3
Gouraud
350
2D
  3
GouraudWithEdges
350
2E
  3
Hidden
350
31
  3
JitterOff
350
3B
  3
Linepattern
350
38
  3
OverhangOff
350
3C
  3
Realistic
350
33
  3
Shaded
350
42
  3
Shaded with edges
350
41
  3
Shades of Gray
350
3E
  3
Sketchy
350
3F
  3
Thicken
350
37
  3
Wireframe
350
30
  3
X-Ray
350
40
  0
XRECORD
  5
185
102
{ACAD_REACTORS
330
C
102
}
330
C
100
AcDbXrecord
280
     1
 90
        1
330
6A
  0
DICTIONARY
  5
181
102
{ACAD_REACTORS
330
C
102
}
330
C
100
AcDbDictionary
281
     1
  3
CANNOSCALE
350
182
  3
CMLEADERSTYLE
350
187
  3
CTABLESTYLE
350
186
  0
LAYOUT
  5
1E
102
{ACAD_REACTORS
330
1A
102
}
330
1A
100
AcDbPlotSettings
  1

  2
none_device
  4

  6

 40
0.0
 41
0.0
 42
0.0
 43
0.0
 44
0.0
 45
0.0
 46
0.0
 47
0.0
 48
0.0
 49
0.0
140
0.0
141
0.0
142
1.0
143
1.0
 70
   688
 72
     0
 73
     0
 74
     5
  7

 75
    16
 76
     0
 77
     2
 78
   300
147
1.0
148
0.0
149
0.0
100
AcDbLayout
  1
Layout1
 70
     1
 71
     1
 10
0.0
 20
0.0
 11
12.0
 21
9.0
 12
0.0
 22
0.0
 32
0.0
 14
1.000000000000000E+20
 24
1.000000000000000E+20
 34
1.000000000000000E+20
 15
-1.000000000000000E+20
 25
-1.000000000000000E+20
 35
-1.000000000000000E+20
146
0.0
 13
0.0
 23
0.0
 33
0.0
 16
1.0
 26
0.0
 36
0.0
 17
0.0
 27
1.0
 37
0.0
 76
     0
330
1B
  0
LAYOUT
  5
26
102
{ACAD_REACTORS
330
1A
102
}
330
1A
100
AcDbPlotSettings
  1

  2
none_device
  4

  6

 40
0.0
 41
0.0
 42
0.0
 43
0.0
 44
0.0
 45
0.0
 46
0.0
 47
0.0
 48
0.0
 49
0.0
140
0.0
141
0.0
142
1.0
143
1.0
 70
   688
 72
     0
 73
     0
 74
     5
  7

 75
    16
 76
     0
 77
     2
 78
   300
147
1.0
148
0.0
149
0.0
100
AcDbLayout
  1
Layout2
 70
     1
 71
     2
 10
0.0
 20
0.0
 11
0.0
 21
0.0
 12
0.0
 22
0.0
 32
0.0
 14
0.0
 24
0.0
 34
0.0
 15
0.0
 25
0.0
 35
0.0
146
0.0
 13
0.0
 23
0.0
 33
0.0
 16
1.0
 26
0.0
 36
0.0
 17
0.0
 27
1.0
 37
0.0
 76
     0
330
23
  0
LAYOUT
  5
22
102
{ACAD_REACTORS
330
1A
102
}
330
1A
100
AcDbPlotSettings
  1

  2
none_device
  4
Letter_(8.50_x_11.00_Inches)
  6

 40
6.35
 41
6.35
 42
6.35000508
 43
6.35000508
 44
215.9
 45
279.4
 46
0.0
 47
0.0
 48
0.0
 49
0.0
140
0.0
141
0.0
142
1.0
143
1.0
 70
  1712
 72
     0
 73
     0
 74
     0
  7

 75
     0
 76
     0
 77
     2
 78
   300
147
1.0
148
0.0
149
0.0
100
AcDbLayout
  1
Model
 70
     1
 71
     0
 10
0.0
 20
0.0
 11
12.0
 21
9.0
 12
0.0
 22
0.0
 32
0.0
 14
1.000000000000000E+20
 24
1.000000000000000E+20
 34
1.000000000000000E+20
 15
-1.000000000000000E+20
 25
-1.000000000000000E+20
 35
-1.000000000000000E+20
146
0.0
 13
0.0
 23
0.0
 33
0.0
 16
1.0
 26
0.0
 36
0.0
 17
0.0
 27
1.0
 37
0.0
 76
     0
330
1F
331
29
  0
MATERIAL
  5
45
102
{ACAD_REACTORS
330
43
102
}
330
43
100
AcDbMaterial
  1
ByBlock
 72
     1
 94
      127
  0
MATERIAL
  5
44
102
{ACAD_REACTORS
330
43
102
}
330
43
100
AcDbMaterial
  1
ByLayer
 72
     1
 94
      127
  0
MATERIAL
  5
46
102
{ACAD_REACTORS
330
43
102
}
330
43
100
AcDbMaterial
  1
Global
 72
     1
 94
      127
  0
MLEADERSTYLE
  5
6C
102
{ACAD_REACTORS
330
6B
102
}
330
6B
100
AcDbMLeaderStyle
179
     2
170
     2
171
     1
172
     0
 90
        2
 40
0.0
 41
0.0
173
     1
 91
-1056964608
340
14
 92
       -2
290
     1
 42
0.09
291
     1
 43
0.36
  3
Standard
341
0
 44
0.18
300

342
11
174
     1
178
     6
175
     1
176
     0
 93
-1056964608
 45
0.18
292
     0
297
     0
 46
0.18
343
0
 94
-1056964608
 47
1.0
 49
1.0
140
1.0
293
     1
141
0.0
294
     1
177
     0
142
1.0
295
     0
296
     0
143
0.125
271
     0
272
     9
273
     9
298
     0
  0
MLINESTYLE
  5
18
102
{ACAD_REACTORS
330
17
102
}
330
17
100
AcDbMlineStyle
  2
Standard
 70
     0
  3

 62
   256
 51
90.0
 52
90.0
 71
     2
 49
0.5
 62
   256
  6
BYLAYER
 49
-0.5
 62
   256
  6
BYLAYER
  0
ACDBPLACEHOLDER
  5
F
102
{ACAD_REACTORS
330
E
102
}
330
E
  0
SCALE
  5
48
102
{ACAD_REACTORS
330
47
102
}
330
47
100
AcDbScale
 70
     0
300
1:1
140
1.0
141
1.0
290
     1
  0
SCALE
  5
49
102
{ACAD_REACTORS
330
47
102
}
330
47
100
AcDbScale
 70
     0
300
1:2
140
1.0
141
2.0
290
     0
  0
SCALE
  5
4A
102
{ACAD_REACTORS
330
47
102
}
330
47
100
AcDbScale
 70
     0
300
1:4
140
1.0
141
4.0
290
     0
  0
SCALE
  5
4B
102
{ACAD_REACTORS
330
47
102
}
330
47
100
AcDbScale
 70
     0
300
1:5
140
1.0
141
5.0
290
     0
  0
SCALE
  5
4C
102
{ACAD_REACTORS
330
47
102
}
330
47
100
AcDbScale
 70
     0
300
1:8
140
1.0
141
8.0
290
     0
  0
SCALE
  5
4D
102
{ACAD_REACTORS
330
47
102
}
330
47
100
AcDbScale
 70
     0
300
1:10
140
1.0
141
10.0
290
     0
  0
SCALE
  5
4E
102
{ACAD_REACTORS
330
47
102
}
330
47
100
AcDbScale
 70
     0
300
1:16
140
1.0
141
16.0
290
     0
  0
SCALE
  5
4F
102
{ACAD_REACTORS
330
47
102
}
330
47
100
AcDbScale
 70
     0
300
1:20
140
1.0
141
20.0
290
     0
  0
SCALE
  5
50
102
{ACAD_REACTORS
330
47
102
}
330
47
100
AcDbScale
 70
     0
300
1:30
140
1.0
141
30.0
290
     0
  0
SCALE
  5
51
102
{ACAD_REACTORS
330
47
102
}
330
47
100
AcDbScale
 70
     0
300
1:40
140
1.0
141
40.0
290
     0
  0
SCALE
  5
52
102
{ACAD_REACTORS
330
47
102
}
330
47
100
AcDbScale
 70
     0
300
1:50
140
1.0
141
50.0
290
     0
  0
SCALE
  5
53
102
{ACAD_REACTORS
330
47
102
}
330
47
100
AcDbScale
 70
     0
300
1:100
140
1.0
141
100.0
290
     0
  0
SCALE
  5
54
102
{ACAD_REACTORS
330
47
102
}
330
47
100
AcDbScale
 70
     0
300
2:1
140
2.0
141
1.0
290
     0
  0
SCALE
  5
55
102
{ACAD_REACTORS
330
47
102
}
330
47
100
AcDbScale
 70
     0
300
4:1
140
4.0
141
1.0
290
     0
  0
SCALE
  5
56
102
{ACAD_REACTORS
330
47
102
}
330
47
100
AcDbScale
 70
     0
300
8:1
140
8.0
141
1.0
290
     0
  0
SCALE
  5
57
102
{ACAD_REACTORS
330
47
102
}
330
47
100
AcDbScale
 70
     0
300
10:1
140
10.0
141
1.0
290
     0
  0
SCALE
  5
58
102
{ACAD_REACTORS
330
47
102
}
330
47
100
AcDbScale
 70
     0
300
100:1
140
100.0
141
1.0
290
     0
  0
SCALE
  5
59
102
{ACAD_REACTORS
330
47
102
}
330
47
100
AcDbScale
 70
     0
300
1/128" = 1'-0"
140
0.0078125
141
12.0
290
     0
  0
SCALE
  5
5A
102
{ACAD_REACTORS
330
47
102
}
330
47
100
AcDbScale
 70
     0
300
1/64" = 1'-0"
140
0.015625
141
12.0
290
     0
  0
SCALE
  5
5B
102
{ACAD_REACTORS
330
47
102
}
330
47
100
AcDbScale
 70
     0
300
1/32" = 1'-0"
140
0.03125
141
12.0
290
     0
  0
SCALE
  5
5C
102
{ACAD_REACTORS
330
47
102
}
330
47
100
AcDbScale
 70
     0
300
1/16" = 1'-0"
140
0.0625
141
12.0
290
     0
  0
SCALE
  5
5D
102
{ACAD_REACTORS
330
47
102
}
330
47
100
AcDbScale
 70
     0
300
3/32" = 1'-0"
140
0.09375
141
12.0
290
     0
  0
SCALE
  5
5E
102
{ACAD_REACTORS
330
47
102
}
330
47
100
AcDbScale
 70
     0
300
1/8" = 1'-0"
140
0.125
141
12.0
290
     0
  0
SCALE
  5
5F
102
{ACAD_REACTORS
330
47
102
}
330
47
100
AcDbScale
 70
     0
300
3/16" = 1'-0"
140
0.1875
141
12.0
290
     0
  0
SCALE
  5
60
102
{ACAD_REACTORS
330
47
102
}
330
47
100
AcDbScale
 70
     0
300
1/4" = 1'-0"
140
0.25
141
12.0
290
     0
  0
SCALE
  5
61
102
{ACAD_REACTORS
330
47
102
}
330
47
100
AcDbScale
 70
     0
300
3/8" = 1'-0"
140
0.375
141
12.0
290
     0
  0
SCALE
  5
62
102
{ACAD_REACTORS
330
47
102
}
330
47
100
AcDbScale
 70
     0
300
1/2" = 1'-0"
140
0.5
141
12.0
290
     0
  0
SCALE
  5
63
102
{ACAD_REACTORS
330
47
102
}
330
47
100
AcDbScale
 70
     0
300
3/4" = 1'-0"
140
0.75
141
12.0
290
     0
  0
SCALE
  5
64
102
{ACAD_REACTORS
330
47
102
}
330
47
100
AcDbScale
 70
     0
300
1" = 1'-0"
140
1.0
141
12.0
290
     0
  0
SCALE
  5
65
102
{ACAD_REACTORS
330
47
102
}
330
47
100
AcDbScale
 70
     0
300
1-1/2" = 1'-0"
140
1.5
141
12.0
290
     0
  0
SCALE
  5
66
102
{ACAD_REACTORS
330
47
102
}
330
47
100
AcDbScale
 70
     0
300
3" = 1'-0"
140
3.0
141
12.0
290
     0
  0
SCALE
  5
67
102
{ACAD_REACTORS
330
47
102
}
330
47
100
AcDbScale
 70
     0
300
6" = 1'-0"
140
6.0
141
12.0
290
     0
  0
SCALE
  5
68
102
{ACAD_REACTORS
330
47
102
}
330
47
100
AcDbScale
 70
     0
300
1'-0" = 1'-0"
140
12.0
141
12.0
290
     0
  0
TABLESTYLE
  5
6A
102
{ACAD_REACTORS
330
69
102
}
102
{ACAD_XDICTIONARY
360
183
102
}
330
69
100
AcDbTableStyle
  3
Standard
 70
     0
 71
     0
 40
0.06
 41
0.06
280
     0
281
     0
  7
Standard
140
0.18
170
     2
 62
     0
 63
   257
283
     0
 90
        4
 91
        0
  1

274
    -2
284
     1
 64
     0
275
    -2
285
     1
 65
     0
276
    -2
286
     1
 66
     0
277
    -2
287
     1
 67
     0
278
    -2
288
     1
 68
     0
279
    -2
289
     1
 69
     0
  7
Standard
140
0.25
170
     5
 62
     0
 63
   257
283
     0
 90
        4
 91
        0
  1

274
    -2
284
     1
 64
     0
275
    -2
285
     1
 65
     0
276
    -2
286
     1
 66
     0
277
    -2
287
     1
 67
     0
278
    -2
288
     1
 68
     0
279
    -2
289
     1
 69
     0
  7
Standard
140
0.18
170
     5
 62
     0
 63
   257
283
     0
 90
        4
 91
        0
  1

274
    -2
284
     1
 64
     0
275
    -2
285
     1
 65
     0
276
    -2
286
     1
 66
     0
277
    -2
287
     1
 67
     0
278
    -2
288
     1
 68
     0
279
    -2
289
     1
 69
     0
  0
VISUALSTYLE
  5
2F
102
{ACAD_REACTORS
330
2A
102
}
330
2A
100
AcDbVisualStyle
  2
2dWireframe
 70
     4
177
     3
291
     0
 70
    58
 90
        0
176
     1
 90
        2
176
     1
 90
        0
176
     1
 90
        0
176
     1
 40
0.6
176
     1
 40
30.0
176
     1
 62
     7
420
 16777215
176
     1
 90
        1
176
     1
 90
        4
176
     1
 62
     7
176
     1
 62
   257
176
     1
 90
        1
176
     1
 90
        1
176
     1
 40
1.0
176
     1
 90
        0
176
     1
 62
   257
176
     1
 40
1.0
176
     1
 90
        1
176
     1
 90
        6
176
     1
 90
        2
176
     1
 62
     7
176
     1
 90
        5
176
     1
 90
        0
176
     1
 90
        0
176
     1
290
     0
176
     1
 90
        1
176
     1
 40
0.0
176
     1
 90
        0
176
     1
290
     1
176
     1
290
     1
176
     1
290
     0
176
     1
290
     0
176
     1
290
     0
176
     1
290
     0
176
     1
290
     0
176
     1
290
     0
176
     1
290
     0
176
     1
 90
       50
176
     1
 40
0.0
176
     1
 40
1.0
176
     1
 90
        0
176
     1
 62
    18
420
        0
176
     1
 90
       50
176
     1
 90
        3
176
     1
 62
     5
420
      255
176
     1
290
     0
176
     1
 90
       50
176
     1
 90
       50
176
     1
 90
       50
176
     1
290
     0
176
     1
 90
       50
176
     1
 62
   256
176
     0
 40
1.0
176
     0
 90
        2
176
     1
  1
strokes_ogs.tif
176
     1
290
     0
176
     1
 40
1.0
176
     1
 40
1.0
176
     1
  0
VISUALSTYLE
  5
32
102
{ACAD_REACTORS
330
2A
102
}
330
2A
100
AcDbVisualStyle
  2
Basic
 70
     7
177
     3
291
     1
 70
    58
 90
        1
176
     1
 90
        0
176
     1
 90
        1
176
     1
 90
        0
176
     1
 40
0.6
176
     1
 40
30.0
176
     1
 62
     7
420
 16777215
176
     1
 90
        0
176
     1
 90
        4
176
     1
 62
     7
176
     1
 62
   257
176
     1
 90
        1
176
     1
 90
        1
176
     1
 40
1.0
176
     1
 90
        8
176
     1
 62
     7
176
     1
 40
1.0
176
     1
 90
        1
176
     1
 90
        6
176
     1
 90
        2
176
     1
 62
     7
176
     1
 90
        5
176
     1
 90
        0
176
     1
 90
        0
176
     1
290
     0
176
     1
 90
        1
176
     1
 40
0.0
176
     1
 90
        0
176
     1
290
     0
176
     1
290
     1
176
     1
290
     1
176
     1
290
     0
176
     1
290
     0
176
     1
290
     0
176
     1
290
     0
176
     1
290
     0
176
     1
290
     0
176
     1
 90
       50
176
     1
 40
0.0
176
     1
 40
1.0
176
     1
 90
        0
176
     1
 62
    18
420
        0
176
     1
 90
       50
176
     1
 90
        3
176
     1
 62
     5
420
      255
176
     1
290
     0
176
     1
 90
       50
176
     1
 90
       50
176
     1
 90
       50
176
     1
290
     0
176
     1
 90
       50
176
     1
 62
   256
176
     0
 40
1.0
176
     0
 90
        2
176
     1
  1
strokes_ogs.tif
176
     1
290
     0
176
     1
 40
1.0
176
     1
 40
1.0
176
     1
  0
VISUALSTYLE
  5
36
102
{ACAD_REACTORS
330
2A
102
}
330
2A
100
AcDbVisualStyle
  2
Brighten
 70
    12
177
     3
291
     1
 70
    58
 90
        2
176
     1
 90
        2
176
     1
 90
        0
176
     1
 90
        0
176
     1
 40
0.6
176
     1
 40
30.0
176
     1
 62
     7
420
 16777215
176
     1
 90
        1
176
     1
 90
        4
176
     1
 62
     7
176
     1
 62
   257
176
     1
 90
        1
176
     1
 90
        1
176
     1
 40
1.0
176
     1
 90
        8
176
     1
 62
     7
176
     1
 40
1.0
176
     1
 90
        1
176
     1
 90
        6
176
     1
 90
        2
176
     1
 62
     7
176
     1
 90
        5
176
     1
 90
        0
176
     1
 90
        0
176
     1
290
     0
176
     1
 90
        1
176
     1
 40
50.0
176
     1
 90
        0
176
     1
290
     0
176
     1
290
     1
176
     1
290
     1
176
     1
290
     0
176
     1
290
     0
176
     1
290
     0
176
     1
290
     0
176
     1
290
     0
176
     1
290
     0
176
     1
 90
       50
176
     1
 40
0.0
176
     1
 40
1.0
176
     1
 90
        0
176
     1
 62
    18
420
        0
176
     1
 90
       50
176
     1
 90
        3
176
     1
 62
     5
420
      255
176
     1
290
     0
176
     1
 90
       50
176
     1
 90
       50
176
     1
 90
       50
176
     1
290
     0
176
     1
 90
       50
176
     1
 62
   256
176
     0
 40
1.0
176
     0
 90
        2
176
     1
  1
strokes_ogs.tif
176
     1
290
     0
176
     1
 40
1.0
176
     1
 40
1.0
176
     1
  0
VISUALSTYLE
  5
3A
102
{ACAD_REACTORS
330
2A
102
}
330
2A
100
AcDbVisualStyle
  2
ColorChange
 70
    16
177
     3
291
     1
 70
    58
 90
        2
176
     1
 90
        2
176
     1
 90
        3
176
     1
 90
        0
176
     1
 40
0.6
176
     1
 40
30.0
176
     1
 62
     8
420
  8421504
176
     1
 90
        1
176
     1
 90
        4
176
     1
 62
     7
176
     1
 62
   257
176
     1
 90
        1
176
     1
 90
        1
176
     1
 40
1.0
176
     1
 90
        8
176
     1
 62
     8
420
  8421504
176
     1
 40
1.0
176
     1
 90
        1
176
     1
 90
        6
176
     1
 90
        2
176
     1
 62
     7
176
     1
 90
        5
176
     1
 90
        0
176
     1
 90
        0
176
     1
290
     0
176
     1
 90
        1
176
     1
 40
0.0
176
     1
 90
        0
176
     1
290
     0
176
     1
290
     1
176
     1
290
     1
176
     1
290
     0
176
     1
290
     0
176
     1
290
     0
176
     1
290
     0
176
     1
290
     0
176
     1
290
     0
176
     1
 90
       50
176
     1
 40
0.0
176
     1
 40
1.0
176
     1
 90
        0
176
     1
 62
    18
420
        0
176
     1
 90
       50
176
     1
 90
        3
176
     1
 62
     5
420
      255
176
     1
290
     0
176
     1
 90
       50
176
     1
 90
       50
176
     1
 90
       50
176
     1
290
     0
176
     1
 90
       50
176
     1
 62
   256
176
     0
 40
1.0
176
     0
 90
        2
176
     1
  1
strokes_ogs.tif
176
     1
290
     0
176
     1
 40
1.0
176
     1
 40
1.0
176
     1
  0
VISUALSTYLE
  5
34
102
{ACAD_REACTORS
330
2A
102
}
330
2A
100
AcDbVisualStyle
  2
Conceptual
 70
     9
177
     3
291
     0
 70
    58
 90
        3
176
     1
 90
        2
176
     1
 90
        0
176
     1
 90
        0
176
     1
 40
0.6
176
     1
 40
30.0
176
     1
 62
     7
420
 16777215
176
     1
 90
        2
176
     1
 90
        2
176
     1
 62
     7
176
     1
 62
   257
176
     1
 90
        1
176
     1
 90
        1
176
     1
 40
179.0
176
     1
 90
        8
176
     1
 62
     7
176
     1
 40
1.0
176
     1
 90
        1
176
     1
 90
        6
176
     1
 90
        2
176
     1
 62
     7
176
     1
 90
        3
176
     1
 90
        0
176
     1
 90
        0
176
     1
290
     0
176
     1
 90
        1
176
     1
 40
0.0
176
     1
 90
        0
176
     1
290
     0
176
     1
290
     1
176
     1
290
     1
176
     1
290
     0
176
     1
290
     0
176
     1
290
     0
176
     1
290
     0
176
     1
290
     0
176
     1
290
     0
176
     1
 90
       50
176
     1
 40
0.0
176
     1
 40
1.0
176
     1
 90
        0
176
     1
 62
    18
420
        0
176
     1
 90
       50
176
     1
 90
        3
176
     1
 62
     5
420
      255
176
     1
290
     0
176
     1
 90
       50
176
     1
 90
       50
176
     1
 90
       50
176
     1
290
     0
176
     1
 90
       50
176
     1
 62
   256
176
     0
 40
1.0
176
     0
 90
        2
176
     1
  1
strokes_ogs.tif
176
     1
290
     0
176
     1
 40
1.0
176
     1
 40
1.0
176
     1
  0
VISUALSTYLE
  5
35
102
{ACAD_REACTORS
330
2A
102
}
330
2A
100
AcDbVisualStyle
  2
Dim
 70
    11
177
     3
291
     1
 70
    58
 90
        2
176
     1
 90
        2
176
     1
 90
        0
176
     1
 90
        0
176
     1
 40
0.6
176
     1
 40
30.0
176
     1
 62
     7
420
 16777215
176
     1
 90
        1
176
     1
 90
        4
176
     1
 62
     7
176
     1
 62
   257
176
     1
 90
        1
176
     1
 90
        1
176
     1
 40
1.0
176
     1
 90
        8
176
     1
 62
     7
176
     1
 40
1.0
176
     1
 90
        1
176
     1
 90
        6
176
     1
 90
        2
176
     1
 62
     7
176
     1
 90
        5
176
     1
 90
        0
176
     1
 90
        0
176
     1
290
     0
176
     1
 90
        1
176
     1
 40
-50.0
176
     1
 90
        0
176
     1
290
     0
176
     1
290
     1
176
     1
290
     1
176
     1
290
     0
176
     1
290
     0
176
     1
290
     0
176
     1
290
     0
176
     1
290
     0
176
     1
290
     0
176
     1
 90
       50
176
     1
 40
0.0
176
     1
 40
1.0
176
     1
 90
        0
176
     1
 62
    18
420
        0
176
     1
 90
       50
176
     1
 90
        3
176
     1
 62
     5
420
      255
176
     1
290
     0
176
     1
 90
       50
176
     1
 90
       50
176
     1
 90
       50
176
     1
290
     0
176
     1
 90
       50
176
     1
 62
   256
176
     0
 40
1.0
176
     0
 90
        2
176
     1
  1
strokes_ogs.tif
176
     1
290
     0
176
     1
 40
1.0
176
     1
 40
1.0
176
     1
  0
VISUALSTYLE
  5
3D
102
{ACAD_REACTORS
330
2A
102
}
330
2A
100
AcDbVisualStyle
  2
EdgeColorOff
 70
    22
177
     3
291
     1
 70
    58
 90
        2
176
     0
 90
        2
176
     0
 90
        0
176
     0
 90
        0
176
     0
 40
0.6
176
     0
 40
30.0
176
     0
 62
     7
420
 16777215
176
     0
 90
        1
176
     0
 90
        4
176
     0
 62
     7
176
     0
 62
   257
176
     0
 90
        1
176
     0
 90
        1
176
     0
 40
1.0
176
     0
 90
        8
176
     2
 62
     7
176
     0
 40
1.0
176
     0
 90
        1
176
     0
 90
        6
176
     0
 90
        2
176
     0
 62
     7
176
     0
 90
        5
176
     0
 90
        0
176
     0
 90
        0
176
     0
290
     0
176
     0
 90
        1
176
     0
 40
0.0
176
     0
 90
        0
176
     0
290
     0
176
     0
290
     1
176
     0
290
     1
176
     0
290
     0
176
     0
290
     0
176
     0
290
     0
176
     0
290
     0
176
     0
290
     0
176
     0
290
     0
176
     0
 90
       50
176
     0
 40
0.0
176
     0
 40
1.0
176
     0
 90
        0
176
     0
 62
    18
420
        0
176
     0
 90
       50
176
     0
 90
        3
176
     0
 62
     5
420
      255
176
     0
290
     0
176
     0
 90
       50
176
     0
 90
       50
176
     0
 90
       50
176
     0
290
     0
176
     0
 90
       50
176
     0
 62
   256
176
     0
 40
1.0
176
     0
 90
        2
176
     0
  1
strokes_ogs.tif
176
     0
290
     0
176
     0
 40
1.0
176
     0
 40
1.0
176
     0
  0
VISUALSTYLE
  5
39
102
{ACAD_REACTORS
330
2A
102
}
330
2A
100
AcDbVisualStyle
  2
Facepattern
 70
    15
177
     3
291
     1
 70
    58
 90
        2
176
     1
 90
        2
176
     1
 90
        0
176
     1
 90
        0
176
     1
 40
0.6
176
     1
 40
30.0
176
     1
 62
     7
420
 16777215
176
     1
 90
        1
176
     1
 90
        4
176
     1
 62
     7
176
     1
 62
   257
176
     1
 90
        1
176
     1
 90
        1
176
     1
 40
1.0
176
     1
 90
        8
176
     1
 62
     7
176
     1
 40
1.0
176
     1
 90
        1
176
     1
 90
        6
176
     1
 90
        2
176
     1
 62
     7
176
     1
 90
        5
176
     1
 90
        0
176
     1
 90
        0
176
     1
290
     0
176
     1
 90
        1
176
     1
 40
0.0
176
     1
 90
        0
176
     1
290
     0
176
     1
290
     1
176
     1
290
     1
176
     1
290
     0
176
     1
290
     0
176
     1
290
     0
176
     1
290
     0
176
     1
290
     0
176
     1
290
     0
176
     1
 90
       50
176
     1
 40
0.0
176
     1
 40
1.0
176
     1
 90
        0
176
     1
 62
    18
420
        0
176
     1
 90
       50
176
     1
 90
        3
176
     1
 62
     5
420
      255
176
     1
290
     0
176
     1
 90
       50
176
     1
 90
       50
176
     1
 90
       50
176
     1
290
     0
176
     1
 90
       50
176
     1
 62
   256
176
     0
 40
1.0
176
     0
 90
        2
176
     1
  1
strokes_ogs.tif
176
     1
290
     0
176
     1
 40
1.0
176
     1
 40
1.0
176
     1
  0
VISUALSTYLE
  5
2B
102
{ACAD_REACTORS
330
2A
102
}
330
2A
100
AcDbVisualStyle
  2
Flat
 70
     0
177
     3
291
     1
 70
    58
 90
        2
176
     1
 90
        1
176
     1
 90
        1
176
     1
 90
        2
176
     1
 40
0.6
176
     1
 40
30.0
176
     1
 62
     7
420
 16777215
176
     1
 90
        0
176
     1
 90
        0
176
     1
 62
     7
176
     1
 62
   257
176
     1
 90
        1
176
     1
 90
        1
176
     1
 40
1.0
176
     1
 90
        8
176
     1
 62
     7
176
     1
 40
1.0
176
     1
 90
        1
176
     1
 90
        6
176
     1
 90
        2
176
     1
 62
     7
176
     1
 90
        5
176
     1
 90
        0
176
     1
 90
        0
176
     1
290
     0
176
     1
 90
       13
176
     1
 40
0.0
176
     1
 90
        0
176
     1
290
     0
176
     1
290
     1
176
     1
290
     1
176
     1
290
     0
176
     1
290
     0
176
     1
290
     0
176
     1
290
     0
176
     1
290
     0
176
     1
290
     0
176
     1
 90
       50
176
     1
 40
0.0
176
     1
 40
1.0
176
     1
 90
        0
176
     1
 62
    18
420
        0
176
     1
 90
       50
176
     1
 90
        3
176
     1
 62
     5
420
      255
176
     1
290
     0
176
     1
 90
       50
176
     1
 90
       50
176
     1
 90
       50
176
     1
290
     0
176
     1
 90
       50
176
     1
 62
   256
176
     0
 40
1.0
176
     0
 90
        2
176
     1
  1
strokes_ogs.tif
176
     1
290
     0
176
     1
 40
1.0
176
     1
 40
1.0
176
     1
  0
VISUALSTYLE
  5
2C
102
{ACAD_REACTORS
330
2A
102
}
330
2A
100
AcDbVisualStyle
  2
FlatWithEdges
 70
     1
177
     3
291
     1
 70
    58
 90
        2
176
     1
 90
        1
176
     1
 90
        1
176
     1
 90
        2
176
     1
 40
0.6
176
     1
 40
30.0
176
     1
 62
     7
420
 16777215
176
     1
 90
        1
176
     1
 90
        0
176
     1
 62
     7
176
     1
 62
   257
176
     1
 90
        1
176
     1
 90
        1
176
     1
 40
1.0
176
     1
 90
        0
176
     1
 62
   257
176
     1
 40
1.0
176
     1
 90
        1
176
     1
 90
        6
176
     1
 90
        2
176
     1
 62
     7
176
     1
 90
        5
176
     1
 90
        0
176
     1
 90
        0
176
     1
290
     0
176
     1
 90
       13
176
     1
 40
0.0
176
     1
 90
        0
176
     1
290
     0
176
     1
290
     1
176
     1
290
     1
176
     1
290
     0
176
     1
290
     0
176
     1
290
     0
176
     1
290
     0
176
     1
290
     0
176
     1
290
     0
176
     1
 90
       50
176
     1
 40
0.0
176
     1
 40
1.0
176
     1
 90
        0
176
     1
 62
    18
420
        0
176
     1
 90
       50
176
     1
 90
        3
176
     1
 62
     5
420
      255
176
     1
290
     0
176
     1
 90
       50
176
     1
 90
       50
176
     1
 90
       50
176
     1
290
     0
176
     1
 90
       50
176
     1
 62
   256
176
     0
 40
1.0
176
     0
 90
        2
176
     1
  1
strokes_ogs.tif
176
     1
290
     0
176
     1
 40
1.0
176
     1
 40
1.0
176
     1
  0
VISUALSTYLE
  5
2D
102
{ACAD_REACTORS
330
2A
102
}
330
2A
100
AcDbVisualStyle
  2
Gouraud
 70
     2
177
     3
291
     1
 70
    58
 90
        2
176
     1
 90
        2
176
     1
 90
        1
176
     1
 90
        2
176
     1
 40
0.6
176
     1
 40
30.0
176
     1
 62
     7
420
 16777215
176
     1
 90
        0
176
     1
 90
        0
176
     1
 62
     7
176
     1
 62
   257
176
     1
 90
        1
176
     1
 90
        1
176
     1
 40
1.0
176
     1
 90
        0
176
     1
 62
     7
176
     1
 40
1.0
176
     1
 90
        1
176
     1
 90
        6
176
     1
 90
        2
176
     1
 62
     7
176
     1
 90
        5
176
     1
 90
        0
176
     1
 90
        0
176
     1
290
     0
176
     1
 90
       13
176
     1
 40
0.0
176
     1
 90
        0
176
     1
290
     0
176
     1
290
     1
176
     1
290
     1
176
     1
290
     0
176
     1
290
     0
176
     1
290
     0
176
     1
290
     0
176
     1
290
     0
176
     1
290
     0
176
     1
 90
       50
176
     1
 40
0.0
176
     1
 40
1.0
176
     1
 90
        0
176
     1
 62
    18
420
        0
176
     1
 90
       50
176
     1
 90
        3
176
     1
 62
     5
420
      255
176
     1
290
     0
176
     1
 90
       50
176
     1
 90
       50
176
     1
 90
       50
176
     1
290
     0
176
     1
 90
       50
176
     1
 62
   256
176
     0
 40
1.0
176
     0
 90
        2
176
     1
  1
strokes_ogs.tif
176
     1
290
     0
176
     1
 40
1.0
176
     1
 40
1.0
176
     1
  0
VISUALSTYLE
  5
2E
102
{ACAD_REACTORS
330
2A
102
}
330
2A
100
AcDbVisualStyle
  2
GouraudWithEdges
 70
     3
177
     3
291
     1
 70
    58
 90
        2
176
     1
 90
        2
176
     1
 90
        1
176
     1
 90
        2
176
     1
 40
0.6
176
     1
 40
30.0
176
     1
 62
     7
420
 16777215
176
     1
 90
        1
176
     1
 90
        0
176
     1
 62
     7
176
     1
 62
   257
176
     1
 90
        1
176
     1
 90
        1
176
     1
 40
1.0
176
     1
 90
        0
176
     1
 62
   257
176
     1
 40
1.0
176
     1
 90
        1
176
     1
 90
        6
176
     1
 90
        2
176
     1
 62
     7
176
     1
 90
        5
176
     1
 90
        0
176
     1
 90
        0
176
     1
290
     0
176
     1
 90
       13
176
     1
 40
0.0
176
     1
 90
        0
176
     1
290
     0
176
     1
290
     1
176
     1
290
     1
176
     1
290
     0
176
     1
290
     0
176
     1
290
     0
176
     1
290
     0
176
     1
290
     0
176
     1
290
     0
176
     1
 90
       50
176
     1
 40
0.0
176
     1
 40
1.0
176
     1
 90
        0
176
     1
 62
    18
420
        0
176
     1
 90
       50
176
     1
 90
        3
176
     1
 62
     5
420
      255
176
     1
290
     0
176
     1
 90
       50
176
     1
 90
       50
176
     1
 90
       50
176
     1
290
     0
176
     1
 90
       50
176
     1
 62
   256
176
     0
 40
1.0
176
     0
 90
        2
176
     1
  1
strokes_ogs.tif
176
     1
290
     0
176
     1
 40
1.0
176
     1
 40
1.0
176
     1
  0
VISUALSTYLE
  5
31
102
{ACAD_REACTORS
330
2A
102
}
330
2A
100
AcDbVisualStyle
  2
Hidden
 70
     6
177
     3
291
     0
 70
    58
 90
        1
176
     1
 90
        2
176
     1
 90
        2
176
     1
 90
        0
176
     1
 40
0.6
176
     1
 40
30.0
176
     1
 62
     7
420
 16777215
176
     1
 90
        2
176
     1
 90
        2
176
     1
 62
     7
176
     1
 62
   257
176
     1
 90
        2
176
     1
 90
        1
176
     1
 40
40.0
176
     1
 90
        0
176
     1
 62
   257
176
     1
 40
1.0
176
     1
 90
        1
176
     1
 90
        6
176
     1
 90
        2
176
     1
 62
     7
176
     1
 90
        3
176
     1
 90
        0
176
     1
 90
        0
176
     1
290
     0
176
     1
 90
        1
176
     1
 40
0.0
176
     1
 90
        0
176
     1
290
     0
176
     1
290
     1
176
     1
290
     1
176
     1
290
     0
176
     1
290
     0
176
     1
290
     0
176
     1
290
     0
176
     1
290
     0
176
     1
290
     0
176
     1
 90
       50
176
     1
 40
0.0
176
     1
 40
1.0
176
     1
 90
        0
176
     1
 62
    18
420
        0
176
     1
 90
       50
176
     1
 90
        3
176
     1
 62
     5
420
      255
176
     1
290
     0
176
     1
 90
       50
176
     1
 90
       50
176
     1
 90
       50
176
     1
290
     0
176
     1
 90
       50
176
     1
 62
   256
176
     0
 40
1.0
176
     0
 90
        2
176
     1
  1
strokes_ogs.tif
176
     1
290
     0
176
     1
 40
1.0
176
     1
 40
1.0
176
     1
  0
VISUALSTYLE
  5
3B
102
{ACAD_REACTORS
330
2A
102
}
330
2A
100
AcDbVisualStyle
  2
JitterOff
 70
    20
177
     3
291
     1
 70
    58
 90
        2
176
     0
 90
        2
176
     0
 90
        0
176
     0
 90
        0
176
     0
 40
0.6
176
     0
 40
30.0
176
     0
 62
     7
420
 16777215
176
     0
 90
        1
176
     0
 90
        4
176
     0
 62
     7
176
     0
 62
   257
176
     0
 90
        1
176
     0
 90
        1
176
     0
 40
1.0
176
     0
 90
       10
176
     2
 62
     7
176
     0
 40
1.0
176
     0
 90
        1
176
     0
 90
        6
176
     0
 90
        2
176
     0
 62
     7
176
     0
 90
        5
176
     0
 90
        0
176
     0
 90
        0
176
     0
290
     0
176
     0
 90
        1
176
     0
 40
0.0
176
     0
 90
        0
176
     0
290
     0
176
     0
290
     1
176
     0
290
     1
176
     0
290
     0
176
     0
290
     0
176
     0
290
     0
176
     0
290
     0
176
     0
290
     0
176
     0
290
     0
176
     0
 90
       50
176
     0
 40
0.0
176
     0
 40
1.0
176
     0
 90
        0
176
     0
 62
    18
420
        0
176
     0
 90
       50
176
     0
 90
        3
176
     0
 62
     5
420
      255
176
     0
290
     0
176
     0
 90
       50
176
     0
 90
       50
176
     0
 90
       50
176
     0
290
     0
176
     0
 90
       50
176
     0
 62
   256
176
     0
 40
1.0
176
     0
 90
        2
176
     0
  1
strokes_ogs.tif
176
     0
290
     0
176
     0
 40
1.0
176
     0
 40
1.0
176
     0
  0
VISUALSTYLE
  5
38
102
{ACAD_REACTORS
330
2A
102
}
330
2A
100
AcDbVisualStyle
  2
Linepattern
 70
    14
177
     3
291
     1
 70
    58
 90
        2
176
     1
 90
        2
176
     1
 90
        0
176
     1
 90
        0
176
     1
 40
0.6
176
     1
 40
30.0
176
     1
 62
     7
420
 16777215
176
     1
 90
        1
176
     1
 90
        4
176
     1
 62
     7
176
     1
 62
   257
176
     1
 90
        7
176
     1
 90
        7
176
     1
 40
1.0
176
     1
 90
        8
176
     1
 62
     7
176
     1
 40
1.0
176
     1
 90
        1
176
     1
 90
        6
176
     1
 90
        2
176
     1
 62
     7
176
     1
 90
        5
176
     1
 90
        0
176
     1
 90
        0
176
     1
290
     0
176
     1
 90
        1
176
     1
 40
0.0
176
     1
 90
        0
176
     1
290
     0
176
     1
290
     1
176
     1
290
     1
176
     1
290
     0
176
     1
290
     0
176
     1
290
     0
176
     1
290
     0
176
     1
290
     0
176
     1
290
     0
176
     1
 90
       50
176
     1
 40
0.0
176
     1
 40
1.0
176
     1
 90
        0
176
     1
 62
    18
420
        0
176
     1
 90
       50
176
     1
 90
        3
176
     1
 62
     5
420
      255
176
     1
290
     0
176
     1
 90
       50
176
     1
 90
       50
176
     1
 90
       50
176
     1
290
     0
176
     1
 90
       50
176
     1
 62
   256
176
     0
 40
1.0
176
     0
 90
        2
176
     1
  1
strokes_ogs.tif
176
     1
290
     0
176
     1
 40
1.0
176
     1
 40
1.0
176
     1
  0
VISUALSTYLE
  5
3C
102
{ACAD_REACTORS
330
2A
102
}
330
2A
100
AcDbVisualStyle
  2
OverhangOff
 70
    21
177
     3
291
     1
 70
    58
 90
        2
176
     0
 90
        2
176
     0
 90
        0
176
     0
 90
        0
176
     0
 40
0.6
176
     0
 40
30.0
176
     0
 62
     7
420
 16777215
176
     0
 90
        1
176
     0
 90
        4
176
     0
 62
     7
176
     0
 62
   257
176
     0
 90
        1
176
     0
 90
        1
176
     0
 40
1.0
176
     0
 90
        9
176
     2
 62
     7
176
     0
 40
1.0
176
     0
 90
        1
176
     0
 90
        6
176
     0
 90
        2
176
     0
 62
     7
176
     0
 90
        5
176
     0
 90
        0
176
     0
 90
        0
176
     0
290
     0
176
     0
 90
        1
176
     0
 40
0.0
176
     0
 90
        0
176
     0
290
     0
176
     0
290
     1
176
     0
290
     1
176
     0
290
     0
176
     0
290
     0
176
     0
290
     0
176
     0
290
     0
176
     0
290
     0
176
     0
290
     0
176
     0
 90
       50
176
     0
 40
0.0
176
     0
 40
1.0
176
     0
 90
        0
176
     0
 62
    18
420
        0
176
     0
 90
       50
176
     0
 90
        3
176
     0
 62
     5
420
      255
176
     0
290
     0
176
     0
 90
       50
176
     0
 90
       50
176
     0
 90
       50
176
     0
290
     0
176
     0
 90
       50
176
     0
 62
   256
176
     0
 40
1.0
176
     0
 90
        2
176
     0
  1
strokes_ogs.tif
176
     0
290
     0
176
     0
 40
1.0
176
     0
 40
1.0
176
     0
  0
VISUALSTYLE
  5
33
102
{ACAD_REACTORS
330
2A
102
}
330
2A
100
AcDbVisualStyle
  2
Realistic
 70
     8
177
     3
291
     0
 70
    58
 90
        2
176
     1
 90
        3
176
     1
 90
        0
176
     1
 90
        2
176
     1
 40
0.6
176
     1
 40
30.0
176
     1
 62
     7
420
 16777215
176
     1
 90
        0
176
     1
 90
        0
176
     1
 62
     7
176
     1
 62
   257
176
     1
 90
        1
176
     1
 90
        1
176
     1
 40
1.0
176
     1
 90
        8
176
     1
 62
   257
176
     1
 40
1.0
176
     1
 90
        1
176
     1
 90
        6
176
     1
 90
        2
176
     1
 62
     7
176
     1
 90
        3
176
     1
 90
        0
176
     1
 90
        0
176
     1
290
     0
176
     1
 90
       13
176
     1
 40
0.0
176
     1
 90
        0
176
     1
290
     0
176
     1
290
     1
176
     1
290
     1
176
     1
290
     0
176
     1
290
     0
176
     1
290
     0
176
     1
290
     0
176
     1
290
     0
176
     1
290
     0
176
     1
 90
       50
176
     1
 40
0.0
176
     1
 40
1.0
176
     1
 90
        0
176
     1
 62
    18
420
        0
176
     1
 90
       50
176
     1
 90
        3
176
     1
 62
     5
420
      255
176
     1
290
     0
176
     1
 90
       50
176
     1
 90
       50
176
     1
 90
       50
176
     1
290
     0
176
     1
 90
       50
176
     1
 62
   256
176
     0
 40
1.0
176
     0
 90
        2
176
     1
  1
strokes_ogs.tif
176
     1
290
     0
176
     1
 40
1.0
176
     1
 40
1.0
176
     1
  0
VISUALSTYLE
  5
42
102
{ACAD_REACTORS
330
2A
102
}
330
2A
100
AcDbVisualStyle
  2
Shaded
 70
    27
177
     3
291
     0
 70
    58
 90
        2
176
     1
 90
        2
176
     1
 90
        1
176
     1
 90
        2
176
     1
 40
0.6
176
     1
 40
30.0
176
     1
 62
     7
420
 16777215
176
     1
 90
        0
176
     1
 90
        4
176
     1
 62
     7
176
     1
 62
   257
176
     1
 90
        1
176
     1
 90
        1
176
     1
 40
1.0
176
     1
 90
        8
176
     1
 62
   257
176
     1
 40
1.0
176
     1
 90
        1
176
     1
 90
        6
176
     1
 90
        2
176
     1
 62
     8
420
  7895160
176
     1
 90
        3
176
     1
 90
        0
176
     1
 90
        0
176
     1
290
     0
176
     1
 90
        5
176
     1
 40
0.0
176
     1
 90
        0
176
     1
290
     0
176
     1
290
     1
176
     1
290
     1
176
     1
290
     0
176
     1
290
     0
176
     1
290
     0
176
     1
290
     0
176
     1
290
     0
176
     1
290
     0
176
     1
 90
       50
176
     1
 40
0.0
176
     1
 40
1.0
176
     1
 90
        0
176
     1
 62
    18
420
        0
176
     1
 90
       50
176
     1
 90
        3
176
     1
 62
     5
420
      255
176
     1
290
     0
176
     1
 90
       50
176
     1
 90
       50
176
     1
 90
       50
176
     1
290
     0
176
     1
 90
       50
176
     1
 62
   256
176
     0
 40
1.0
176
     0
 90
        2
176
     1
  1
strokes_ogs.tif
176
     1
290
     0
176
     1
 40
1.0
176
     1
 40
1.0
176
     1
  0
VISUALSTYLE
  5
41
102
{ACAD_REACTORS
330
2A
102
}
330
2A
100
AcDbVisualStyle
  2
Shaded with edges
 70
    26
177
     3
291
     0
 70
    58
 90
        2
176
     1
 90
        2
176
     1
 90
        1
176
     1
 90
        2
176
     1
 40
0.6
176
     1
 40
30.0
176
     1
 62
     7
420
 16777215
176
     1
 90
        1
176
     1
 90
       10
176
     1
 62
     7
176
     1
 62
   257
176
     1
 90
        2
176
     1
 90
        1
176
     1
 40
1.0
176
     1
 90
        8
176
     1
 62
   257
176
     1
 40
1.0
176
     1
 90
        1
176
     1
 90
        6
176
     1
 90
        2
176
     1
 62
     7
176
     1
 90
        3
176
     1
 90
        0
176
     1
 90
        0
176
     1
290
     0
176
     1
 90
        5
176
     1
 40
0.0
176
     1
 90
        0
176
     1
290
     0
176
     1
290
     1
176
     1
290
     1
176
     1
290
     0
176
     1
290
     0
176
     1
290
     0
176
     1
290
     0
176
     1
290
     0
176
     1
290
     0
176
     1
 90
       50
176
     1
 40
0.0
176
     1
 40
1.0
176
     1
 90
        0
176
     1
 62
    18
420
        0
176
     1
 90
       50
176
     1
 90
        3
176
     1
 62
     5
420
      255
176
     1
290
     0
176
     1
 90
       50
176
     1
 90
       50
176
     1
 90
       50
176
     1
290
     0
176
     1
 90
       50
176
     1
 62
   256
176
     0
 40
1.0
176
     0
 90
        2
176
     1
  1
strokes_ogs.tif
176
     1
290
     0
176
     1
 40
1.0
176
     1
 40
1.0
176
     1
  0
VISUALSTYLE
  5
3E
102
{ACAD_REACTORS
330
2A
102
}
330
2A
100
AcDbVisualStyle
  2
Shades of Gray
 70
    23
177
     3
291
     0
 70
    58
 90
        2
176
     1
 90
        2
176
     1
 90
        3
176
     1
 90
        0
176
     1
 40
0.6
176
     1
 40
30.0
176
     1
 62
     7
420
 16777215
176
     1
 90
        2
176
     1
 90
        2
176
     1
 62
     7
176
     1
 62
     7
176
     1
 90
        1
176
     1
 90
        1
176
     1
 40
40.0
176
     1
 90
        8
176
     1
 62
     7
176
     1
 40
1.0
176
     1
 90
        1
176
     1
 90
        6
176
     1
 90
        2
176
     1
 62
     7
176
     1
 90
        3
176
     1
 90
        0
176
     1
 90
        0
176
     1
290
     0
176
     1
 90
        1
176
     1
 40
0.0
176
     1
 90
        0
176
     1
290
     0
176
     1
290
     1
176
     1
290
     1
176
     1
290
     0
176
     1
290
     0
176
     1
290
     0
176
     1
290
     0
176
     1
290
     0
176
     1
290
     0
176
     1
 90
       50
176
     1
 40
0.0
176
     1
 40
1.0
176
     1
 90
        0
176
     1
 62
    18
420
        0
176
     1
 90
       50
176
     1
 90
        3
176
     1
 62
     5
420
      255
176
     1
290
     0
176
     1
 90
       50
176
     1
 90
       50
176
     1
 90
       50
176
     1
290
     0
176
     1
 90
       50
176
     1
 62
   256
176
     0
 40
1.0
176
     0
 90
        2
176
     1
  1
strokes_ogs.tif
176
     1
290
     0
176
     1
 40
1.0
176
     1
 40
1.0
176
     1
  0
VISUALSTYLE
  5
3F
102
{ACAD_REACTORS
330
2A
102
}
330
2A
100
AcDbVisualStyle
  2
Sketchy
 70
    24
177
     3
291
     0
 70
    58
 90
        1
176
     1
 90
        2
176
     1
 90
        2
176
     1
 90
        0
176
     1
 40
0.6
176
     1
 40
30.0
176
     1
 62
     7
420
 16777215
176
     1
 90
        2
176
     1
 90
        2
176
     1
 62
     7
176
     1
 62
     7
176
     1
 90
        1
176
     1
 90
        1
176
     1
 40
40.0
176
     1
 90
       11
176
     1
 62
     7
176
     1
 40
1.0
176
     1
 90
        1
176
     1
 90
        6
176
     1
 90
        2
176
     1
 62
     7
176
     1
 90
        6
176
     1
 90
        0
176
     1
 90
        0
176
     1
290
     0
176
     1
 90
        1
176
     1
 40
0.0
176
     1
 90
        0
176
     1
290
     0
176
     1
290
     1
176
     1
290
     1
176
     1
290
     0
176
     1
290
     0
176
     1
290
     0
176
     1
290
     0
176
     1
290
     0
176
     1
290
     0
176
     1
 90
       50
176
     1
 40
0.0
176
     1
 40
1.0
176
     1
 90
        0
176
     1
 62
    18
420
        0
176
     1
 90
       50
176
     1
 90
        3
176
     1
 62
     5
420
      255
176
     1
290
     0
176
     1
 90
       50
176
     1
 90
       50
176
     1
 90
       50
176
     1
290
     0
176
     1
 90
       50
176
     1
 62
   256
176
     0
 40
1.0
176
     0
 90
        2
176
     1
  1
strokes_ogs.tif
176
     1
290
     0
176
     1
 40
1.0
176
     1
 40
1.0
176
     1
  0
VISUALSTYLE
  5
37
102
{ACAD_REACTORS
330
2A
102
}
330
2A
100
AcDbVisualStyle
  2
Thicken
 70
    13
177
     3
291
     1
 70
    58
 90
        2
176
     1
 90
        2
176
     1
 90
        0
176
     1
 90
        0
176
     1
 40
0.6
176
     1
 40
30.0
176
     1
 62
     7
420
 16777215
176
     1
 90
        1
176
     1
 90
        4
176
     1
 62
     7
176
     1
 62
   257
176
     1
 90
        1
176
     1
 90
        1
176
     1
 40
1.0
176
     1
 90
       12
176
     1
 62
     7
176
     1
 40
1.0
176
     1
 90
        1
176
     1
 90
        6
176
     1
 90
        2
176
     1
 62
     7
176
     1
 90
        5
176
     1
 90
        0
176
     1
 90
        0
176
     1
290
     0
176
     1
 90
        1
176
     1
 40
0.0
176
     1
 90
        0
176
     1
290
     0
176
     1
290
     1
176
     1
290
     1
176
     1
290
     0
176
     1
290
     0
176
     1
290
     0
176
     1
290
     0
176
     1
290
     0
176
     1
290
     0
176
     1
 90
       50
176
     1
 40
0.0
176
     1
 40
1.0
176
     1
 90
        0
176
     1
 62
    18
420
        0
176
     1
 90
       50
176
     1
 90
        3
176
     1
 62
     5
420
      255
176
     1
290
     0
176
     1
 90
       50
176
     1
 90
       50
176
     1
 90
       50
176
     1
290
     0
176
     1
 90
       50
176
     1
 62
   256
176
     0
 40
1.0
176
     0
 90
        2
176
     1
  1
strokes_ogs.tif
176
     1
290
     0
176
     1
 40
1.0
176
     1
 40
1.0
176
     1
  0
VISUALSTYLE
  5
30
102
{ACAD_REACTORS
330
2A
102
}
330
2A
100
AcDbVisualStyle
  2
Wireframe
 70
     5
177
     3
291
     0
 70
    58
 90
        0
176
     1
 90
        2
176
     1
 90
        0
176
     1
 90
        0
176
     1
 40
0.6
176
     1
 40
30.0
176
     1
 62
     7
420
 16777215
176
     1
 90
        1
176
     1
 90
        4
176
     1
 62
     7
176
     1
 62
   257
176
     1
 90
        1
176
     1
 90
        1
176
     1
 40
1.0
176
     1
 90
        0
176
     1
 62
   257
176
     1
 40
1.0
176
     1
 90
        1
176
     1
 90
        6
176
     1
 90
        2
176
     1
 62
     7
176
     1
 90
        3
176
     1
 90
        0
176
     1
 90
        0
176
     1
290
     0
176
     1
 90
        1
176
     1
 40
0.0
176
     1
 90
        0
176
     1
290
     0
176
     1
290
     1
176
     1
290
     1
176
     1
290
     0
176
     1
290
     0
176
     1
290
     0
176
     1
290
     0
176
     1
290
     0
176
     1
290
     0
176
     1
 90
       50
176
     1
 40
0.0
176
     1
 40
1.0
176
     1
 90
        0
176
     1
 62
    18
420
        0
176
     1
 90
       50
176
     1
 90
        3
176
     1
 62
     5
420
      255
176
     1
290
     0
176
     1
 90
       50
176
     1
 90
       50
176
     1
 90
       50
176
     1
290
     0
176
     1
 90
       50
176
     1
 62
   256
176
     0
 40
1.0
176
     0
 90
        2
176
     1
  1
strokes_ogs.tif
176
     1
290
     0
176
     1
 40
1.0
176
     1
 40
1.0
176
     1
  0
VISUALSTYLE
  5
40
102
{ACAD_REACTORS
330
2A
102
}
330
2A
100
AcDbVisualStyle
  2
X-Ray
 70
    25
177
     3
291
     0
 70
    58
 90
        2
176
     1
 90
        2
176
     1
 90
        1
176
     1
 90
        1
176
     1
 40
0.5
176
     1
 40
30.0
176
     1
 62
     7
420
 16777215
176
     1
 90
        1
176
     1
 90
        0
176
     1
 62
     7
176
     1
 62
   257
176
     1
 90
        1
176
     1
 90
        1
176
     1
 40
1.0
176
     1
 90
        8
176
     1
 62
     7
176
     1
 40
1.0
176
     1
 90
        1
176
     1
 90
        6
176
     1
 90
        2
176
     1
 62
     7
176
     1
 90
        3
176
     1
 90
        0
176
     1
 90
        0
176
     1
290
     0
176
     1
 90
       13
176
     1
 40
0.0
176
     1
 90
        0
176
     1
290
     0
176
     1
290
     1
176
     1
290
     1
176
     1
290
     0
176
     1
290
     0
176
     1
290
     0
176
     1
290
     0
176
     1
290
     0
176
     1
290
     0
176
     1
 90
       50
176
     1
 40
0.0
176
     1
 40
1.0
176
     1
 90
        0
176
     1
 62
    18
420
        0
176
     1
 90
       50
176
     1
 90
        3
176
     1
 62
     5
420
      255
176
     1
290
     0
176
     1
 90
       50
176
     1
 90
       50
176
     1
 90
       50
176
     1
290
     0
176
     1
 90
       50
176
     1
 62
   256
176
     0
 40
1.0
176
     0
 90
        2
176
     1
  1
strokes_ogs.tif
176
     1
290
     0
176
     1
 40
1.0
176
     1
 40
1.0
176
     1
  0
DICTIONARYVAR
  5
182
102
{ACAD_REACTORS
330
181
102
}
330
181
100
DictionaryVariables
280
     0
  1
1:1
  0
DICTIONARYVAR
  5
187
102
{ACAD_REACTORS
330
181
102
}
330
181
100
DictionaryVariables
280
     0
  1
Standard
  0
DICTIONARYVAR
  5
186
102
{ACAD_REACTORS
330
181
102
}
330
181
100
DictionaryVariables
280
     0
  1
Standard
  0
DICTIONARY
  5
183
330
6A
100
AcDbDictionary
280
     1
281
     1
  3
ACAD_ROUNDTRIP_2008_TABLESTYLE_CELLSTYLEMAP
360
184
  0
CELLSTYLEMAP
  5
184
102
{ACAD_REACTORS
330
183
102
}
330
183
100
AcDbCellStyleMap
 90
        3
300
CELLSTYLE
  1
TABLEFORMAT_BEGIN
 90
        5
170
     1
 91
        0
 92
    32768
 62
   257
 93
        1
300
CONTENTFORMAT
  1
CONTENTFORMAT_BEGIN
 90
        0
 91
        0
 92
        4
 93
        0
300

 40
0.0
140
1.0
 94
        5
 62
     0
340
11
144
0.25
309
CONTENTFORMAT_END
171
     1
301
MARGIN
  1
CELLMARGIN_BEGIN
 40
0.06
 40
0.06
 40
0.06
 40
0.06
 40
0.06
 40
0.06
309
CELLMARGIN_END
 94
        6
 95
        1
302
GRIDFORMAT
  1
GRIDFORMAT_BEGIN
 90
        0
 91
        1
 62
     0
 92
       -2
340
14
 93
        0
 40
0.045
309
GRIDFORMAT_END
 95
        2
302
GRIDFORMAT
  1
GRIDFORMAT_BEGIN
 90
        0
 91
        1
 62
     0
 92
       -2
340
14
 93
        0
 40
0.045
309
GRIDFORMAT_END
 95
        4
302
GRIDFORMAT
  1
GRIDFORMAT_BEGIN
 90
        0
 91
        1
 62
     0
 92
       -2
340
14
 93
        0
 40
0.045
309
GRIDFORMAT_END
 95
        8
302
GRIDFORMAT
  1
GRIDFORMAT_BEGIN
 90
        0
 91
        1
 62
     0
 92
       -2
340
14
 93
        0
 40
0.045
309
GRIDFORMAT_END
 95
       16
302
GRIDFORMAT
  1
GRIDFORMAT_BEGIN
 90
        0
 91
        1
 62
     0
 92
       -2
340
14
 93
        0
 40
0.045
309
GRIDFORMAT_END
 95
       32
302
GRIDFORMAT
  1
GRIDFORMAT_BEGIN
 90
        0
 91
        1
 62
     0
 92
       -2
340
14
 93
        0
 40
0.045
309
GRIDFORMAT_END
309
TABLEFORMAT_END
  1
CELLSTYLE_BEGIN
 90
        1
 91
        1
300
_TITLE
309
CELLSTYLE_END
300
CELLSTYLE
  1
TABLEFORMAT_BEGIN
 90
        5
170
     1
 91
        0
 92
        0
 62
   257
 93
        1
300
CONTENTFORMAT
  1
CONTENTFORMAT_BEGIN
 90
        0
 91
        0
 92
        4
 93
        0
300

 40
0.0
140
1.0
 94
        5
 62
     0
340
11
144
0.18
309
CONTENTFORMAT_END
171
     1
301
MARGIN
  1
CELLMARGIN_BEGIN
 40
0.06
 40
0.06
 40
0.06
 40
0.06
 40
0.06
 40
0.06
309
CELLMARGIN_END
 94
        6
 95
        1
302
GRIDFORMAT
  1
GRIDFORMAT_BEGIN
 90
        0
 91
        1
 62
     0
 92
       -2
340
14
 93
        0
 40
0.045
309
GRIDFORMAT_END
 95
        2
302
GRIDFORMAT
  1
GRIDFORMAT_BEGIN
 90
        0
 91
        1
 62
     0
 92
       -2
340
14
 93
        0
 40
0.045
309
GRIDFORMAT_END
 95
        4
302
GRIDFORMAT
  1
GRIDFORMAT_BEGIN
 90
        0
 91
        1
 62
     0
 92
       -2
340
14
 93
        0
 40
0.045
309
GRIDFORMAT_END
 95
        8
302
GRIDFORMAT
  1
GRIDFORMAT_BEGIN
 90
        0
 91
        1
 62
     0
 92
       -2
340
14
 93
        0
 40
0.045
309
GRIDFORMAT_END
 95
       16
302
GRIDFORMAT
  1
GRIDFORMAT_BEGIN
 90
        0
 91
        1
 62
     0
 92
       -2
340
14
 93
        0
 40
0.045
309
GRIDFORMAT_END
 95
       32
302
GRIDFORMAT
  1
GRIDFORMAT_BEGIN
 90
        0
 91
        1
 62
     0
 92
       -2
340
14
 93
        0
 40
0.045
309
GRIDFORMAT_END
309
TABLEFORMAT_END
  1
CELLSTYLE_BEGIN
 90
        2
 91
        1
300
_HEADER
309
CELLSTYLE_END
300
CELLSTYLE
  1
TABLEFORMAT_BEGIN
 90
        5
170
     1
 91
        0
 92
        0
 62
   257
 93
        1
300
CONTENTFORMAT
  1
CONTENTFORMAT_BEGIN
 90
        0
 91
        0
 92
        4
 93
        0
300

 40
0.0
140
1.0
 94
        2
 62
     0
340
11
144
0.18
309
CONTENTFORMAT_END
171
     1
301
MARGIN
  1
CELLMARGIN_BEGIN
 40
0.06
 40
0.06
 40
0.06
 40
0.06
 40
0.06
 40
0.06
309
CELLMARGIN_END
 94
        6
 95
        1
302
GRIDFORMAT
  1
GRIDFORMAT_BEGIN
 90
        0
 91
        1
 62
     0
 92
       -2
340
14
 93
        0
 40
0.045
309
GRIDFORMAT_END
 95
        2
302
GRIDFORMAT
  1
GRIDFORMAT_BEGIN
 90
        0
 91
        1
 62
     0
 92
       -2
340
14
 93
        0
 40
0.045
309
GRIDFORMAT_END
 95
        4
302
GRIDFORMAT
  1
GRIDFORMAT_BEGIN
 90
        0
 91
        1
 62
     0
 92
       -2
340
14
 93
        0
 40
0.045
309
GRIDFORMAT_END
 95
        8
302
GRIDFORMAT
  1
GRIDFORMAT_BEGIN
 90
        0
 91
        1
 62
     0
 92
       -2
340
14
 93
        0
 40
0.045
309
GRIDFORMAT_END
 95
       16
302
GRIDFORMAT
  1
GRIDFORMAT_BEGIN
 90
        0
 91
        1
 62
     0
 92
       -2
340
14
 93
        0
 40
0.045
309
GRIDFORMAT_END
 95
       32
302
GRIDFORMAT
  1
GRIDFORMAT_BEGIN
 90
        0
 91
        1
 62
     0
 92
       -2
340
14
 93
        0
 40
0.045
309
GRIDFORMAT_END
309
TABLEFORMAT_END
  1
CELLSTYLE_BEGIN
 90
        3
 91
        2
300
_DATA
309
CELLSTYLE_END
  0
ENDSEC
  0
EOF