0
SECTION
  2
HEADER
  9
$ACADVER
  1
AC1027
  9
$ACADMAINTVER
 70
     8
  9
$DWGCODEPAGE
  3
ANSI_1252
  9
$REQUIREDVERSIONS
160
                 0
  9
$COMMENTS
  1
File was created by Cadenas
  9
$CUSTOMPROPERTYTAG
  1
NN
  9
$CUSTOMPROPERTY
  1
Special Duty Pillow Block - Inch 4-Bolt Base Gray Iron Non-Expansion
  9
$CUSTOMPROPERTYTAG
  1
NT
  9
$CUSTOMPROPERTY
  1
Special Duty
  9
$CUSTOMPROPERTYTAG
  1
NB
  9
$CUSTOMPROPERTY
  1
066426
  9
$CUSTOMPROPERTYTAG
  1
NBSYN
  9
$CUSTOMPROPERTY
  1
$PN.
  9
$CUSTOMPROPERTYTAG
  1
LINA
  9
$CUSTOMPROPERTY
  1
066426
  9
$CUSTOMPROPERTYTAG
  1
SS
  9
$CUSTOMPROPERTY
  1
7
  9
$CUSTOMPROPERTYTAG
  1
PN
  9
$CUSTOMPROPERTY
  1
066426
  9
$CUSTOMPROPERTYTAG
  1
TYPE
  9
$CUSTOMPROPERTY
  1
Gray Iron Expansion
  9
$CUSTOMPROPERTYTAG
  1
DESCRIPTION
  9
$CUSTOMPROPERTY
  1
P4B-SD-700E
  9
$CUSTOMPROPERTYTAG
  1
WEIGHT
  9
$CUSTOMPROPERTY
  1
1050
  9
$CUSTOMPROPERTYTAG
  1
A
  9
$CUSTOMPROPERTY
  1
13-1/2
  9
$CUSTOMPROPERTYTAG
  1
B
  9
$CUSTOMPROPERTY
  1
34-3/8
  9
$CUSTOMPROPERTYTAG
  1
C
  9
$CUSTOMPROPERTY
  1
10-1/4
  9
$CUSTOMPROPERTYTAG
  1
DMIN
  9
$CUSTOMPROPERTY
  1
27-1/2
  9
$CUSTOMPROPERTYTAG
  1
DMAX
  9
$CUSTOMPROPERTY
  1
30-1/2
  9
$CUSTOMPROPERTYTAG
  1
E
  9
$CUSTOMPROPERTY
  1
5-1/2
  9
$CUSTOMPROPERTYTAG
  1
F
  9
$CUSTOMPROPERTY
  1
1-1/2
  9
$CUSTOMPROPERTYTAG
  1
G
  9
$CUSTOMPROPERTY
  1
3
  9
$CUSTOMPROPERTYTAG
  1
H
  9
$CUSTOMPROPERTY
  1
6
  9
$CUSTOMPROPERTYTAG
  1
J
  9
$CUSTOMPROPERTY
  1
23
  9
$CUSTOMPROPERTYTAG
  1
L
  9
$CUSTOMPROPERTY
  1
11
  9
$CUSTOMPROPERTYTAG
  1
M
  9
$CUSTOMPROPERTY
  1
11-1/4
  9
$CUSTOMPROPERTYTAG
  1
P
  9
$CUSTOMPROPERTY
  1
23-1/2
  9
$CUSTOMPROPERTYTAG
  1
R
  9
$CUSTOMPROPERTY
  1
6-3/4
  9
$CUSTOMPROPERTYTAG
  1
S
  9
$CUSTOMPROPERTY
  1
6-3/4
  9
$CUSTOMPROPERTYTAG
  1
EXP
  9
$CUSTOMPROPERTY
  1
1-1/2
  9
$CUSTOMPROPERTYTAG
  1
COMPANY
  9
$CUSTOMPROPERTY
  1
baldor
  9
$INSBASE
 10
0.0
 20
0.0
 30
0.0
  9
$EXTMIN
 10
1.000000000000000E+20
 20
1.000000000000000E+20
 30
1.000000000000000E+20
  9
$EXTMAX
 10
-1.000000000000000E+20
 20
-1.000000000000000E+20
 30
-1.000000000000000E+20
  9
$LIMMIN
 10
0.0
 20
0.0
  9
$LIMMAX
 10
12.0
 20
9.0
  9
$ORTHOMODE
 70
     0
  9
$REGENMODE
 70
     1
  9
$FILLMODE
 70
     1
  9
$QTEXTMODE
 70
     0
  9
$MIRRTEXT
 70
     1
  9
$LTSCALE
 40
1.0
  9
$ATTMODE
 70
     1
  9
$TEXTSIZE
 40
0.2
  9
$TRACEWID
 40
0.05
  9
$TEXTSTYLE
  7
Standard
  9
$CLAYER
  8
0
  9
$CELTYPE
  6
ByLayer
  9
$CECOLOR
 62
   256
  9
$CELTSCALE
 40
1.0
  9
$DISPSILH
 70
     0
  9
$DIMSCALE
 40
1.0
  9
$DIMASZ
 40
0.18
  9
$DIMEXO
 40
0.0625
  9
$DIMDLI
 40
0.38
  9
$DIMRND
 40
0.0
  9
$DIMDLE
 40
0.0
  9
$DIMEXE
 40
0.18
  9
$DIMTP
 40
0.0
  9
$DIMTM
 40
0.0
  9
$DIMTXT
 40
0.18
  9
$DIMCEN
 40
0.09
  9
$DIMTSZ
 40
0.0
  9
$DIMTOL
 70
     0
  9
$DIMLIM
 70
     0
  9
$DIMTIH
 70
     1
  9
$DIMTOH
 70
     1
  9
$DIMSE1
 70
     0
  9
$DIMSE2
 70
     0
  9
$DIMTAD
 70
     0
  9
$DIMZIN
 70
     0
  9
$DIMBLK
  1

  9
$DIMASO
 70
     1
  9
$DIMSHO
 70
     1
  9
$DIMPOST
  1

  9
$DIMAPOST
  1

  9
$DIMALT
 70
     0
  9
$DIMALTD
 70
     2
  9
$DIMALTF
 40
25.4
  9
$DIMLFAC
 40
1.0
  9
$DIMTOFL
 70
     0
  9
$DIMTVP
 40
0.0
  9
$DIMTIX
 70
     0
  9
$DIMSOXD
 70
     0
  9
$DIMSAH
 70
     0
  9
$DIMBLK1
  1

  9
$DIMBLK2
  1

  9
$DIMSTYLE
  2
Standard
  9
$DIMCLRD
 70
     0
  9
$DIMCLRE
 70
     0
  9
$DIMCLRT
 70
     0
  9
$DIMTFAC
 40
1.0
  9
$DIMGAP
 40
0.09
  9
$DIMJUST
 70
     0
  9
$DIMSD1
 70
     0
  9
$DIMSD2
 70
     0
  9
$DIMTOLJ
 70
     1
  9
$DIMTZIN
 70
     0
  9
$DIMALTZ
 70
     0
  9
$DIMALTTZ
 70
     0
  9
$DIMUPT
 70
     0
  9
$DIMDEC
 70
     4
  9
$DIMTDEC
 70
     4
  9
$DIMALTU
 70
     2
  9
$DIMALTTD
 70
     2
  9
$DIMTXSTY
  7
Standard
  9
$DIMAUNIT
 70
     0
  9
$DIMADEC
 70
     0
  9
$DIMALTRND
 40
0.0
  9
$DIMAZIN
 70
     0
  9
$DIMDSEP
 70
    46
  9
$DIMATFIT
 70
     3
  9
$DIMFRAC
 70
     0
  9
$DIMLDRBLK
  1

  9
$DIMLUNIT
 70
     2
  9
$DIMLWD
 70
    -2
  9
$DIMLWE
 70
    -2
  9
$DIMTMOVE
 70
     0
  9
$DIMFXL
 40
1.0
  9
$DIMFXLON
 70
     0
  9
$DIMJOGANG
 40
0.7853981633974483
  9
$DIMTFILL
 70
     0
  9
$DIMTFILLCLR
 70
     0
  9
$DIMARCSYM
 70
     0
  9
$DIMLTYPE
  6

  9
$DIMLTEX1
  6

  9
$DIMLTEX2
  6

  9
$DIMTXTDIRECTION
 70
     0
  9
$LUNITS
 70
     2
  9
$LUPREC
 70
     4
  9
$SKETCHINC
 40
0.1
  9
$FILLETRAD
 40
0.5
  9
$AUNITS
 70
     0
  9
$AUPREC
 70
     0
  9
$MENU
  1
.
  9
$ELEVATION
 40
0.0
  9
$PELEVATION
 40
0.0
  9
$THICKNESS
 40
0.0
  9
$LIMCHECK
 70
     0
  9
$CHAMFERA
 40
0.0
  9
$CHAMFERB
 40
0.0
  9
$CHAMFERC
 40
0.0
  9
$CHAMFERD
 40
0.0
  9
$SKPOLY
 70
     0
  9
$TDCREATE
 40
2458169.000046204
  9
$TDUCREATE
 40
2458168.958379537
  9
$TDUPDATE
 40
2458169.000046378
  9
$TDUUPDATE
 40
2458168.958379711
  9
$TDINDWG
 40
0.0000000116
  9
$TDUSRTIMER
 40
0.0000000116
  9
$USRTIMER
 70
     1
  9
$ANGBASE
 50
0.0
  9
$ANGDIR
 70
     0
  9
$PDMODE
 70
     0
  9
$PDSIZE
 40
0.0
  9
$PLINEWID
 40
0.0
  9
$SPLFRAME
 70
     0
  9
$SPLINETYPE
 70
     6
  9
$SPLINESEGS
 70
     8
  9
$HANDSEED
  5
1FF
  9
$SURFTAB1
 70
     6
  9
$SURFTAB2
 70
     6
  9
$SURFTYPE
 70
     6
  9
$SURFU
 70
     6
  9
$SURFV
 70
     6
  9
$UCSBASE
  2

  9
$UCSNAME
  2

  9
$UCSORG
 10
0.0
 20
0.0
 30
0.0
  9
$UCSXDIR
 10
1.0
 20
0.0
 30
0.0
  9
$UCSYDIR
 10
0.0
 20
1.0
 30
0.0
  9
$UCSORTHOREF
  2

  9
$UCSORTHOVIEW
 70
     0
  9
$UCSORGTOP
 10
0.0
 20
0.0
 30
0.0
  9
$UCSORGBOTTOM
 10
0.0
 20
0.0
 30
0.0
  9
$UCSORGLEFT
 10
0.0
 20
0.0
 30
0.0
  9
$UCSORGRIGHT
 10
0.0
 20
0.0
 30
0.0
  9
$UCSORGFRONT
 10
0.0
 20
0.0
 30
0.0
  9
$UCSORGBACK
 10
0.0
 20
0.0
 30
0.0
  9
$PUCSBASE
  2

  9
$PUCSNAME
  2

  9
$PUCSORG
 10
0.0
 20
0.0
 30
0.0
  9
$PUCSXDIR
 10
1.0
 20
0.0
 30
0.0
  9
$PUCSYDIR
 10
0.0
 20
1.0
 30
0.0
  9
$PUCSORTHOREF
  2

  9
$PUCSORTHOVIEW
 70
     0
  9
$PUCSORGTOP
 10
0.0
 20
0.0
 30
0.0
  9
$PUCSORGBOTTOM
 10
0.0
 20
0.0
 30
0.0
  9
$PUCSORGLEFT
 10
0.0
 20
0.0
 30
0.0
  9
$PUCSORGRIGHT
 10
0.0
 20
0.0
 30
0.0
  9
$PUCSORGFRONT
 10
0.0
 20
0.0
 30
0.0
  9
$PUCSORGBACK
 10
0.0
 20
0.0
 30
0.0
  9
$USERI1
 70
     0
  9
$USERI2
 70
     0
  9
$USERI3
 70
     0
  9
$USERI4
 70
     0
  9
$USERI5
 70
     0
  9
$USERR1
 40
0.0
  9
$USERR2
 40
0.0
  9
$USERR3
 40
0.0
  9
$USERR4
 40
0.0
  9
$USERR5
 40
0.0
  9
$WORLDVIEW
 70
     1
  9
$SHADEDGE
 70
     3
  9
$SHADEDIF
 70
    70
  9
$TILEMODE
 70
     1
  9
$MAXACTVP
 70
    64
  9
$PINSBASE
 10
0.0
 20
0.0
 30
0.0
  9
$PLIMCHECK
 70
     0
  9
$PEXTMIN
 10
1.000000000000000E+20
 20
1.000000000000000E+20
 30
1.000000000000000E+20
  9
$PEXTMAX
 10
-1.000000000000000E+20
 20
-1.000000000000000E+20
 30
-1.000000000000000E+20
  9
$PLIMMIN
 10
0.0
 20
0.0
  9
$PLIMMAX
 10
12.0
 20
9.0
  9
$UNITMODE
 70
     0
  9
$VISRETAIN
 70
     1
  9
$PLINEGEN
 70
     0
  9
$PSLTSCALE
 70
     1
  9
$TREEDEPTH
 70
  3020
  9
$CMLSTYLE
  2
Standard
  9
$CMLJUST
 70
     0
  9
$CMLSCALE
 40
1.0
  9
$PROXYGRAPHICS
 70
     1
  9
$MEASUREMENT
 70
     0
  9
$CELWEIGHT
370
    -1
  9
$ENDCAPS
280
     0
  9
$JOINSTYLE
280
     0
  9
$LWDISPLAY
290
     0
  9
$INSUNITS
 70
     1
  9
$HYPERLINKBASE
  1

  9
$STYLESHEET
  1

  9
$XEDIT
290
     1
  9
$CEPSNTYPE
380
     0
  9
$PSTYLEMODE
290
     1
  9
$FINGERPRINTGUID
  2
{F0C01FBC-A55A-4B37-82E8-08B64EA2D11D}
  9
$VERSIONGUID
  2
{FAEB1C32-E019-11D5-929B-00C0DF256EC4}
  9
$EXTNAMES
290
     1
  9
$PSVPSCALE
 40
0.0
  9
$OLESTARTUP
290
     0
  9
$SORTENTS
280
   127
  9
$INDEXCTL
280
     0
  9
$HIDETEXT
280
     1
  9
$XCLIPFRAME
280
     2
  9
$HALOGAP
280
     0
  9
$OBSCOLOR
 70
   257
  9
$OBSLTYPE
280
     0
  9
$INTERSECTIONDISPLAY
280
     0
  9
$INTERSECTIONCOLOR
 70
   257
  9
$DIMASSOC
280
     2
  9
$PROJECTNAME
  1

  9
$CAMERADISPLAY
290
     0
  9
$LENSLENGTH
 40
50.0
  9
$CAMERAHEIGHT
 40
0.0
  9
$STEPSPERSEC
 40
2.0
  9
$STEPSIZE
 40
6.0
  9
$3DDWFPREC
 40
2.0
  9
$PSOLWIDTH
 40
0.25
  9
$PSOLHEIGHT
 40
4.0
  9
$LOFTANG1
 40
1.570796326794897
  9
$LOFTANG2
 40
1.570796326794897
  9
$LOFTMAG1
 40
0.0
  9
$LOFTMAG2
 40
0.0
  9
$LOFTPARAM
 70
     7
  9
$LOFTNORMALS
280
     1
  9
$LATITUDE
 40
37.795
  9
$LONGITUDE
 40
-122.394
  9
$NORTHDIRECTION
 40
0.0
  9
$TIMEZONE
 70
 -8000
  9
$LIGHTGLYPHDISPLAY
280
     1
  9
$TILEMODELIGHTSYNCH
280
     1
  9
$CMATERIAL
347
44
  9
$SOLIDHIST
280
     0
  9
$SHOWHIST
280
     1
  9
$DWFFRAME
280
     2
  9
$DGNFRAME
280
     2
  9
$REALWORLDSCALE
290
     1
  9
$INTERFERECOLOR
 62
   256
  9
$CSHADOW
280
     0
  9
$SHADOWPLANELOCATION
 40
0.0
  0
ENDSEC
  0
SECTION
  2
CLASSES
  0
CLASS
  1
ACDBDICTIONARYWDFLT
  2
AcDbDictionaryWithDefault
  3
ObjectDBX Classes
 90
        0
 91
        4
280
     0
281
     0
  0
CLASS
  1
VISUALSTYLE
  2
AcDbVisualStyle
  3
ObjectDBX Classes
 90
     4095
 91
        4
280
     0
281
     0
  0
CLASS
  1
MATERIAL
  2
AcDbMaterial
  3
ObjectDBX Classes
 90
     1153
 91
        4
280
     0
281
     0
  0
CLASS
  1
SCALE
  2
AcDbScale
  3
ObjectDBX Classes
 90
     1153
 91
        4
280
     0
281
     0
  0
CLASS
  1
TABLESTYLE
  2
AcDbTableStyle
  3
ObjectDBX Classes
 90
     4095
 91
        4
280
     0
281
     0
  0
CLASS
  1
MLEADERSTYLE
  2
AcDbMLeaderStyle
  3
ACDB_MLEADERSTYLE_CLASS
 90
     4095
 91
        4
280
     0
281
     0
  0
CLASS
  1
SUN
  2
AcDbSun
  3
SCENEOE
 90
     1153
 91
        4
280
     0
281
     0
  0
CLASS
  1
DICTIONARYVAR
  2
AcDbDictionaryVar
  3
ObjectDBX Classes
 90
        0
 91
        4
280
     0
281
     0
  0
CLASS
  1
CELLSTYLEMAP
  2
AcDbCellStyleMap
  3
ObjectDBX Classes
 90
     1152
 91
        4
280
     0
281
     0
  0
ENDSEC
  0
SECTION
  2
TABLES
  0
TABLE
  2
VPORT
  5
8
330
0
100
AcDbSymbolTable
 70
     1
  0
VPORT
  5
29
330
8
100
AcDbSymbolTableRecord
100
AcDbViewportTableRecord
  2
*Active
 70
     0
 10
0.0
 20
0.0
 11
1.0
 21
1.0
 12
0.0000000000000213
 22
0.3650000000000002
 13
0.0
 23
0.0
 14
0.5
 24
0.5
 15
0.5
 25
0.5
 16
0.0
 26
0.0
 36
1.0
 17
0.0
 27
0.0
 37
0.0
 40
23.6946
 41
0.6392595781317263
 42
50.0
 43
0.0
 44
0.0
 50
0.0
 51
0.0
 71
     0
 72
   100
 73
     1
 74
     3
 75
     0
 76
     0
 77
     0
 78
     0
281
     0
 65
     1
110
0.0
120
0.0
130
0.0
111
1.0
121
0.0
131
0.0
112
0.0
122
1.0
132
0.0
 79
     0
146
0.0
348
2F
 60
     3
 61
     5
292
     1
282
     1
141
0.0
142
0.0
 63
   250
361
6D
  0
ENDTAB
  0
TABLE
  2
LTYPE
  5
5
330
0
100
AcDbSymbolTable
 70
     3
  0
LTYPE
  5
14
330
5
100
AcDbSymbolTableRecord
100
AcDbLinetypeTableRecord
  2
ByBlock
 70
     0
  3

 72
    65
 73
     0
 40
0.0
  0
LTYPE
  5
15
330
5
100
AcDbSymbolTableRecord
100
AcDbLinetypeTableRecord
  2
ByLayer
 70
     0
  3

 72
    65
 73
     0
 40
0.0
  0
LTYPE
  5
16
330
5
100
AcDbSymbolTableRecord
100
AcDbLinetypeTableRecord
  2
Continuous
 70
     0
  3
Solid line
 72
    65
 73
     0
 40
0.0
  0
LTYPE
  5
BF
330
5
100
AcDbSymbolTableRecord
100
AcDbLinetypeTableRecord
  2
Dashed
 70
     0
  3

 72
    65
 73
     2
 40
2.0
 49
1.0
 74
     0
 49
-1.0
 74
     0
  0
LTYPE
  5
103
330
5
100
AcDbSymbolTableRecord
100
AcDbLinetypeTableRecord
  2
Center
 70
     0
  3

 72
    65
 73
     4
 40
1.5
 49
0.45
 74
     0
 49
-0.5
 74
     0
 49
0.05
 74
     0
 49
-0.5
 74
     0
  0
ENDTAB
  0
TABLE
  2
LAYER
  5
2
330
0
100
AcDbSymbolTable
 70
     7
  0
LAYER
  5
10
330
2
100
AcDbSymbolTableRecord
100
AcDbLayerTableRecord
  2
0
 70
     0
 62
     7
  6
Continuous
370
    -3
390
F
347
46
348
0
  0
LAYER
  5
72
330
2
100
AcDbSymbolTableRecord
100
AcDbLayerTableRecord
  2
AM_6
 70
     0
 62
    -2
  6
Continuous
370
    35
390
F
347
46
348
0
  0
LAYER
  5
C0
330
2
100
AcDbSymbolTableRecord
100
AcDbLayerTableRecord
  2
AM_9
 70
     0
 62
     6
  6
Dashed
370
    25
390
F
347
46
348
0
  0
LAYER
  5
104
330
2
100
AcDbSymbolTableRecord
100
AcDbLayerTableRecord
  2
AM_7
 70
     0
 62
     7
  6
Center
370
    25
390
F
347
46
348
0
  0
LAYER
  5
141
330
2
100
AcDbSymbolTableRecord
100
AcDbLayerTableRecord
  2
AM_4
 70
     0
 62
     7
  6
Continuous
370
    50
390
F
347
46
348
0
  0
LAYER
  5
1E8
330
2
100
AcDbSymbolTableRecord
100
AcDbLayerTableRecord
  2
AM_5
 70
     0
 62
     3
  6
Continuous
370
    25
390
F
347
46
348
0
  0
LAYER
  5
1F3
330
2
100
AcDbSymbolTableRecord
100
AcDbLayerTableRecord
  2
ConnectionPoints
 70
     0
 62
     7
  6
Continuous
370
    50
390
F
347
46
348
0
  0
ENDTAB
  0
TABLE
  2
STYLE
  5
3
330
0
100
AcDbSymbolTable
 70
     1
  0
STYLE
  5
11
330
3
100
AcDbSymbolTableRecord
100
AcDbTextStyleTableRecord
  2
Standard
 70
     0
 40
0.0
 41
1.0
 50
0.0
 71
     0
 42
0.2
  3
txt
  4

  0
ENDTAB
  0
TABLE
  2
VIEW
  5
6
330
0
100
AcDbSymbolTable
 70
     0
  0
ENDTAB
  0
TABLE
  2
UCS
  5
7
330
0
100
AcDbSymbolTable
 70
     0
  0
ENDTAB
  0
TABLE
  2
APPID
  5
9
330
0
100
AcDbSymbolTable
 70
     1
  0
APPID
  5
12
330
9
100
AcDbSymbolTableRecord
100
AcDbRegAppTableRecord
  2
ACAD
 70
     0
  0
ENDTAB
  0
TABLE
  2
DIMSTYLE
  5
A
330
0
100
AcDbSymbolTable
 70
     1
100
AcDbDimStyleTable
  0
DIMSTYLE
105
27
330
A
100
AcDbSymbolTableRecord
100
AcDbDimStyleTableRecord
  2
Standard
 70
     0
178
     0
340
11
  0
ENDTAB
  0
TABLE
  2
BLOCK_RECORD
  5
1
330
0
100
AcDbSymbolTable
 70
     5
  0
BLOCK_RECORD
  5
1F
330
1
100
AcDbSymbolTableRecord
100
AcDbBlockTableRecord
  2
*Model_Space
340
22
 70
     0
280
     1
281
     0
  0
BLOCK_RECORD
  5
1B
330
1
100
AcDbSymbolTableRecord
100
AcDbBlockTableRecord
  2
*Paper_Space
340
1E
 70
     0
280
     1
281
     0
  0
BLOCK_RECORD
  5
23
330
1
100
AcDbSymbolTableRecord
100
AcDbBlockTableRecord
  2
*Paper_Space0
340
26
 70
     0
280
     1
281
     0
  0
BLOCK_RECORD
  5
6E
330
1
100
AcDbSymbolTableRecord
100
AcDbBlockTableRecord
  2
1_066426_2
340
0
102
{BLKREFS
331
6F
102
}
 70
     0
280
     1
281
     0
  0
BLOCK_RECORD
  5
8E
330
1
100
AcDbSymbolTableRecord
100
AcDbBlockTableRecord
  2
2_066386re_0_in_066426_2
340
0
102
{BLKREFS
331
8F
102
}
 70
     0
280
     1
281
     0
  0
BLOCK_RECORD
  5
106
330
1
100
AcDbSymbolTableRecord
100
AcDbBlockTableRecord
  2
3_066386r_0_in_066426_2
340
0
102
{BLKREFS
331
107
102
}
 70
     0
280
     1
281
     0
  0
BLOCK_RECORD
  5
14E
330
1
100
AcDbSymbolTableRecord
100
AcDbBlockTableRecord
  2
4_066426b_0_in_066426_2
340
0
102
{BLKREFS
331
14F
102
}
 70
     0
280
     1
281
     0
  0
ENDTAB
  0
ENDSEC
  0
SECTION
  2
BLOCKS
  0
BLOCK
  5
20
330
1F
100
AcDbEntity
  8
0
100
AcDbBlockBegin
  2
*Model_Space
 70
     0
 10
0.0
 20
0.0
 30
0.0
  3
*Model_Space
  1

  0
ENDBLK
  5
21
330
1F
100
AcDbEntity
  8
0
100
AcDbBlockEnd
  0
BLOCK
  5
1C
330
1B
100
AcDbEntity
 67
     1
  8
0
100
AcDbBlockBegin
  2
*Paper_Space
 70
     0
 10
0.0
 20
0.0
 30
0.0
  3
*Paper_Space
  1

  0
ENDBLK
  5
1D
330
1B
100
AcDbEntity
 67
     1
  8
0
100
AcDbBlockEnd
  0
BLOCK
  5
24
330
23
100
AcDbEntity
  8
0
100
AcDbBlockBegin
  2
*Paper_Space0
 70
     0
 10
0.0
 20
0.0
 30
0.0
  3
*Paper_Space0
  1

  0
ENDBLK
  5
25
330
23
100
AcDbEntity
  8
0
100
AcDbBlockEnd
  0
BLOCK
  5
70
330
6E
100
AcDbEntity
  8
0
100
AcDbBlockBegin
  2
1_066426_2
 70
     2
 10
0.0
 20
0.0
 30
0.0
  3
1_066426_2
  1

  0
ATTDEF
  5
73
330
6E
100
AcDbEntity
  8
AM_6
100
AcDbText
 10
12.42500000000002
 20
11.98
 30
0.0
 40
0.5
  1
Special Duty Pillow Block - Inch 4-Bolt Base Gray Iron Non-Expansion
100
AcDbAttributeDefinition
  3

  2
NN
 70
     8
280
     0
  0
ATTDEF
  5
74
330
6E
100
AcDbEntity
  8
AM_6
100
AcDbText
 10
12.42500000000002
 20
11.48
 30
0.0
 40
0.5
  1
Special Duty
100
AcDbAttributeDefinition
  3

  2
NT
 70
     8
280
     0
  0
ATTDEF
  5
75
330
6E
100
AcDbEntity
  8
AM_6
100
AcDbText
 10
12.42500000000002
 20
10.98
 30
0.0
 40
0.5
  1
066426
100
AcDbAttributeDefinition
  3

  2
NB
 70
     8
280
     0
  0
ATTDEF
  5
76
330
6E
100
AcDbEntity
  8
AM_6
100
AcDbText
 10
12.42500000000002
 20
10.48
 30
0.0
 40
0.5
  1
$PN.
100
AcDbAttributeDefinition
  3

  2
NBSYN
 70
     8
280
     0
  0
ATTDEF
  5
77
330
6E
100
AcDbEntity
  8
AM_6
100
AcDbText
 10
12.42500000000002
 20
9.98
 30
0.0
 40
0.5
  1
066426
100
AcDbAttributeDefinition
  3

  2
LINA
 70
     8
280
     0
  0
ATTDEF
  5
78
330
6E
100
AcDbEntity
  8
AM_6
100
AcDbText
 10
12.42500000000002
 20
9.48
 30
0.0
 40
0.5
  1
7
100
AcDbAttributeDefinition
  3

  2
SS
 70
     8
280
     0
  0
ATTDEF
  5
79
330
6E
100
AcDbEntity
  8
AM_6
100
AcDbText
 10
12.42500000000002
 20
8.98
 30
0.0
 40
0.5
  1
066426
100
AcDbAttributeDefinition
  3

  2
PN
 70
     8
280
     0
  0
ATTDEF
  5
7A
330
6E
100
AcDbEntity
  8
AM_6
100
AcDbText
 10
12.42500000000002
 20
8.48
 30
0.0
 40
0.5
  1
Gray Iron Expansion
100
AcDbAttributeDefinition
  3

  2
TYPE
 70
     8
280
     0
  0
ATTDEF
  5
7B
330
6E
100
AcDbEntity
  8
AM_6
100
AcDbText
 10
12.42500000000002
 20
7.98
 30
0.0
 40
0.5
  1
P4B-SD-700E
100
AcDbAttributeDefinition
  3

  2
DESCRIPTION
 70
     8
280
     0
  0
ATTDEF
  5
7C
330
6E
100
AcDbEntity
  8
AM_6
100
AcDbText
 10
12.42500000000002
 20
7.48
 30
0.0
 40
0.5
  1
1050
100
AcDbAttributeDefinition
  3

  2
WEIGHT
 70
     8
280
     0
  0
ATTDEF
  5
7D
330
6E
100
AcDbEntity
  8
AM_6
100
AcDbText
 10
12.42500000000002
 20
6.98
 30
0.0
 40
0.5
  1
13-1/2
100
AcDbAttributeDefinition
  3

  2
A
 70
     8
280
     0
  0
ATTDEF
  5
7E
330
6E
100
AcDbEntity
  8
AM_6
100
AcDbText
 10
12.42500000000002
 20
6.48
 30
0.0
 40
0.5
  1
34-3/8
100
AcDbAttributeDefinition
  3

  2
B
 70
     8
280
     0
  0
ATTDEF
  5
7F
330
6E
100
AcDbEntity
  8
AM_6
100
AcDbText
 10
12.42500000000002
 20
5.98
 30
0.0
 40
0.5
  1
10-1/4
100
AcDbAttributeDefinition
  3

  2
C
 70
     8
280
     0
  0
ATTDEF
  5
80
330
6E
100
AcDbEntity
  8
AM_6
100
AcDbText
 10
12.42500000000002
 20
5.48
 30
0.0
 40
0.5
  1
27-1/2
100
AcDbAttributeDefinition
  3

  2
DMIN
 70
     8
280
     0
  0
ATTDEF
  5
81
330
6E
100
AcDbEntity
  8
AM_6
100
AcDbText
 10
12.42500000000002
 20
4.98
 30
0.0
 40
0.5
  1
30-1/2
100
AcDbAttributeDefinition
  3

  2
DMAX
 70
     8
280
     0
  0
ATTDEF
  5
82
330
6E
100
AcDbEntity
  8
AM_6
100
AcDbText
 10
12.42500000000002
 20
4.48
 30
0.0
 40
0.5
  1
5-1/2
100
AcDbAttributeDefinition
  3

  2
E
 70
     8
280
     0
  0
ATTDEF
  5
83
330
6E
100
AcDbEntity
  8
AM_6
100
AcDbText
 10
12.42500000000002
 20
3.98
 30
0.0
 40
0.5
  1
1-1/2
100
AcDbAttributeDefinition
  3

  2
F
 70
     8
280
     0
  0
ATTDEF
  5
84
330
6E
100
AcDbEntity
  8
AM_6
100
AcDbText
 10
12.42500000000002
 20
3.48
 30
0.0
 40
0.5
  1
3
100
AcDbAttributeDefinition
  3

  2
G
 70
     8
280
     0
  0
ATTDEF
  5
85
330
6E
100
AcDbEntity
  8
AM_6
100
AcDbText
 10
12.42500000000002
 20
2.98
 30
0.0
 40
0.5
  1
6
100
AcDbAttributeDefinition
  3

  2
H
 70
     8
280
     0
  0
ATTDEF
  5
86
330
6E
100
AcDbEntity
  8
AM_6
100
AcDbText
 10
12.42500000000002
 20
2.48
 30
0.0
 40
0.5
  1
23
100
AcDbAttributeDefinition
  3

  2
J
 70
     8
280
     0
  0
ATTDEF
  5
87
330
6E
100
AcDbEntity
  8
AM_6
100
AcDbText
 10
12.42500000000002
 20
1.98
 30
0.0
 40
0.5
  1
11
100
AcDbAttributeDefinition
  3

  2
L
 70
     8
280
     0
  0
ATTDEF
  5
88
330
6E
100
AcDbEntity
  8
AM_6
100
AcDbText
 10
12.42500000000002
 20
1.48
 30
0.0
 40
0.5
  1
11-1/4
100
AcDbAttributeDefinition
  3

  2
M
 70
     8
280
     0
  0
ATTDEF
  5
89
330
6E
100
AcDbEntity
  8
AM_6
100
AcDbText
 10
12.42500000000002
 20
0.9800000000000004
 30
0.0
 40
0.5
  1
23-1/2
100
AcDbAttributeDefinition
  3

  2
P
 70
     8
280
     0
  0
ATTDEF
  5
8A
330
6E
100
AcDbEntity
  8
AM_6
100
AcDbText
 10
12.42500000000002
 20
0.4800000000000004
 30
0.0
 40
0.5
  1
6-3/4
100
AcDbAttributeDefinition
  3

  2
R
 70
     8
280
     0
  0
ATTDEF
  5
8B
330
6E
100
AcDbEntity
  8
AM_6
100
AcDbText
 10
12.42500000000002
 20
-0.0199999999999996
 30
0.0
 40
0.5
  1
6-3/4
100
AcDbAttributeDefinition
  3

  2
S
 70
     8
280
     0
  0
ATTDEF
  5
8C
330
6E
100
AcDbEntity
  8
AM_6
100
AcDbText
 10
12.42500000000002
 20
-0.5199999999999996
 30
0.0
 40
0.5
  1
1-1/2
100
AcDbAttributeDefinition
  3

  2
EXP
 70
     8
280
     0
  0
ATTDEF
  5
8D
330
6E
100
AcDbEntity
  8
AM_6
100
AcDbText
 10
12.42500000000002
 20
-1.02
 30
0.0
 40
0.5
  1
baldor
100
AcDbAttributeDefinition
  3

  2
COMPANY
 70
     8
280
     0
  0
INSERT
  5
8F
330
6E
100
AcDbEntity
  8
0
100
AcDbBlockReference
  2
2_066386re_0_in_066426_2
 10
0.0
 20
0.0
 30
0.0
  0
INSERT
  5
107
330
6E
100
AcDbEntity
  8
0
100
AcDbBlockReference
  2
3_066386r_0_in_066426_2
 10
0.0
 20
0.0
 30
0.0
  0
INSERT
  5
14F
330
6E
100
AcDbEntity
  8
0
100
AcDbBlockReference
  2
4_066426b_0_in_066426_2
 10
0.0
 20
0.0
 30
0.0
  0
ENDBLK
  5
71
330
6E
100
AcDbEntity
  8
0
100
AcDbBlockEnd
  0
BLOCK
  5
90
330
8E
100
AcDbEntity
  8
0
100
AcDbBlockBegin
  2
2_066386re_0_in_066426_2
 70
     2
 10
0.0
 20
0.0
 30
0.0
  3
2_066386re_0_in_066426_2
  1

  0
ATTDEF
  5
92
330
8E
100
AcDbEntity
  8
AM_6
100
AcDbText
 10
12.42500000000002
 20
3.58974358974359
 30
0.0
 40
0.5
  1
Special Duty Pillow Block - 4 Bolt - Inch - Body - RING
100
AcDbAttributeDefinition
  3

  2
NN
 70
     8
280
     0
  0
ATTDEF
  5
93
330
8E
100
AcDbEntity
  8
AM_6
100
AcDbText
 10
12.42500000000002
 20
3.08974358974359
 30
0.0
 40
0.5
  1
Special Duty
100
AcDbAttributeDefinition
  3

  2
NT
 70
     8
280
     0
  0
ATTDEF
  5
94
330
8E
100
AcDbEntity
  8
AM_6
100
AcDbText
 10
12.42500000000002
 20
2.58974358974359
 30
0.0
 40
0.5
  1
066386re
100
AcDbAttributeDefinition
  3

  2
NB
 70
     8
280
     0
  0
ATTDEF
  5
95
330
8E
100
AcDbEntity
  8
AM_6
100
AcDbText
 10
12.42500000000002
 20
2.08974358974359
 30
0.0
 40
0.5
  1
$PN1.
100
AcDbAttributeDefinition
  3

  2
NBSYN
 70
     8
280
     0
  0
ATTDEF
  5
96
330
8E
100
AcDbEntity
  8
AM_6
100
AcDbText
 10
12.42500000000002
 20
1.58974358974359
 30
0.0
 40
0.5
  1
066386re
100
AcDbAttributeDefinition
  3

  2
LINA
 70
     8
280
     0
  0
ATTDEF
  5
97
330
8E
100
AcDbEntity
  8
AM_6
100
AcDbText
 10
12.42500000000002
 20
1.08974358974359
 30
0.0
 40
0.5
  1
7
100
AcDbAttributeDefinition
  3

  2
SS
 70
     8
280
     0
  0
ATTDEF
  5
98
330
8E
100
AcDbEntity
  8
AM_6
100
AcDbText
 10
12.42500000000002
 20
0.5897435897435899
 30
0.0
 40
0.5
  1
7.00000
100
AcDbAttributeDefinition
  3

  2
SS1
 70
     8
280
     0
  0
ATTDEF
  5
99
330
8E
100
AcDbEntity
  8
AM_6
100
AcDbText
 10
12.42500000000002
 20
0.0897435897435899
 30
0.0
 40
0.5
  1
066386re
100
AcDbAttributeDefinition
  3

  2
PN1
 70
     8
280
     0
  0
ATTDEF
  5
9A
330
8E
100
AcDbEntity
  8
AM_6
100
AcDbText
 10
12.42500000000002
 20
-0.4102564102564101
 30
0.0
 40
0.5
  1
066426
100
AcDbAttributeDefinition
  3

  2
PN2
 70
     8
280
     0
  0
ATTDEF
  5
9B
330
8E
100
AcDbEntity
  8
AM_6
100
AcDbText
 10
12.42500000000002
 20
-0.9102564102564101
 30
0.0
 40
0.5
  1
P4B-SD-700
100
AcDbAttributeDefinition
  3

  2
DESCRIPTION1
 70
     8
280
     0
  0
ATTDEF
  5
9C
330
8E
100
AcDbEntity
  8
AM_6
100
AcDbText
 10
12.42500000000002
 20
-1.41025641025641
 30
0.0
 40
0.5
  1
P4B-SD-700
100
AcDbAttributeDefinition
  3

  2
DESCRIPTION2
 70
     8
280
     0
  0
ATTDEF
  5
9D
330
8E
100
AcDbEntity
  8
AM_6
100
AcDbText
 10
12.42500000000002
 20
-1.91025641025641
 30
0.0
 40
0.5
  1
1050
100
AcDbAttributeDefinition
  3

  2
WEIGHT1
 70
     8
280
     0
  0
ATTDEF
  5
9E
330
8E
100
AcDbEntity
  8
AM_6
100
AcDbText
 10
12.42500000000002
 20
-2.41025641025641
 30
0.0
 40
0.5
  1
1050
100
AcDbAttributeDefinition
  3

  2
WEIGHT2
 70
     8
280
     0
  0
ATTDEF
  5
9F
330
8E
100
AcDbEntity
  8
AM_6
100
AcDbText
 10
12.42500000000002
 20
-2.91025641025641
 30
0.0
 40
0.5
  1
13-1/2
100
AcDbAttributeDefinition
  3

  2
A
 70
     8
280
     0
  0
ATTDEF
  5
A0
330
8E
100
AcDbEntity
  8
AM_6
100
AcDbText
 10
12.42500000000002
 20
-3.41025641025641
 30
0.0
 40
0.5
  1
13.50000
100
AcDbAttributeDefinition
  3

  2
A1
 70
     8
280
     0
  0
ATTDEF
  5
A1
330
8E
100
AcDbEntity
  8
AM_6
100
AcDbText
 10
12.42500000000002
 20
-3.91025641025641
 30
0.0
 40
0.5
  1
34-3/8
100
AcDbAttributeDefinition
  3

  2
B
 70
     8
280
     0
  0
ATTDEF
  5
A2
330
8E
100
AcDbEntity
  8
AM_6
100
AcDbText
 10
12.42500000000002
 20
-4.410256410256411
 30
0.0
 40
0.5
  1
34.37500
100
AcDbAttributeDefinition
  3

  2
B1
 70
     8
280
     0
  0
ATTDEF
  5
A3
330
8E
100
AcDbEntity
  8
AM_6
100
AcDbText
 10
12.42500000000002
 20
-4.910256410256411
 30
0.0
 40
0.5
  1
10-1/4
100
AcDbAttributeDefinition
  3

  2
C
 70
     8
280
     0
  0
ATTDEF
  5
A4
330
8E
100
AcDbEntity
  8
AM_6
100
AcDbText
 10
12.42500000000002
 20
-5.410256410256411
 30
0.0
 40
0.5
  1
10.25000
100
AcDbAttributeDefinition
  3

  2
C1
 70
     8
280
     0
  0
ATTDEF
  5
A5
330
8E
100
AcDbEntity
  8
AM_6
100
AcDbText
 10
12.42500000000002
 20
-5.910256410256411
 30
0.0
 40
0.5
  1
27-1/2
100
AcDbAttributeDefinition
  3

  2
DMIN
 70
     8
280
     0
  0
ATTDEF
  5
A6
330
8E
100
AcDbEntity
  8
AM_6
100
AcDbText
 10
12.42500000000002
 20
-6.410256410256411
 30
0.0
 40
0.5
  1
27.50000
100
AcDbAttributeDefinition
  3

  2
DMIN1
 70
     8
280
     0
  0
ATTDEF
  5
A7
330
8E
100
AcDbEntity
  8
AM_6
100
AcDbText
 10
12.42500000000002
 20
-6.910256410256411
 30
0.0
 40
0.5
  1
30-1/2
100
AcDbAttributeDefinition
  3

  2
DMAX
 70
     8
280
     0
  0
ATTDEF
  5
A8
330
8E
100
AcDbEntity
  8
AM_6
100
AcDbText
 10
12.42500000000002
 20
-7.410256410256411
 30
0.0
 40
0.5
  1
30.50000
100
AcDbAttributeDefinition
  3

  2
DMAX1
 70
     8
280
     0
  0
ATTDEF
  5
A9
330
8E
100
AcDbEntity
  8
AM_6
100
AcDbText
 10
12.42500000000002
 20
-7.910256410256411
 30
0.0
 40
0.5
  1
5-1/2
100
AcDbAttributeDefinition
  3

  2
E
 70
     8
280
     0
  0
ATTDEF
  5
AA
330
8E
100
AcDbEntity
  8
AM_6
100
AcDbText
 10
12.42500000000002
 20
-8.41025641025641
 30
0.0
 40
0.5
  1
5.50000
100
AcDbAttributeDefinition
  3

  2
E1
 70
     8
280
     0
  0
ATTDEF
  5
AB
330
8E
100
AcDbEntity
  8
AM_6
100
AcDbText
 10
12.42500000000002
 20
-8.91025641025641
 30
0.0
 40
0.5
  1
1-1/2
100
AcDbAttributeDefinition
  3

  2
F
 70
     8
280
     0
  0
ATTDEF
  5
AC
330
8E
100
AcDbEntity
  8
AM_6
100
AcDbText
 10
12.42500000000002
 20
-9.41025641025641
 30
0.0
 40
0.5
  1
1.50000
100
AcDbAttributeDefinition
  3

  2
F1
 70
     8
280
     0
  0
ATTDEF
  5
AD
330
8E
100
AcDbEntity
  8
AM_6
100
AcDbText
 10
12.42500000000002
 20
-9.91025641025641
 30
0.0
 40
0.5
  1
3
100
AcDbAttributeDefinition
  3

  2
G
 70
     8
280
     0
  0
ATTDEF
  5
AE
330
8E
100
AcDbEntity
  8
AM_6
100
AcDbText
 10
12.42500000000002
 20
-10.41025641025641
 30
0.0
 40
0.5
  1
3.00000
100
AcDbAttributeDefinition
  3

  2
G1
 70
     8
280
     0
  0
ATTDEF
  5
AF
330
8E
100
AcDbEntity
  8
AM_6
100
AcDbText
 10
12.42500000000002
 20
-10.91025641025641
 30
0.0
 40
0.5
  1
6
100
AcDbAttributeDefinition
  3

  2
H
 70
     8
280
     0
  0
ATTDEF
  5
B0
330
8E
100
AcDbEntity
  8
AM_6
100
AcDbText
 10
12.42500000000002
 20
-11.41025641025641
 30
0.0
 40
0.5
  1
6.00000
100
AcDbAttributeDefinition
  3

  2
H1
 70
     8
280
     0
  0
ATTDEF
  5
B1
330
8E
100
AcDbEntity
  8
AM_6
100
AcDbText
 10
12.42500000000002
 20
-11.91025641025641
 30
0.0
 40
0.5
  1
23
100
AcDbAttributeDefinition
  3

  2
J
 70
     8
280
     0
  0
ATTDEF
  5
B2
330
8E
100
AcDbEntity
  8
AM_6
100
AcDbText
 10
12.42500000000002
 20
-12.41025641025641
 30
0.0
 40
0.5
  1
23.00000
100
AcDbAttributeDefinition
  3

  2
J1
 70
     8
280
     0
  0
ATTDEF
  5
B3
330
8E
100
AcDbEntity
  8
AM_6
100
AcDbText
 10
12.42500000000002
 20
-12.91025641025641
 30
0.0
 40
0.5
  1
11
100
AcDbAttributeDefinition
  3

  2
L
 70
     8
280
     0
  0
ATTDEF
  5
B4
330
8E
100
AcDbEntity
  8
AM_6
100
AcDbText
 10
12.42500000000002
 20
-13.41025641025641
 30
0.0
 40
0.5
  1
11.00000
100
AcDbAttributeDefinition
  3

  2
L1
 70
     8
280
     0
  0
ATTDEF
  5
B5
330
8E
100
AcDbEntity
  8
AM_6
100
AcDbText
 10
12.42500000000002
 20
-13.91025641025641
 30
0.0
 40
0.5
  1
11-1/4
100
AcDbAttributeDefinition
  3

  2
M
 70
     8
280
     0
  0
ATTDEF
  5
B6
330
8E
100
AcDbEntity
  8
AM_6
100
AcDbText
 10
12.42500000000002
 20
-14.41025641025641
 30
0.0
 40
0.5
  1
11.25000
100
AcDbAttributeDefinition
  3

  2
M1
 70
     8
280
     0
  0
ATTDEF
  5
B7
330
8E
100
AcDbEntity
  8
AM_6
100
AcDbText
 10
12.42500000000002
 20
-14.91025641025641
 30
0.0
 40
0.5
  1
23-1/2
100
AcDbAttributeDefinition
  3

  2
P
 70
     8
280
     0
  0
ATTDEF
  5
B8
330
8E
100
AcDbEntity
  8
AM_6
100
AcDbText
 10
12.42500000000002
 20
-15.41025641025641
 30
0.0
 40
0.5
  1
23.50000
100
AcDbAttributeDefinition
  3

  2
P1
 70
     8
280
     0
  0
ATTDEF
  5
B9
330
8E
100
AcDbEntity
  8
AM_6
100
AcDbText
 10
12.42500000000002
 20
-15.91025641025641
 30
0.0
 40
0.5
  1
6-3/4
100
AcDbAttributeDefinition
  3

  2
R
 70
     8
280
     0
  0
ATTDEF
  5
BA
330
8E
100
AcDbEntity
  8
AM_6
100
AcDbText
 10
12.42500000000002
 20
-16.41025641025641
 30
0.0
 40
0.5
  1
6.75000
100
AcDbAttributeDefinition
  3

  2
R1
 70
     8
280
     0
  0
ATTDEF
  5
BB
330
8E
100
AcDbEntity
  8
AM_6
100
AcDbText
 10
12.42500000000002
 20
-16.91025641025641
 30
0.0
 40
0.5
  1
6-3/4
100
AcDbAttributeDefinition
  3

  2
S
 70
     8
280
     0
  0
ATTDEF
  5
BC
330
8E
100
AcDbEntity
  8
AM_6
100
AcDbText
 10
12.42500000000002
 20
-17.41025641025641
 30
0.0
 40
0.5
  1
6.75000
100
AcDbAttributeDefinition
  3

  2
S1
 70
     8
280
     0
  0
ATTDEF
  5
BD
330
8E
100
AcDbEntity
  8
AM_6
100
AcDbText
 10
12.42500000000002
 20
-17.91025641025641
 30
0.0
 40
0.5
  1
1-1/2
100
AcDbAttributeDefinition
  3

  2
EXP
 70
     8
280
     0
  0
ATTDEF
  5
BE
330
8E
100
AcDbEntity
  8
AM_6
100
AcDbText
 10
12.42500000000002
 20
-18.41025641025641
 30
0.0
 40
0.5
  1
baldor
100
AcDbAttributeDefinition
  3

  2
COMPANY
 70
     8
280
     0
  0
LINE
  5
C1
330
8E
100
AcDbEntity
  8
AM_9
100
AcDbLine
 10
6.075
 20
2.201982839161562
 30
0.0
 11
6.075
 21
2.265783413506628
 31
0.0
  0
LINE
  5
C2
330
8E
100
AcDbEntity
  8
AM_9
100
AcDbLine
 10
6.075
 20
2.720527812031702
 30
0.0
 11
6.075
 21
2.784328386376769
 31
0.0
  0
LINE
  5
C3
330
8E
100
AcDbEntity
  8
AM_9
100
AcDbLine
 10
5.708333333333333
 20
2.538000605428341
 30
0.0
 11
5.708333333333333
 21
2.474534033085791
 31
0.0
  0
LWPOLYLINE
  5
C4
330
8E
100
AcDbEntity
  8
AM_9
100
AcDbPolyline
 90
        7
 70
     0
 43
0.0
 10
5.70833342444862
 20
2.474690946293211
 10
5.710688244072069
 20
2.445362246703536
 10
5.744661670881147
 20
2.359795640364597
 10
5.81557365210035
 20
2.284857534650937
 10
5.916017571409572
 20
2.230188023707409
 10
6.03452657620386
 20
2.203733576769636
 10
6.075
 20
2.201982839161564
  0
LWPOLYLINE
  5
C5
330
8E
100
AcDbEntity
  8
AM_9
100
AcDbPolyline
 90
        7
 70
     0
 43
0.0
 10
5.708333424169907
 20
2.538514529808303
 10
5.710693664864744
 20
2.567533333693266
 10
5.744696923615636
 20
2.648405341135999
 10
5.815649969577356
 20
2.714985126224864
 10
5.916112784521901
 20
2.761219805278481
 10
6.034622341187021
 20
2.782912955791731
 10
6.075
 20
2.784328386376764
  0
LINE
  5
C6
330
8E
100
AcDbEntity
  8
AM_9
100
AcDbLine
 10
-6.075
 20
-2.201982839161562
 30
0.0
 11
-6.075
 21
-2.265783413506629
 31
0.0
  0
LINE
  5
C7
330
8E
100
AcDbEntity
  8
AM_9
100
AcDbLine
 10
-6.075
 20
-2.720527812031703
 30
0.0
 11
-6.075
 21
-2.784328386376767
 31
0.0
  0
LINE
  5
C8
330
8E
100
AcDbEntity
  8
AM_9
100
AcDbLine
 10
-5.708333333333333
 20
-2.538000605428342
 30
0.0
 11
-5.708333333333333
 21
-2.474534033085792
 31
0.0
  0
LWPOLYLINE
  5
C9
330
8E
100
AcDbEntity
  8
AM_9
100
AcDbPolyline
 90
        7
 70
     0
 43
0.0
 10
-5.70833342444862
 20
-2.474690946293211
 10
-5.710688244072069
 20
-2.445362246703537
 10
-5.744661670881144
 20
-2.359795640364598
 10
-5.815573652100348
 20
-2.284857534650938
 10
-5.916017571409576
 20
-2.230188023707409
 10
-6.034526576203859
 20
-2.203733576769636
 10
-6.075
 20
-2.201982839161562
  0
LWPOLYLINE
  5
CA
330
8E
100
AcDbEntity
  8
AM_9
100
AcDbPolyline
 90
        7
 70
     0
 43
0.0
 10
-5.708333424169907
 20
-2.538514529808304
 10
-5.710693664864744
 20
-2.567533333693267
 10
-5.744696923615635
 20
-2.648405341135999
 10
-5.815649969577358
 20
-2.714985126224865
 10
-5.916112784521898
 20
-2.761219805278483
 10
-6.034622341187021
 20
-2.782912955791732
 10
-6.075
 20
-2.784328386376764
  0
LINE
  5
CB
330
8E
100
AcDbEntity
  8
AM_9
100
AcDbLine
 10
-6.075
 20
2.720527812031697
 30
0.0
 11
-6.075
 21
2.784328386376764
 31
0.0
  0
LINE
  5
CC
330
8E
100
AcDbEntity
  8
AM_9
100
AcDbLine
 10
-6.075
 20
2.201982839161567
 30
0.0
 11
-6.075
 21
2.265783413506633
 31
0.0
  0
LINE
  5
CD
330
8E
100
AcDbEntity
  8
AM_9
100
AcDbLine
 10
-5.708333333333333
 20
2.474534033085791
 30
0.0
 11
-5.708333333333333
 21
2.538000605428341
 31
0.0
  0
LWPOLYLINE
  5
CE
330
8E
100
AcDbEntity
  8
AM_9
100
AcDbPolyline
 90
        6
 70
     0
 43
0.0
 10
-5.711096931264724
 20
2.506442413521671
 10
-5.744661670881145
 20
2.584833560544321
 10
-5.815573652100348
 20
2.6513064791436
 10
-5.916017571409575
 20
2.697454611093955
 10
-6.034526576203859
 20
2.719109840116449
 10
-6.075
 20
2.720527812031699
  0
LWPOLYLINE
  5
CF
330
8E
100
AcDbEntity
  8
AM_9
100
AcDbPolyline
 90
        3
 70
     0
 43
0.0
 10
-5.70833342444862
 20
2.475056508513374
 10
-5.710688244072069
 20
2.504037436301028
 10
-5.711096931264724
 20
2.506442413521671
  0
LWPOLYLINE
  5
D0
330
8E
100
AcDbEntity
  8
AM_9
100
AcDbPolyline
 90
        7
 70
     0
 43
0.0
 10
-5.708333424169907
 20
2.538149527127454
 10
-5.710693664864744
 20
2.508790868223004
 10
-5.744696923615635
 20
2.423263953668174
 10
-5.815649969577358
 20
2.348428156125486
 10
-5.916112784521898
 20
2.293888451307747
 10
-6.034622341187021
 20
2.267521669266188
 10
-6.075
 20
2.26578341350663
  0
LINE
  5
D1
330
8E
100
AcDbEntity
  8
AM_9
100
AcDbLine
 10
6.075
 20
-2.720527812031697
 30
0.0
 11
6.075
 21
-2.784328386376764
 31
0.0
  0
LINE
  5
D2
330
8E
100
AcDbEntity
  8
AM_9
100
AcDbLine
 10
6.075
 20
-2.201982839161567
 30
0.0
 11
6.075
 21
-2.265783413506632
 31
0.0
  0
LINE
  5
D3
330
8E
100
AcDbEntity
  8
AM_9
100
AcDbLine
 10
5.708333333333333
 20
-2.474534033085792
 30
0.0
 11
5.708333333333333
 21
-2.538000605428342
 31
0.0
  0
LWPOLYLINE
  5
D4
330
8E
100
AcDbEntity
  8
AM_9
100
AcDbPolyline
 90
        6
 70
     0
 43
0.0
 10
5.711096931264724
 20
-2.506442413521673
 10
5.744661670881147
 20
-2.584833560544323
 10
5.815573652100349
 20
-2.651306479143601
 10
5.916017571409571
 20
-2.697454611093955
 10
6.03452657620386
 20
-2.719109840116451
 10
6.075
 20
-2.720527812031697
  0
LWPOLYLINE
  5
D5
330
8E
100
AcDbEntity
  8
AM_9
100
AcDbPolyline
 90
        3
 70
     0
 43
0.0
 10
5.70833342444862
 20
-2.475056508513374
 10
5.710688244072069
 20
-2.50403743630103
 10
5.711096931264724
 20
-2.506442413521673
  0
LWPOLYLINE
  5
D6
330
8E
100
AcDbEntity
  8
AM_9
100
AcDbPolyline
 90
        7
 70
     0
 43
0.0
 10
5.708333424169907
 20
-2.538149527127455
 10
5.710693664864744
 20
-2.508790868223006
 10
5.744696923615636
 20
-2.423263953668174
 10
5.815649969577356
 20
-2.348428156125487
 10
5.916112784521901
 20
-2.293888451307748
 10
6.034622341187021
 20
-2.267521669266189
 10
6.075
 20
-2.265783413506631
  0
LINE
  5
D7
330
8E
100
AcDbEntity
  8
AM_9
100
AcDbLine
 10
-6.075
 20
2.720527812031697
 30
0.0
 11
-6.750000000000004
 21
2.720527812031697
 31
0.0
  0
LINE
  5
D8
330
8E
100
AcDbEntity
  8
AM_9
100
AcDbLine
 10
-5.709945310772635
 20
2.499039539400507
 30
0.0
 11
-5.70833342444862
 21
2.474690946293211
 31
0.0
  0
LINE
  5
D9
330
8E
100
AcDbEntity
  8
AM_9
100
AcDbLine
 10
-5.713541219752433
 20
2.518033706464825
 30
0.0
 11
-5.709945310772635
 21
2.499039539400507
 31
0.0
  0
LINE
  5
DA
330
8E
100
AcDbEntity
  8
AM_9
100
AcDbLine
 10
-5.713532163486255
 20
-2.430985870957151
 30
0.0
 11
-5.70833342444862
 21
-2.475056508513374
 31
0.0
  0
LINE
  5
DB
330
8E
100
AcDbEntity
  8
AM_9
100
AcDbLine
 10
-6.750000000000004
 20
-2.720527812031699
 30
0.0
 11
-6.075
 21
-2.720527812031703
 31
0.0
  0
LINE
  5
DC
330
8E
100
AcDbEntity
  8
AM_9
100
AcDbLine
 10
-5.711154947716769
 20
-2.506768644087628
 30
0.0
 11
-5.70833342444862
 21
-2.474690946293211
 31
0.0
  0
LWPOLYLINE
  5
DD
330
8E
100
AcDbEntity
  8
AM_9
100
AcDbPolyline
 90
        6
 70
     0
 43
0.0
 10
-6.075
 20
-2.720527812031699
 10
-5.954009104580351
 20
-2.70749233442864
 10
-5.84666398894665
 20
-2.669408838145165
 10
-5.764643691940064
 20
-2.60908381494574
 10
-5.717457832781707
 20
-2.531686749883995
 10
-5.711154947716769
 20
-2.506768644087628
  0
LINE
  5
DE
330
8E
100
AcDbEntity
  8
AM_9
100
AcDbLine
 10
-6.075
 20
-2.201982839161562
 30
0.0
 11
-6.750000000000004
 21
-2.201982839161563
 31
0.0
  0
LINE
  5
DF
330
8E
100
AcDbEntity
  8
AM_9
100
AcDbLine
 10
-6.750000000000004
 20
2.201982839161562
 30
0.0
 11
-6.075
 21
2.201982839161567
 31
0.0
  0
LWPOLYLINE
  5
E0
330
8E
100
AcDbEntity
  8
AM_9
100
AcDbPolyline
 90
        6
 70
     0
 43
0.0
 10
-6.075
 20
2.201982839161562
 10
-5.954009104580351
 20
2.21799126666679
 10
-5.84666398894665
 20
2.263682056922412
 10
-5.764643691940064
 20
2.332955560354329
 10
-5.717457832781707
 20
2.41672551202279
 10
-5.70833342444862
 20
2.475056508513374
  0
LWPOLYLINE
  5
E1
330
8E
100
AcDbEntity
  8
AM_9
100
AcDbPolyline
 90
        6
 70
     0
 43
0.0
 10
6.075
 20
-2.201982839161563
 10
5.954009104580351
 20
-2.217991266666791
 10
5.84666398894665
 20
-2.26368205692241
 10
5.764643691940063
 20
-2.33295556035433
 10
5.717457832781706
 20
-2.41672551202279
 10
5.70833342444862
 20
-2.475056508513374
  0
LINE
  5
E2
330
8E
100
AcDbEntity
  8
AM_9
100
AcDbLine
 10
6.075
 20
-2.720527812031697
 30
0.0
 11
6.750000000000004
 21
-2.720527812031699
 31
0.0
  0
LINE
  5
E3
330
8E
100
AcDbEntity
  8
AM_9
100
AcDbLine
 10
5.709945310772635
 20
-2.49903953940051
 30
0.0
 11
5.70833342444862
 21
-2.47469094629321
 31
0.0
  0
LINE
  5
E4
330
8E
100
AcDbEntity
  8
AM_9
100
AcDbLine
 10
5.713541219752433
 20
-2.518033706464825
 30
0.0
 11
5.709945310772635
 21
-2.49903953940051
 31
0.0
  0
LINE
  5
E5
330
8E
100
AcDbEntity
  8
AM_9
100
AcDbLine
 10
5.713532163486255
 20
2.430985870957151
 30
0.0
 11
5.70833342444862
 21
2.475056508513374
 31
0.0
  0
LINE
  5
E6
330
8E
100
AcDbEntity
  8
AM_9
100
AcDbLine
 10
6.750000000000004
 20
2.720527812031699
 30
0.0
 11
6.075
 21
2.720527812031702
 31
0.0
  0
LINE
  5
E7
330
8E
100
AcDbEntity
  8
AM_9
100
AcDbLine
 10
5.711154947716769
 20
2.506768644087632
 30
0.0
 11
5.70833342444862
 21
2.474690946293211
 31
0.0
  0
LWPOLYLINE
  5
E8
330
8E
100
AcDbEntity
  8
AM_9
100
AcDbPolyline
 90
        6
 70
     0
 43
0.0
 10
6.075
 20
2.720527812031698
 10
5.954009104580351
 20
2.707492334428639
 10
5.84666398894665
 20
2.669408838145166
 10
5.764643691940063
 20
2.609083814945739
 10
5.717457832781706
 20
2.531686749883995
 10
5.711154947716769
 20
2.506768644087632
  0
LINE
  5
E9
330
8E
100
AcDbEntity
  8
AM_9
100
AcDbLine
 10
6.075
 20
2.201982839161562
 30
0.0
 11
6.750000000000004
 21
2.201982839161563
 31
0.0
  0
LINE
  5
EA
330
8E
100
AcDbEntity
  8
AM_9
100
AcDbLine
 10
6.750000000000004
 20
-2.201982839161563
 30
0.0
 11
6.075
 21
-2.201982839161567
 31
0.0
  0
LINE
  5
EB
330
8E
100
AcDbEntity
  8
AM_9
100
AcDbLine
 10
6.750000000000004
 20
3.5
 30
0.0
 11
-6.750000000000004
 21
3.5
 31
0.0
  0
LINE
  5
EC
330
8E
100
AcDbEntity
  8
AM_9
100
AcDbLine
 10
-6.750000000000004
 20
-3.5
 30
0.0
 11
6.750000000000004
 21
-3.5
 31
0.0
  0
LINE
  5
ED
330
8E
100
AcDbEntity
  8
AM_9
100
AcDbLine
 10
6.075
 20
2.784328386376769
 30
0.0
 11
6.750000000000004
 21
2.784328386376765
 31
0.0
  0
LINE
  5
EE
330
8E
100
AcDbEntity
  8
AM_9
100
AcDbLine
 10
5.713541097836887
 20
2.58150108839886
 30
0.0
 11
5.708333424169907
 21
2.538149527127455
 31
0.0
  0
LINE
  5
EF
330
8E
100
AcDbEntity
  8
AM_9
100
AcDbLine
 10
5.70994459628391
 20
-2.513936326425614
 30
0.0
 11
5.708333424169907
 21
-2.538514529808303
 31
0.0
  0
LINE
  5
F0
330
8E
100
AcDbEntity
  8
AM_9
100
AcDbLine
 10
5.711160359230273
 20
-2.505994844724676
 30
0.0
 11
5.70994459628391
 21
-2.513936326425614
 31
0.0
  0
LINE
  5
F1
330
8E
100
AcDbEntity
  8
AM_9
100
AcDbLine
 10
5.713532270794951
 20
-2.494453280262897
 30
0.0
 11
5.711160359230273
 21
-2.505994844724676
 31
0.0
  0
LINE
  5
F2
330
8E
100
AcDbEntity
  8
AM_9
100
AcDbLine
 10
6.750000000000004
 20
-2.784328386376766
 30
0.0
 11
6.075
 21
-2.784328386376764
 31
0.0
  0
LWPOLYLINE
  5
F3
330
8E
100
AcDbEntity
  8
AM_9
100
AcDbPolyline
 90
        6
 70
     0
 43
0.0
 10
6.075
 20
-2.784328386376765
 10
5.953990421402272
 20
-2.771251200871748
 10
5.846628465931762
 20
-2.733057631653087
 10
5.764615963255043
 20
-2.672609138651464
 10
5.717448839376049
 20
-2.595134401091522
 10
5.708333424169907
 20
-2.538149527127455
  0
LINE
  5
F4
330
8E
100
AcDbEntity
  8
AM_9
100
AcDbLine
 10
6.075
 20
-2.265783413506632
 30
0.0
 11
6.750000000000004
 21
-2.265783413506631
 31
0.0
  0
LINE
  5
F5
330
8E
100
AcDbEntity
  8
AM_9
100
AcDbLine
 10
6.750000000000004
 20
2.265783413506629
 30
0.0
 11
6.075
 21
2.265783413506628
 31
0.0
  0
LWPOLYLINE
  5
F6
330
8E
100
AcDbEntity
  8
AM_9
100
AcDbPolyline
 90
        6
 70
     0
 43
0.0
 10
6.075
 20
2.265783413506629
 10
5.953990421402272
 20
2.281759369822351
 10
5.846628465931762
 20
2.327370838987206
 10
5.764615963255043
 20
2.396543225585943
 10
5.717448839376049
 20
2.480229118524444
 10
5.708333424169907
 20
2.538514529808303
  0
LINE
  5
F7
330
8E
100
AcDbEntity
  8
AM_9
100
AcDbLine
 10
-6.750000000000004
 20
2.784328386376764
 30
0.0
 11
-6.075
 21
2.784328386376764
 31
0.0
  0
LWPOLYLINE
  5
F8
330
8E
100
AcDbEntity
  8
AM_9
100
AcDbPolyline
 90
        6
 70
     0
 43
0.0
 10
-6.075
 20
2.784328386376765
 10
-5.953990421402272
 20
2.771251200871747
 10
-5.846628465931762
 20
2.733057631653086
 10
-5.764615963255043
 20
2.672609138651463
 10
-5.717448839376049
 20
2.595134401091522
 10
-5.708333424169907
 20
2.538149527127454
  0
LINE
  5
F9
330
8E
100
AcDbEntity
  8
AM_9
100
AcDbLine
 10
-6.075
 20
2.265783413506633
 30
0.0
 11
-6.750000000000004
 21
2.265783413506628
 31
0.0
  0
LINE
  5
FA
330
8E
100
AcDbEntity
  8
AM_9
100
AcDbLine
 10
-6.750000000000004
 20
-2.26578341350663
 30
0.0
 11
-6.075
 21
-2.265783413506629
 31
0.0
  0
LWPOLYLINE
  5
FB
330
8E
100
AcDbEntity
  8
AM_9
100
AcDbPolyline
 90
        6
 70
     0
 43
0.0
 10
-6.075
 20
-2.265783413506631
 10
-5.953990421402272
 20
-2.281759369822352
 10
-5.846628465931762
 20
-2.327370838987208
 10
-5.764615963255043
 20
-2.396543225585944
 10
-5.717448839376049
 20
-2.480229118524445
 10
-5.708333424169907
 20
-2.538514529808304
  0
LINE
  5
FC
330
8E
100
AcDbEntity
  8
AM_9
100
AcDbLine
 10
-6.075
 20
-2.784328386376767
 30
0.0
 11
-6.750000000000004
 21
-2.784328386376766
 31
0.0
  0
LINE
  5
FD
330
8E
100
AcDbEntity
  8
AM_9
100
AcDbLine
 10
-5.713541097836887
 20
-2.581501088398863
 30
0.0
 11
-5.708333424169907
 21
-2.538149527127454
 31
0.0
  0
LINE
  5
FE
330
8E
100
AcDbEntity
  8
AM_9
100
AcDbLine
 10
-5.709944596283911
 20
2.513936326425611
 30
0.0
 11
-5.708333424169907
 21
2.538514529808303
 31
0.0
  0
LINE
  5
FF
330
8E
100
AcDbEntity
  8
AM_9
100
AcDbLine
 10
-5.711160359230274
 20
2.50599484472467
 30
0.0
 11
-5.709944596283911
 21
2.513936326425611
 31
0.0
  0
LINE
  5
100
330
8E
100
AcDbEntity
  8
AM_9
100
AcDbLine
 10
-5.713532270794952
 20
2.494453280262895
 30
0.0
 11
-5.711160359230274
 21
2.50599484472467
 31
0.0
  0
LINE
  5
101
330
8E
100
AcDbEntity
  8
AM_9
100
AcDbLine
 10
6.750000000000004
 20
3.58974358974359
 30
0.0
 11
-6.750000000000004
 21
3.58974358974359
 31
0.0
  0
LINE
  5
102
330
8E
100
AcDbEntity
  8
AM_9
100
AcDbLine
 10
-6.750000000000004
 20
-3.58974358974359
 30
0.0
 11
6.750000000000004
 21
-3.58974358974359
 31
0.0
  0
LINE
  5
105
330
8E
100
AcDbEntity
  8
AM_7
100
AcDbLine
 10
7.425000000000022
 20
0.0
 30
0.0
 11
-7.424999999999987
 21
0.0
 31
0.0
  0
ENDBLK
  5
91
330
8E
100
AcDbEntity
  8
0
100
AcDbBlockEnd
  0
BLOCK
  5
108
330
106
100
AcDbEntity
  8
0
100
AcDbBlockBegin
  2
3_066386r_0_in_066426_2
 70
     2
 10
0.0
 20
0.0
 30
0.0
  3
3_066386r_0_in_066426_2
  1

  0
ATTDEF
  5
10A
330
106
100
AcDbEntity
  8
AM_6
100
AcDbText
 10
11.75
 20
5.500000000000001
 30
0.0
 40
0.5
  1
Special Duty Pillow Block - 4 Bolt - Inch - Body - Ins
100
AcDbAttributeDefinition
  3

  2
NN
 70
     8
280
     0
  0
ATTDEF
  5
10B
330
106
100
AcDbEntity
  8
AM_6
100
AcDbText
 10
11.75
 20
5.000000000000001
 30
0.0
 40
0.5
  1
Special Duty
100
AcDbAttributeDefinition
  3

  2
NT
 70
     8
280
     0
  0
ATTDEF
  5
10C
330
106
100
AcDbEntity
  8
AM_6
100
AcDbText
 10
11.75
 20
4.500000000000001
 30
0.0
 40
0.5
  1
066386r
100
AcDbAttributeDefinition
  3

  2
NB
 70
     8
280
     0
  0
ATTDEF
  5
10D
330
106
100
AcDbEntity
  8
AM_6
100
AcDbText
 10
11.75
 20
4.000000000000001
 30
0.0
 40
0.5
  1
$PN1.
100
AcDbAttributeDefinition
  3

  2
NBSYN
 70
     8
280
     0
  0
ATTDEF
  5
10E
330
106
100
AcDbEntity
  8
AM_6
100
AcDbText
 10
11.75
 20
3.500000000000001
 30
0.0
 40
0.5
  1
066386r
100
AcDbAttributeDefinition
  3

  2
LINA
 70
     8
280
     0
  0
ATTDEF
  5
10F
330
106
100
AcDbEntity
  8
AM_6
100
AcDbText
 10
11.75
 20
3.000000000000001
 30
0.0
 40
0.5
  1
7
100
AcDbAttributeDefinition
  3

  2
SS
 70
     8
280
     0
  0
ATTDEF
  5
110
330
106
100
AcDbEntity
  8
AM_6
100
AcDbText
 10
11.75
 20
2.500000000000001
 30
0.0
 40
0.5
  1
7.00000
100
AcDbAttributeDefinition
  3

  2
SS1
 70
     8
280
     0
  0
ATTDEF
  5
111
330
106
100
AcDbEntity
  8
AM_6
100
AcDbText
 10
11.75
 20
2.000000000000001
 30
0.0
 40
0.5
  1
066386r
100
AcDbAttributeDefinition
  3

  2
PN1
 70
     8
280
     0
  0
ATTDEF
  5
112
330
106
100
AcDbEntity
  8
AM_6
100
AcDbText
 10
11.75
 20
1.500000000000001
 30
0.0
 40
0.5
  1
066426
100
AcDbAttributeDefinition
  3

  2
PN2
 70
     8
280
     0
  0
ATTDEF
  5
113
330
106
100
AcDbEntity
  8
AM_6
100
AcDbText
 10
11.75
 20
1.000000000000001
 30
0.0
 40
0.5
  1
P4B-SD-700
100
AcDbAttributeDefinition
  3

  2
DESCRIPTION1
 70
     8
280
     0
  0
ATTDEF
  5
114
330
106
100
AcDbEntity
  8
AM_6
100
AcDbText
 10
11.75
 20
0.5000000000000009
 30
0.0
 40
0.5
  1
P4B-SD-700
100
AcDbAttributeDefinition
  3

  2
DESCRIPTION2
 70
     8
280
     0
  0
ATTDEF
  5
115
330
106
100
AcDbEntity
  8
AM_6
100
AcDbText
 10
11.75
 20
0.0000000000000009
 30
0.0
 40
0.5
  1
1050
100
AcDbAttributeDefinition
  3

  2
WEIGHT1
 70
     8
280
     0
  0
ATTDEF
  5
116
330
106
100
AcDbEntity
  8
AM_6
100
AcDbText
 10
11.75
 20
-0.4999999999999991
 30
0.0
 40
0.5
  1
1050
100
AcDbAttributeDefinition
  3

  2
WEIGHT2
 70
     8
280
     0
  0
ATTDEF
  5
117
330
106
100
AcDbEntity
  8
AM_6
100
AcDbText
 10
11.75
 20
-0.9999999999999991
 30
0.0
 40
0.5
  1
13-1/2
100
AcDbAttributeDefinition
  3

  2
A
 70
     8
280
     0
  0
ATTDEF
  5
118
330
106
100
AcDbEntity
  8
AM_6
100
AcDbText
 10
11.75
 20
-1.499999999999999
 30
0.0
 40
0.5
  1
13.50000
100
AcDbAttributeDefinition
  3

  2
A1
 70
     8
280
     0
  0
ATTDEF
  5
119
330
106
100
AcDbEntity
  8
AM_6
100
AcDbText
 10
11.75
 20
-1.999999999999999
 30
0.0
 40
0.5
  1
34-3/8
100
AcDbAttributeDefinition
  3

  2
B
 70
     8
280
     0
  0
ATTDEF
  5
11A
330
106
100
AcDbEntity
  8
AM_6
100
AcDbText
 10
11.75
 20
-2.499999999999999
 30
0.0
 40
0.5
  1
34.37500
100
AcDbAttributeDefinition
  3

  2
B1
 70
     8
280
     0
  0
ATTDEF
  5
11B
330
106
100
AcDbEntity
  8
AM_6
100
AcDbText
 10
11.75
 20
-2.999999999999999
 30
0.0
 40
0.5
  1
10-1/4
100
AcDbAttributeDefinition
  3

  2
C
 70
     8
280
     0
  0
ATTDEF
  5
11C
330
106
100
AcDbEntity
  8
AM_6
100
AcDbText
 10
11.75
 20
-3.499999999999999
 30
0.0
 40
0.5
  1
10.25000
100
AcDbAttributeDefinition
  3

  2
C1
 70
     8
280
     0
  0
ATTDEF
  5
11D
330
106
100
AcDbEntity
  8
AM_6
100
AcDbText
 10
11.75
 20
-3.999999999999999
 30
0.0
 40
0.5
  1
27-1/2
100
AcDbAttributeDefinition
  3

  2
DMIN
 70
     8
280
     0
  0
ATTDEF
  5
11E
330
106
100
AcDbEntity
  8
AM_6
100
AcDbText
 10
11.75
 20
-4.499999999999999
 30
0.0
 40
0.5
  1
27.50000
100
AcDbAttributeDefinition
  3

  2
DMIN1
 70
     8
280
     0
  0
ATTDEF
  5
11F
330
106
100
AcDbEntity
  8
AM_6
100
AcDbText
 10
11.75
 20
-4.999999999999999
 30
0.0
 40
0.5
  1
30-1/2
100
AcDbAttributeDefinition
  3

  2
DMAX
 70
     8
280
     0
  0
ATTDEF
  5
120
330
106
100
AcDbEntity
  8
AM_6
100
AcDbText
 10
11.75
 20
-5.499999999999999
 30
0.0
 40
0.5
  1
30.50000
100
AcDbAttributeDefinition
  3

  2
DMAX1
 70
     8
280
     0
  0
ATTDEF
  5
121
330
106
100
AcDbEntity
  8
AM_6
100
AcDbText
 10
11.75
 20
-5.999999999999999
 30
0.0
 40
0.5
  1
5-1/2
100
AcDbAttributeDefinition
  3

  2
E
 70
     8
280
     0
  0
ATTDEF
  5
122
330
106
100
AcDbEntity
  8
AM_6
100
AcDbText
 10
11.75
 20
-6.499999999999999
 30
0.0
 40
0.5
  1
5.50000
100
AcDbAttributeDefinition
  3

  2
E1
 70
     8
280
     0
  0
ATTDEF
  5
123
330
106
100
AcDbEntity
  8
AM_6
100
AcDbText
 10
11.75
 20
-6.999999999999999
 30
0.0
 40
0.5
  1
1-1/2
100
AcDbAttributeDefinition
  3

  2
F
 70
     8
280
     0
  0
ATTDEF
  5
124
330
106
100
AcDbEntity
  8
AM_6
100
AcDbText
 10
11.75
 20
-7.499999999999999
 30
0.0
 40
0.5
  1
1.50000
100
AcDbAttributeDefinition
  3

  2
F1
 70
     8
280
     0
  0
ATTDEF
  5
125
330
106
100
AcDbEntity
  8
AM_6
100
AcDbText
 10
11.75
 20
-7.999999999999999
 30
0.0
 40
0.5
  1
3
100
AcDbAttributeDefinition
  3

  2
G
 70
     8
280
     0
  0
ATTDEF
  5
126
330
106
100
AcDbEntity
  8
AM_6
100
AcDbText
 10
11.75
 20
-8.5
 30
0.0
 40
0.5
  1
3.00000
100
AcDbAttributeDefinition
  3

  2
G1
 70
     8
280
     0
  0
ATTDEF
  5
127
330
106
100
AcDbEntity
  8
AM_6
100
AcDbText
 10
11.75
 20
-9.0
 30
0.0
 40
0.5
  1
6
100
AcDbAttributeDefinition
  3

  2
H
 70
     8
280
     0
  0
ATTDEF
  5
128
330
106
100
AcDbEntity
  8
AM_6
100
AcDbText
 10
11.75
 20
-9.5
 30
0.0
 40
0.5
  1
6.00000
100
AcDbAttributeDefinition
  3

  2
H1
 70
     8
280
     0
  0
ATTDEF
  5
129
330
106
100
AcDbEntity
  8
AM_6
100
AcDbText
 10
11.75
 20
-10.0
 30
0.0
 40
0.5
  1
23
100
AcDbAttributeDefinition
  3

  2
J
 70
     8
280
     0
  0
ATTDEF
  5
12A
330
106
100
AcDbEntity
  8
AM_6
100
AcDbText
 10
11.75
 20
-10.5
 30
0.0
 40
0.5
  1
23.00000
100
AcDbAttributeDefinition
  3

  2
J1
 70
     8
280
     0
  0
ATTDEF
  5
12B
330
106
100
AcDbEntity
  8
AM_6
100
AcDbText
 10
11.75
 20
-11.0
 30
0.0
 40
0.5
  1
11
100
AcDbAttributeDefinition
  3

  2
L
 70
     8
280
     0
  0
ATTDEF
  5
12C
330
106
100
AcDbEntity
  8
AM_6
100
AcDbText
 10
11.75
 20
-11.5
 30
0.0
 40
0.5
  1
11.00000
100
AcDbAttributeDefinition
  3

  2
L1
 70
     8
280
     0
  0
ATTDEF
  5
12D
330
106
100
AcDbEntity
  8
AM_6
100
AcDbText
 10
11.75
 20
-12.0
 30
0.0
 40
0.5
  1
11-1/4
100
AcDbAttributeDefinition
  3

  2
M
 70
     8
280
     0
  0
ATTDEF
  5
12E
330
106
100
AcDbEntity
  8
AM_6
100
AcDbText
 10
11.75
 20
-12.5
 30
0.0
 40
0.5
  1
11.25000
100
AcDbAttributeDefinition
  3

  2
M1
 70
     8
280
     0
  0
ATTDEF
  5
12F
330
106
100
AcDbEntity
  8
AM_6
100
AcDbText
 10
11.75
 20
-13.0
 30
0.0
 40
0.5
  1
23-1/2
100
AcDbAttributeDefinition
  3

  2
P
 70
     8
280
     0
  0
ATTDEF
  5
130
330
106
100
AcDbEntity
  8
AM_6
100
AcDbText
 10
11.75
 20
-13.5
 30
0.0
 40
0.5
  1
23.50000
100
AcDbAttributeDefinition
  3

  2
P1
 70
     8
280
     0
  0
ATTDEF
  5
131
330
106
100
AcDbEntity
  8
AM_6
100
AcDbText
 10
11.75
 20
-14.0
 30
0.0
 40
0.5
  1
6-3/4
100
AcDbAttributeDefinition
  3

  2
R
 70
     8
280
     0
  0
ATTDEF
  5
132
330
106
100
AcDbEntity
  8
AM_6
100
AcDbText
 10
11.75
 20
-14.5
 30
0.0
 40
0.5
  1
6.75000
100
AcDbAttributeDefinition
  3

  2
R1
 70
     8
280
     0
  0
ATTDEF
  5
133
330
106
100
AcDbEntity
  8
AM_6
100
AcDbText
 10
11.75
 20
-15.0
 30
0.0
 40
0.5
  1
6-3/4
100
AcDbAttributeDefinition
  3

  2
S
 70
     8
280
     0
  0
ATTDEF
  5
134
330
106
100
AcDbEntity
  8
AM_6
100
AcDbText
 10
11.75
 20
-15.5
 30
0.0
 40
0.5
  1
6.75000
100
AcDbAttributeDefinition
  3

  2
S1
 70
     8
280
     0
  0
ATTDEF
  5
135
330
106
100
AcDbEntity
  8
AM_6
100
AcDbText
 10
11.75
 20
-16.0
 30
0.0
 40
0.5
  1
1-1/2
100
AcDbAttributeDefinition
  3

  2
EXP
 70
     8
280
     0
  0
ATTDEF
  5
136
330
106
100
AcDbEntity
  8
AM_6
100
AcDbText
 10
11.75
 20
-16.5
 30
0.0
 40
0.5
  1
baldor
100
AcDbAttributeDefinition
  3

  2
COMPANY
 70
     8
280
     0
  0
LINE
  5
137
330
106
100
AcDbEntity
  8
AM_9
100
AcDbLine
 10
6.695
 20
3.58974358974359
 30
0.0
 11
-6.695
 21
3.58974358974359
 31
0.0
  0
LINE
  5
138
330
106
100
AcDbEntity
  8
AM_9
100
AcDbLine
 10
-6.695
 20
-3.58974358974359
 30
0.0
 11
6.695
 21
-3.58974358974359
 31
0.0
  0
LINE
  5
139
330
106
100
AcDbEntity
  8
AM_9
100
AcDbLine
 10
6.695
 20
-3.589743589743589
 30
0.0
 11
6.695
 21
3.589743589743589
 31
0.0
  0
ARC
  5
13A
330
106
100
AcDbEntity
  8
AM_9
100
AcDbCircle
 10
6.695
 20
3.644743589743591
 30
0.0
 40
0.0550000000000015
100
AcDbArc
 50
270.0
 51
0.0
  0
ARC
  5
13B
330
106
100
AcDbEntity
  8
AM_9
100
AcDbCircle
 10
6.695
 20
-3.644743589743591
 30
0.0
 40
0.0550000000000015
100
AcDbArc
 50
0.0
 51
90.0
  0
LINE
  5
13C
330
106
100
AcDbEntity
  8
AM_9
100
AcDbLine
 10
-6.695
 20
-3.58974358974359
 30
0.0
 11
-6.695
 21
3.58974358974359
 31
0.0
  0
ARC
  5
13D
330
106
100
AcDbEntity
  8
AM_9
100
AcDbCircle
 10
-6.694999999999999
 20
3.644743589743592
 30
0.0
 40
0.0550000000000024
100
AcDbArc
 50
180.0
 51
270.0
  0
ARC
  5
13E
330
106
100
AcDbEntity
  8
AM_9
100
AcDbCircle
 10
-6.694999999999999
 20
-3.644743589743592
 30
0.0
 40
0.0550000000000019
100
AcDbArc
 50
90.0
 51
180.0
  0
LINE
  5
13F
330
106
100
AcDbEntity
  8
AM_9
100
AcDbLine
 10
5.540540540540537
 20
5.5
 30
0.0
 11
-5.540540540540537
 21
5.5
 31
0.0
  0
LINE
  5
140
330
106
100
AcDbEntity
  8
AM_9
100
AcDbLine
 10
-5.540540540540537
 20
-5.5
 30
0.0
 11
5.540540540540537
 21
-5.5
 31
0.0
  0
LINE
  5
142
330
106
100
AcDbEntity
  8
AM_4
100
AcDbLine
 10
6.750000000000004
 20
-5.133333333333334
 30
0.0
 11
6.750000000000004
 21
5.133333333333334
 31
0.0
  0
ARC
  5
143
330
106
100
AcDbEntity
  8
AM_4
100
AcDbCircle
 10
6.383333333333331
 20
5.133333333333329
 30
0.0
 40
0.3666666666666707
100
AcDbArc
 50
0.0
 51
90.0
  0
ARC
  5
144
330
106
100
AcDbEntity
  8
AM_4
100
AcDbCircle
 10
6.383333333333331
 20
-5.133333333333329
 30
0.0
 40
0.3666666666666707
100
AcDbArc
 50
270.0
 51
0.0
  0
LINE
  5
145
330
106
100
AcDbEntity
  8
AM_4
100
AcDbLine
 10
6.383333333333331
 20
-5.5
 30
0.0
 11
6.383333333333331
 21
5.5
 31
0.0
  0
LINE
  5
146
330
106
100
AcDbEntity
  8
AM_4
100
AcDbLine
 10
-5.540540540540537
 20
5.5
 30
0.0
 11
-6.383333333333331
 21
5.5
 31
0.0
  0
LINE
  5
147
330
106
100
AcDbEntity
  8
AM_4
100
AcDbLine
 10
6.383333333333331
 20
5.5
 30
0.0
 11
5.540540540540537
 21
5.5
 31
0.0
  0
LINE
  5
148
330
106
100
AcDbEntity
  8
AM_4
100
AcDbLine
 10
5.540540540540537
 20
-5.5
 30
0.0
 11
6.383333333333331
 21
-5.5
 31
0.0
  0
LINE
  5
149
330
106
100
AcDbEntity
  8
AM_4
100
AcDbLine
 10
-6.383333333333331
 20
-5.5
 30
0.0
 11
-5.540540540540537
 21
-5.5
 31
0.0
  0
LINE
  5
14A
330
106
100
AcDbEntity
  8
AM_4
100
AcDbLine
 10
-6.383333333333331
 20
-5.500000000000001
 30
0.0
 11
-6.383333333333331
 21
5.500000000000001
 31
0.0
  0
LINE
  5
14B
330
106
100
AcDbEntity
  8
AM_4
100
AcDbLine
 10
-6.750000000000004
 20
-5.133333333333334
 30
0.0
 11
-6.750000000000004
 21
5.133333333333334
 31
0.0
  0
ARC
  5
14C
330
106
100
AcDbEntity
  8
AM_4
100
AcDbCircle
 10
-6.383333333333332
 20
5.133333333333331
 30
0.0
 40
0.3666666666666698
100
AcDbArc
 50
90.0
 51
180.0
  0
ARC
  5
14D
330
106
100
AcDbEntity
  8
AM_4
100
AcDbCircle
 10
-6.383333333333332
 20
-5.133333333333331
 30
0.0
 40
0.3666666666666698
100
AcDbArc
 50
180.0
 51
270.0
  0
ENDBLK
  5
109
330
106
100
AcDbEntity
  8
0
100
AcDbBlockEnd
  0
BLOCK
  5
150
330
14E
100
AcDbEntity
  8
0
100
AcDbBlockBegin
  2
4_066426b_0_in_066426_2
 70
     2
 10
0.0
 20
0.0
 30
0.0
  3
4_066426b_0_in_066426_2
  1

  0
ATTDEF
  5
152
330
14E
100
AcDbEntity
  8
AM_6
100
AcDbText
 10
10.54054054054054
 20
11.98
 30
0.0
 40
0.5
  1
Special Duty Pillow Block - 4 Bolt - Inch - Body
100
AcDbAttributeDefinition
  3

  2
NN
 70
     8
280
     0
  0
ATTDEF
  5
153
330
14E
100
AcDbEntity
  8
AM_6
100
AcDbText
 10
10.54054054054054
 20
11.48
 30
0.0
 40
0.5
  1
Special Duty
100
AcDbAttributeDefinition
  3

  2
NT
 70
     8
280
     0
  0
ATTDEF
  5
154
330
14E
100
AcDbEntity
  8
AM_6
100
AcDbText
 10
10.54054054054054
 20
10.98
 30
0.0
 40
0.5
  1
066426b
100
AcDbAttributeDefinition
  3

  2
NB
 70
     8
280
     0
  0
ATTDEF
  5
155
330
14E
100
AcDbEntity
  8
AM_6
100
AcDbText
 10
10.54054054054054
 20
10.48
 30
0.0
 40
0.5
  1
$PN.
100
AcDbAttributeDefinition
  3

  2
NBSYN
 70
     8
280
     0
  0
ATTDEF
  5
156
330
14E
100
AcDbEntity
  8
AM_6
100
AcDbText
 10
10.54054054054054
 20
9.98
 30
0.0
 40
0.5
  1
066426b
100
AcDbAttributeDefinition
  3

  2
LINA
 70
     8
280
     0
  0
ATTDEF
  5
157
330
14E
100
AcDbEntity
  8
AM_6
100
AcDbText
 10
10.54054054054054
 20
9.48
 30
0.0
 40
0.5
  1
7
100
AcDbAttributeDefinition
  3

  2
SS
 70
     8
280
     0
  0
ATTDEF
  5
158
330
14E
100
AcDbEntity
  8
AM_6
100
AcDbText
 10
10.54054054054054
 20
8.98
 30
0.0
 40
0.5
  1
7.00000
100
AcDbAttributeDefinition
  3

  2
SS1
 70
     8
280
     0
  0
ATTDEF
  5
159
330
14E
100
AcDbEntity
  8
AM_6
100
AcDbText
 10
10.54054054054054
 20
8.48
 30
0.0
 40
0.5
  1
Gray Iron Expansion
100
AcDbAttributeDefinition
  3

  2
TYPE
 70
     8
280
     0
  0
ATTDEF
  5
15A
330
14E
100
AcDbEntity
  8
AM_6
100
AcDbText
 10
10.54054054054054
 20
7.98
 30
0.0
 40
0.5
  1
066386p
100
AcDbAttributeDefinition
  3

  2
PN1
 70
     8
280
     0
  0
ATTDEF
  5
15B
330
14E
100
AcDbEntity
  8
AM_6
100
AcDbText
 10
10.54054054054054
 20
7.48
 30
0.0
 40
0.5
  1
066426b
100
AcDbAttributeDefinition
  3

  2
PN2
 70
     8
280
     0
  0
ATTDEF
  5
15C
330
14E
100
AcDbEntity
  8
AM_6
100
AcDbText
 10
10.54054054054054
 20
6.98
 30
0.0
 40
0.5
  1
P4B-SD-700
100
AcDbAttributeDefinition
  3

  2
DESCRIPTION1
 70
     8
280
     0
  0
ATTDEF
  5
15D
330
14E
100
AcDbEntity
  8
AM_6
100
AcDbText
 10
10.54054054054054
 20
6.48
 30
0.0
 40
0.5
  1
P4B-SD-700
100
AcDbAttributeDefinition
  3

  2
DESCRIPTION2
 70
     8
280
     0
  0
ATTDEF
  5
15E
330
14E
100
AcDbEntity
  8
AM_6
100
AcDbText
 10
10.54054054054054
 20
5.98
 30
0.0
 40
0.5
  1
1050
100
AcDbAttributeDefinition
  3

  2
WEIGHT1
 70
     8
280
     0
  0
ATTDEF
  5
15F
330
14E
100
AcDbEntity
  8
AM_6
100
AcDbText
 10
10.54054054054054
 20
5.48
 30
0.0
 40
0.5
  1
1050
100
AcDbAttributeDefinition
  3

  2
WEIGHT2
 70
     8
280
     0
  0
ATTDEF
  5
160
330
14E
100
AcDbEntity
  8
AM_6
100
AcDbText
 10
10.54054054054054
 20
4.98
 30
0.0
 40
0.5
  1
13-1/2
100
AcDbAttributeDefinition
  3

  2
A
 70
     8
280
     0
  0
ATTDEF
  5
161
330
14E
100
AcDbEntity
  8
AM_6
100
AcDbText
 10
10.54054054054054
 20
4.48
 30
0.0
 40
0.5
  1
13.50000
100
AcDbAttributeDefinition
  3

  2
A1
 70
     8
280
     0
  0
ATTDEF
  5
162
330
14E
100
AcDbEntity
  8
AM_6
100
AcDbText
 10
10.54054054054054
 20
3.98
 30
0.0
 40
0.5
  1
34-3/8
100
AcDbAttributeDefinition
  3

  2
B
 70
     8
280
     0
  0
ATTDEF
  5
163
330
14E
100
AcDbEntity
  8
AM_6
100
AcDbText
 10
10.54054054054054
 20
3.48
 30
0.0
 40
0.5
  1
34.37500
100
AcDbAttributeDefinition
  3

  2
B1
 70
     8
280
     0
  0
ATTDEF
  5
164
330
14E
100
AcDbEntity
  8
AM_6
100
AcDbText
 10
10.54054054054054
 20
2.98
 30
0.0
 40
0.5
  1
10-1/4
100
AcDbAttributeDefinition
  3

  2
C
 70
     8
280
     0
  0
ATTDEF
  5
165
330
14E
100
AcDbEntity
  8
AM_6
100
AcDbText
 10
10.54054054054054
 20
2.48
 30
0.0
 40
0.5
  1
10.25000
100
AcDbAttributeDefinition
  3

  2
C1
 70
     8
280
     0
  0
ATTDEF
  5
166
330
14E
100
AcDbEntity
  8
AM_6
100
AcDbText
 10
10.54054054054054
 20
1.98
 30
0.0
 40
0.5
  1
27-1/2
100
AcDbAttributeDefinition
  3

  2
DMIN
 70
     8
280
     0
  0
ATTDEF
  5
167
330
14E
100
AcDbEntity
  8
AM_6
100
AcDbText
 10
10.54054054054054
 20
1.48
 30
0.0
 40
0.5
  1
27.50000
100
AcDbAttributeDefinition
  3

  2
DMIN1
 70
     8
280
     0
  0
ATTDEF
  5
168
330
14E
100
AcDbEntity
  8
AM_6
100
AcDbText
 10
10.54054054054054
 20
0.9800000000000004
 30
0.0
 40
0.5
  1
30-1/2
100
AcDbAttributeDefinition
  3

  2
DMAX
 70
     8
280
     0
  0
ATTDEF
  5
169
330
14E
100
AcDbEntity
  8
AM_6
100
AcDbText
 10
10.54054054054054
 20
0.4800000000000004
 30
0.0
 40
0.5
  1
30.50000
100
AcDbAttributeDefinition
  3

  2
DMAX1
 70
     8
280
     0
  0
ATTDEF
  5
16A
330
14E
100
AcDbEntity
  8
AM_6
100
AcDbText
 10
10.54054054054054
 20
-0.0199999999999996
 30
0.0
 40
0.5
  1
5-1/2
100
AcDbAttributeDefinition
  3

  2
E
 70
     8
280
     0
  0
ATTDEF
  5
16B
330
14E
100
AcDbEntity
  8
AM_6
100
AcDbText
 10
10.54054054054054
 20
-0.5199999999999996
 30
0.0
 40
0.5
  1
5.50000
100
AcDbAttributeDefinition
  3

  2
E1
 70
     8
280
     0
  0
ATTDEF
  5
16C
330
14E
100
AcDbEntity
  8
AM_6
100
AcDbText
 10
10.54054054054054
 20
-1.02
 30
0.0
 40
0.5
  1
1-1/2
100
AcDbAttributeDefinition
  3

  2
F
 70
     8
280
     0
  0
ATTDEF
  5
16D
330
14E
100
AcDbEntity
  8
AM_6
100
AcDbText
 10
10.54054054054054
 20
-1.52
 30
0.0
 40
0.5
  1
1.50000
100
AcDbAttributeDefinition
  3

  2
F1
 70
     8
280
     0
  0
ATTDEF
  5
16E
330
14E
100
AcDbEntity
  8
AM_6
100
AcDbText
 10
10.54054054054054
 20
-2.02
 30
0.0
 40
0.5
  1
3
100
AcDbAttributeDefinition
  3

  2
G
 70
     8
280
     0
  0
ATTDEF
  5
16F
330
14E
100
AcDbEntity
  8
AM_6
100
AcDbText
 10
10.54054054054054
 20
-2.52
 30
0.0
 40
0.5
  1
3.00000
100
AcDbAttributeDefinition
  3

  2
G1
 70
     8
280
     0
  0
ATTDEF
  5
170
330
14E
100
AcDbEntity
  8
AM_6
100
AcDbText
 10
10.54054054054054
 20
-3.02
 30
0.0
 40
0.5
  1
6
100
AcDbAttributeDefinition
  3

  2
H
 70
     8
280
     0
  0
ATTDEF
  5
171
330
14E
100
AcDbEntity
  8
AM_6
100
AcDbText
 10
10.54054054054054
 20
-3.52
 30
0.0
 40
0.5
  1
6.00000
100
AcDbAttributeDefinition
  3

  2
H1
 70
     8
280
     0
  0
ATTDEF
  5
172
330
14E
100
AcDbEntity
  8
AM_6
100
AcDbText
 10
10.54054054054054
 20
-4.02
 30
0.0
 40
0.5
  1
23
100
AcDbAttributeDefinition
  3

  2
J
 70
     8
280
     0
  0
ATTDEF
  5
173
330
14E
100
AcDbEntity
  8
AM_6
100
AcDbText
 10
10.54054054054054
 20
-4.52
 30
0.0
 40
0.5
  1
23.00000
100
AcDbAttributeDefinition
  3

  2
J1
 70
     8
280
     0
  0
ATTDEF
  5
174
330
14E
100
AcDbEntity
  8
AM_6
100
AcDbText
 10
10.54054054054054
 20
-5.02
 30
0.0
 40
0.5
  1
0.750
100
AcDbAttributeDefinition
  3

  2
J11
 70
     8
280
     0
  0
ATTDEF
  5
175
330
14E
100
AcDbEntity
  8
AM_6
100
AcDbText
 10
10.54054054054054
 20
-5.52
 30
0.0
 40
0.5
  1
11
100
AcDbAttributeDefinition
  3

  2
L
 70
     8
280
     0
  0
ATTDEF
  5
176
330
14E
100
AcDbEntity
  8
AM_6
100
AcDbText
 10
10.54054054054054
 20
-6.02
 30
0.0
 40
0.5
  1
11.00000
100
AcDbAttributeDefinition
  3

  2
L1
 70
     8
280
     0
  0
ATTDEF
  5
177
330
14E
100
AcDbEntity
  8
AM_6
100
AcDbText
 10
10.54054054054054
 20
-6.52
 30
0.0
 40
0.5
  1
11-1/4
100
AcDbAttributeDefinition
  3

  2
M
 70
     8
280
     0
  0
ATTDEF
  5
178
330
14E
100
AcDbEntity
  8
AM_6
100
AcDbText
 10
10.54054054054054
 20
-7.02
 30
0.0
 40
0.5
  1
11.25000
100
AcDbAttributeDefinition
  3

  2
M1
 70
     8
280
     0
  0
ATTDEF
  5
179
330
14E
100
AcDbEntity
  8
AM_6
100
AcDbText
 10
10.54054054054054
 20
-7.52
 30
0.0
 40
0.5
  1
23-1/2
100
AcDbAttributeDefinition
  3

  2
P
 70
     8
280
     0
  0
ATTDEF
  5
17A
330
14E
100
AcDbEntity
  8
AM_6
100
AcDbText
 10
10.54054054054054
 20
-8.02
 30
0.0
 40
0.5
  1
23.50000
100
AcDbAttributeDefinition
  3

  2
P1
 70
     8
280
     0
  0
ATTDEF
  5
17B
330
14E
100
AcDbEntity
  8
AM_6
100
AcDbText
 10
10.54054054054054
 20
-8.52
 30
0.0
 40
0.5
  1
6-3/4
100
AcDbAttributeDefinition
  3

  2
R
 70
     8
280
     0
  0
ATTDEF
  5
17C
330
14E
100
AcDbEntity
  8
AM_6
100
AcDbText
 10
10.54054054054054
 20
-9.02
 30
0.0
 40
0.5
  1
6.75000
100
AcDbAttributeDefinition
  3

  2
R1
 70
     8
280
     0
  0
ATTDEF
  5
17D
330
14E
100
AcDbEntity
  8
AM_6
100
AcDbText
 10
10.54054054054054
 20
-9.52
 30
0.0
 40
0.5
  1
6-3/4
100
AcDbAttributeDefinition
  3

  2
S
 70
     8
280
     0
  0
ATTDEF
  5
17E
330
14E
100
AcDbEntity
  8
AM_6
100
AcDbText
 10
10.54054054054054
 20
-10.02
 30
0.0
 40
0.5
  1
6.75000
100
AcDbAttributeDefinition
  3

  2
S1
 70
     8
280
     0
  0
ATTDEF
  5
17F
330
14E
100
AcDbEntity
  8
AM_6
100
AcDbText
 10
10.54054054054054
 20
-10.52
 30
0.0
 40
0.5
  1
1-1/2
100
AcDbAttributeDefinition
  3

  2
EXP
 70
     8
280
     0
  0
ATTDEF
  5
180
330
14E
100
AcDbEntity
  8
AM_6
100
AcDbText
 10
10.54054054054054
 20
-11.02
 30
0.0
 40
0.5
  1
baldor
100
AcDbAttributeDefinition
  3

  2
COMPANY
 70
     8
280
     0
  0
LINE
  5
181
330
14E
100
AcDbEntity
  8
AM_9
100
AcDbLine
 10
-5.54054054054054
 20
-5.5
 30
0.0
 11
5.54054054054054
 21
-5.5
 31
0.0
  0
LINE
  5
182
330
14E
100
AcDbEntity
  8
AM_9
100
AcDbLine
 10
5.54054054054054
 20
5.5
 30
0.0
 11
-5.54054054054054
 21
5.5
 31
0.0
  0
LINE
  5
183
330
14E
100
AcDbEntity
  8
AM_9
100
AcDbLine
 10
-2.301310884463831
 20
9.780095495344758
 30
0.0
 11
-2.349999999999734
 21
9.791666666666602
 31
0.0
  0
LINE
  5
184
330
14E
100
AcDbEntity
  8
AM_9
100
AcDbLine
 10
3.500000000000001
 20
-5.25
 30
0.0
 11
3.500000000000001
 21
-11.25
 31
0.0
  0
LINE
  5
185
330
14E
100
AcDbEntity
  8
AM_9
100
AcDbLine
 10
2.000000000000001
 20
-5.25
 30
0.0
 11
2.000000000000001
 21
-11.25
 31
0.0
  0
LINE
  5
186
330
14E
100
AcDbEntity
  8
AM_9
100
AcDbLine
 10
-1.999999999999999
 20
-5.25
 30
0.0
 11
-1.999999999999999
 21
-11.25
 31
0.0
  0
LINE
  5
187
330
14E
100
AcDbEntity
  8
AM_9
100
AcDbLine
 10
-3.499999999999999
 20
-5.25
 30
0.0
 11
-3.499999999999999
 21
-11.25
 31
0.0
  0
LINE
  5
188
330
14E
100
AcDbEntity
  8
AM_7
100
AcDbLine
 10
-2.75
 20
7.596388888888888
 30
0.0
 11
-2.75
 21
6.331388888888888
 31
0.0
  0
LINE
  5
189
330
14E
100
AcDbEntity
  8
AM_7
100
AcDbLine
 10
2.75
 20
7.596388888888888
 30
0.0
 11
2.75
 21
6.331388888888888
 31
0.0
  0
LINE
  5
18A
330
14E
100
AcDbEntity
  8
AM_7
100
AcDbLine
 10
0.0
 20
11.98
 30
0.0
 11
0.0
 21
6.919999999999998
 31
0.0
  0
LINE
  5
18B
330
14E
100
AcDbEntity
  8
AM_4
100
AcDbLine
 10
2.35
 20
11.75
 30
0.0
 11
-2.35
 21
11.75
 31
0.0
  0
LINE
  5
18C
330
14E
100
AcDbEntity
  8
AM_4
100
AcDbLine
 10
-2.35
 20
11.75
 30
0.0
 11
-2.35
 21
11.27
 31
0.0
  0
LINE
  5
18D
330
14E
100
AcDbEntity
  8
AM_4
100
AcDbLine
 10
2.35
 20
11.27
 30
0.0
 11
2.35
 21
11.75
 31
0.0
  0
LINE
  5
18E
330
14E
100
AcDbEntity
  8
AM_4
100
AcDbLine
 10
-2.35
 20
10.81
 30
0.0
 11
-2.35
 21
9.791666666666666
 31
0.0
  0
LINE
  5
18F
330
14E
100
AcDbEntity
  8
AM_4
100
AcDbLine
 10
2.35
 20
9.791666666666668
 30
0.0
 11
2.35
 21
10.81
 31
0.0
  0
LINE
  5
190
330
14E
100
AcDbEntity
  8
AM_4
100
AcDbLine
 10
2.611111111111111
 20
11.27
 30
0.0
 11
-2.611111111111111
 21
11.27
 31
0.0
  0
LINE
  5
191
330
14E
100
AcDbEntity
  8
AM_4
100
AcDbLine
 10
2.611111111111111
 20
10.81
 30
0.0
 11
-2.611111111111111
 21
10.81
 31
0.0
  0
LINE
  5
192
330
14E
100
AcDbEntity
  8
AM_4
100
AcDbLine
 10
-2.611111111111111
 20
11.27
 30
0.0
 11
-2.611111111111111
 21
10.81
 31
0.0
  0
LINE
  5
193
330
14E
100
AcDbEntity
  8
AM_4
100
AcDbLine
 10
2.611111111111111
 20
10.81
 30
0.0
 11
2.611111111111111
 21
11.27
 31
0.0
  0
LINE
  5
194
330
14E
100
AcDbEntity
  8
AM_4
100
AcDbLine
 10
-5.54054054054054
 20
-5.945945945945945
 30
0.0
 11
-5.54054054054054
 21
5.945945945945945
 31
0.0
  0
LINE
  5
195
330
14E
100
AcDbEntity
  8
AM_4
100
AcDbLine
 10
-5.54054054054054
 20
-5.945945945945945
 30
0.0
 11
-5.125
 21
-5.945945945945945
 31
0.0
  0
LINE
  5
196
330
14E
100
AcDbEntity
  8
AM_4
100
AcDbLine
 10
-5.125
 20
5.945945945945945
 30
0.0
 11
-5.54054054054054
 21
5.945945945945945
 31
0.0
  0
LINE
  5
197
330
14E
100
AcDbEntity
  8
AM_4
100
AcDbLine
 10
5.54054054054054
 20
-5.945945945945945
 30
0.0
 11
5.54054054054054
 21
5.945945945945945
 31
0.0
  0
LINE
  5
198
330
14E
100
AcDbEntity
  8
AM_4
100
AcDbLine
 10
5.124999999999998
 20
-5.945945945945945
 30
0.0
 11
5.54054054054054
 21
-5.945945945945945
 31
0.0
  0
LINE
  5
199
330
14E
100
AcDbEntity
  8
AM_4
100
AcDbLine
 10
5.54054054054054
 20
5.945945945945945
 30
0.0
 11
5.124999999999998
 21
5.945945945945945
 31
0.0
  0
LINE
  5
19A
330
14E
100
AcDbEntity
  8
AM_4
100
AcDbLine
 10
5.125
 20
9.791666666666666
 30
0.0
 11
2.35
 21
9.791666666666666
 31
0.0
  0
LINE
  5
19B
330
14E
100
AcDbEntity
  8
AM_4
100
AcDbLine
 10
-2.348144078215153
 20
9.791666666666666
 30
0.0
 11
-5.125
 21
9.791666666666666
 31
0.0
  0
LWPOLYLINE
  5
19C
330
14E
100
AcDbEntity
  8
AM_4
100
AcDbPolyline
 90
       40
 70
     0
 43
0.0
 10
-2.349999999999734
 20
9.791666666666602
 10
-2.348892979410331
 20
9.791401040700675
 10
-2.334423804403764
 20
9.787936834224505
 10
-2.3033716559622
 20
9.780580611425947
 10
-2.258223029478557
 20
9.770044252653527
 10
-2.198420049199263
 20
9.75639722560702
 10
-2.122072607492063
 20
9.739476349596325
 10
-2.031277963723016
 20
9.720099087818902
 10
-1.927862967893742
 20
9.699014735957025
 10
-1.811657685337964
 20
9.676587191771446
 10
-1.679657705242482
 20
9.652746219834842
 10
-1.535841697023343
 20
9.628761386046838
 10
-1.382055821775223
 20
9.605434363940308
 10
-1.218531777569483
 20
9.583269577970649
 10
-1.041125165716134
 20
9.562336460871812
 10
-0.8557863028749527
 20
9.543930338560706
 10
-0.6706490757083454
 20
9.529119883087889
 10
-0.4806511793107775
 20
9.517628993992355
 10
-0.2811470917548266
 20
9.509649797431553
 10
-0.079447012906411
 20
9.505816531943527
 10
0.1117733223807558
 20
9.506148560746672
 10
0.3022113599123709
 20
9.510287472898556
 10
0.4960212874479135
 20
9.518424543513687
 10
0.686188556355925
 20
9.530219873958046
 10
0.8653794202843063
 20
9.54480012039711
 10
1.038731237878575
 20
9.562070837201315
 10
1.209624521022492
 20
9.582144731223176
 10
1.372077458542377
 20
9.604000867521368
 10
1.524499548928835
 20
9.62696071783906
 10
1.666538700944993
 20
9.65047083581203
 10
1.800761530559375
 20
9.674553642814246
 10
1.922137583097688
 20
9.697878582425526
 10
2.028505725585194
 20
9.719519216309624
 10
2.12076016257129
 20
9.739191946884532
 10
2.200254180380137
 20
9.756808298088519
 10
2.26340342226077
 20
9.771245118356866
 10
2.300805712269892
 20
9.779975441102149
 10
2.327801606095558
 20
9.786362778297775
 10
2.344435083797887
 20
9.790331116316226
 10
2.35
 20
9.791666666666668
  0
LINE
  5
19D
330
14E
100
AcDbEntity
  8
AM_4
100
AcDbLine
 10
2.375
 20
7.502038888888888
 30
0.0
 11
2.375
 21
7.046031746031746
 31
0.0
  0
LINE
  5
19E
330
14E
100
AcDbEntity
  8
AM_4
100
AcDbLine
 10
3.125000000000001
 20
7.046031746031746
 30
0.0
 11
3.125000000000001
 21
7.502038888888888
 31
0.0
  0
LINE
  5
19F
330
14E
100
AcDbEntity
  8
AM_4
100
AcDbLine
 10
-2.411849999999997
 20
7.538888888888888
 30
0.0
 11
-3.088150000000002
 21
7.538888888888888
 31
0.0
  0
LINE
  5
1A0
330
14E
100
AcDbEntity
  8
AM_4
100
AcDbLine
 10
-3.088150000000002
 20
7.538888888888888
 30
0.0
 11
-3.125
 21
7.502038888888888
 31
0.0
  0
LINE
  5
1A1
330
14E
100
AcDbEntity
  8
AM_4
100
AcDbLine
 10
-2.374999999999999
 20
7.502038888888888
 30
0.0
 11
-2.411849999999997
 21
7.538888888888888
 31
0.0
  0
LINE
  5
1A2
330
14E
100
AcDbEntity
  8
AM_4
100
AcDbLine
 10
-2.374999999999999
 20
7.502038888888888
 30
0.0
 11
-3.125
 21
7.502038888888888
 31
0.0
  0
LINE
  5
1A3
330
14E
100
AcDbEntity
  8
AM_4
100
AcDbLine
 10
-3.125
 20
7.502038888888888
 30
0.0
 11
-3.125
 21
7.046031746031746
 31
0.0
  0
LINE
  5
1A4
330
14E
100
AcDbEntity
  8
AM_4
100
AcDbLine
 10
-2.374999999999999
 20
7.046031746031746
 30
0.0
 11
-2.374999999999999
 21
7.502038888888888
 31
0.0
  0
LINE
  5
1A5
330
14E
100
AcDbEntity
  8
AM_4
100
AcDbLine
 10
3.125000000000001
 20
7.502038888888888
 30
0.0
 11
2.375
 21
7.502038888888888
 31
0.0
  0
LINE
  5
1A6
330
14E
100
AcDbEntity
  8
AM_4
100
AcDbLine
 10
3.088150000000003
 20
7.538888888888888
 30
0.0
 11
2.411849999999998
 21
7.538888888888888
 31
0.0
  0
LINE
  5
1A7
330
14E
100
AcDbEntity
  8
AM_4
100
AcDbLine
 10
2.411849999999998
 20
7.538888888888888
 30
0.0
 11
2.375
 21
7.502038888888888
 31
0.0
  0
LINE
  5
1A8
330
14E
100
AcDbEntity
  8
AM_4
100
AcDbLine
 10
3.125000000000001
 20
7.502038888888888
 30
0.0
 11
3.088150000000003
 21
7.538888888888888
 31
0.0
  0
LINE
  5
1A9
330
14E
100
AcDbEntity
  8
AM_4
100
AcDbLine
 10
3.635270412757427
 20
6.97755584129935
 30
0.0
 11
3.51666666666667
 21
7.046031746031746
 31
0.0
  0
LINE
  5
1AA
330
14E
100
AcDbEntity
  8
AM_4
100
AcDbLine
 10
3.51666666666667
 20
7.046031746031746
 30
0.0
 11
1.983333333333331
 21
7.046031746031746
 31
0.0
  0
LINE
  5
1AB
330
14E
100
AcDbEntity
  8
AM_4
100
AcDbLine
 10
-1.98333333333333
 20
6.388888888888888
 30
0.0
 11
-1.864729587242573
 21
6.457364793621285
 31
0.0
  0
LINE
  5
1AC
330
14E
100
AcDbEntity
  8
AM_4
100
AcDbLine
 10
-1.98333333333333
 20
7.046031746031746
 30
0.0
 11
-3.516666666666668
 21
7.046031746031746
 31
0.0
  0
LINE
  5
1AD
330
14E
100
AcDbEntity
  8
AM_4
100
AcDbLine
 10
-3.516666666666668
 20
7.046031746031746
 30
0.0
 11
-3.635270412757425
 21
6.97755584129935
 31
0.0
  0
LINE
  5
1AE
330
14E
100
AcDbEntity
  8
AM_4
100
AcDbLine
 10
1.864729587242574
 20
6.457364793621285
 30
0.0
 11
1.983333333333331
 21
6.388888888888888
 31
0.0
  0
LINE
  5
1AF
330
14E
100
AcDbEntity
  8
AM_4
100
AcDbLine
 10
1.983333333333331
 20
7.046031746031746
 30
0.0
 11
1.864729587242574
 21
6.97755584129935
 31
0.0
  0
LINE
  5
1B0
330
14E
100
AcDbEntity
  8
AM_4
100
AcDbLine
 10
-3.635270412757425
 20
6.457364793621285
 30
0.0
 11
-3.516666666666668
 21
6.388888888888888
 31
0.0
  0
LINE
  5
1B1
330
14E
100
AcDbEntity
  8
AM_4
100
AcDbLine
 10
-1.864729587242573
 20
6.97755584129935
 30
0.0
 11
-1.98333333333333
 21
7.046031746031746
 31
0.0
  0
LINE
  5
1B2
330
14E
100
AcDbEntity
  8
AM_4
100
AcDbLine
 10
3.51666666666667
 20
6.388888888888888
 30
0.0
 11
3.635270412757427
 21
6.457364793621285
 31
0.0
  0
LINE
  5
1B3
330
14E
100
AcDbEntity
  8
AM_4
100
AcDbLine
 10
-3.635270412757425
 20
6.97755584129935
 30
0.0
 11
-3.635270412757425
 21
6.457364793621285
 31
0.0
  0
LWPOLYLINE
  5
1B4
330
14E
100
AcDbEntity
  8
AM_4
100
AcDbPolyline
 90
        4
 70
     0
 43
0.0
 10
-3.41395280956807
 20
6.388888888888888
 10
-3.429695283023928
 20
6.389261989302049
 10
-3.532645030351607
 20
6.409621481303563
 10
-3.635270412757425
 20
6.457364793621285
  0
LWPOLYLINE
  5
1B5
330
14E
100
AcDbEntity
  8
AM_4
100
AcDbPolyline
 90
        3
 70
     0
 43
0.0
 10
-3.635270412757425
 20
6.97755584129935
 10
-3.526840664454107
 20
7.027237127879197
 10
-3.41395280956807
 20
7.046031746031746
  0
LINE
  5
1B6
330
14E
100
AcDbEntity
  8
AM_4
100
AcDbLine
 10
1.864729587242574
 20
6.97755584129935
 30
0.0
 11
1.864729587242574
 21
6.457364793621285
 31
0.0
  0
LWPOLYLINE
  5
1B7
330
14E
100
AcDbEntity
  8
AM_4
100
AcDbPolyline
 90
        4
 70
     0
 43
0.0
 10
2.08604719043193
 20
6.388888888888888
 10
2.070304716976073
 20
6.389261989302049
 10
1.967354969648394
 20
6.409621481303563
 10
1.864729587242574
 20
6.457364793621285
  0
LWPOLYLINE
  5
1B8
330
14E
100
AcDbEntity
  8
AM_4
100
AcDbPolyline
 90
        3
 70
     0
 43
0.0
 10
2.307364793621287
 20
6.457364793621286
 10
2.198935045317968
 20
6.40768350704144
 10
2.08604719043193
 20
6.388888888888888
  0
LWPOLYLINE
  5
1B9
330
14E
100
AcDbEntity
  8
AM_4
100
AcDbPolyline
 90
        3
 70
     0
 43
0.0
 10
1.864729587242574
 20
6.97755584129935
 10
1.973159335545893
 20
7.027237127879197
 10
2.08604719043193
 20
7.046031746031746
  0
LWPOLYLINE
  5
1BA
330
14E
100
AcDbEntity
  8
AM_4
100
AcDbPolyline
 90
        4
 70
     0
 43
0.0
 10
-3.41395280956807
 20
7.046031746031746
 10
-3.39821033611221
 20
7.045658645618586
 10
-3.295260588784531
 20
7.025299153617071
 10
-3.192635206378712
 20
6.977555841299347
  0
LWPOLYLINE
  5
1BB
330
14E
100
AcDbEntity
  8
AM_4
100
AcDbPolyline
 90
        4
 70
     0
 43
0.0
 10
3.413952809568071
 20
6.388888888888888
 10
3.398210336112212
 20
6.389261989302049
 10
3.295260588784532
 20
6.409621481303564
 10
3.192635206378714
 20
6.457364793621286
  0
LWPOLYLINE
  5
1BC
330
14E
100
AcDbEntity
  8
AM_4
100
AcDbPolyline
 90
        3
 70
     0
 43
0.0
 10
3.635270412757427
 20
6.457364793621285
 10
3.526840664454108
 20
6.407683507041439
 10
3.413952809568071
 20
6.388888888888888
  0
LINE
  5
1BD
330
14E
100
AcDbEntity
  8
AM_4
100
AcDbLine
 10
3.635270412757427
 20
6.97755584129935
 30
0.0
 11
3.635270412757427
 21
6.457364793621285
 31
0.0
  0
LWPOLYLINE
  5
1BE
330
14E
100
AcDbEntity
  8
AM_4
100
AcDbPolyline
 90
        4
 70
     0
 43
0.0
 10
3.413952809568071
 20
7.046031746031746
 10
3.429695283023929
 20
7.045658645618586
 10
3.532645030351608
 20
7.025299153617072
 10
3.635270412757427
 20
6.97755584129935
  0
LWPOLYLINE
  5
1BF
330
14E
100
AcDbEntity
  8
AM_4
100
AcDbPolyline
 90
        3
 70
     0
 43
0.0
 10
3.192635206378714
 20
6.977555841299347
 10
3.301064954682032
 20
7.027237127879195
 10
3.413952809568071
 20
7.046031746031746
  0
LINE
  5
1C0
330
14E
100
AcDbEntity
  8
AM_4
100
AcDbLine
 10
-3.192635206378712
 20
6.977555841299347
 30
0.0
 11
-3.192635206378712
 21
6.457364793621286
 31
0.0
  0
LWPOLYLINE
  5
1C1
330
14E
100
AcDbEntity
  8
AM_4
100
AcDbPolyline
 90
        4
 70
     0
 43
0.0
 10
-2.307364793621286
 20
6.457364793621286
 10
-2.398775438619565
 20
6.433126859115972
 10
-2.571903056812251
 20
6.400675035790218
 10
-2.75
 20
6.388888888888888
  0
LWPOLYLINE
  5
1C2
330
14E
100
AcDbEntity
  8
AM_4
100
AcDbPolyline
 90
        4
 70
     0
 43
0.0
 10
-3.192635206378712
 20
6.977555841299347
 10
-3.025727982411822
 20
7.018275732940725
 10
-2.853910128711086
 20
7.041984704189746
 10
-2.75
 20
7.046031746031746
  0
LWPOLYLINE
  5
1C3
330
14E
100
AcDbEntity
  8
AM_4
100
AcDbPolyline
 90
        4
 70
     0
 43
0.0
 10
-2.75
 20
7.046031746031746
 10
-2.574387719309782
 20
7.034568045817414
 10
-2.398775438619565
 20
7.001793775804662
 10
-2.307364793621286
 20
6.977555841299347
  0
LINE
  5
1C4
330
14E
100
AcDbEntity
  8
AM_4
100
AcDbLine
 10
2.307364793621287
 20
6.977555841299347
 30
0.0
 11
2.307364793621287
 21
6.457364793621286
 31
0.0
  0
LWPOLYLINE
  5
1C5
330
14E
100
AcDbEntity
  8
AM_4
100
AcDbPolyline
 90
        4
 70
     0
 43
0.0
 10
2.75
 20
6.388888888888888
 10
2.646089871288914
 20
6.392935930730889
 10
2.476041074039212
 20
6.41630023016667
 10
2.307364793621287
 20
6.457364793621286
  0
LWPOLYLINE
  5
1C6
330
14E
100
AcDbEntity
  8
AM_4
100
AcDbPolyline
 90
        4
 70
     0
 43
0.0
 10
3.192635206378714
 20
6.457364793621286
 10
3.101224561380433
 20
6.433126859115971
 10
2.928096943187748
 20
6.400675035790218
 10
2.75
 20
6.388888888888888
  0
LINE
  5
1C7
330
14E
100
AcDbEntity
  8
AM_4
100
AcDbLine
 10
3.192635206378714
 20
6.977555841299347
 30
0.0
 11
3.192635206378714
 21
6.457364793621286
 31
0.0
  0
LWPOLYLINE
  5
1C8
330
14E
100
AcDbEntity
  8
AM_4
100
AcDbPolyline
 90
        4
 70
     0
 43
0.0
 10
2.75
 20
7.046031746031746
 10
2.925612280690217
 20
7.034568045817414
 10
3.101224561380434
 20
7.001793775804662
 10
3.192635206378714
 20
6.977555841299347
  0
LWPOLYLINE
  5
1C9
330
14E
100
AcDbEntity
  8
AM_4
100
AcDbPolyline
 90
        4
 70
     0
 43
0.0
 10
-2.75
 20
6.388888888888888
 10
-2.853910128711085
 20
6.392935930730889
 10
-3.023958925960788
 20
6.41630023016667
 10
-3.192635206378712
 20
6.457364793621286
  0
LWPOLYLINE
  5
1CA
330
14E
100
AcDbEntity
  8
AM_4
100
AcDbPolyline
 90
        3
 70
     0
 43
0.0
 10
-3.192635206378712
 20
6.457364793621286
 10
-3.301064954682031
 20
6.40768350704144
 10
-3.41395280956807
 20
6.388888888888888
  0
LWPOLYLINE
  5
1CB
330
14E
100
AcDbEntity
  8
AM_4
100
AcDbPolyline
 90
        4
 70
     0
 43
0.0
 10
2.08604719043193
 20
7.046031746031746
 10
2.101789663887788
 20
7.045658645618586
 10
2.204739411215467
 20
7.025299153617071
 10
2.307364793621287
 20
6.977555841299347
  0
LWPOLYLINE
  5
1CC
330
14E
100
AcDbEntity
  8
AM_4
100
AcDbPolyline
 90
        4
 70
     0
 43
0.0
 10
2.307364793621287
 20
6.977555841299347
 10
2.474272017588178
 20
7.018275732940725
 10
2.646089871288912
 20
7.041984704189746
 10
2.75
 20
7.046031746031746
  0
LINE
  5
1CD
330
14E
100
AcDbEntity
  8
AM_4
100
AcDbLine
 10
-2.307364793621286
 20
6.977555841299347
 30
0.0
 11
-2.307364793621286
 21
6.457364793621286
 31
0.0
  0
LWPOLYLINE
  5
1CE
330
14E
100
AcDbEntity
  8
AM_4
100
AcDbPolyline
 90
        4
 70
     0
 43
0.0
 10
-2.086047190431929
 20
6.388888888888888
 10
-2.101789663887788
 20
6.389261989302049
 10
-2.204739411215468
 20
6.409621481303564
 10
-2.307364793621286
 20
6.457364793621286
  0
LWPOLYLINE
  5
1CF
330
14E
100
AcDbEntity
  8
AM_4
100
AcDbPolyline
 90
        3
 70
     0
 43
0.0
 10
-1.864729587242573
 20
6.457364793621285
 10
-1.973159335545892
 20
6.407683507041439
 10
-2.086047190431929
 20
6.388888888888888
  0
LINE
  5
1D0
330
14E
100
AcDbEntity
  8
AM_4
100
AcDbLine
 10
-1.864729587242573
 20
6.97755584129935
 30
0.0
 11
-1.864729587242573
 21
6.457364793621285
 31
0.0
  0
LWPOLYLINE
  5
1D1
330
14E
100
AcDbEntity
  8
AM_4
100
AcDbPolyline
 90
        4
 70
     0
 43
0.0
 10
-2.086047190431929
 20
7.046031746031746
 10
-2.070304716976071
 20
7.045658645618586
 10
-1.967354969648392
 20
7.025299153617072
 10
-1.864729587242573
 20
6.97755584129935
  0
LWPOLYLINE
  5
1D2
330
14E
100
AcDbEntity
  8
AM_4
100
AcDbPolyline
 90
        3
 70
     0
 43
0.0
 10
-2.307364793621286
 20
6.977555841299347
 10
-2.198935045317967
 20
7.027237127879195
 10
-2.086047190431929
 20
7.046031746031746
  0
LINE
  5
1D3
330
14E
100
AcDbEntity
  8
AM_4
100
AcDbLine
 10
-4.031249999999999
 20
6.388888888888888
 30
0.0
 11
-1.46875
 21
6.388888888888888
 31
0.0
  0
LINE
  5
1D4
330
14E
100
AcDbEntity
  8
AM_4
100
AcDbLine
 10
1.46875
 20
6.388888888888888
 30
0.0
 11
4.03125
 21
6.388888888888888
 31
0.0
  0
LWPOLYLINE
  5
1D5
330
14E
100
AcDbEntity
  8
AM_4
100
AcDbPolyline
 90
       19
 70
     0
 43
0.0
 10
-1.46875
 20
-4.767230653981608
 10
-1.512413443435496
 20
-4.888322956412205
 10
-1.586634036085984
 20
-4.991990085678029
 10
-1.689711800283102
 20
-5.071803837465061
 10
-1.827502847017316
 20
-5.13286005460865
 10
-1.976833574680437
 20
-5.171445901495234
 10
-2.150755845697503
 20
-5.197698309874463
 10
-2.338114657752103
 20
-5.213431613007527
 10
-2.541404614417457
 20
-5.221891988887662
 10
-2.752077644494854
 20
-5.224480766366317
 10
-2.968614905351747
 20
-5.221628530090525
 10
-3.175484854916917
 20
-5.212593538686231
 10
-3.376005648548064
 20
-5.194555749881867
 10
-3.550807008303287
 20
-5.165715901075382
 10
-3.707530143600862
 20
-5.120388245160949
 10
-3.828328593415154
 20
-5.060762373812032
 10
-3.924577417969194
 20
-4.979999231510648
 10
-3.989896153495174
 20
-4.88376437496932
 10
-4.031249999999999
 20
-4.767230653981608
  0
LWPOLYLINE
  5
1D6
330
14E
100
AcDbEntity
  8
AM_4
100
AcDbPolyline
 90
       19
 70
     0
 43
0.0
 10
4.03125
 20
-4.767230653981608
 10
3.98667134910341
 20
-4.889718779275593
 10
3.913365963914017
 20
-4.991990085678028
 10
3.808111170167
 20
-5.072825249524255
 10
3.672497152982688
 20
-5.132860054608647
 10
3.520831542007099
 20
-5.171853868593107
 10
3.349244154302501
 20
-5.197698309874462
 10
3.159241358947552
 20
-5.213611401812917
 10
2.958595385582549
 20
-5.221891988887662
 10
2.744920140107706
 20
-5.224529784625338
 10
2.531385094648257
 20
-5.221628530090525
 10
2.32155452079486
 20
-5.212428820573784
 10
2.12399435145194
 20
-5.194555749881868
 10
1.946722667324991
 20
-5.16509955831002
 10
1.792469856399141
 20
-5.12038824516095
 10
1.67022235236093
 20
-5.059620309026926
 10
1.575422582030806
 20
-4.979999231510651
 10
1.509581257915375
 20
-4.882425027222408
 10
1.46875
 20
-4.767230653981608
  0
LINE
  5
1D7
330
14E
100
AcDbEntity
  8
AM_4
100
AcDbLine
 10
4.031250000000001
 20
-2.48335263462652
 30
0.0
 11
5.125000000000001
 21
-2.48335263462652
 31
0.0
  0
LINE
  5
1D8
330
14E
100
AcDbEntity
  8
AM_4
100
AcDbLine
 10
-5.124999999999998
 20
-2.48335263462652
 30
0.0
 11
-4.031249999999999
 21
-2.48335263462652
 31
0.0
  0
LINE
  5
1D9
330
14E
100
AcDbEntity
  8
AM_4
100
AcDbLine
 10
-1.46875
 20
-2.48335263462652
 30
0.0
 11
1.46875
 21
-2.48335263462652
 31
0.0
  0
LINE
  5
1DA
330
14E
100
AcDbEntity
  8
AM_4
100
AcDbLine
 10
1.468750000000001
 20
-5.249999999999999
 30
0.0
 11
4.031250000000001
 21
-5.249999999999999
 31
0.0
  0
LINE
  5
1DB
330
14E
100
AcDbEntity
  8
AM_4
100
AcDbLine
 10
-4.031249999999999
 20
-5.249999999999999
 30
0.0
 11
-1.468749999999999
 21
-5.249999999999999
 31
0.0
  0
LINE
  5
1DC
330
14E
100
AcDbEntity
  8
AM_4
100
AcDbLine
 10
5.125000000000001
 20
-11.25
 30
0.0
 11
5.125
 21
9.791666666666666
 31
0.0
  0
LINE
  5
1DD
330
14E
100
AcDbEntity
  8
AM_4
100
AcDbLine
 10
-1.468749999999999
 20
-8.25
 30
0.0
 11
1.46875
 21
-8.25
 31
0.0
  0
LINE
  5
1DE
330
14E
100
AcDbEntity
  8
AM_4
100
AcDbLine
 10
4.031250000000002
 20
-8.25
 30
0.0
 11
4.03125
 21
6.388888888888888
 31
0.0
  0
LINE
  5
1DF
330
14E
100
AcDbEntity
  8
AM_4
100
AcDbLine
 10
1.46875
 20
-8.25
 30
0.0
 11
1.46875
 21
6.388888888888888
 31
0.0
  0
LINE
  5
1E0
330
14E
100
AcDbEntity
  8
AM_4
100
AcDbLine
 10
4.031250000000002
 20
-8.25
 30
0.0
 11
5.125000000000001
 21
-8.25
 31
0.0
  0
LINE
  5
1E1
330
14E
100
AcDbEntity
  8
AM_4
100
AcDbLine
 10
-5.124999999999998
 20
-11.25
 30
0.0
 11
-5.125
 21
9.791666666666666
 31
0.0
  0
LINE
  5
1E2
330
14E
100
AcDbEntity
  8
AM_4
100
AcDbLine
 10
-5.124999999999998
 20
-11.25
 30
0.0
 11
5.125000000000001
 21
-11.25
 31
0.0
  0
LINE
  5
1E3
330
14E
100
AcDbEntity
  8
AM_4
100
AcDbLine
 10
1.468750000000001
 20
-5.849999999999999
 30
0.0
 11
4.031250000000001
 21
-5.849999999999999
 31
0.0
  0
LINE
  5
1E4
330
14E
100
AcDbEntity
  8
AM_4
100
AcDbLine
 10
-1.468749999999999
 20
-8.25
 30
0.0
 11
-1.46875
 21
6.388888888888888
 31
0.0
  0
LINE
  5
1E5
330
14E
100
AcDbEntity
  8
AM_4
100
AcDbLine
 10
-4.031249999999999
 20
-5.849999999999999
 30
0.0
 11
-1.468749999999999
 21
-5.849999999999999
 31
0.0
  0
LINE
  5
1E6
330
14E
100
AcDbEntity
  8
AM_4
100
AcDbLine
 10
-4.031249999999999
 20
-8.25
 30
0.0
 11
-4.031249999999999
 21
6.388888888888888
 31
0.0
  0
LINE
  5
1E7
330
14E
100
AcDbEntity
  8
AM_4
100
AcDbLine
 10
-5.124999999999998
 20
-8.25
 30
0.0
 11
-4.031249999999999
 21
-8.25
 31
0.0
  0
LINE
  5
1E9
330
14E
100
AcDbEntity
  8
AM_5
100
AcDbLine
 10
-3.088150000000002
 20
7.538888888888888
 30
0.0
 11
-3.088150000000002
 21
6.618888888888888
 31
0.0
  0
LINE
  5
1EA
330
14E
100
AcDbEntity
  8
AM_5
100
AcDbLine
 10
-3.124999999999999
 20
6.618888888888888
 30
0.0
 11
-3.088150000000002
 21
6.618888888888888
 31
0.0
  0
LINE
  5
1EB
330
14E
100
AcDbEntity
  8
AM_5
100
AcDbLine
 10
-3.124999999999999
 20
6.618888888888888
 30
0.0
 11
-2.374999999999999
 21
6.618888888888888
 31
0.0
  0
LINE
  5
1EC
330
14E
100
AcDbEntity
  8
AM_5
100
AcDbLine
 10
-2.411849999999998
 20
7.538888888888891
 30
0.0
 11
-2.411849999999998
 21
6.618888888888888
 31
0.0
  0
LINE
  5
1ED
330
14E
100
AcDbEntity
  8
AM_5
100
AcDbLine
 10
-2.375
 20
6.618888888888888
 30
0.0
 11
-2.411849999999998
 21
6.618888888888888
 31
0.0
  0
LINE
  5
1EE
330
14E
100
AcDbEntity
  8
AM_5
100
AcDbLine
 10
2.411849999999996
 20
7.538888888888886
 30
0.0
 11
2.411849999999996
 21
6.618888888888888
 31
0.0
  0
LINE
  5
1EF
330
14E
100
AcDbEntity
  8
AM_5
100
AcDbLine
 10
2.374999999999999
 20
6.618888888888888
 30
0.0
 11
2.411849999999996
 21
6.618888888888888
 31
0.0
  0
LINE
  5
1F0
330
14E
100
AcDbEntity
  8
AM_5
100
AcDbLine
 10
2.374999999999999
 20
6.618888888888888
 30
0.0
 11
3.124999999999999
 21
6.618888888888888
 31
0.0
  0
LINE
  5
1F1
330
14E
100
AcDbEntity
  8
AM_5
100
AcDbLine
 10
3.088149999999999
 20
7.538888888888891
 30
0.0
 11
3.088149999999999
 21
6.618888888888888
 31
0.0
  0
LINE
  5
1F2
330
14E
100
AcDbEntity
  8
AM_5
100
AcDbLine
 10
3.124999999999998
 20
6.618888888888888
 30
0.0
 11
3.088149999999999
 21
6.618888888888888
 31
0.0
  0
ENDBLK
  5
151
330
14E
100
AcDbEntity
  8
0
100
AcDbBlockEnd
  0
ENDSEC
  0
SECTION
  2
ENTITIES
  0
INSERT
  5
6F
330
1F
100
AcDbEntity
  8
0
100
AcDbBlockReference
  2
1_066426_2
 10
0.0
 20
0.0
 30
0.0
  0
POINT
  5
1F4
330
1F
100
AcDbEntity
  8
ConnectionPoints
100
AcDbPoint
 10
6.75
 20
0.0
 30
-0.0000000000000004
  0
POINT
  5
1F5
330
1F
100
AcDbEntity
  8
ConnectionPoints
100
AcDbPoint
 10
6.75
 20
0.0
 30
-0.0000000000000004
  0
ENDSEC
  0
SECTION
  2
OBJECTS
  0
DICTIONARY
  5
C
330
0
100
AcDbDictionary
281
     1
  3
ACAD_DETAILVIEWSTYLE
350
1FD
  3
ACAD_GROUP
350
D
  3
ACAD_LAYOUT
350
1A
  3
ACAD_MATERIAL
350
43
  3
ACAD_MLEADERSTYLE
350
6B
  3
ACAD_MLINESTYLE
350
17
  3
ACAD_PLOTSETTINGS
350
19
  3
ACAD_PLOTSTYLENAME
350
E
  3
ACAD_SCALELIST
350
47
  3
ACAD_SECTIONVIEWSTYLE
350
1FE
  3
ACAD_TABLESTYLE
350
69
  3
ACAD_VISUALSTYLE
350
2A
  3
ACDB_RECOMPOSE_DATA
350
1FA
  3
AcDbVariableDictionary
350
1F6
  0
SUN
  5
6D
330
29
100
AcDbSun
 90
        1
290
     0
 63
     7
421
 16777215
 40
1.0
291
     1
 91
  2455826
 92
 54000000
292
     0
 70
     2
 71
   256
280
     1
  0
DICTIONARY
  5
1FD
102
{ACAD_REACTORS
330
C
102
}
330
C
100
AcDbDictionary
281
     1
  0
DICTIONARY
  5
D
102
{ACAD_REACTORS
330
C
102
}
330
C
100
AcDbDictionary
281
     1
  0
DICTIONARY
  5
1A
102
{ACAD_REACTORS
330
C
102
}
330
C
100
AcDbDictionary
281
     1
  3
Layout1
350
1E
  3
Layout2
350
26
  3
Model
350
22
  0
DICTIONARY
  5
43
102
{ACAD_REACTORS
330
C
102
}
330
C
100
AcDbDictionary
281
     1
  3
ByBlock
350
45
  3
ByLayer
350
44
  3
Global
350
46
  0
DICTIONARY
  5
6B
102
{ACAD_REACTORS
330
C
102
}
330
C
100
AcDbDictionary
281
     1
  3
Standard
350
6C
  0
DICTIONARY
  5
17
102
{ACAD_REACTORS
330
C
102
}
330
C
100
AcDbDictionary
281
     1
  3
Standard
350
18
  0
DICTIONARY
  5
19
102
{ACAD_REACTORS
330
C
102
}
330
C
100
AcDbDictionary
281
     1
  0
ACDBDICTIONARYWDFLT
  5
E
102
{ACAD_REACTORS
330
C
102
}
330
C
100
AcDbDictionary
281
     1
  3
Normal
350
F
100
AcDbDictionaryWithDefault
340
F
  0
DICTIONARY
  5
47
102
{ACAD_REACTORS
330
C
102
}
330
C
100
AcDbDictionary
281
     1
  3
A0
350
48
  3
A1
350
49
  3
A2
350
4A
  3
A3
350
4B
  3
A4
350
4C
  3
A5
350
4D
  3
A6
350
4E
  3
A7
350
4F
  3
A8
350
50
  3
A9
350
51
  3
B0
350
52
  3
B1
350
53
  3
B2
350
54
  3
B3
350
55
  3
B4
350
56
  3
B5
350
57
  3
B6
350
58
  3
B7
350
59
  3
B8
350
5A
  3
B9
350
5B
  3
C0
350
5C
  3
C1
350
5D
  3
C2
350
5E
  3
C3
350
5F
  3
C4
350
60
  3
C5
350
61
  3
C6
350
62
  3
C7
350
63
  3
C8
350
64
  3
C9
350
65
  3
D0
350
66
  3
D1
350
67
  3
D2
350
68
  0
DICTIONARY
  5
1FE
102
{ACAD_REACTORS
330
C
102
}
330
C
100
AcDbDictionary
281
     1
  0
DICTIONARY
  5
69
102
{ACAD_REACTORS
330
C
102
}
330
C
100
AcDbDictionary
281
     1
  3
Standard
350
6A
  0
DICTIONARY
  5
2A
102
{ACAD_REACTORS
330
C
102
}
330
C
100
AcDbDictionary
281
     1
  3
2dWireframe
350
2F
  3
Basic
350
32
  3
Brighten
350
36
  3
ColorChange
350
3A
  3
Conceptual
350
34
  3
Dim
350
35
  3
EdgeColorOff
350
3D
  3
Facepattern
350
39
  3
Flat
350
2B
  3
FlatWithEdges
350
2C
  3
Gouraud
350
2D
  3
GouraudWithEdges
350
2E
  3
Hidden
350
31
  3
JitterOff
350
3B
  3
Linepattern
350
38
  3
OverhangOff
350
3C
  3
Realistic
350
33
  3
Shaded
350
42
  3
Shaded with edges
350
41
  3
Shades of Gray
350
3E
  3
Sketchy
350
3F
  3
Thicken
350
37
  3
Wireframe
350
30
  3
X-Ray
350
40
  0
XRECORD
  5
1FA
102
{ACAD_REACTORS
330
C
102
}
330
C
100
AcDbXrecord
280
     1
 90
        1
330
6A
  0
DICTIONARY
  5
1F6
102
{ACAD_REACTORS
330
C
102
}
330
C
100
AcDbDictionary
281
     1
  3
CANNOSCALE
350
1F7
  3
CMLEADERSTYLE
350
1FC
  3
CTABLESTYLE
350
1FB
  0
LAYOUT
  5
1E
102
{ACAD_REACTORS
330
1A
102
}
330
1A
100
AcDbPlotSettings
  1

  2
none_device
  4

  6

 40
0.0
 41
0.0
 42
0.0
 43
0.0
 44
0.0
 45
0.0
 46
0.0
 47
0.0
 48
0.0
 49
0.0
140
0.0
141
0.0
142
1.0
143
1.0
 70
   688
 72
     0
 73
     0
 74
     5
  7

 75
    16
 76
     0
 77
     2
 78
   300
147
1.0
148
0.0
149
0.0
100
AcDbLayout
  1
Layout1
 70
     1
 71
     1
 10
0.0
 20
0.0
 11
12.0
 21
9.0
 12
0.0
 22
0.0
 32
0.0
 14
1.000000000000000E+20
 24
1.000000000000000E+20
 34
1.000000000000000E+20
 15
-1.000000000000000E+20
 25
-1.000000000000000E+20
 35
-1.000000000000000E+20
146
0.0
 13
0.0
 23
0.0
 33
0.0
 16
1.0
 26
0.0
 36
0.0
 17
0.0
 27
1.0
 37
0.0
 76
     0
330
1B
  0
LAYOUT
  5
26
102
{ACAD_REACTORS
330
1A
102
}
330
1A
100
AcDbPlotSettings
  1

  2
none_device
  4

  6

 40
0.0
 41
0.0
 42
0.0
 43
0.0
 44
0.0
 45
0.0
 46
0.0
 47
0.0
 48
0.0
 49
0.0
140
0.0
141
0.0
142
1.0
143
1.0
 70
   688
 72
     0
 73
     0
 74
     5
  7

 75
    16
 76
     0
 77
     2
 78
   300
147
1.0
148
0.0
149
0.0
100
AcDbLayout
  1
Layout2
 70
     1
 71
     2
 10
0.0
 20
0.0
 11
0.0
 21
0.0
 12
0.0
 22
0.0
 32
0.0
 14
0.0
 24
0.0
 34
0.0
 15
0.0
 25
0.0
 35
0.0
146
0.0
 13
0.0
 23
0.0
 33
0.0
 16
1.0
 26
0.0
 36
0.0
 17
0.0
 27
1.0
 37
0.0
 76
     0
330
23
  0
LAYOUT
  5
22
102
{ACAD_REACTORS
330
1A
102
}
330
1A
100
AcDbPlotSettings
  1

  2
none_device
  4
Letter_(8.50_x_11.00_Inches)
  6

 40
6.35
 41
6.35
 42
6.35000508
 43
6.35000508
 44
215.9
 45
279.4
 46
0.0
 47
0.0
 48
0.0
 49
0.0
140
0.0
141
0.0
142
1.0
143
1.0
 70
  1712
 72
     0
 73
     0
 74
     0
  7

 75
     0
 76
     0
 77
     2
 78
   300
147
1.0
148
0.0
149
0.0
100
AcDbLayout
  1
Model
 70
     1
 71
     0
 10
0.0
 20
0.0
 11
12.0
 21
9.0
 12
0.0
 22
0.0
 32
0.0
 14
1.000000000000000E+20
 24
1.000000000000000E+20
 34
1.000000000000000E+20
 15
-1.000000000000000E+20
 25
-1.000000000000000E+20
 35
-1.000000000000000E+20
146
0.0
 13
0.0
 23
0.0
 33
0.0
 16
1.0
 26
0.0
 36
0.0
 17
0.0
 27
1.0
 37
0.0
 76
     0
330
1F
331
29
  0
MATERIAL
  5
45
102
{ACAD_REACTORS
330
43
102
}
330
43
100
AcDbMaterial
  1
ByBlock
 72
     1
 94
      127
  0
MATERIAL
  5
44
102
{ACAD_REACTORS
330
43
102
}
330
43
100
AcDbMaterial
  1
ByLayer
 72
     1
 94
      127
  0
MATERIAL
  5
46
102
{ACAD_REACTORS
330
43
102
}
330
43
100
AcDbMaterial
  1
Global
 72
     1
 94
      127
  0
MLEADERSTYLE
  5
6C
102
{ACAD_REACTORS
330
6B
102
}
330
6B
100
AcDbMLeaderStyle
179
     2
170
     2
171
     1
172
     0
 90
        2
 40
0.0
 41
0.0
173
     1
 91
-1056964608
340
14
 92
       -2
290
     1
 42
0.09
291
     1
 43
0.36
  3
Standard
341
0
 44
0.18
300

342
11
174
     1
178
     6
175
     1
176
     0
 93
-1056964608
 45
0.18
292
     0
297
     0
 46
0.18
343
0
 94
-1056964608
 47
1.0
 49
1.0
140
1.0
293
     1
141
0.0
294
     1
177
     0
142
1.0
295
     0
296
     0
143
0.125
271
     0
272
     9
273
     9
298
     0
  0
MLINESTYLE
  5
18
102
{ACAD_REACTORS
330
17
102
}
330
17
100
AcDbMlineStyle
  2
Standard
 70
     0
  3

 62
   256
 51
90.0
 52
90.0
 71
     2
 49
0.5
 62
   256
  6
BYLAYER
 49
-0.5
 62
   256
  6
BYLAYER
  0
ACDBPLACEHOLDER
  5
F
102
{ACAD_REACTORS
330
E
102
}
330
E
  0
SCALE
  5
48
102
{ACAD_REACTORS
330
47
102
}
330
47
100
AcDbScale
 70
     0
300
1:1
140
1.0
141
1.0
290
     1
  0
SCALE
  5
49
102
{ACAD_REACTORS
330
47
102
}
330
47
100
AcDbScale
 70
     0
300
1:2
140
1.0
141
2.0
290
     0
  0
SCALE
  5
4A
102
{ACAD_REACTORS
330
47
102
}
330
47
100
AcDbScale
 70
     0
300
1:4
140
1.0
141
4.0
290
     0
  0
SCALE
  5
4B
102
{ACAD_REACTORS
330
47
102
}
330
47
100
AcDbScale
 70
     0
300
1:5
140
1.0
141
5.0
290
     0
  0
SCALE
  5
4C
102
{ACAD_REACTORS
330
47
102
}
330
47
100
AcDbScale
 70
     0
300
1:8
140
1.0
141
8.0
290
     0
  0
SCALE
  5
4D
102
{ACAD_REACTORS
330
47
102
}
330
47
100
AcDbScale
 70
     0
300
1:10
140
1.0
141
10.0
290
     0
  0
SCALE
  5
4E
102
{ACAD_REACTORS
330
47
102
}
330
47
100
AcDbScale
 70
     0
300
1:16
140
1.0
141
16.0
290
     0
  0
SCALE
  5
4F
102
{ACAD_REACTORS
330
47
102
}
330
47
100
AcDbScale
 70
     0
300
1:20
140
1.0
141
20.0
290
     0
  0
SCALE
  5
50
102
{ACAD_REACTORS
330
47
102
}
330
47
100
AcDbScale
 70
     0
300
1:30
140
1.0
141
30.0
290
     0
  0
SCALE
  5
51
102
{ACAD_REACTORS
330
47
102
}
330
47
100
AcDbScale
 70
     0
300
1:40
140
1.0
141
40.0
290
     0
  0
SCALE
  5
52
102
{ACAD_REACTORS
330
47
102
}
330
47
100
AcDbScale
 70
     0
300
1:50
140
1.0
141
50.0
290
     0
  0
SCALE
  5
53
102
{ACAD_REACTORS
330
47
102
}
330
47
100
AcDbScale
 70
     0
300
1:100
140
1.0
141
100.0
290
     0
  0
SCALE
  5
54
102
{ACAD_REACTORS
330
47
102
}
330
47
100
AcDbScale
 70
     0
300
2:1
140
2.0
141
1.0
290
     0
  0
SCALE
  5
55
102
{ACAD_REACTORS
330
47
102
}
330
47
100
AcDbScale
 70
     0
300
4:1
140
4.0
141
1.0
290
     0
  0
SCALE
  5
56
102
{ACAD_REACTORS
330
47
102
}
330
47
100
AcDbScale
 70
     0
300
8:1
140
8.0
141
1.0
290
     0
  0
SCALE
  5
57
102
{ACAD_REACTORS
330
47
102
}
330
47
100
AcDbScale
 70
     0
300
10:1
140
10.0
141
1.0
290
     0
  0
SCALE
  5
58
102
{ACAD_REACTORS
330
47
102
}
330
47
100
AcDbScale
 70
     0
300
100:1
140
100.0
141
1.0
290
     0
  0
SCALE
  5
59
102
{ACAD_REACTORS
330
47
102
}
330
47
100
AcDbScale
 70
     0
300
1/128" = 1'-0"
140
0.0078125
141
12.0
290
     0
  0
SCALE
  5
5A
102
{ACAD_REACTORS
330
47
102
}
330
47
100
AcDbScale
 70
     0
300
1/64" = 1'-0"
140
0.015625
141
12.0
290
     0
  0
SCALE
  5
5B
102
{ACAD_REACTORS
330
47
102
}
330
47
100
AcDbScale
 70
     0
300
1/32" = 1'-0"
140
0.03125
141
12.0
290
     0
  0
SCALE
  5
5C
102
{ACAD_REACTORS
330
47
102
}
330
47
100
AcDbScale
 70
     0
300
1/16" = 1'-0"
140
0.0625
141
12.0
290
     0
  0
SCALE
  5
5D
102
{ACAD_REACTORS
330
47
102
}
330
47
100
AcDbScale
 70
     0
300
3/32" = 1'-0"
140
0.09375
141
12.0
290
     0
  0
SCALE
  5
5E
102
{ACAD_REACTORS
330
47
102
}
330
47
100
AcDbScale
 70
     0
300
1/8" = 1'-0"
140
0.125
141
12.0
290
     0
  0
SCALE
  5
5F
102
{ACAD_REACTORS
330
47
102
}
330
47
100
AcDbScale
 70
     0
300
3/16" = 1'-0"
140
0.1875
141
12.0
290
     0
  0
SCALE
  5
60
102
{ACAD_REACTORS
330
47
102
}
330
47
100
AcDbScale
 70
     0
300
1/4" = 1'-0"
140
0.25
141
12.0
290
     0
  0
SCALE
  5
61
102
{ACAD_REACTORS
330
47
102
}
330
47
100
AcDbScale
 70
     0
300
3/8" = 1'-0"
140
0.375
141
12.0
290
     0
  0
SCALE
  5
62
102
{ACAD_REACTORS
330
47
102
}
330
47
100
AcDbScale
 70
     0
300
1/2" = 1'-0"
140
0.5
141
12.0
290
     0
  0
SCALE
  5
63
102
{ACAD_REACTORS
330
47
102
}
330
47
100
AcDbScale
 70
     0
300
3/4" = 1'-0"
140
0.75
141
12.0
290
     0
  0
SCALE
  5
64
102
{ACAD_REACTORS
330
47
102
}
330
47
100
AcDbScale
 70
     0
300
1" = 1'-0"
140
1.0
141
12.0
290
     0
  0
SCALE
  5
65
102
{ACAD_REACTORS
330
47
102
}
330
47
100
AcDbScale
 70
     0
300
1-1/2" = 1'-0"
140
1.5
141
12.0
290
     0
  0
SCALE
  5
66
102
{ACAD_REACTORS
330
47
102
}
330
47
100
AcDbScale
 70
     0
300
3" = 1'-0"
140
3.0
141
12.0
290
     0
  0
SCALE
  5
67
102
{ACAD_REACTORS
330
47
102
}
330
47
100
AcDbScale
 70
     0
300
6" = 1'-0"
140
6.0
141
12.0
290
     0
  0
SCALE
  5
68
102
{ACAD_REACTORS
330
47
102
}
330
47
100
AcDbScale
 70
     0
300
1'-0" = 1'-0"
140
12.0
141
12.0
290
     0
  0
TABLESTYLE
  5
6A
102
{ACAD_REACTORS
330
69
102
}
102
{ACAD_XDICTIONARY
360
1F8
102
}
330
69
100
AcDbTableStyle
  3
Standard
 70
     0
 71
     0
 40
0.06
 41
0.06
280
     0
281
     0
  7
Standard
140
0.18
170
     2
 62
     0
 63
   257
283
     0
 90
        4
 91
        0
  1

274
    -2
284
     1
 64
     0
275
    -2
285
     1
 65
     0
276
    -2
286
     1
 66
     0
277
    -2
287
     1
 67
     0
278
    -2
288
     1
 68
     0
279
    -2
289
     1
 69
     0
  7
Standard
140
0.25
170
     5
 62
     0
 63
   257
283
     0
 90
        4
 91
        0
  1

274
    -2
284
     1
 64
     0
275
    -2
285
     1
 65
     0
276
    -2
286
     1
 66
     0
277
    -2
287
     1
 67
     0
278
    -2
288
     1
 68
     0
279
    -2
289
     1
 69
     0
  7
Standard
140
0.18
170
     5
 62
     0
 63
   257
283
     0
 90
        4
 91
        0
  1

274
    -2
284
     1
 64
     0
275
    -2
285
     1
 65
     0
276
    -2
286
     1
 66
     0
277
    -2
287
     1
 67
     0
278
    -2
288
     1
 68
     0
279
    -2
289
     1
 69
     0
  0
VISUALSTYLE
  5
2F
102
{ACAD_REACTORS
330
2A
102
}
330
2A
100
AcDbVisualStyle
  2
2dWireframe
 70
     4
177
     3
291
     0
 70
    58
 90
        0
176
     1
 90
        2
176
     1
 90
        0
176
     1
 90
        0
176
     1
 40
0.6
176
     1
 40
30.0
176
     1
 62
     7
420
 16777215
176
     1
 90
        1
176
     1
 90
        4
176
     1
 62
     7
176
     1
 62
   257
176
     1
 90
        1
176
     1
 90
        1
176
     1
 40
1.0
176
     1
 90
        0
176
     1
 62
   257
176
     1
 40
1.0
176
     1
 90
        1
176
     1
 90
        6
176
     1
 90
        2
176
     1
 62
     7
176
     1
 90
        5
176
     1
 90
        0
176
     1
 90
        0
176
     1
290
     0
176
     1
 90
        1
176
     1
 40
0.0
176
     1
 90
        0
176
     1
290
     1
176
     1
290
     1
176
     1
290
     0
176
     1
290
     0
176
     1
290
     0
176
     1
290
     0
176
     1
290
     0
176
     1
290
     0
176
     1
290
     0
176
     1
 90
       50
176
     1
 40
0.0
176
     1
 40
1.0
176
     1
 90
        0
176
     1
 62
    18
420
        0
176
     1
 90
       50
176
     1
 90
        3
176
     1
 62
     5
420
      255
176
     1
290
     0
176
     1
 90
       50
176
     1
 90
       50
176
     1
 90
       50
176
     1
290
     0
176
     1
 90
       50
176
     1
 62
   256
176
     0
 40
1.0
176
     0
 90
        2
176
     1
  1
strokes_ogs.tif
176
     1
290
     0
176
     1
 40
1.0
176
     1
 40
1.0
176
     1
  0
VISUALSTYLE
  5
32
102
{ACAD_REACTORS
330
2A
102
}
330
2A
100
AcDbVisualStyle
  2
Basic
 70
     7
177
     3
291
     1
 70
    58
 90
        1
176
     1
 90
        0
176
     1
 90
        1
176
     1
 90
        0
176
     1
 40
0.6
176
     1
 40
30.0
176
     1
 62
     7
420
 16777215
176
     1
 90
        0
176
     1
 90
        4
176
     1
 62
     7
176
     1
 62
   257
176
     1
 90
        1
176
     1
 90
        1
176
     1
 40
1.0
176
     1
 90
        8
176
     1
 62
     7
176
     1
 40
1.0
176
     1
 90
        1
176
     1
 90
        6
176
     1
 90
        2
176
     1
 62
     7
176
     1
 90
        5
176
     1
 90
        0
176
     1
 90
        0
176
     1
290
     0
176
     1
 90
        1
176
     1
 40
0.0
176
     1
 90
        0
176
     1
290
     0
176
     1
290
     1
176
     1
290
     1
176
     1
290
     0
176
     1
290
     0
176
     1
290
     0
176
     1
290
     0
176
     1
290
     0
176
     1
290
     0
176
     1
 90
       50
176
     1
 40
0.0
176
     1
 40
1.0
176
     1
 90
        0
176
     1
 62
    18
420
        0
176
     1
 90
       50
176
     1
 90
        3
176
     1
 62
     5
420
      255
176
     1
290
     0
176
     1
 90
       50
176
     1
 90
       50
176
     1
 90
       50
176
     1
290
     0
176
     1
 90
       50
176
     1
 62
   256
176
     0
 40
1.0
176
     0
 90
        2
176
     1
  1
strokes_ogs.tif
176
     1
290
     0
176
     1
 40
1.0
176
     1
 40
1.0
176
     1
  0
VISUALSTYLE
  5
36
102
{ACAD_REACTORS
330
2A
102
}
330
2A
100
AcDbVisualStyle
  2
Brighten
 70
    12
177
     3
291
     1
 70
    58
 90
        2
176
     1
 90
        2
176
     1
 90
        0
176
     1
 90
        0
176
     1
 40
0.6
176
     1
 40
30.0
176
     1
 62
     7
420
 16777215
176
     1
 90
        1
176
     1
 90
        4
176
     1
 62
     7
176
     1
 62
   257
176
     1
 90
        1
176
     1
 90
        1
176
     1
 40
1.0
176
     1
 90
        8
176
     1
 62
     7
176
     1
 40
1.0
176
     1
 90
        1
176
     1
 90
        6
176
     1
 90
        2
176
     1
 62
     7
176
     1
 90
        5
176
     1
 90
        0
176
     1
 90
        0
176
     1
290
     0
176
     1
 90
        1
176
     1
 40
50.0
176
     1
 90
        0
176
     1
290
     0
176
     1
290
     1
176
     1
290
     1
176
     1
290
     0
176
     1
290
     0
176
     1
290
     0
176
     1
290
     0
176
     1
290
     0
176
     1
290
     0
176
     1
 90
       50
176
     1
 40
0.0
176
     1
 40
1.0
176
     1
 90
        0
176
     1
 62
    18
420
        0
176
     1
 90
       50
176
     1
 90
        3
176
     1
 62
     5
420
      255
176
     1
290
     0
176
     1
 90
       50
176
     1
 90
       50
176
     1
 90
       50
176
     1
290
     0
176
     1
 90
       50
176
     1
 62
   256
176
     0
 40
1.0
176
     0
 90
        2
176
     1
  1
strokes_ogs.tif
176
     1
290
     0
176
     1
 40
1.0
176
     1
 40
1.0
176
     1
  0
VISUALSTYLE
  5
3A
102
{ACAD_REACTORS
330
2A
102
}
330
2A
100
AcDbVisualStyle
  2
ColorChange
 70
    16
177
     3
291
     1
 70
    58
 90
        2
176
     1
 90
        2
176
     1
 90
        3
176
     1
 90
        0
176
     1
 40
0.6
176
     1
 40
30.0
176
     1
 62
     8
420
  8421504
176
     1
 90
        1
176
     1
 90
        4
176
     1
 62
     7
176
     1
 62
   257
176
     1
 90
        1
176
     1
 90
        1
176
     1
 40
1.0
176
     1
 90
        8
176
     1
 62
     8
420
  8421504
176
     1
 40
1.0
176
     1
 90
        1
176
     1
 90
        6
176
     1
 90
        2
176
     1
 62
     7
176
     1
 90
        5
176
     1
 90
        0
176
     1
 90
        0
176
     1
290
     0
176
     1
 90
        1
176
     1
 40
0.0
176
     1
 90
        0
176
     1
290
     0
176
     1
290
     1
176
     1
290
     1
176
     1
290
     0
176
     1
290
     0
176
     1
290
     0
176
     1
290
     0
176
     1
290
     0
176
     1
290
     0
176
     1
 90
       50
176
     1
 40
0.0
176
     1
 40
1.0
176
     1
 90
        0
176
     1
 62
    18
420
        0
176
     1
 90
       50
176
     1
 90
        3
176
     1
 62
     5
420
      255
176
     1
290
     0
176
     1
 90
       50
176
     1
 90
       50
176
     1
 90
       50
176
     1
290
     0
176
     1
 90
       50
176
     1
 62
   256
176
     0
 40
1.0
176
     0
 90
        2
176
     1
  1
strokes_ogs.tif
176
     1
290
     0
176
     1
 40
1.0
176
     1
 40
1.0
176
     1
  0
VISUALSTYLE
  5
34
102
{ACAD_REACTORS
330
2A
102
}
330
2A
100
AcDbVisualStyle
  2
Conceptual
 70
     9
177
     3
291
     0
 70
    58
 90
        3
176
     1
 90
        2
176
     1
 90
        0
176
     1
 90
        0
176
     1
 40
0.6
176
     1
 40
30.0
176
     1
 62
     7
420
 16777215
176
     1
 90
        2
176
     1
 90
        2
176
     1
 62
     7
176
     1
 62
   257
176
     1
 90
        1
176
     1
 90
        1
176
     1
 40
179.0
176
     1
 90
        8
176
     1
 62
     7
176
     1
 40
1.0
176
     1
 90
        1
176
     1
 90
        6
176
     1
 90
        2
176
     1
 62
     7
176
     1
 90
        3
176
     1
 90
        0
176
     1
 90
        0
176
     1
290
     0
176
     1
 90
        1
176
     1
 40
0.0
176
     1
 90
        0
176
     1
290
     0
176
     1
290
     1
176
     1
290
     1
176
     1
290
     0
176
     1
290
     0
176
     1
290
     0
176
     1
290
     0
176
     1
290
     0
176
     1
290
     0
176
     1
 90
       50
176
     1
 40
0.0
176
     1
 40
1.0
176
     1
 90
        0
176
     1
 62
    18
420
        0
176
     1
 90
       50
176
     1
 90
        3
176
     1
 62
     5
420
      255
176
     1
290
     0
176
     1
 90
       50
176
     1
 90
       50
176
     1
 90
       50
176
     1
290
     0
176
     1
 90
       50
176
     1
 62
   256
176
     0
 40
1.0
176
     0
 90
        2
176
     1
  1
strokes_ogs.tif
176
     1
290
     0
176
     1
 40
1.0
176
     1
 40
1.0
176
     1
  0
VISUALSTYLE
  5
35
102
{ACAD_REACTORS
330
2A
102
}
330
2A
100
AcDbVisualStyle
  2
Dim
 70
    11
177
     3
291
     1
 70
    58
 90
        2
176
     1
 90
        2
176
     1
 90
        0
176
     1
 90
        0
176
     1
 40
0.6
176
     1
 40
30.0
176
     1
 62
     7
420
 16777215
176
     1
 90
        1
176
     1
 90
        4
176
     1
 62
     7
176
     1
 62
   257
176
     1
 90
        1
176
     1
 90
        1
176
     1
 40
1.0
176
     1
 90
        8
176
     1
 62
     7
176
     1
 40
1.0
176
     1
 90
        1
176
     1
 90
        6
176
     1
 90
        2
176
     1
 62
     7
176
     1
 90
        5
176
     1
 90
        0
176
     1
 90
        0
176
     1
290
     0
176
     1
 90
        1
176
     1
 40
-50.0
176
     1
 90
        0
176
     1
290
     0
176
     1
290
     1
176
     1
290
     1
176
     1
290
     0
176
     1
290
     0
176
     1
290
     0
176
     1
290
     0
176
     1
290
     0
176
     1
290
     0
176
     1
 90
       50
176
     1
 40
0.0
176
     1
 40
1.0
176
     1
 90
        0
176
     1
 62
    18
420
        0
176
     1
 90
       50
176
     1
 90
        3
176
     1
 62
     5
420
      255
176
     1
290
     0
176
     1
 90
       50
176
     1
 90
       50
176
     1
 90
       50
176
     1
290
     0
176
     1
 90
       50
176
     1
 62
   256
176
     0
 40
1.0
176
     0
 90
        2
176
     1
  1
strokes_ogs.tif
176
     1
290
     0
176
     1
 40
1.0
176
     1
 40
1.0
176
     1
  0
VISUALSTYLE
  5
3D
102
{ACAD_REACTORS
330
2A
102
}
330
2A
100
AcDbVisualStyle
  2
EdgeColorOff
 70
    22
177
     3
291
     1
 70
    58
 90
        2
176
     0
 90
        2
176
     0
 90
        0
176
     0
 90
        0
176
     0
 40
0.6
176
     0
 40
30.0
176
     0
 62
     7
420
 16777215
176
     0
 90
        1
176
     0
 90
        4
176
     0
 62
     7
176
     0
 62
   257
176
     0
 90
        1
176
     0
 90
        1
176
     0
 40
1.0
176
     0
 90
        8
176
     2
 62
     7
176
     0
 40
1.0
176
     0
 90
        1
176
     0
 90
        6
176
     0
 90
        2
176
     0
 62
     7
176
     0
 90
        5
176
     0
 90
        0
176
     0
 90
        0
176
     0
290
     0
176
     0
 90
        1
176
     0
 40
0.0
176
     0
 90
        0
176
     0
290
     0
176
     0
290
     1
176
     0
290
     1
176
     0
290
     0
176
     0
290
     0
176
     0
290
     0
176
     0
290
     0
176
     0
290
     0
176
     0
290
     0
176
     0
 90
       50
176
     0
 40
0.0
176
     0
 40
1.0
176
     0
 90
        0
176
     0
 62
    18
420
        0
176
     0
 90
       50
176
     0
 90
        3
176
     0
 62
     5
420
      255
176
     0
290
     0
176
     0
 90
       50
176
     0
 90
       50
176
     0
 90
       50
176
     0
290
     0
176
     0
 90
       50
176
     0
 62
   256
176
     0
 40
1.0
176
     0
 90
        2
176
     0
  1
strokes_ogs.tif
176
     0
290
     0
176
     0
 40
1.0
176
     0
 40
1.0
176
     0
  0
VISUALSTYLE
  5
39
102
{ACAD_REACTORS
330
2A
102
}
330
2A
100
AcDbVisualStyle
  2
Facepattern
 70
    15
177
     3
291
     1
 70
    58
 90
        2
176
     1
 90
        2
176
     1
 90
        0
176
     1
 90
        0
176
     1
 40
0.6
176
     1
 40
30.0
176
     1
 62
     7
420
 16777215
176
     1
 90
        1
176
     1
 90
        4
176
     1
 62
     7
176
     1
 62
   257
176
     1
 90
        1
176
     1
 90
        1
176
     1
 40
1.0
176
     1
 90
        8
176
     1
 62
     7
176
     1
 40
1.0
176
     1
 90
        1
176
     1
 90
        6
176
     1
 90
        2
176
     1
 62
     7
176
     1
 90
        5
176
     1
 90
        0
176
     1
 90
        0
176
     1
290
     0
176
     1
 90
        1
176
     1
 40
0.0
176
     1
 90
        0
176
     1
290
     0
176
     1
290
     1
176
     1
290
     1
176
     1
290
     0
176
     1
290
     0
176
     1
290
     0
176
     1
290
     0
176
     1
290
     0
176
     1
290
     0
176
     1
 90
       50
176
     1
 40
0.0
176
     1
 40
1.0
176
     1
 90
        0
176
     1
 62
    18
420
        0
176
     1
 90
       50
176
     1
 90
        3
176
     1
 62
     5
420
      255
176
     1
290
     0
176
     1
 90
       50
176
     1
 90
       50
176
     1
 90
       50
176
     1
290
     0
176
     1
 90
       50
176
     1
 62
   256
176
     0
 40
1.0
176
     0
 90
        2
176
     1
  1
strokes_ogs.tif
176
     1
290
     0
176
     1
 40
1.0
176
     1
 40
1.0
176
     1
  0
VISUALSTYLE
  5
2B
102
{ACAD_REACTORS
330
2A
102
}
330
2A
100
AcDbVisualStyle
  2
Flat
 70
     0
177
     3
291
     1
 70
    58
 90
        2
176
     1
 90
        1
176
     1
 90
        1
176
     1
 90
        2
176
     1
 40
0.6
176
     1
 40
30.0
176
     1
 62
     7
420
 16777215
176
     1
 90
        0
176
     1
 90
        0
176
     1
 62
     7
176
     1
 62
   257
176
     1
 90
        1
176
     1
 90
        1
176
     1
 40
1.0
176
     1
 90
        8
176
     1
 62
     7
176
     1
 40
1.0
176
     1
 90
        1
176
     1
 90
        6
176
     1
 90
        2
176
     1
 62
     7
176
     1
 90
        5
176
     1
 90
        0
176
     1
 90
        0
176
     1
290
     0
176
     1
 90
       13
176
     1
 40
0.0
176
     1
 90
        0
176
     1
290
     0
176
     1
290
     1
176
     1
290
     1
176
     1
290
     0
176
     1
290
     0
176
     1
290
     0
176
     1
290
     0
176
     1
290
     0
176
     1
290
     0
176
     1
 90
       50
176
     1
 40
0.0
176
     1
 40
1.0
176
     1
 90
        0
176
     1
 62
    18
420
        0
176
     1
 90
       50
176
     1
 90
        3
176
     1
 62
     5
420
      255
176
     1
290
     0
176
     1
 90
       50
176
     1
 90
       50
176
     1
 90
       50
176
     1
290
     0
176
     1
 90
       50
176
     1
 62
   256
176
     0
 40
1.0
176
     0
 90
        2
176
     1
  1
strokes_ogs.tif
176
     1
290
     0
176
     1
 40
1.0
176
     1
 40
1.0
176
     1
  0
VISUALSTYLE
  5
2C
102
{ACAD_REACTORS
330
2A
102
}
330
2A
100
AcDbVisualStyle
  2
FlatWithEdges
 70
     1
177
     3
291
     1
 70
    58
 90
        2
176
     1
 90
        1
176
     1
 90
        1
176
     1
 90
        2
176
     1
 40
0.6
176
     1
 40
30.0
176
     1
 62
     7
420
 16777215
176
     1
 90
        1
176
     1
 90
        0
176
     1
 62
     7
176
     1
 62
   257
176
     1
 90
        1
176
     1
 90
        1
176
     1
 40
1.0
176
     1
 90
        0
176
     1
 62
   257
176
     1
 40
1.0
176
     1
 90
        1
176
     1
 90
        6
176
     1
 90
        2
176
     1
 62
     7
176
     1
 90
        5
176
     1
 90
        0
176
     1
 90
        0
176
     1
290
     0
176
     1
 90
       13
176
     1
 40
0.0
176
     1
 90
        0
176
     1
290
     0
176
     1
290
     1
176
     1
290
     1
176
     1
290
     0
176
     1
290
     0
176
     1
290
     0
176
     1
290
     0
176
     1
290
     0
176
     1
290
     0
176
     1
 90
       50
176
     1
 40
0.0
176
     1
 40
1.0
176
     1
 90
        0
176
     1
 62
    18
420
        0
176
     1
 90
       50
176
     1
 90
        3
176
     1
 62
     5
420
      255
176
     1
290
     0
176
     1
 90
       50
176
     1
 90
       50
176
     1
 90
       50
176
     1
290
     0
176
     1
 90
       50
176
     1
 62
   256
176
     0
 40
1.0
176
     0
 90
        2
176
     1
  1
strokes_ogs.tif
176
     1
290
     0
176
     1
 40
1.0
176
     1
 40
1.0
176
     1
  0
VISUALSTYLE
  5
2D
102
{ACAD_REACTORS
330
2A
102
}
330
2A
100
AcDbVisualStyle
  2
Gouraud
 70
     2
177
     3
291
     1
 70
    58
 90
        2
176
     1
 90
        2
176
     1
 90
        1
176
     1
 90
        2
176
     1
 40
0.6
176
     1
 40
30.0
176
     1
 62
     7
420
 16777215
176
     1
 90
        0
176
     1
 90
        0
176
     1
 62
     7
176
     1
 62
   257
176
     1
 90
        1
176
     1
 90
        1
176
     1
 40
1.0
176
     1
 90
        0
176
     1
 62
     7
176
     1
 40
1.0
176
     1
 90
        1
176
     1
 90
        6
176
     1
 90
        2
176
     1
 62
     7
176
     1
 90
        5
176
     1
 90
        0
176
     1
 90
        0
176
     1
290
     0
176
     1
 90
       13
176
     1
 40
0.0
176
     1
 90
        0
176
     1
290
     0
176
     1
290
     1
176
     1
290
     1
176
     1
290
     0
176
     1
290
     0
176
     1
290
     0
176
     1
290
     0
176
     1
290
     0
176
     1
290
     0
176
     1
 90
       50
176
     1
 40
0.0
176
     1
 40
1.0
176
     1
 90
        0
176
     1
 62
    18
420
        0
176
     1
 90
       50
176
     1
 90
        3
176
     1
 62
     5
420
      255
176
     1
290
     0
176
     1
 90
       50
176
     1
 90
       50
176
     1
 90
       50
176
     1
290
     0
176
     1
 90
       50
176
     1
 62
   256
176
     0
 40
1.0
176
     0
 90
        2
176
     1
  1
strokes_ogs.tif
176
     1
290
     0
176
     1
 40
1.0
176
     1
 40
1.0
176
     1
  0
VISUALSTYLE
  5
2E
102
{ACAD_REACTORS
330
2A
102
}
330
2A
100
AcDbVisualStyle
  2
GouraudWithEdges
 70
     3
177
     3
291
     1
 70
    58
 90
        2
176
     1
 90
        2
176
     1
 90
        1
176
     1
 90
        2
176
     1
 40
0.6
176
     1
 40
30.0
176
     1
 62
     7
420
 16777215
176
     1
 90
        1
176
     1
 90
        0
176
     1
 62
     7
176
     1
 62
   257
176
     1
 90
        1
176
     1
 90
        1
176
     1
 40
1.0
176
     1
 90
        0
176
     1
 62
   257
176
     1
 40
1.0
176
     1
 90
        1
176
     1
 90
        6
176
     1
 90
        2
176
     1
 62
     7
176
     1
 90
        5
176
     1
 90
        0
176
     1
 90
        0
176
     1
290
     0
176
     1
 90
       13
176
     1
 40
0.0
176
     1
 90
        0
176
     1
290
     0
176
     1
290
     1
176
     1
290
     1
176
     1
290
     0
176
     1
290
     0
176
     1
290
     0
176
     1
290
     0
176
     1
290
     0
176
     1
290
     0
176
     1
 90
       50
176
     1
 40
0.0
176
     1
 40
1.0
176
     1
 90
        0
176
     1
 62
    18
420
        0
176
     1
 90
       50
176
     1
 90
        3
176
     1
 62
     5
420
      255
176
     1
290
     0
176
     1
 90
       50
176
     1
 90
       50
176
     1
 90
       50
176
     1
290
     0
176
     1
 90
       50
176
     1
 62
   256
176
     0
 40
1.0
176
     0
 90
        2
176
     1
  1
strokes_ogs.tif
176
     1
290
     0
176
     1
 40
1.0
176
     1
 40
1.0
176
     1
  0
VISUALSTYLE
  5
31
102
{ACAD_REACTORS
330
2A
102
}
330
2A
100
AcDbVisualStyle
  2
Hidden
 70
     6
177
     3
291
     0
 70
    58
 90
        1
176
     1
 90
        2
176
     1
 90
        2
176
     1
 90
        0
176
     1
 40
0.6
176
     1
 40
30.0
176
     1
 62
     7
420
 16777215
176
     1
 90
        2
176
     1
 90
        2
176
     1
 62
     7
176
     1
 62
   257
176
     1
 90
        2
176
     1
 90
        1
176
     1
 40
40.0
176
     1
 90
        0
176
     1
 62
   257
176
     1
 40
1.0
176
     1
 90
        1
176
     1
 90
        6
176
     1
 90
        2
176
     1
 62
     7
176
     1
 90
        3
176
     1
 90
        0
176
     1
 90
        0
176
     1
290
     0
176
     1
 90
        1
176
     1
 40
0.0
176
     1
 90
        0
176
     1
290
     0
176
     1
290
     1
176
     1
290
     1
176
     1
290
     0
176
     1
290
     0
176
     1
290
     0
176
     1
290
     0
176
     1
290
     0
176
     1
290
     0
176
     1
 90
       50
176
     1
 40
0.0
176
     1
 40
1.0
176
     1
 90
        0
176
     1
 62
    18
420
        0
176
     1
 90
       50
176
     1
 90
        3
176
     1
 62
     5
420
      255
176
     1
290
     0
176
     1
 90
       50
176
     1
 90
       50
176
     1
 90
       50
176
     1
290
     0
176
     1
 90
       50
176
     1
 62
   256
176
     0
 40
1.0
176
     0
 90
        2
176
     1
  1
strokes_ogs.tif
176
     1
290
     0
176
     1
 40
1.0
176
     1
 40
1.0
176
     1
  0
VISUALSTYLE
  5
3B
102
{ACAD_REACTORS
330
2A
102
}
330
2A
100
AcDbVisualStyle
  2
JitterOff
 70
    20
177
     3
291
     1
 70
    58
 90
        2
176
     0
 90
        2
176
     0
 90
        0
176
     0
 90
        0
176
     0
 40
0.6
176
     0
 40
30.0
176
     0
 62
     7
420
 16777215
176
     0
 90
        1
176
     0
 90
        4
176
     0
 62
     7
176
     0
 62
   257
176
     0
 90
        1
176
     0
 90
        1
176
     0
 40
1.0
176
     0
 90
       10
176
     2
 62
     7
176
     0
 40
1.0
176
     0
 90
        1
176
     0
 90
        6
176
     0
 90
        2
176
     0
 62
     7
176
     0
 90
        5
176
     0
 90
        0
176
     0
 90
        0
176
     0
290
     0
176
     0
 90
        1
176
     0
 40
0.0
176
     0
 90
        0
176
     0
290
     0
176
     0
290
     1
176
     0
290
     1
176
     0
290
     0
176
     0
290
     0
176
     0
290
     0
176
     0
290
     0
176
     0
290
     0
176
     0
290
     0
176
     0
 90
       50
176
     0
 40
0.0
176
     0
 40
1.0
176
     0
 90
        0
176
     0
 62
    18
420
        0
176
     0
 90
       50
176
     0
 90
        3
176
     0
 62
     5
420
      255
176
     0
290
     0
176
     0
 90
       50
176
     0
 90
       50
176
     0
 90
       50
176
     0
290
     0
176
     0
 90
       50
176
     0
 62
   256
176
     0
 40
1.0
176
     0
 90
        2
176
     0
  1
strokes_ogs.tif
176
     0
290
     0
176
     0
 40
1.0
176
     0
 40
1.0
176
     0
  0
VISUALSTYLE
  5
38
102
{ACAD_REACTORS
330
2A
102
}
330
2A
100
AcDbVisualStyle
  2
Linepattern
 70
    14
177
     3
291
     1
 70
    58
 90
        2
176
     1
 90
        2
176
     1
 90
        0
176
     1
 90
        0
176
     1
 40
0.6
176
     1
 40
30.0
176
     1
 62
     7
420
 16777215
176
     1
 90
        1
176
     1
 90
        4
176
     1
 62
     7
176
     1
 62
   257
176
     1
 90
        7
176
     1
 90
        7
176
     1
 40
1.0
176
     1
 90
        8
176
     1
 62
     7
176
     1
 40
1.0
176
     1
 90
        1
176
     1
 90
        6
176
     1
 90
        2
176
     1
 62
     7
176
     1
 90
        5
176
     1
 90
        0
176
     1
 90
        0
176
     1
290
     0
176
     1
 90
        1
176
     1
 40
0.0
176
     1
 90
        0
176
     1
290
     0
176
     1
290
     1
176
     1
290
     1
176
     1
290
     0
176
     1
290
     0
176
     1
290
     0
176
     1
290
     0
176
     1
290
     0
176
     1
290
     0
176
     1
 90
       50
176
     1
 40
0.0
176
     1
 40
1.0
176
     1
 90
        0
176
     1
 62
    18
420
        0
176
     1
 90
       50
176
     1
 90
        3
176
     1
 62
     5
420
      255
176
     1
290
     0
176
     1
 90
       50
176
     1
 90
       50
176
     1
 90
       50
176
     1
290
     0
176
     1
 90
       50
176
     1
 62
   256
176
     0
 40
1.0
176
     0
 90
        2
176
     1
  1
strokes_ogs.tif
176
     1
290
     0
176
     1
 40
1.0
176
     1
 40
1.0
176
     1
  0
VISUALSTYLE
  5
3C
102
{ACAD_REACTORS
330
2A
102
}
330
2A
100
AcDbVisualStyle
  2
OverhangOff
 70
    21
177
     3
291
     1
 70
    58
 90
        2
176
     0
 90
        2
176
     0
 90
        0
176
     0
 90
        0
176
     0
 40
0.6
176
     0
 40
30.0
176
     0
 62
     7
420
 16777215
176
     0
 90
        1
176
     0
 90
        4
176
     0
 62
     7
176
     0
 62
   257
176
     0
 90
        1
176
     0
 90
        1
176
     0
 40
1.0
176
     0
 90
        9
176
     2
 62
     7
176
     0
 40
1.0
176
     0
 90
        1
176
     0
 90
        6
176
     0
 90
        2
176
     0
 62
     7
176
     0
 90
        5
176
     0
 90
        0
176
     0
 90
        0
176
     0
290
     0
176
     0
 90
        1
176
     0
 40
0.0
176
     0
 90
        0
176
     0
290
     0
176
     0
290
     1
176
     0
290
     1
176
     0
290
     0
176
     0
290
     0
176
     0
290
     0
176
     0
290
     0
176
     0
290
     0
176
     0
290
     0
176
     0
 90
       50
176
     0
 40
0.0
176
     0
 40
1.0
176
     0
 90
        0
176
     0
 62
    18
420
        0
176
     0
 90
       50
176
     0
 90
        3
176
     0
 62
     5
420
      255
176
     0
290
     0
176
     0
 90
       50
176
     0
 90
       50
176
     0
 90
       50
176
     0
290
     0
176
     0
 90
       50
176
     0
 62
   256
176
     0
 40
1.0
176
     0
 90
        2
176
     0
  1
strokes_ogs.tif
176
     0
290
     0
176
     0
 40
1.0
176
     0
 40
1.0
176
     0
  0
VISUALSTYLE
  5
33
102
{ACAD_REACTORS
330
2A
102
}
330
2A
100
AcDbVisualStyle
  2
Realistic
 70
     8
177
     3
291
     0
 70
    58
 90
        2
176
     1
 90
        3
176
     1
 90
        0
176
     1
 90
        2
176
     1
 40
0.6
176
     1
 40
30.0
176
     1
 62
     7
420
 16777215
176
     1
 90
        0
176
     1
 90
        0
176
     1
 62
     7
176
     1
 62
   257
176
     1
 90
        1
176
     1
 90
        1
176
     1
 40
1.0
176
     1
 90
        8
176
     1
 62
   257
176
     1
 40
1.0
176
     1
 90
        1
176
     1
 90
        6
176
     1
 90
        2
176
     1
 62
     7
176
     1
 90
        3
176
     1
 90
        0
176
     1
 90
        0
176
     1
290
     0
176
     1
 90
       13
176
     1
 40
0.0
176
     1
 90
        0
176
     1
290
     0
176
     1
290
     1
176
     1
290
     1
176
     1
290
     0
176
     1
290
     0
176
     1
290
     0
176
     1
290
     0
176
     1
290
     0
176
     1
290
     0
176
     1
 90
       50
176
     1
 40
0.0
176
     1
 40
1.0
176
     1
 90
        0
176
     1
 62
    18
420
        0
176
     1
 90
       50
176
     1
 90
        3
176
     1
 62
     5
420
      255
176
     1
290
     0
176
     1
 90
       50
176
     1
 90
       50
176
     1
 90
       50
176
     1
290
     0
176
     1
 90
       50
176
     1
 62
   256
176
     0
 40
1.0
176
     0
 90
        2
176
     1
  1
strokes_ogs.tif
176
     1
290
     0
176
     1
 40
1.0
176
     1
 40
1.0
176
     1
  0
VISUALSTYLE
  5
42
102
{ACAD_REACTORS
330
2A
102
}
330
2A
100
AcDbVisualStyle
  2
Shaded
 70
    27
177
     3
291
     0
 70
    58
 90
        2
176
     1
 90
        2
176
     1
 90
        1
176
     1
 90
        2
176
     1
 40
0.6
176
     1
 40
30.0
176
     1
 62
     7
420
 16777215
176
     1
 90
        0
176
     1
 90
        4
176
     1
 62
     7
176
     1
 62
   257
176
     1
 90
        1
176
     1
 90
        1
176
     1
 40
1.0
176
     1
 90
        8
176
     1
 62
   257
176
     1
 40
1.0
176
     1
 90
        1
176
     1
 90
        6
176
     1
 90
        2
176
     1
 62
     8
420
  7895160
176
     1
 90
        3
176
     1
 90
        0
176
     1
 90
        0
176
     1
290
     0
176
     1
 90
        5
176
     1
 40
0.0
176
     1
 90
        0
176
     1
290
     0
176
     1
290
     1
176
     1
290
     1
176
     1
290
     0
176
     1
290
     0
176
     1
290
     0
176
     1
290
     0
176
     1
290
     0
176
     1
290
     0
176
     1
 90
       50
176
     1
 40
0.0
176
     1
 40
1.0
176
     1
 90
        0
176
     1
 62
    18
420
        0
176
     1
 90
       50
176
     1
 90
        3
176
     1
 62
     5
420
      255
176
     1
290
     0
176
     1
 90
       50
176
     1
 90
       50
176
     1
 90
       50
176
     1
290
     0
176
     1
 90
       50
176
     1
 62
   256
176
     0
 40
1.0
176
     0
 90
        2
176
     1
  1
strokes_ogs.tif
176
     1
290
     0
176
     1
 40
1.0
176
     1
 40
1.0
176
     1
  0
VISUALSTYLE
  5
41
102
{ACAD_REACTORS
330
2A
102
}
330
2A
100
AcDbVisualStyle
  2
Shaded with edges
 70
    26
177
     3
291
     0
 70
    58
 90
        2
176
     1
 90
        2
176
     1
 90
        1
176
     1
 90
        2
176
     1
 40
0.6
176
     1
 40
30.0
176
     1
 62
     7
420
 16777215
176
     1
 90
        1
176
     1
 90
       10
176
     1
 62
     7
176
     1
 62
   257
176
     1
 90
        2
176
     1
 90
        1
176
     1
 40
1.0
176
     1
 90
        8
176
     1
 62
   257
176
     1
 40
1.0
176
     1
 90
        1
176
     1
 90
        6
176
     1
 90
        2
176
     1
 62
     7
176
     1
 90
        3
176
     1
 90
        0
176
     1
 90
        0
176
     1
290
     0
176
     1
 90
        5
176
     1
 40
0.0
176
     1
 90
        0
176
     1
290
     0
176
     1
290
     1
176
     1
290
     1
176
     1
290
     0
176
     1
290
     0
176
     1
290
     0
176
     1
290
     0
176
     1
290
     0
176
     1
290
     0
176
     1
 90
       50
176
     1
 40
0.0
176
     1
 40
1.0
176
     1
 90
        0
176
     1
 62
    18
420
        0
176
     1
 90
       50
176
     1
 90
        3
176
     1
 62
     5
420
      255
176
     1
290
     0
176
     1
 90
       50
176
     1
 90
       50
176
     1
 90
       50
176
     1
290
     0
176
     1
 90
       50
176
     1
 62
   256
176
     0
 40
1.0
176
     0
 90
        2
176
     1
  1
strokes_ogs.tif
176
     1
290
     0
176
     1
 40
1.0
176
     1
 40
1.0
176
     1
  0
VISUALSTYLE
  5
3E
102
{ACAD_REACTORS
330
2A
102
}
330
2A
100
AcDbVisualStyle
  2
Shades of Gray
 70
    23
177
     3
291
     0
 70
    58
 90
        2
176
     1
 90
        2
176
     1
 90
        3
176
     1
 90
        0
176
     1
 40
0.6
176
     1
 40
30.0
176
     1
 62
     7
420
 16777215
176
     1
 90
        2
176
     1
 90
        2
176
     1
 62
     7
176
     1
 62
     7
176
     1
 90
        1
176
     1
 90
        1
176
     1
 40
40.0
176
     1
 90
        8
176
     1
 62
     7
176
     1
 40
1.0
176
     1
 90
        1
176
     1
 90
        6
176
     1
 90
        2
176
     1
 62
     7
176
     1
 90
        3
176
     1
 90
        0
176
     1
 90
        0
176
     1
290
     0
176
     1
 90
        1
176
     1
 40
0.0
176
     1
 90
        0
176
     1
290
     0
176
     1
290
     1
176
     1
290
     1
176
     1
290
     0
176
     1
290
     0
176
     1
290
     0
176
     1
290
     0
176
     1
290
     0
176
     1
290
     0
176
     1
 90
       50
176
     1
 40
0.0
176
     1
 40
1.0
176
     1
 90
        0
176
     1
 62
    18
420
        0
176
     1
 90
       50
176
     1
 90
        3
176
     1
 62
     5
420
      255
176
     1
290
     0
176
     1
 90
       50
176
     1
 90
       50
176
     1
 90
       50
176
     1
290
     0
176
     1
 90
       50
176
     1
 62
   256
176
     0
 40
1.0
176
     0
 90
        2
176
     1
  1
strokes_ogs.tif
176
     1
290
     0
176
     1
 40
1.0
176
     1
 40
1.0
176
     1
  0
VISUALSTYLE
  5
3F
102
{ACAD_REACTORS
330
2A
102
}
330
2A
100
AcDbVisualStyle
  2
Sketchy
 70
    24
177
     3
291
     0
 70
    58
 90
        1
176
     1
 90
        2
176
     1
 90
        2
176
     1
 90
        0
176
     1
 40
0.6
176
     1
 40
30.0
176
     1
 62
     7
420
 16777215
176
     1
 90
        2
176
     1
 90
        2
176
     1
 62
     7
176
     1
 62
     7
176
     1
 90
        1
176
     1
 90
        1
176
     1
 40
40.0
176
     1
 90
       11
176
     1
 62
     7
176
     1
 40
1.0
176
     1
 90
        1
176
     1
 90
        6
176
     1
 90
        2
176
     1
 62
     7
176
     1
 90
        6
176
     1
 90
        0
176
     1
 90
        0
176
     1
290
     0
176
     1
 90
        1
176
     1
 40
0.0
176
     1
 90
        0
176
     1
290
     0
176
     1
290
     1
176
     1
290
     1
176
     1
290
     0
176
     1
290
     0
176
     1
290
     0
176
     1
290
     0
176
     1
290
     0
176
     1
290
     0
176
     1
 90
       50
176
     1
 40
0.0
176
     1
 40
1.0
176
     1
 90
        0
176
     1
 62
    18
420
        0
176
     1
 90
       50
176
     1
 90
        3
176
     1
 62
     5
420
      255
176
     1
290
     0
176
     1
 90
       50
176
     1
 90
       50
176
     1
 90
       50
176
     1
290
     0
176
     1
 90
       50
176
     1
 62
   256
176
     0
 40
1.0
176
     0
 90
        2
176
     1
  1
strokes_ogs.tif
176
     1
290
     0
176
     1
 40
1.0
176
     1
 40
1.0
176
     1
  0
VISUALSTYLE
  5
37
102
{ACAD_REACTORS
330
2A
102
}
330
2A
100
AcDbVisualStyle
  2
Thicken
 70
    13
177
     3
291
     1
 70
    58
 90
        2
176
     1
 90
        2
176
     1
 90
        0
176
     1
 90
        0
176
     1
 40
0.6
176
     1
 40
30.0
176
     1
 62
     7
420
 16777215
176
     1
 90
        1
176
     1
 90
        4
176
     1
 62
     7
176
     1
 62
   257
176
     1
 90
        1
176
     1
 90
        1
176
     1
 40
1.0
176
     1
 90
       12
176
     1
 62
     7
176
     1
 40
1.0
176
     1
 90
        1
176
     1
 90
        6
176
     1
 90
        2
176
     1
 62
     7
176
     1
 90
        5
176
     1
 90
        0
176
     1
 90
        0
176
     1
290
     0
176
     1
 90
        1
176
     1
 40
0.0
176
     1
 90
        0
176
     1
290
     0
176
     1
290
     1
176
     1
290
     1
176
     1
290
     0
176
     1
290
     0
176
     1
290
     0
176
     1
290
     0
176
     1
290
     0
176
     1
290
     0
176
     1
 90
       50
176
     1
 40
0.0
176
     1
 40
1.0
176
     1
 90
        0
176
     1
 62
    18
420
        0
176
     1
 90
       50
176
     1
 90
        3
176
     1
 62
     5
420
      255
176
     1
290
     0
176
     1
 90
       50
176
     1
 90
       50
176
     1
 90
       50
176
     1
290
     0
176
     1
 90
       50
176
     1
 62
   256
176
     0
 40
1.0
176
     0
 90
        2
176
     1
  1
strokes_ogs.tif
176
     1
290
     0
176
     1
 40
1.0
176
     1
 40
1.0
176
     1
  0
VISUALSTYLE
  5
30
102
{ACAD_REACTORS
330
2A
102
}
330
2A
100
AcDbVisualStyle
  2
Wireframe
 70
     5
177
     3
291
     0
 70
    58
 90
        0
176
     1
 90
        2
176
     1
 90
        0
176
     1
 90
        0
176
     1
 40
0.6
176
     1
 40
30.0
176
     1
 62
     7
420
 16777215
176
     1
 90
        1
176
     1
 90
        4
176
     1
 62
     7
176
     1
 62
   257
176
     1
 90
        1
176
     1
 90
        1
176
     1
 40
1.0
176
     1
 90
        0
176
     1
 62
   257
176
     1
 40
1.0
176
     1
 90
        1
176
     1
 90
        6
176
     1
 90
        2
176
     1
 62
     7
176
     1
 90
        3
176
     1
 90
        0
176
     1
 90
        0
176
     1
290
     0
176
     1
 90
        1
176
     1
 40
0.0
176
     1
 90
        0
176
     1
290
     0
176
     1
290
     1
176
     1
290
     1
176
     1
290
     0
176
     1
290
     0
176
     1
290
     0
176
     1
290
     0
176
     1
290
     0
176
     1
290
     0
176
     1
 90
       50
176
     1
 40
0.0
176
     1
 40
1.0
176
     1
 90
        0
176
     1
 62
    18
420
        0
176
     1
 90
       50
176
     1
 90
        3
176
     1
 62
     5
420
      255
176
     1
290
     0
176
     1
 90
       50
176
     1
 90
       50
176
     1
 90
       50
176
     1
290
     0
176
     1
 90
       50
176
     1
 62
   256
176
     0
 40
1.0
176
     0
 90
        2
176
     1
  1
strokes_ogs.tif
176
     1
290
     0
176
     1
 40
1.0
176
     1
 40
1.0
176
     1
  0
VISUALSTYLE
  5
40
102
{ACAD_REACTORS
330
2A
102
}
330
2A
100
AcDbVisualStyle
  2
X-Ray
 70
    25
177
     3
291
     0
 70
    58
 90
        2
176
     1
 90
        2
176
     1
 90
        1
176
     1
 90
        1
176
     1
 40
0.5
176
     1
 40
30.0
176
     1
 62
     7
420
 16777215
176
     1
 90
        1
176
     1
 90
        0
176
     1
 62
     7
176
     1
 62
   257
176
     1
 90
        1
176
     1
 90
        1
176
     1
 40
1.0
176
     1
 90
        8
176
     1
 62
     7
176
     1
 40
1.0
176
     1
 90
        1
176
     1
 90
        6
176
     1
 90
        2
176
     1
 62
     7
176
     1
 90
        3
176
     1
 90
        0
176
     1
 90
        0
176
     1
290
     0
176
     1
 90
       13
176
     1
 40
0.0
176
     1
 90
        0
176
     1
290
     0
176
     1
290
     1
176
     1
290
     1
176
     1
290
     0
176
     1
290
     0
176
     1
290
     0
176
     1
290
     0
176
     1
290
     0
176
     1
290
     0
176
     1
 90
       50
176
     1
 40
0.0
176
     1
 40
1.0
176
     1
 90
        0
176
     1
 62
    18
420
        0
176
     1
 90
       50
176
     1
 90
        3
176
     1
 62
     5
420
      255
176
     1
290
     0
176
     1
 90
       50
176
     1
 90
       50
176
     1
 90
       50
176
     1
290
     0
176
     1
 90
       50
176
     1
 62
   256
176
     0
 40
1.0
176
     0
 90
        2
176
     1
  1
strokes_ogs.tif
176
     1
290
     0
176
     1
 40
1.0
176
     1
 40
1.0
176
     1
  0
DICTIONARYVAR
  5
1F7
102
{ACAD_REACTORS
330
1F6
102
}
330
1F6
100
DictionaryVariables
280
     0
  1
1:1
  0
DICTIONARYVAR
  5
1FC
102
{ACAD_REACTORS
330
1F6
102
}
330
1F6
100
DictionaryVariables
280
     0
  1
Standard
  0
DICTIONARYVAR
  5
1FB
102
{ACAD_REACTORS
330
1F6
102
}
330
1F6
100
DictionaryVariables
280
     0
  1
Standard
  0
DICTIONARY
  5
1F8
330
6A
100
AcDbDictionary
280
     1
281
     1
  3
ACAD_ROUNDTRIP_2008_TABLESTYLE_CELLSTYLEMAP
360
1F9
  0
CELLSTYLEMAP
  5
1F9
102
{ACAD_REACTORS
330
1F8
102
}
330
1F8
100
AcDbCellStyleMap
 90
        3
300
CELLSTYLE
  1
TABLEFORMAT_BEGIN
 90
        5
170
     1
 91
        0
 92
    32768
 62
   257
 93
        1
300
CONTENTFORMAT
  1
CONTENTFORMAT_BEGIN
 90
        0
 91
        0
 92
        4
 93
        0
300

 40
0.0
140
1.0
 94
        5
 62
     0
340
11
144
0.25
309
CONTENTFORMAT_END
171
     1
301
MARGIN
  1
CELLMARGIN_BEGIN
 40
0.06
 40
0.06
 40
0.06
 40
0.06
 40
0.06
 40
0.06
309
CELLMARGIN_END
 94
        6
 95
        1
302
GRIDFORMAT
  1
GRIDFORMAT_BEGIN
 90
        0
 91
        1
 62
     0
 92
       -2
340
14
 93
        0
 40
0.045
309
GRIDFORMAT_END
 95
        2
302
GRIDFORMAT
  1
GRIDFORMAT_BEGIN
 90
        0
 91
        1
 62
     0
 92
       -2
340
14
 93
        0
 40
0.045
309
GRIDFORMAT_END
 95
        4
302
GRIDFORMAT
  1
GRIDFORMAT_BEGIN
 90
        0
 91
        1
 62
     0
 92
       -2
340
14
 93
        0
 40
0.045
309
GRIDFORMAT_END
 95
        8
302
GRIDFORMAT
  1
GRIDFORMAT_BEGIN
 90
        0
 91
        1
 62
     0
 92
       -2
340
14
 93
        0
 40
0.045
309
GRIDFORMAT_END
 95
       16
302
GRIDFORMAT
  1
GRIDFORMAT_BEGIN
 90
        0
 91
        1
 62
     0
 92
       -2
340
14
 93
        0
 40
0.045
309
GRIDFORMAT_END
 95
       32
302
GRIDFORMAT
  1
GRIDFORMAT_BEGIN
 90
        0
 91
        1
 62
     0
 92
       -2
340
14
 93
        0
 40
0.045
309
GRIDFORMAT_END
309
TABLEFORMAT_END
  1
CELLSTYLE_BEGIN
 90
        1
 91
        1
300
_TITLE
309
CELLSTYLE_END
300
CELLSTYLE
  1
TABLEFORMAT_BEGIN
 90
        5
170
     1
 91
        0
 92
        0
 62
   257
 93
        1
300
CONTENTFORMAT
  1
CONTENTFORMAT_BEGIN
 90
        0
 91
        0
 92
        4
 93
        0
300

 40
0.0
140
1.0
 94
        5
 62
     0
340
11
144
0.18
309
CONTENTFORMAT_END
171
     1
301
MARGIN
  1
CELLMARGIN_BEGIN
 40
0.06
 40
0.06
 40
0.06
 40
0.06
 40
0.06
 40
0.06
309
CELLMARGIN_END
 94
        6
 95
        1
302
GRIDFORMAT
  1
GRIDFORMAT_BEGIN
 90
        0
 91
        1
 62
     0
 92
       -2
340
14
 93
        0
 40
0.045
309
GRIDFORMAT_END
 95
        2
302
GRIDFORMAT
  1
GRIDFORMAT_BEGIN
 90
        0
 91
        1
 62
     0
 92
       -2
340
14
 93
        0
 40
0.045
309
GRIDFORMAT_END
 95
        4
302
GRIDFORMAT
  1
GRIDFORMAT_BEGIN
 90
        0
 91
        1
 62
     0
 92
       -2
340
14
 93
        0
 40
0.045
309
GRIDFORMAT_END
 95
        8
302
GRIDFORMAT
  1
GRIDFORMAT_BEGIN
 90
        0
 91
        1
 62
     0
 92
       -2
340
14
 93
        0
 40
0.045
309
GRIDFORMAT_END
 95
       16
302
GRIDFORMAT
  1
GRIDFORMAT_BEGIN
 90
        0
 91
        1
 62
     0
 92
       -2
340
14
 93
        0
 40
0.045
309
GRIDFORMAT_END
 95
       32
302
GRIDFORMAT
  1
GRIDFORMAT_BEGIN
 90
        0
 91
        1
 62
     0
 92
       -2
340
14
 93
        0
 40
0.045
309
GRIDFORMAT_END
309
TABLEFORMAT_END
  1
CELLSTYLE_BEGIN
 90
        2
 91
        1
300
_HEADER
309
CELLSTYLE_END
300
CELLSTYLE
  1
TABLEFORMAT_BEGIN
 90
        5
170
     1
 91
        0
 92
        0
 62
   257
 93
        1
300
CONTENTFORMAT
  1
CONTENTFORMAT_BEGIN
 90
        0
 91
        0
 92
        4
 93
        0
300

 40
0.0
140
1.0
 94
        2
 62
     0
340
11
144
0.18
309
CONTENTFORMAT_END
171
     1
301
MARGIN
  1
CELLMARGIN_BEGIN
 40
0.06
 40
0.06
 40
0.06
 40
0.06
 40
0.06
 40
0.06
309
CELLMARGIN_END
 94
        6
 95
        1
302
GRIDFORMAT
  1
GRIDFORMAT_BEGIN
 90
        0
 91
        1
 62
     0
 92
       -2
340
14
 93
        0
 40
0.045
309
GRIDFORMAT_END
 95
        2
302
GRIDFORMAT
  1
GRIDFORMAT_BEGIN
 90
        0
 91
        1
 62
     0
 92
       -2
340
14
 93
        0
 40
0.045
309
GRIDFORMAT_END
 95
        4
302
GRIDFORMAT
  1
GRIDFORMAT_BEGIN
 90
        0
 91
        1
 62
     0
 92
       -2
340
14
 93
        0
 40
0.045
309
GRIDFORMAT_END
 95
        8
302
GRIDFORMAT
  1
GRIDFORMAT_BEGIN
 90
        0
 91
        1
 62
     0
 92
       -2
340
14
 93
        0
 40
0.045
309
GRIDFORMAT_END
 95
       16
302
GRIDFORMAT
  1
GRIDFORMAT_BEGIN
 90
        0
 91
        1
 62
     0
 92
       -2
340
14
 93
        0
 40
0.045
309
GRIDFORMAT_END
 95
       32
302
GRIDFORMAT
  1
GRIDFORMAT_BEGIN
 90
        0
 91
        1
 62
     0
 92
       -2
340
14
 93
        0
 40
0.045
309
GRIDFORMAT_END
309
TABLEFORMAT_END
  1
CELLSTYLE_BEGIN
 90
        3
 91
        2
300
_DATA
309
CELLSTYLE_END
  0
ENDSEC
  0
EOF