0
SECTION
  2
HEADER
  9
$ACADVER
  1
AC1027
  9
$ACADMAINTVER
 70
     8
  9
$DWGCODEPAGE
  3
ANSI_1252
  9
$REQUIREDVERSIONS
160
                 0
  9
$COMMENTS
  1
File was created by Cadenas
  9
$CUSTOMPROPERTYTAG
  1
NN
  9
$CUSTOMPROPERTY
  1
Special Duty Pillow Block - Inch 4-Bolt Base Gray Iron Non-Expansion
  9
$CUSTOMPROPERTYTAG
  1
NT
  9
$CUSTOMPROPERTY
  1
Special Duty
  9
$CUSTOMPROPERTYTAG
  1
NB
  9
$CUSTOMPROPERTY
  1
066381
  9
$CUSTOMPROPERTYTAG
  1
NBSYN
  9
$CUSTOMPROPERTY
  1
$PN.
  9
$CUSTOMPROPERTYTAG
  1
LINA
  9
$CUSTOMPROPERTY
  1
066381
  9
$CUSTOMPROPERTYTAG
  1
SS
  9
$CUSTOMPROPERTY
  1
5-15/16
  9
$CUSTOMPROPERTYTAG
  1
PN
  9
$CUSTOMPROPERTY
  1
066381
  9
$CUSTOMPROPERTYTAG
  1
TYPE
  9
$CUSTOMPROPERTY
  1
Gray Iron Non - Expansion
  9
$CUSTOMPROPERTYTAG
  1
DESCRIPTION
  9
$CUSTOMPROPERTY
  1
P4B-SD-515
  9
$CUSTOMPROPERTYTAG
  1
WEIGHT
  9
$CUSTOMPROPERTY
  1
585
  9
$CUSTOMPROPERTYTAG
  1
A
  9
$CUSTOMPROPERTY
  1
12
  9
$CUSTOMPROPERTYTAG
  1
B
  9
$CUSTOMPROPERTY
  1
26-3/4
  9
$CUSTOMPROPERTYTAG
  1
C
  9
$CUSTOMPROPERTY
  1
9-1/4
  9
$CUSTOMPROPERTYTAG
  1
DMIN
  9
$CUSTOMPROPERTY
  1
21-3/8
  9
$CUSTOMPROPERTYTAG
  1
DMAX
  9
$CUSTOMPROPERTY
  1
23-5/8
  9
$CUSTOMPROPERTYTAG
  1
E
  9
$CUSTOMPROPERTY
  1
5
  9
$CUSTOMPROPERTYTAG
  1
F
  9
$CUSTOMPROPERTY
  1
1-1/8
  9
$CUSTOMPROPERTYTAG
  1
G
  9
$CUSTOMPROPERTY
  1
2-1/4
  9
$CUSTOMPROPERTYTAG
  1
H
  9
$CUSTOMPROPERTY
  1
5
  9
$CUSTOMPROPERTYTAG
  1
J
  9
$CUSTOMPROPERTY
  1
19
  9
$CUSTOMPROPERTYTAG
  1
L
  9
$CUSTOMPROPERTY
  1
9-1/2
  9
$CUSTOMPROPERTYTAG
  1
M
  9
$CUSTOMPROPERTY
  1
9
  9
$CUSTOMPROPERTYTAG
  1
P
  9
$CUSTOMPROPERTY
  1
17-3/8
  9
$CUSTOMPROPERTYTAG
  1
R
  9
$CUSTOMPROPERTY
  1
6
  9
$CUSTOMPROPERTYTAG
  1
S
  9
$CUSTOMPROPERTY
  1
6
  9
$CUSTOMPROPERTYTAG
  1
EXP
  9
$CUSTOMPROPERTY
  1
3/4
  9
$CUSTOMPROPERTYTAG
  1
COMPANY
  9
$CUSTOMPROPERTY
  1
baldor
  9
$INSBASE
 10
0.0
 20
0.0
 30
0.0
  9
$EXTMIN
 10
1.000000000000000E+20
 20
1.000000000000000E+20
 30
1.000000000000000E+20
  9
$EXTMAX
 10
-1.000000000000000E+20
 20
-1.000000000000000E+20
 30
-1.000000000000000E+20
  9
$LIMMIN
 10
0.0
 20
0.0
  9
$LIMMAX
 10
12.0
 20
9.0
  9
$ORTHOMODE
 70
     0
  9
$REGENMODE
 70
     1
  9
$FILLMODE
 70
     1
  9
$QTEXTMODE
 70
     0
  9
$MIRRTEXT
 70
     1
  9
$LTSCALE
 40
1.0
  9
$ATTMODE
 70
     1
  9
$TEXTSIZE
 40
0.2
  9
$TRACEWID
 40
0.05
  9
$TEXTSTYLE
  7
Standard
  9
$CLAYER
  8
0
  9
$CELTYPE
  6
ByLayer
  9
$CECOLOR
 62
   256
  9
$CELTSCALE
 40
1.0
  9
$DISPSILH
 70
     0
  9
$DIMSCALE
 40
1.0
  9
$DIMASZ
 40
0.18
  9
$DIMEXO
 40
0.0625
  9
$DIMDLI
 40
0.38
  9
$DIMRND
 40
0.0
  9
$DIMDLE
 40
0.0
  9
$DIMEXE
 40
0.18
  9
$DIMTP
 40
0.0
  9
$DIMTM
 40
0.0
  9
$DIMTXT
 40
0.18
  9
$DIMCEN
 40
0.09
  9
$DIMTSZ
 40
0.0
  9
$DIMTOL
 70
     0
  9
$DIMLIM
 70
     0
  9
$DIMTIH
 70
     1
  9
$DIMTOH
 70
     1
  9
$DIMSE1
 70
     0
  9
$DIMSE2
 70
     0
  9
$DIMTAD
 70
     0
  9
$DIMZIN
 70
     0
  9
$DIMBLK
  1

  9
$DIMASO
 70
     1
  9
$DIMSHO
 70
     1
  9
$DIMPOST
  1

  9
$DIMAPOST
  1

  9
$DIMALT
 70
     0
  9
$DIMALTD
 70
     2
  9
$DIMALTF
 40
25.4
  9
$DIMLFAC
 40
1.0
  9
$DIMTOFL
 70
     0
  9
$DIMTVP
 40
0.0
  9
$DIMTIX
 70
     0
  9
$DIMSOXD
 70
     0
  9
$DIMSAH
 70
     0
  9
$DIMBLK1
  1

  9
$DIMBLK2
  1

  9
$DIMSTYLE
  2
Standard
  9
$DIMCLRD
 70
     0
  9
$DIMCLRE
 70
     0
  9
$DIMCLRT
 70
     0
  9
$DIMTFAC
 40
1.0
  9
$DIMGAP
 40
0.09
  9
$DIMJUST
 70
     0
  9
$DIMSD1
 70
     0
  9
$DIMSD2
 70
     0
  9
$DIMTOLJ
 70
     1
  9
$DIMTZIN
 70
     0
  9
$DIMALTZ
 70
     0
  9
$DIMALTTZ
 70
     0
  9
$DIMUPT
 70
     0
  9
$DIMDEC
 70
     4
  9
$DIMTDEC
 70
     4
  9
$DIMALTU
 70
     2
  9
$DIMALTTD
 70
     2
  9
$DIMTXSTY
  7
Standard
  9
$DIMAUNIT
 70
     0
  9
$DIMADEC
 70
     0
  9
$DIMALTRND
 40
0.0
  9
$DIMAZIN
 70
     0
  9
$DIMDSEP
 70
    46
  9
$DIMATFIT
 70
     3
  9
$DIMFRAC
 70
     0
  9
$DIMLDRBLK
  1

  9
$DIMLUNIT
 70
     2
  9
$DIMLWD
 70
    -2
  9
$DIMLWE
 70
    -2
  9
$DIMTMOVE
 70
     0
  9
$DIMFXL
 40
1.0
  9
$DIMFXLON
 70
     0
  9
$DIMJOGANG
 40
0.7853981633974483
  9
$DIMTFILL
 70
     0
  9
$DIMTFILLCLR
 70
     0
  9
$DIMARCSYM
 70
     0
  9
$DIMLTYPE
  6

  9
$DIMLTEX1
  6

  9
$DIMLTEX2
  6

  9
$DIMTXTDIRECTION
 70
     0
  9
$LUNITS
 70
     2
  9
$LUPREC
 70
     4
  9
$SKETCHINC
 40
0.1
  9
$FILLETRAD
 40
0.5
  9
$AUNITS
 70
     0
  9
$AUPREC
 70
     0
  9
$MENU
  1
.
  9
$ELEVATION
 40
0.0
  9
$PELEVATION
 40
0.0
  9
$THICKNESS
 40
0.0
  9
$LIMCHECK
 70
     0
  9
$CHAMFERA
 40
0.0
  9
$CHAMFERB
 40
0.0
  9
$CHAMFERC
 40
0.0
  9
$CHAMFERD
 40
0.0
  9
$SKPOLY
 70
     0
  9
$TDCREATE
 40
2458169.000178391
  9
$TDUCREATE
 40
2458168.958511725
  9
$TDUPDATE
 40
2458169.000178576
  9
$TDUUPDATE
 40
2458168.95851191
  9
$TDINDWG
 40
0.0000000116
  9
$TDUSRTIMER
 40
0.0000000116
  9
$USRTIMER
 70
     1
  9
$ANGBASE
 50
0.0
  9
$ANGDIR
 70
     0
  9
$PDMODE
 70
     0
  9
$PDSIZE
 40
0.0
  9
$PLINEWID
 40
0.0
  9
$SPLFRAME
 70
     0
  9
$SPLINETYPE
 70
     6
  9
$SPLINESEGS
 70
     8
  9
$HANDSEED
  5
215
  9
$SURFTAB1
 70
     6
  9
$SURFTAB2
 70
     6
  9
$SURFTYPE
 70
     6
  9
$SURFU
 70
     6
  9
$SURFV
 70
     6
  9
$UCSBASE
  2

  9
$UCSNAME
  2

  9
$UCSORG
 10
0.0
 20
0.0
 30
0.0
  9
$UCSXDIR
 10
1.0
 20
0.0
 30
0.0
  9
$UCSYDIR
 10
0.0
 20
1.0
 30
0.0
  9
$UCSORTHOREF
  2

  9
$UCSORTHOVIEW
 70
     0
  9
$UCSORGTOP
 10
0.0
 20
0.0
 30
0.0
  9
$UCSORGBOTTOM
 10
0.0
 20
0.0
 30
0.0
  9
$UCSORGLEFT
 10
0.0
 20
0.0
 30
0.0
  9
$UCSORGRIGHT
 10
0.0
 20
0.0
 30
0.0
  9
$UCSORGFRONT
 10
0.0
 20
0.0
 30
0.0
  9
$UCSORGBACK
 10
0.0
 20
0.0
 30
0.0
  9
$PUCSBASE
  2

  9
$PUCSNAME
  2

  9
$PUCSORG
 10
0.0
 20
0.0
 30
0.0
  9
$PUCSXDIR
 10
1.0
 20
0.0
 30
0.0
  9
$PUCSYDIR
 10
0.0
 20
1.0
 30
0.0
  9
$PUCSORTHOREF
  2

  9
$PUCSORTHOVIEW
 70
     0
  9
$PUCSORGTOP
 10
0.0
 20
0.0
 30
0.0
  9
$PUCSORGBOTTOM
 10
0.0
 20
0.0
 30
0.0
  9
$PUCSORGLEFT
 10
0.0
 20
0.0
 30
0.0
  9
$PUCSORGRIGHT
 10
0.0
 20
0.0
 30
0.0
  9
$PUCSORGFRONT
 10
0.0
 20
0.0
 30
0.0
  9
$PUCSORGBACK
 10
0.0
 20
0.0
 30
0.0
  9
$USERI1
 70
     0
  9
$USERI2
 70
     0
  9
$USERI3
 70
     0
  9
$USERI4
 70
     0
  9
$USERI5
 70
     0
  9
$USERR1
 40
0.0
  9
$USERR2
 40
0.0
  9
$USERR3
 40
0.0
  9
$USERR4
 40
0.0
  9
$USERR5
 40
0.0
  9
$WORLDVIEW
 70
     1
  9
$SHADEDGE
 70
     3
  9
$SHADEDIF
 70
    70
  9
$TILEMODE
 70
     1
  9
$MAXACTVP
 70
    64
  9
$PINSBASE
 10
0.0
 20
0.0
 30
0.0
  9
$PLIMCHECK
 70
     0
  9
$PEXTMIN
 10
1.000000000000000E+20
 20
1.000000000000000E+20
 30
1.000000000000000E+20
  9
$PEXTMAX
 10
-1.000000000000000E+20
 20
-1.000000000000000E+20
 30
-1.000000000000000E+20
  9
$PLIMMIN
 10
0.0
 20
0.0
  9
$PLIMMAX
 10
12.0
 20
9.0
  9
$UNITMODE
 70
     0
  9
$VISRETAIN
 70
     1
  9
$PLINEGEN
 70
     0
  9
$PSLTSCALE
 70
     1
  9
$TREEDEPTH
 70
  3020
  9
$CMLSTYLE
  2
Standard
  9
$CMLJUST
 70
     0
  9
$CMLSCALE
 40
1.0
  9
$PROXYGRAPHICS
 70
     1
  9
$MEASUREMENT
 70
     0
  9
$CELWEIGHT
370
    -1
  9
$ENDCAPS
280
     0
  9
$JOINSTYLE
280
     0
  9
$LWDISPLAY
290
     0
  9
$INSUNITS
 70
     1
  9
$HYPERLINKBASE
  1

  9
$STYLESHEET
  1

  9
$XEDIT
290
     1
  9
$CEPSNTYPE
380
     0
  9
$PSTYLEMODE
290
     1
  9
$FINGERPRINTGUID
  2
{C74E212D-997C-403B-A1C6-EC4982A03F91}
  9
$VERSIONGUID
  2
{FAEB1C32-E019-11D5-929B-00C0DF256EC4}
  9
$EXTNAMES
290
     1
  9
$PSVPSCALE
 40
0.0
  9
$OLESTARTUP
290
     0
  9
$SORTENTS
280
   127
  9
$INDEXCTL
280
     0
  9
$HIDETEXT
280
     1
  9
$XCLIPFRAME
280
     2
  9
$HALOGAP
280
     0
  9
$OBSCOLOR
 70
   257
  9
$OBSLTYPE
280
     0
  9
$INTERSECTIONDISPLAY
280
     0
  9
$INTERSECTIONCOLOR
 70
   257
  9
$DIMASSOC
280
     2
  9
$PROJECTNAME
  1

  9
$CAMERADISPLAY
290
     0
  9
$LENSLENGTH
 40
50.0
  9
$CAMERAHEIGHT
 40
0.0
  9
$STEPSPERSEC
 40
2.0
  9
$STEPSIZE
 40
6.0
  9
$3DDWFPREC
 40
2.0
  9
$PSOLWIDTH
 40
0.25
  9
$PSOLHEIGHT
 40
4.0
  9
$LOFTANG1
 40
1.570796326794897
  9
$LOFTANG2
 40
1.570796326794897
  9
$LOFTMAG1
 40
0.0
  9
$LOFTMAG2
 40
0.0
  9
$LOFTPARAM
 70
     7
  9
$LOFTNORMALS
280
     1
  9
$LATITUDE
 40
37.795
  9
$LONGITUDE
 40
-122.394
  9
$NORTHDIRECTION
 40
0.0
  9
$TIMEZONE
 70
 -8000
  9
$LIGHTGLYPHDISPLAY
280
     1
  9
$TILEMODELIGHTSYNCH
280
     1
  9
$CMATERIAL
347
44
  9
$SOLIDHIST
280
     0
  9
$SHOWHIST
280
     1
  9
$DWFFRAME
280
     2
  9
$DGNFRAME
280
     2
  9
$REALWORLDSCALE
290
     1
  9
$INTERFERECOLOR
 62
   256
  9
$CSHADOW
280
     0
  9
$SHADOWPLANELOCATION
 40
0.0
  0
ENDSEC
  0
SECTION
  2
CLASSES
  0
CLASS
  1
ACDBDICTIONARYWDFLT
  2
AcDbDictionaryWithDefault
  3
ObjectDBX Classes
 90
        0
 91
        4
280
     0
281
     0
  0
CLASS
  1
VISUALSTYLE
  2
AcDbVisualStyle
  3
ObjectDBX Classes
 90
     4095
 91
        4
280
     0
281
     0
  0
CLASS
  1
MATERIAL
  2
AcDbMaterial
  3
ObjectDBX Classes
 90
     1153
 91
        4
280
     0
281
     0
  0
CLASS
  1
SCALE
  2
AcDbScale
  3
ObjectDBX Classes
 90
     1153
 91
        4
280
     0
281
     0
  0
CLASS
  1
TABLESTYLE
  2
AcDbTableStyle
  3
ObjectDBX Classes
 90
     4095
 91
        4
280
     0
281
     0
  0
CLASS
  1
MLEADERSTYLE
  2
AcDbMLeaderStyle
  3
ACDB_MLEADERSTYLE_CLASS
 90
     4095
 91
        4
280
     0
281
     0
  0
CLASS
  1
SUN
  2
AcDbSun
  3
SCENEOE
 90
     1153
 91
        4
280
     0
281
     0
  0
CLASS
  1
DICTIONARYVAR
  2
AcDbDictionaryVar
  3
ObjectDBX Classes
 90
        0
 91
        4
280
     0
281
     0
  0
CLASS
  1
CELLSTYLEMAP
  2
AcDbCellStyleMap
  3
ObjectDBX Classes
 90
     1152
 91
        4
280
     0
281
     0
  0
ENDSEC
  0
SECTION
  2
TABLES
  0
TABLE
  2
VPORT
  5
8
330
0
100
AcDbSymbolTable
 70
     1
  0
VPORT
  5
29
330
8
100
AcDbSymbolTableRecord
100
AcDbViewportTableRecord
  2
*Active
 70
     0
 10
0.0
 20
0.0
 11
1.0
 21
1.0
 12
0.0
 22
0.0
 13
0.0
 23
0.0
 14
0.5
 24
0.5
 15
0.5
 25
0.5
 16
0.0
 26
0.0
 36
1.0
 17
0.0
 27
0.0000000000000178
 37
0.0
 40
13.46400000000001
 41
2.02651515151515
 42
50.0
 43
0.0
 44
0.0
 50
0.0
 51
0.0
 71
     0
 72
   100
 73
     1
 74
     3
 75
     0
 76
     0
 77
     0
 78
     0
281
     0
 65
     1
110
0.0
120
0.0
130
0.0
111
1.0
121
0.0
131
0.0
112
0.0
122
1.0
132
0.0
 79
     0
146
0.0
348
2F
 60
     3
 61
     5
292
     1
282
     1
141
0.0
142
0.0
 63
   250
361
6D
  0
ENDTAB
  0
TABLE
  2
LTYPE
  5
5
330
0
100
AcDbSymbolTable
 70
     3
  0
LTYPE
  5
14
330
5
100
AcDbSymbolTableRecord
100
AcDbLinetypeTableRecord
  2
ByBlock
 70
     0
  3

 72
    65
 73
     0
 40
0.0
  0
LTYPE
  5
15
330
5
100
AcDbSymbolTableRecord
100
AcDbLinetypeTableRecord
  2
ByLayer
 70
     0
  3

 72
    65
 73
     0
 40
0.0
  0
LTYPE
  5
16
330
5
100
AcDbSymbolTableRecord
100
AcDbLinetypeTableRecord
  2
Continuous
 70
     0
  3
Solid line
 72
    65
 73
     0
 40
0.0
  0
LTYPE
  5
BF
330
5
100
AcDbSymbolTableRecord
100
AcDbLinetypeTableRecord
  2
Dashed
 70
     0
  3

 72
    65
 73
     2
 40
2.0
 49
1.0
 74
     0
 49
-1.0
 74
     0
  0
LTYPE
  5
103
330
5
100
AcDbSymbolTableRecord
100
AcDbLinetypeTableRecord
  2
Center
 70
     0
  3

 72
    65
 73
     4
 40
1.5
 49
0.45
 74
     0
 49
-0.5
 74
     0
 49
0.05
 74
     0
 49
-0.5
 74
     0
  0
ENDTAB
  0
TABLE
  2
LAYER
  5
2
330
0
100
AcDbSymbolTable
 70
     7
  0
LAYER
  5
10
330
2
100
AcDbSymbolTableRecord
100
AcDbLayerTableRecord
  2
0
 70
     0
 62
     7
  6
Continuous
370
    -3
390
F
347
46
348
0
  0
LAYER
  5
72
330
2
100
AcDbSymbolTableRecord
100
AcDbLayerTableRecord
  2
AM_6
 70
     0
 62
    -2
  6
Continuous
370
    35
390
F
347
46
348
0
  0
LAYER
  5
C0
330
2
100
AcDbSymbolTableRecord
100
AcDbLayerTableRecord
  2
AM_9
 70
     0
 62
     6
  6
Dashed
370
    25
390
F
347
46
348
0
  0
LAYER
  5
104
330
2
100
AcDbSymbolTableRecord
100
AcDbLayerTableRecord
  2
AM_7
 70
     0
 62
     7
  6
Center
370
    25
390
F
347
46
348
0
  0
LAYER
  5
141
330
2
100
AcDbSymbolTableRecord
100
AcDbLayerTableRecord
  2
AM_4
 70
     0
 62
     7
  6
Continuous
370
    50
390
F
347
46
348
0
  0
LAYER
  5
204
330
2
100
AcDbSymbolTableRecord
100
AcDbLayerTableRecord
  2
AM_5
 70
     0
 62
     3
  6
Continuous
370
    25
390
F
347
46
348
0
  0
LAYER
  5
209
330
2
100
AcDbSymbolTableRecord
100
AcDbLayerTableRecord
  2
ConnectionPoints
 70
     0
 62
     7
  6
Continuous
370
    50
390
F
347
46
348
0
  0
ENDTAB
  0
TABLE
  2
STYLE
  5
3
330
0
100
AcDbSymbolTable
 70
     1
  0
STYLE
  5
11
330
3
100
AcDbSymbolTableRecord
100
AcDbTextStyleTableRecord
  2
Standard
 70
     0
 40
0.0
 41
1.0
 50
0.0
 71
     0
 42
0.2
  3
txt
  4

  0
ENDTAB
  0
TABLE
  2
VIEW
  5
6
330
0
100
AcDbSymbolTable
 70
     0
  0
ENDTAB
  0
TABLE
  2
UCS
  5
7
330
0
100
AcDbSymbolTable
 70
     0
  0
ENDTAB
  0
TABLE
  2
APPID
  5
9
330
0
100
AcDbSymbolTable
 70
     1
  0
APPID
  5
12
330
9
100
AcDbSymbolTableRecord
100
AcDbRegAppTableRecord
  2
ACAD
 70
     0
  0
ENDTAB
  0
TABLE
  2
DIMSTYLE
  5
A
330
0
100
AcDbSymbolTable
 70
     1
100
AcDbDimStyleTable
  0
DIMSTYLE
105
27
330
A
100
AcDbSymbolTableRecord
100
AcDbDimStyleTableRecord
  2
Standard
 70
     0
178
     0
340
11
  0
ENDTAB
  0
TABLE
  2
BLOCK_RECORD
  5
1
330
0
100
AcDbSymbolTable
 70
     5
  0
BLOCK_RECORD
  5
1F
330
1
100
AcDbSymbolTableRecord
100
AcDbBlockTableRecord
  2
*Model_Space
340
22
 70
     0
280
     1
281
     0
  0
BLOCK_RECORD
  5
1B
330
1
100
AcDbSymbolTableRecord
100
AcDbBlockTableRecord
  2
*Paper_Space
340
1E
 70
     0
280
     1
281
     0
  0
BLOCK_RECORD
  5
23
330
1
100
AcDbSymbolTableRecord
100
AcDbBlockTableRecord
  2
*Paper_Space0
340
26
 70
     0
280
     1
281
     0
  0
BLOCK_RECORD
  5
6E
330
1
100
AcDbSymbolTableRecord
100
AcDbBlockTableRecord
  2
1_066381_4
340
0
102
{BLKREFS
331
6F
102
}
 70
     0
280
     1
281
     0
  0
BLOCK_RECORD
  5
8E
330
1
100
AcDbSymbolTableRecord
100
AcDbBlockTableRecord
  2
2_066381re_0_in_066381_4
340
0
102
{BLKREFS
331
8F
102
}
 70
     0
280
     1
281
     0
  0
BLOCK_RECORD
  5
106
330
1
100
AcDbSymbolTableRecord
100
AcDbBlockTableRecord
  2
3_066381r_0_in_066381_4
340
0
102
{BLKREFS
331
107
102
}
 70
     0
280
     1
281
     0
  0
BLOCK_RECORD
  5
14E
330
1
100
AcDbSymbolTableRecord
100
AcDbBlockTableRecord
  2
4_066381p_0_in_066381_4
340
0
102
{BLKREFS
331
14F
102
}
 70
     0
280
     1
281
     0
  0
ENDTAB
  0
ENDSEC
  0
SECTION
  2
BLOCKS
  0
BLOCK
  5
20
330
1F
100
AcDbEntity
  8
0
100
AcDbBlockBegin
  2
*Model_Space
 70
     0
 10
0.0
 20
0.0
 30
0.0
  3
*Model_Space
  1

  0
ENDBLK
  5
21
330
1F
100
AcDbEntity
  8
0
100
AcDbBlockEnd
  0
BLOCK
  5
1C
330
1B
100
AcDbEntity
 67
     1
  8
0
100
AcDbBlockBegin
  2
*Paper_Space
 70
     0
 10
0.0
 20
0.0
 30
0.0
  3
*Paper_Space
  1

  0
ENDBLK
  5
1D
330
1B
100
AcDbEntity
 67
     1
  8
0
100
AcDbBlockEnd
  0
BLOCK
  5
24
330
23
100
AcDbEntity
  8
0
100
AcDbBlockBegin
  2
*Paper_Space0
 70
     0
 10
0.0
 20
0.0
 30
0.0
  3
*Paper_Space0
  1

  0
ENDBLK
  5
25
330
23
100
AcDbEntity
  8
0
100
AcDbBlockEnd
  0
BLOCK
  5
70
330
6E
100
AcDbEntity
  8
0
100
AcDbBlockBegin
  2
1_066381_4
 70
     2
 10
0.0
 20
0.0
 30
0.0
  3
1_066381_4
  1

  0
ATTDEF
  5
73
330
6E
100
AcDbEntity
  8
AM_6
100
AcDbText
 10
18.375
 20
6.600000000000022
 30
0.0
 40
0.5
  1
Special Duty Pillow Block - Inch 4-Bolt Base Gray Iron Non-Expansion
100
AcDbAttributeDefinition
  3

  2
NN
 70
     8
280
     0
  0
ATTDEF
  5
74
330
6E
100
AcDbEntity
  8
AM_6
100
AcDbText
 10
18.375
 20
6.100000000000022
 30
0.0
 40
0.5
  1
Special Duty
100
AcDbAttributeDefinition
  3

  2
NT
 70
     8
280
     0
  0
ATTDEF
  5
75
330
6E
100
AcDbEntity
  8
AM_6
100
AcDbText
 10
18.375
 20
5.600000000000022
 30
0.0
 40
0.5
  1
066381
100
AcDbAttributeDefinition
  3

  2
NB
 70
     8
280
     0
  0
ATTDEF
  5
76
330
6E
100
AcDbEntity
  8
AM_6
100
AcDbText
 10
18.375
 20
5.100000000000022
 30
0.0
 40
0.5
  1
$PN.
100
AcDbAttributeDefinition
  3

  2
NBSYN
 70
     8
280
     0
  0
ATTDEF
  5
77
330
6E
100
AcDbEntity
  8
AM_6
100
AcDbText
 10
18.375
 20
4.600000000000022
 30
0.0
 40
0.5
  1
066381
100
AcDbAttributeDefinition
  3

  2
LINA
 70
     8
280
     0
  0
ATTDEF
  5
78
330
6E
100
AcDbEntity
  8
AM_6
100
AcDbText
 10
18.375
 20
4.100000000000022
 30
0.0
 40
0.5
  1
5-15/16
100
AcDbAttributeDefinition
  3

  2
SS
 70
     8
280
     0
  0
ATTDEF
  5
79
330
6E
100
AcDbEntity
  8
AM_6
100
AcDbText
 10
18.375
 20
3.600000000000022
 30
0.0
 40
0.5
  1
066381
100
AcDbAttributeDefinition
  3

  2
PN
 70
     8
280
     0
  0
ATTDEF
  5
7A
330
6E
100
AcDbEntity
  8
AM_6
100
AcDbText
 10
18.375
 20
3.100000000000022
 30
0.0
 40
0.5
  1
Gray Iron Non - Expansion
100
AcDbAttributeDefinition
  3

  2
TYPE
 70
     8
280
     0
  0
ATTDEF
  5
7B
330
6E
100
AcDbEntity
  8
AM_6
100
AcDbText
 10
18.375
 20
2.600000000000022
 30
0.0
 40
0.5
  1
P4B-SD-515
100
AcDbAttributeDefinition
  3

  2
DESCRIPTION
 70
     8
280
     0
  0
ATTDEF
  5
7C
330
6E
100
AcDbEntity
  8
AM_6
100
AcDbText
 10
18.375
 20
2.100000000000022
 30
0.0
 40
0.5
  1
585
100
AcDbAttributeDefinition
  3

  2
WEIGHT
 70
     8
280
     0
  0
ATTDEF
  5
7D
330
6E
100
AcDbEntity
  8
AM_6
100
AcDbText
 10
18.375
 20
1.600000000000022
 30
0.0
 40
0.5
  1
12
100
AcDbAttributeDefinition
  3

  2
A
 70
     8
280
     0
  0
ATTDEF
  5
7E
330
6E
100
AcDbEntity
  8
AM_6
100
AcDbText
 10
18.375
 20
1.100000000000022
 30
0.0
 40
0.5
  1
26-3/4
100
AcDbAttributeDefinition
  3

  2
B
 70
     8
280
     0
  0
ATTDEF
  5
7F
330
6E
100
AcDbEntity
  8
AM_6
100
AcDbText
 10
18.375
 20
0.6000000000000218
 30
0.0
 40
0.5
  1
9-1/4
100
AcDbAttributeDefinition
  3

  2
C
 70
     8
280
     0
  0
ATTDEF
  5
80
330
6E
100
AcDbEntity
  8
AM_6
100
AcDbText
 10
18.375
 20
0.1000000000000218
 30
0.0
 40
0.5
  1
21-3/8
100
AcDbAttributeDefinition
  3

  2
DMIN
 70
     8
280
     0
  0
ATTDEF
  5
81
330
6E
100
AcDbEntity
  8
AM_6
100
AcDbText
 10
18.375
 20
-0.3999999999999782
 30
0.0
 40
0.5
  1
23-5/8
100
AcDbAttributeDefinition
  3

  2
DMAX
 70
     8
280
     0
  0
ATTDEF
  5
82
330
6E
100
AcDbEntity
  8
AM_6
100
AcDbText
 10
18.375
 20
-0.8999999999999782
 30
0.0
 40
0.5
  1
5
100
AcDbAttributeDefinition
  3

  2
E
 70
     8
280
     0
  0
ATTDEF
  5
83
330
6E
100
AcDbEntity
  8
AM_6
100
AcDbText
 10
18.375
 20
-1.399999999999978
 30
0.0
 40
0.5
  1
1-1/8
100
AcDbAttributeDefinition
  3

  2
F
 70
     8
280
     0
  0
ATTDEF
  5
84
330
6E
100
AcDbEntity
  8
AM_6
100
AcDbText
 10
18.375
 20
-1.899999999999978
 30
0.0
 40
0.5
  1
2-1/4
100
AcDbAttributeDefinition
  3

  2
G
 70
     8
280
     0
  0
ATTDEF
  5
85
330
6E
100
AcDbEntity
  8
AM_6
100
AcDbText
 10
18.375
 20
-2.399999999999978
 30
0.0
 40
0.5
  1
5
100
AcDbAttributeDefinition
  3

  2
H
 70
     8
280
     0
  0
ATTDEF
  5
86
330
6E
100
AcDbEntity
  8
AM_6
100
AcDbText
 10
18.375
 20
-2.899999999999978
 30
0.0
 40
0.5
  1
19
100
AcDbAttributeDefinition
  3

  2
J
 70
     8
280
     0
  0
ATTDEF
  5
87
330
6E
100
AcDbEntity
  8
AM_6
100
AcDbText
 10
18.375
 20
-3.399999999999978
 30
0.0
 40
0.5
  1
9-1/2
100
AcDbAttributeDefinition
  3

  2
L
 70
     8
280
     0
  0
ATTDEF
  5
88
330
6E
100
AcDbEntity
  8
AM_6
100
AcDbText
 10
18.375
 20
-3.899999999999978
 30
0.0
 40
0.5
  1
9
100
AcDbAttributeDefinition
  3

  2
M
 70
     8
280
     0
  0
ATTDEF
  5
89
330
6E
100
AcDbEntity
  8
AM_6
100
AcDbText
 10
18.375
 20
-4.399999999999978
 30
0.0
 40
0.5
  1
17-3/8
100
AcDbAttributeDefinition
  3

  2
P
 70
     8
280
     0
  0
ATTDEF
  5
8A
330
6E
100
AcDbEntity
  8
AM_6
100
AcDbText
 10
18.375
 20
-4.899999999999978
 30
0.0
 40
0.5
  1
6
100
AcDbAttributeDefinition
  3

  2
R
 70
     8
280
     0
  0
ATTDEF
  5
8B
330
6E
100
AcDbEntity
  8
AM_6
100
AcDbText
 10
18.375
 20
-5.399999999999978
 30
0.0
 40
0.5
  1
6
100
AcDbAttributeDefinition
  3

  2
S
 70
     8
280
     0
  0
ATTDEF
  5
8C
330
6E
100
AcDbEntity
  8
AM_6
100
AcDbText
 10
18.375
 20
-5.899999999999978
 30
0.0
 40
0.5
  1
3/4
100
AcDbAttributeDefinition
  3

  2
EXP
 70
     8
280
     0
  0
ATTDEF
  5
8D
330
6E
100
AcDbEntity
  8
AM_6
100
AcDbText
 10
18.375
 20
-6.399999999999978
 30
0.0
 40
0.5
  1
baldor
100
AcDbAttributeDefinition
  3

  2
COMPANY
 70
     8
280
     0
  0
INSERT
  5
8F
330
6E
100
AcDbEntity
  8
0
100
AcDbBlockReference
  2
2_066381re_0_in_066381_4
 10
0.0
 20
0.0
 30
0.0
  0
INSERT
  5
107
330
6E
100
AcDbEntity
  8
0
100
AcDbBlockReference
  2
3_066381r_0_in_066381_4
 10
0.0
 20
0.0
 30
0.0
  0
INSERT
  5
14F
330
6E
100
AcDbEntity
  8
0
100
AcDbBlockReference
  2
4_066381p_0_in_066381_4
 10
0.0
 20
0.0
 30
0.0
  0
ENDBLK
  5
71
330
6E
100
AcDbEntity
  8
0
100
AcDbBlockEnd
  0
BLOCK
  5
90
330
8E
100
AcDbEntity
  8
0
100
AcDbBlockBegin
  2
2_066381re_0_in_066381_4
 70
     2
 10
0.0
 20
0.0
 30
0.0
  3
2_066381re_0_in_066381_4
  1

  0
ATTDEF
  5
92
330
8E
100
AcDbEntity
  8
AM_6
100
AcDbText
 10
8.044871794871796
 20
6.600000000000022
 30
0.0
 40
0.5
  1
Special Duty Pillow Block - 4 Bolt - Inch - Body - RING
100
AcDbAttributeDefinition
  3

  2
NN
 70
     8
280
     0
  0
ATTDEF
  5
93
330
8E
100
AcDbEntity
  8
AM_6
100
AcDbText
 10
8.044871794871796
 20
6.100000000000022
 30
0.0
 40
0.5
  1
Special Duty
100
AcDbAttributeDefinition
  3

  2
NT
 70
     8
280
     0
  0
ATTDEF
  5
94
330
8E
100
AcDbEntity
  8
AM_6
100
AcDbText
 10
8.044871794871796
 20
5.600000000000022
 30
0.0
 40
0.5
  1
066381re
100
AcDbAttributeDefinition
  3

  2
NB
 70
     8
280
     0
  0
ATTDEF
  5
95
330
8E
100
AcDbEntity
  8
AM_6
100
AcDbText
 10
8.044871794871796
 20
5.100000000000022
 30
0.0
 40
0.5
  1
$PN1.
100
AcDbAttributeDefinition
  3

  2
NBSYN
 70
     8
280
     0
  0
ATTDEF
  5
96
330
8E
100
AcDbEntity
  8
AM_6
100
AcDbText
 10
8.044871794871796
 20
4.600000000000022
 30
0.0
 40
0.5
  1
066381re
100
AcDbAttributeDefinition
  3

  2
LINA
 70
     8
280
     0
  0
ATTDEF
  5
97
330
8E
100
AcDbEntity
  8
AM_6
100
AcDbText
 10
8.044871794871796
 20
4.100000000000022
 30
0.0
 40
0.5
  1
5-15/16
100
AcDbAttributeDefinition
  3

  2
SS
 70
     8
280
     0
  0
ATTDEF
  5
98
330
8E
100
AcDbEntity
  8
AM_6
100
AcDbText
 10
8.044871794871796
 20
3.600000000000022
 30
0.0
 40
0.5
  1
5.93750
100
AcDbAttributeDefinition
  3

  2
SS1
 70
     8
280
     0
  0
ATTDEF
  5
99
330
8E
100
AcDbEntity
  8
AM_6
100
AcDbText
 10
8.044871794871796
 20
3.100000000000022
 30
0.0
 40
0.5
  1
066381re
100
AcDbAttributeDefinition
  3

  2
PN1
 70
     8
280
     0
  0
ATTDEF
  5
9A
330
8E
100
AcDbEntity
  8
AM_6
100
AcDbText
 10
8.044871794871796
 20
2.600000000000022
 30
0.0
 40
0.5
  1
066421
100
AcDbAttributeDefinition
  3

  2
PN2
 70
     8
280
     0
  0
ATTDEF
  5
9B
330
8E
100
AcDbEntity
  8
AM_6
100
AcDbText
 10
8.044871794871796
 20
2.100000000000022
 30
0.0
 40
0.5
  1
P4B-SD-515
100
AcDbAttributeDefinition
  3

  2
DESCRIPTION1
 70
     8
280
     0
  0
ATTDEF
  5
9C
330
8E
100
AcDbEntity
  8
AM_6
100
AcDbText
 10
8.044871794871796
 20
1.600000000000022
 30
0.0
 40
0.5
  1
P4B-SD-515
100
AcDbAttributeDefinition
  3

  2
DESCRIPTION2
 70
     8
280
     0
  0
ATTDEF
  5
9D
330
8E
100
AcDbEntity
  8
AM_6
100
AcDbText
 10
8.044871794871796
 20
1.100000000000022
 30
0.0
 40
0.5
  1
585
100
AcDbAttributeDefinition
  3

  2
WEIGHT1
 70
     8
280
     0
  0
ATTDEF
  5
9E
330
8E
100
AcDbEntity
  8
AM_6
100
AcDbText
 10
8.044871794871796
 20
0.6000000000000218
 30
0.0
 40
0.5
  1
585
100
AcDbAttributeDefinition
  3

  2
WEIGHT2
 70
     8
280
     0
  0
ATTDEF
  5
9F
330
8E
100
AcDbEntity
  8
AM_6
100
AcDbText
 10
8.044871794871796
 20
0.1000000000000218
 30
0.0
 40
0.5
  1
12
100
AcDbAttributeDefinition
  3

  2
A
 70
     8
280
     0
  0
ATTDEF
  5
A0
330
8E
100
AcDbEntity
  8
AM_6
100
AcDbText
 10
8.044871794871796
 20
-0.3999999999999782
 30
0.0
 40
0.5
  1
12.00000
100
AcDbAttributeDefinition
  3

  2
A1
 70
     8
280
     0
  0
ATTDEF
  5
A1
330
8E
100
AcDbEntity
  8
AM_6
100
AcDbText
 10
8.044871794871796
 20
-0.8999999999999782
 30
0.0
 40
0.5
  1
26-3/4
100
AcDbAttributeDefinition
  3

  2
B
 70
     8
280
     0
  0
ATTDEF
  5
A2
330
8E
100
AcDbEntity
  8
AM_6
100
AcDbText
 10
8.044871794871796
 20
-1.399999999999978
 30
0.0
 40
0.5
  1
26.75000
100
AcDbAttributeDefinition
  3

  2
B1
 70
     8
280
     0
  0
ATTDEF
  5
A3
330
8E
100
AcDbEntity
  8
AM_6
100
AcDbText
 10
8.044871794871796
 20
-1.899999999999978
 30
0.0
 40
0.5
  1
9-1/4
100
AcDbAttributeDefinition
  3

  2
C
 70
     8
280
     0
  0
ATTDEF
  5
A4
330
8E
100
AcDbEntity
  8
AM_6
100
AcDbText
 10
8.044871794871796
 20
-2.399999999999978
 30
0.0
 40
0.5
  1
9.25000
100
AcDbAttributeDefinition
  3

  2
C1
 70
     8
280
     0
  0
ATTDEF
  5
A5
330
8E
100
AcDbEntity
  8
AM_6
100
AcDbText
 10
8.044871794871796
 20
-2.899999999999978
 30
0.0
 40
0.5
  1
21-3/8
100
AcDbAttributeDefinition
  3

  2
DMIN
 70
     8
280
     0
  0
ATTDEF
  5
A6
330
8E
100
AcDbEntity
  8
AM_6
100
AcDbText
 10
8.044871794871796
 20
-3.399999999999978
 30
0.0
 40
0.5
  1
21.37500
100
AcDbAttributeDefinition
  3

  2
DMIN1
 70
     8
280
     0
  0
ATTDEF
  5
A7
330
8E
100
AcDbEntity
  8
AM_6
100
AcDbText
 10
8.044871794871796
 20
-3.899999999999978
 30
0.0
 40
0.5
  1
23-5/8
100
AcDbAttributeDefinition
  3

  2
DMAX
 70
     8
280
     0
  0
ATTDEF
  5
A8
330
8E
100
AcDbEntity
  8
AM_6
100
AcDbText
 10
8.044871794871796
 20
-4.399999999999978
 30
0.0
 40
0.5
  1
23.62500
100
AcDbAttributeDefinition
  3

  2
DMAX1
 70
     8
280
     0
  0
ATTDEF
  5
A9
330
8E
100
AcDbEntity
  8
AM_6
100
AcDbText
 10
8.044871794871796
 20
-4.899999999999978
 30
0.0
 40
0.5
  1
5
100
AcDbAttributeDefinition
  3

  2
E
 70
     8
280
     0
  0
ATTDEF
  5
AA
330
8E
100
AcDbEntity
  8
AM_6
100
AcDbText
 10
8.044871794871796
 20
-5.399999999999978
 30
0.0
 40
0.5
  1
5.00000
100
AcDbAttributeDefinition
  3

  2
E1
 70
     8
280
     0
  0
ATTDEF
  5
AB
330
8E
100
AcDbEntity
  8
AM_6
100
AcDbText
 10
8.044871794871796
 20
-5.899999999999978
 30
0.0
 40
0.5
  1
1-1/8
100
AcDbAttributeDefinition
  3

  2
F
 70
     8
280
     0
  0
ATTDEF
  5
AC
330
8E
100
AcDbEntity
  8
AM_6
100
AcDbText
 10
8.044871794871796
 20
-6.399999999999978
 30
0.0
 40
0.5
  1
1.12500
100
AcDbAttributeDefinition
  3

  2
F1
 70
     8
280
     0
  0
ATTDEF
  5
AD
330
8E
100
AcDbEntity
  8
AM_6
100
AcDbText
 10
8.044871794871796
 20
-6.899999999999978
 30
0.0
 40
0.5
  1
2-1/4
100
AcDbAttributeDefinition
  3

  2
G
 70
     8
280
     0
  0
ATTDEF
  5
AE
330
8E
100
AcDbEntity
  8
AM_6
100
AcDbText
 10
8.044871794871796
 20
-7.399999999999978
 30
0.0
 40
0.5
  1
2.25000
100
AcDbAttributeDefinition
  3

  2
G1
 70
     8
280
     0
  0
ATTDEF
  5
AF
330
8E
100
AcDbEntity
  8
AM_6
100
AcDbText
 10
8.044871794871796
 20
-7.899999999999978
 30
0.0
 40
0.5
  1
5
100
AcDbAttributeDefinition
  3

  2
H
 70
     8
280
     0
  0
ATTDEF
  5
B0
330
8E
100
AcDbEntity
  8
AM_6
100
AcDbText
 10
8.044871794871796
 20
-8.399999999999977
 30
0.0
 40
0.5
  1
5.00000
100
AcDbAttributeDefinition
  3

  2
H1
 70
     8
280
     0
  0
ATTDEF
  5
B1
330
8E
100
AcDbEntity
  8
AM_6
100
AcDbText
 10
8.044871794871796
 20
-8.899999999999977
 30
0.0
 40
0.5
  1
19
100
AcDbAttributeDefinition
  3

  2
J
 70
     8
280
     0
  0
ATTDEF
  5
B2
330
8E
100
AcDbEntity
  8
AM_6
100
AcDbText
 10
8.044871794871796
 20
-9.399999999999977
 30
0.0
 40
0.5
  1
19.00000
100
AcDbAttributeDefinition
  3

  2
J1
 70
     8
280
     0
  0
ATTDEF
  5
B3
330
8E
100
AcDbEntity
  8
AM_6
100
AcDbText
 10
8.044871794871796
 20
-9.899999999999977
 30
0.0
 40
0.5
  1
9-1/2
100
AcDbAttributeDefinition
  3

  2
L
 70
     8
280
     0
  0
ATTDEF
  5
B4
330
8E
100
AcDbEntity
  8
AM_6
100
AcDbText
 10
8.044871794871796
 20
-10.39999999999998
 30
0.0
 40
0.5
  1
9.50000
100
AcDbAttributeDefinition
  3

  2
L1
 70
     8
280
     0
  0
ATTDEF
  5
B5
330
8E
100
AcDbEntity
  8
AM_6
100
AcDbText
 10
8.044871794871796
 20
-10.89999999999998
 30
0.0
 40
0.5
  1
9
100
AcDbAttributeDefinition
  3

  2
M
 70
     8
280
     0
  0
ATTDEF
  5
B6
330
8E
100
AcDbEntity
  8
AM_6
100
AcDbText
 10
8.044871794871796
 20
-11.39999999999998
 30
0.0
 40
0.5
  1
9.00000
100
AcDbAttributeDefinition
  3

  2
M1
 70
     8
280
     0
  0
ATTDEF
  5
B7
330
8E
100
AcDbEntity
  8
AM_6
100
AcDbText
 10
8.044871794871796
 20
-11.89999999999998
 30
0.0
 40
0.5
  1
17-3/8
100
AcDbAttributeDefinition
  3

  2
P
 70
     8
280
     0
  0
ATTDEF
  5
B8
330
8E
100
AcDbEntity
  8
AM_6
100
AcDbText
 10
8.044871794871796
 20
-12.39999999999998
 30
0.0
 40
0.5
  1
17.37500
100
AcDbAttributeDefinition
  3

  2
P1
 70
     8
280
     0
  0
ATTDEF
  5
B9
330
8E
100
AcDbEntity
  8
AM_6
100
AcDbText
 10
8.044871794871796
 20
-12.89999999999998
 30
0.0
 40
0.5
  1
6
100
AcDbAttributeDefinition
  3

  2
R
 70
     8
280
     0
  0
ATTDEF
  5
BA
330
8E
100
AcDbEntity
  8
AM_6
100
AcDbText
 10
8.044871794871796
 20
-13.39999999999998
 30
0.0
 40
0.5
  1
6.00000
100
AcDbAttributeDefinition
  3

  2
R1
 70
     8
280
     0
  0
ATTDEF
  5
BB
330
8E
100
AcDbEntity
  8
AM_6
100
AcDbText
 10
8.044871794871796
 20
-13.89999999999998
 30
0.0
 40
0.5
  1
6
100
AcDbAttributeDefinition
  3

  2
S
 70
     8
280
     0
  0
ATTDEF
  5
BC
330
8E
100
AcDbEntity
  8
AM_6
100
AcDbText
 10
8.044871794871796
 20
-14.39999999999998
 30
0.0
 40
0.5
  1
6.00000
100
AcDbAttributeDefinition
  3

  2
S1
 70
     8
280
     0
  0
ATTDEF
  5
BD
330
8E
100
AcDbEntity
  8
AM_6
100
AcDbText
 10
8.044871794871796
 20
-14.89999999999998
 30
0.0
 40
0.5
  1
3/4
100
AcDbAttributeDefinition
  3

  2
EXP
 70
     8
280
     0
  0
ATTDEF
  5
BE
330
8E
100
AcDbEntity
  8
AM_6
100
AcDbText
 10
8.044871794871796
 20
-15.39999999999998
 30
0.0
 40
0.5
  1
baldor
100
AcDbAttributeDefinition
  3

  2
COMPANY
 70
     8
280
     0
  0
LINE
  5
C1
330
8E
100
AcDbEntity
  8
AM_9
100
AcDbLine
 10
2.311163992471239
 20
5.4
 30
0.0
 11
2.365291293739239
 21
5.4
 31
0.0
  0
LINE
  5
C2
330
8E
100
AcDbEntity
  8
AM_9
100
AcDbLine
 10
1.863329697719758
 20
5.400000000000001
 30
0.0
 11
1.917456998987759
 21
5.400000000000001
 31
0.0
  0
LINE
  5
C3
330
8E
100
AcDbEntity
  8
AM_9
100
AcDbLine
 10
2.098924692608159
 20
5.083333333333334
 30
0.0
 11
2.152758192385045
 21
5.083333333333334
 31
0.0
  0
LWPOLYLINE
  5
C4
330
8E
100
AcDbEntity
  8
AM_9
100
AcDbPolyline
 90
        6
 70
     0
 43
0.0
 10
2.1259902960567
 20
5.0856335573605
 10
2.194116681935397
 20
5.11468520151331
 10
2.251457996362091
 20
5.175901015457098
 10
2.291259056501077
 20
5.262635885185332
 10
2.309937707535959
 20
5.364984230225085
 10
2.311163992471239
 20
5.4
  0
LWPOLYLINE
  5
C5
330
8E
100
AcDbEntity
  8
AM_9
100
AcDbPolyline
 90
        3
 70
     0
 43
0.0
 10
2.099381286291979
 20
5.083333412202551
 10
2.124386035559618
 20
5.085363645040797
 10
2.1259902960567
 20
5.0856335573605
  0
LWPOLYLINE
  5
C6
330
8E
100
AcDbEntity
  8
AM_9
100
AcDbPolyline
 90
        7
 70
     0
 43
0.0
 10
2.152891702661107
 20
5.08333341195318
 10
2.12755476606018
 20
5.085368493318562
 10
2.05366625361252
 20
5.114716739661714
 10
1.988972668413212
 20
5.17596931415634
 10
1.941790761022836
 20
5.262721129110424
 10
1.918965839609782
 20
5.365069952835166
 10
1.917456998987759
 20
5.400000000000001
  0
LINE
  5
C7
330
8E
100
AcDbEntity
  8
AM_9
100
AcDbLine
 10
1.863329697719758
 20
-5.400000000000001
 30
0.0
 11
1.917456998987759
 21
-5.400000000000001
 31
0.0
  0
LINE
  5
C8
330
8E
100
AcDbEntity
  8
AM_9
100
AcDbLine
 10
2.311163992471238
 20
-5.400000000000001
 30
0.0
 11
2.36529129373924
 21
-5.400000000000001
 31
0.0
  0
LINE
  5
C9
330
8E
100
AcDbEntity
  8
AM_9
100
AcDbLine
 10
2.152758192385045
 20
-5.083333333333334
 30
0.0
 11
2.098924692608159
 21
-5.083333333333334
 31
0.0
  0
LWPOLYLINE
  5
CA
330
8E
100
AcDbEntity
  8
AM_9
100
AcDbPolyline
 90
        7
 70
     0
 43
0.0
 10
2.09906521510577
 20
-5.083333412202551
 10
2.073755177068714
 20
-5.085363645040797
 10
1.999832130093125
 20
-5.11468520151331
 10
1.935048695283196
 20
-5.175901015457097
 10
1.887752234405193
 20
-5.262635885185329
 10
1.864849685578846
 20
-5.364984230225084
 10
1.863329697719759
 20
-5.400000000000001
  0
LWPOLYLINE
  5
CB
330
8E
100
AcDbEntity
  8
AM_9
100
AcDbPolyline
 90
        7
 70
     0
 43
0.0
 10
2.15320727377063
 20
-5.08333341195318
 10
2.178245845771407
 20
-5.085368493318561
 10
2.248043408384033
 20
-5.114716739661713
 10
2.305478685980638
 20
-5.175969314156338
 10
2.345355599394715
 20
-5.262721129110421
 10
2.364067332716332
 20
-5.365069952835164
 10
2.365291293739239
 20
-5.400000000000001
  0
LINE
  5
CC
330
8E
100
AcDbEntity
  8
AM_9
100
AcDbLine
 10
-1.917456998987758
 20
5.400000000000001
 30
0.0
 11
-1.863329697719757
 21
5.400000000000001
 31
0.0
  0
LINE
  5
CD
330
8E
100
AcDbEntity
  8
AM_9
100
AcDbLine
 10
-2.365291293739239
 20
5.4
 30
0.0
 11
-2.311163992471238
 21
5.4
 31
0.0
  0
LINE
  5
CE
330
8E
100
AcDbEntity
  8
AM_9
100
AcDbLine
 10
-2.152758192385044
 20
5.083333333333334
 30
0.0
 11
-2.098924692608158
 21
5.083333333333334
 31
0.0
  0
LWPOLYLINE
  5
CF
330
8E
100
AcDbEntity
  8
AM_9
100
AcDbPolyline
 90
        7
 70
     0
 43
0.0
 10
-2.09906521510577
 20
5.083333412202551
 10
-2.073755177068713
 20
5.085363645040797
 10
-1.999832130093124
 20
5.11468520151331
 10
-1.935048695283196
 20
5.175901015457098
 10
-1.887752234405192
 20
5.262635885185329
 10
-1.864849685578845
 20
5.364984230225084
 10
-1.863329697719758
 20
5.400000000000001
  0
LWPOLYLINE
  5
D0
330
8E
100
AcDbEntity
  8
AM_9
100
AcDbPolyline
 90
        7
 70
     0
 43
0.0
 10
-2.153207273770629
 20
5.08333341195318
 10
-2.178245845771408
 20
5.085368493318561
 10
-2.248043408384034
 20
5.114716739661714
 10
-2.305478685980639
 20
5.175969314156338
 10
-2.345355599394715
 20
5.262721129110422
 10
-2.364067332716332
 20
5.365069952835166
 10
-2.365291293739239
 20
5.4
  0
LINE
  5
D1
330
8E
100
AcDbEntity
  8
AM_9
100
AcDbLine
 10
-2.365291293739238
 20
-5.400000000000001
 30
0.0
 11
-2.311163992471238
 21
-5.400000000000001
 31
0.0
  0
LINE
  5
D2
330
8E
100
AcDbEntity
  8
AM_9
100
AcDbLine
 10
-1.917456998987759
 20
-5.400000000000001
 30
0.0
 11
-1.863329697719758
 21
-5.400000000000001
 31
0.0
  0
LINE
  5
D3
330
8E
100
AcDbEntity
  8
AM_9
100
AcDbLine
 10
-2.098924692608158
 20
-5.083333333333334
 30
0.0
 11
-2.152758192385044
 21
-5.083333333333334
 31
0.0
  0
LWPOLYLINE
  5
D4
330
8E
100
AcDbEntity
  8
AM_9
100
AcDbPolyline
 90
        6
 70
     0
 43
0.0
 10
-2.125990296056699
 20
-5.0856335573605
 10
-2.194116681935398
 20
-5.11468520151331
 10
-2.251457996362091
 20
-5.175901015457098
 10
-2.291259056501076
 20
-5.262635885185332
 10
-2.309937707535959
 20
-5.364984230225087
 10
-2.311163992471239
 20
-5.400000000000001
  0
LWPOLYLINE
  5
D5
330
8E
100
AcDbEntity
  8
AM_9
100
AcDbPolyline
 90
        3
 70
     0
 43
0.0
 10
-2.099381286291979
 20
-5.083333412202551
 10
-2.124386035559618
 20
-5.085363645040797
 10
-2.125990296056699
 20
-5.0856335573605
  0
LWPOLYLINE
  5
D6
330
8E
100
AcDbEntity
  8
AM_9
100
AcDbPolyline
 90
        7
 70
     0
 43
0.0
 10
-2.152891702661107
 20
-5.08333341195318
 10
-2.127554766060181
 20
-5.085368493318561
 10
-2.053666253612519
 20
-5.114716739661714
 10
-1.988972668413212
 20
-5.175969314156338
 10
-1.941790761022836
 20
-5.262721129110423
 10
-1.918965839609782
 20
-5.365069952835166
 10
-1.917456998987759
 20
-5.400000000000001
  0
LINE
  5
D7
330
8E
100
AcDbEntity
  8
AM_9
100
AcDbLine
 10
1.863329697719758
 20
-5.400000000000001
 30
0.0
 11
1.863329697719757
 21
-6.000000000000004
 31
0.0
  0
LINE
  5
D8
330
8E
100
AcDbEntity
  8
AM_9
100
AcDbLine
 10
-1.863329697719758
 20
-6.000000000000004
 30
0.0
 11
-1.863329697719758
 21
-5.400000000000001
 31
0.0
  0
LWPOLYLINE
  5
D9
330
8E
100
AcDbEntity
  8
AM_9
100
AcDbPolyline
 90
        6
 70
     0
 43
0.0
 10
-1.863329697719758
 20
-5.400000000000001
 10
-1.877175486575076
 20
-5.295519856156973
 10
-1.916685308783536
 20
-5.202823521664811
 10
-1.976575798023083
 20
-5.13198281149863
 10
-2.04897546704249
 20
-5.091219358559131
 10
-2.099381286291979
 20
-5.083333412202551
  0
LINE
  5
DA
330
8E
100
AcDbEntity
  8
AM_9
100
AcDbLine
 10
-2.311163992471238
 20
-5.400000000000001
 30
0.0
 11
-2.311163992471238
 21
-6.000000000000004
 31
0.0
  0
LINE
  5
DB
330
8E
100
AcDbEntity
  8
AM_9
100
AcDbLine
 10
-2.119275686629849
 20
-5.084618005010162
 30
0.0
 11
-2.09906521510577
 21
-5.083333412202551
 31
0.0
  0
LINE
  5
DC
330
8E
100
AcDbEntity
  8
AM_9
100
AcDbLine
 10
-2.136492087520518
 20
-5.087831133295087
 30
0.0
 11
-2.119275686629849
 21
-5.084618005010162
 31
0.0
  0
LINE
  5
DD
330
8E
100
AcDbEntity
  8
AM_9
100
AcDbLine
 10
2.061314367682618
 20
-5.0878231679043
 30
0.0
 11
2.099381286291979
 21
-5.083333412202551
 31
0.0
  0
LINE
  5
DE
330
8E
100
AcDbEntity
  8
AM_9
100
AcDbLine
 10
2.311163992471238
 20
-6.000000000000004
 30
0.0
 11
2.311163992471238
 21
-5.400000000000001
 31
0.0
  0
LINE
  5
DF
330
8E
100
AcDbEntity
  8
AM_9
100
AcDbLine
 10
2.126281347590802
 20
-5.085684374007696
 30
0.0
 11
2.09906521510577
 21
-5.083333412202551
 31
0.0
  0
LWPOLYLINE
  5
E0
330
8E
100
AcDbEntity
  8
AM_9
100
AcDbPolyline
 90
        6
 70
     0
 43
0.0
 10
2.311163992471239
 20
-5.400000000000001
 10
2.299932337070294
 20
-5.295519856156973
 10
2.267111375648175
 20
-5.202823521664811
 10
2.215090218742663
 20
-5.131982811498631
 10
2.148296091780185
 20
-5.091219358559131
 10
2.126281347590802
 20
-5.085684374007696
  0
LINE
  5
E1
330
8E
100
AcDbEntity
  8
AM_9
100
AcDbLine
 10
2.11927568662985
 20
5.084618005010162
 30
0.0
 11
2.09906521510577
 21
5.083333412202551
 31
0.0
  0
LINE
  5
E2
330
8E
100
AcDbEntity
  8
AM_9
100
AcDbLine
 10
2.136492087520518
 20
5.087831133295087
 30
0.0
 11
2.11927568662985
 21
5.084618005010162
 31
0.0
  0
LINE
  5
E3
330
8E
100
AcDbEntity
  8
AM_9
100
AcDbLine
 10
-2.061314367682616
 20
5.0878231679043
 30
0.0
 11
-2.099381286291979
 21
5.083333412202551
 31
0.0
  0
LINE
  5
E4
330
8E
100
AcDbEntity
  8
AM_9
100
AcDbLine
 10
-2.311163992471239
 20
6.000000000000004
 30
0.0
 11
-2.311163992471238
 21
5.4
 31
0.0
  0
LINE
  5
E5
330
8E
100
AcDbEntity
  8
AM_9
100
AcDbLine
 10
-2.126281347590802
 20
5.085684374007696
 30
0.0
 11
-2.09906521510577
 21
5.083333412202551
 31
0.0
  0
LWPOLYLINE
  5
E6
330
8E
100
AcDbEntity
  8
AM_9
100
AcDbPolyline
 90
        6
 70
     0
 43
0.0
 10
-2.311163992471238
 20
5.4
 10
-2.299932337070294
 20
5.295519856156973
 10
-2.267111375648174
 20
5.20282352166481
 10
-2.215090218742663
 20
5.131982811498631
 10
-2.148296091780185
 20
5.091219358559131
 10
-2.126281347590802
 20
5.085684374007696
  0
LINE
  5
E7
330
8E
100
AcDbEntity
  8
AM_9
100
AcDbLine
 10
-1.863329697719757
 20
5.400000000000001
 30
0.0
 11
-1.863329697719758
 21
6.000000000000004
 31
0.0
  0
LINE
  5
E8
330
8E
100
AcDbEntity
  8
AM_9
100
AcDbLine
 10
1.863329697719758
 20
6.000000000000004
 30
0.0
 11
1.863329697719758
 21
5.400000000000001
 31
0.0
  0
LWPOLYLINE
  5
E9
330
8E
100
AcDbEntity
  8
AM_9
100
AcDbPolyline
 90
        6
 70
     0
 43
0.0
 10
1.863329697719759
 20
5.400000000000001
 10
1.877175486575076
 20
5.295519856156973
 10
1.916685308783536
 20
5.20282352166481
 10
1.976575798023083
 20
5.13198281149863
 10
2.048975467042489
 20
5.091219358559131
 10
2.099381286291979
 20
5.083333412202551
  0
LINE
  5
EA
330
8E
100
AcDbEntity
  8
AM_9
100
AcDbLine
 10
2.311163992471239
 20
5.4
 30
0.0
 11
2.311163992471238
 21
6.000000000000004
 31
0.0
  0
LINE
  5
EB
330
8E
100
AcDbEntity
  8
AM_9
100
AcDbLine
 10
-2.96875
 20
6.000000000000004
 30
0.0
 11
-2.96875
 21
-6.000000000000004
 31
0.0
  0
LINE
  5
EC
330
8E
100
AcDbEntity
  8
AM_9
100
AcDbLine
 10
2.96875
 20
-6.000000000000004
 30
0.0
 11
2.96875
 21
6.000000000000004
 31
0.0
  0
LINE
  5
ED
330
8E
100
AcDbEntity
  8
AM_9
100
AcDbLine
 10
1.917456998987759
 20
5.400000000000001
 30
0.0
 11
1.917456998987759
 21
6.000000000000004
 31
0.0
  0
LINE
  5
EE
330
8E
100
AcDbEntity
  8
AM_9
100
AcDbLine
 10
-1.917456998987758
 20
6.000000000000004
 30
0.0
 11
-1.917456998987758
 21
5.400000000000001
 31
0.0
  0
LWPOLYLINE
  5
EF
330
8E
100
AcDbEntity
  8
AM_9
100
AcDbPolyline
 90
        6
 70
     0
 43
0.0
 10
-1.917456998987759
 20
5.400000000000001
 10
-1.931274311953205
 20
5.295503126695343
 10
-1.970714648592767
 20
5.202791712168034
 10
-2.030516383429262
 20
5.13195797637278
 10
-2.102842025398729
 20
5.091211302524278
 10
-2.153207273770629
 20
5.08333341195318
  0
LINE
  5
F0
330
8E
100
AcDbEntity
  8
AM_9
100
AcDbLine
 10
-2.365291293739239
 20
5.4
 30
0.0
 11
-2.365291293739239
 21
6.000000000000004
 31
0.0
  0
LINE
  5
F1
330
8E
100
AcDbEntity
  8
AM_9
100
AcDbLine
 10
-2.190326294957971
 20
5.087831022264414
 30
0.0
 11
-2.152891702661107
 21
5.08333341195318
 31
0.0
  0
LINE
  5
F2
330
8E
100
AcDbEntity
  8
AM_9
100
AcDbLine
 10
2.1328105296472
 20
5.084617441568899
 30
0.0
 11
2.153207273770629
 21
5.08333341195318
 31
0.0
  0
LINE
  5
F3
330
8E
100
AcDbEntity
  8
AM_9
100
AcDbLine
 10
2.125615855390846
 20
5.085688930581656
 30
0.0
 11
2.1328105296472
 21
5.084617441568899
 31
0.0
  0
LINE
  5
F4
330
8E
100
AcDbEntity
  8
AM_9
100
AcDbLine
 10
2.115148629959308
 20
5.087823258549381
 30
0.0
 11
2.125615855390846
 21
5.085688930581656
 31
0.0
  0
LINE
  5
F5
330
8E
100
AcDbEntity
  8
AM_9
100
AcDbLine
 10
2.365291293739239
 20
6.000000000000004
 30
0.0
 11
2.365291293739239
 21
5.4
 31
0.0
  0
LWPOLYLINE
  5
F6
330
8E
100
AcDbEntity
  8
AM_9
100
AcDbPolyline
 90
        6
 70
     0
 43
0.0
 10
2.365291293739239
 20
5.4
 10
2.35402289266597
 20
5.295503126695342
 10
2.321104913834717
 20
5.202791712168033
 10
2.268974980873772
 20
5.131957976372778
 10
2.202112545584979
 20
5.091211302524278
 10
2.152891702661107
 20
5.08333341195318
  0
LINE
  5
F7
330
8E
100
AcDbEntity
  8
AM_9
100
AcDbLine
 10
1.917456998987758
 20
-6.000000000000004
 30
0.0
 11
1.917456998987759
 21
-5.400000000000001
 31
0.0
  0
LWPOLYLINE
  5
F8
330
8E
100
AcDbEntity
  8
AM_9
100
AcDbPolyline
 90
        6
 70
     0
 43
0.0
 10
1.917456998987759
 20
-5.400000000000001
 10
1.931274311953206
 20
-5.295503126695344
 10
1.970714648592768
 20
-5.202791712168034
 10
2.030516383429262
 20
-5.13195797637278
 10
2.102842025398729
 20
-5.091211302524278
 10
2.15320727377063
 20
-5.08333341195318
  0
LINE
  5
F9
330
8E
100
AcDbEntity
  8
AM_9
100
AcDbLine
 10
2.36529129373924
 20
-5.400000000000001
 30
0.0
 11
2.365291293739239
 21
-6.000000000000004
 31
0.0
  0
LINE
  5
FA
330
8E
100
AcDbEntity
  8
AM_9
100
AcDbLine
 10
2.190326294957971
 20
-5.087831022264414
 30
0.0
 11
2.152891702661106
 21
-5.08333341195318
 31
0.0
  0
LINE
  5
FB
330
8E
100
AcDbEntity
  8
AM_9
100
AcDbLine
 10
-2.132810529647197
 20
-5.084617441568899
 30
0.0
 11
-2.15320727377063
 21
-5.08333341195318
 31
0.0
  0
LINE
  5
FC
330
8E
100
AcDbEntity
  8
AM_9
100
AcDbLine
 10
-2.125615855390839
 20
-5.085688930581657
 30
0.0
 11
-2.132810529647197
 21
-5.084617441568899
 31
0.0
  0
LINE
  5
FD
330
8E
100
AcDbEntity
  8
AM_9
100
AcDbLine
 10
-2.115148629959307
 20
-5.087823258549382
 30
0.0
 11
-2.125615855390839
 21
-5.085688930581657
 31
0.0
  0
LINE
  5
FE
330
8E
100
AcDbEntity
  8
AM_9
100
AcDbLine
 10
-2.365291293739239
 20
-6.000000000000004
 30
0.0
 11
-2.365291293739238
 21
-5.400000000000001
 31
0.0
  0
LWPOLYLINE
  5
FF
330
8E
100
AcDbEntity
  8
AM_9
100
AcDbPolyline
 90
        6
 70
     0
 43
0.0
 10
-2.365291293739239
 20
-5.400000000000001
 10
-2.35402289266597
 20
-5.295503126695343
 10
-2.321104913834718
 20
-5.202791712168034
 10
-2.268974980873772
 20
-5.13195797637278
 10
-2.202112545584979
 20
-5.091211302524278
 10
-2.152891702661107
 20
-5.08333341195318
  0
LINE
  5
100
330
8E
100
AcDbEntity
  8
AM_9
100
AcDbLine
 10
-1.917456998987759
 20
-5.400000000000001
 30
0.0
 11
-1.917456998987759
 21
-6.000000000000004
 31
0.0
  0
LINE
  5
101
330
8E
100
AcDbEntity
  8
AM_9
100
AcDbLine
 10
-3.044871794871795
 20
6.000000000000004
 30
0.0
 11
-3.044871794871795
 21
-6.000000000000004
 31
0.0
  0
LINE
  5
102
330
8E
100
AcDbEntity
  8
AM_9
100
AcDbLine
 10
3.044871794871795
 20
-6.000000000000004
 30
0.0
 11
3.044871794871795
 21
6.000000000000004
 31
0.0
  0
LINE
  5
105
330
8E
100
AcDbEntity
  8
AM_7
100
AcDbLine
 10
0.0
 20
6.600000000000022
 30
0.0
 11
0.0
 21
-6.599999999999987
 31
0.0
  0
ENDBLK
  5
91
330
8E
100
AcDbEntity
  8
0
100
AcDbBlockEnd
  0
BLOCK
  5
108
330
106
100
AcDbEntity
  8
0
100
AcDbBlockBegin
  2
3_066381r_0_in_066381_4
 70
     2
 10
0.0
 20
0.0
 30
0.0
  3
3_066381r_0_in_066381_4
  1

  0
ATTDEF
  5
10A
330
106
100
AcDbEntity
  8
AM_6
100
AcDbText
 10
9.75
 20
6.000000000000004
 30
0.0
 40
0.5
  1
Special Duty Pillow Block - 4 Bolt - Inch - Body - Ins
100
AcDbAttributeDefinition
  3

  2
NN
 70
     8
280
     0
  0
ATTDEF
  5
10B
330
106
100
AcDbEntity
  8
AM_6
100
AcDbText
 10
9.75
 20
5.500000000000004
 30
0.0
 40
0.5
  1
Special Duty
100
AcDbAttributeDefinition
  3

  2
NT
 70
     8
280
     0
  0
ATTDEF
  5
10C
330
106
100
AcDbEntity
  8
AM_6
100
AcDbText
 10
9.75
 20
5.000000000000004
 30
0.0
 40
0.5
  1
066381r
100
AcDbAttributeDefinition
  3

  2
NB
 70
     8
280
     0
  0
ATTDEF
  5
10D
330
106
100
AcDbEntity
  8
AM_6
100
AcDbText
 10
9.75
 20
4.500000000000004
 30
0.0
 40
0.5
  1
$PN1.
100
AcDbAttributeDefinition
  3

  2
NBSYN
 70
     8
280
     0
  0
ATTDEF
  5
10E
330
106
100
AcDbEntity
  8
AM_6
100
AcDbText
 10
9.75
 20
4.000000000000004
 30
0.0
 40
0.5
  1
066381r
100
AcDbAttributeDefinition
  3

  2
LINA
 70
     8
280
     0
  0
ATTDEF
  5
10F
330
106
100
AcDbEntity
  8
AM_6
100
AcDbText
 10
9.75
 20
3.500000000000004
 30
0.0
 40
0.5
  1
5-15/16
100
AcDbAttributeDefinition
  3

  2
SS
 70
     8
280
     0
  0
ATTDEF
  5
110
330
106
100
AcDbEntity
  8
AM_6
100
AcDbText
 10
9.75
 20
3.000000000000004
 30
0.0
 40
0.5
  1
5.93750
100
AcDbAttributeDefinition
  3

  2
SS1
 70
     8
280
     0
  0
ATTDEF
  5
111
330
106
100
AcDbEntity
  8
AM_6
100
AcDbText
 10
9.75
 20
2.500000000000004
 30
0.0
 40
0.5
  1
066381r
100
AcDbAttributeDefinition
  3

  2
PN1
 70
     8
280
     0
  0
ATTDEF
  5
112
330
106
100
AcDbEntity
  8
AM_6
100
AcDbText
 10
9.75
 20
2.000000000000004
 30
0.0
 40
0.5
  1
066421
100
AcDbAttributeDefinition
  3

  2
PN2
 70
     8
280
     0
  0
ATTDEF
  5
113
330
106
100
AcDbEntity
  8
AM_6
100
AcDbText
 10
9.75
 20
1.500000000000004
 30
0.0
 40
0.5
  1
P4B-SD-515
100
AcDbAttributeDefinition
  3

  2
DESCRIPTION1
 70
     8
280
     0
  0
ATTDEF
  5
114
330
106
100
AcDbEntity
  8
AM_6
100
AcDbText
 10
9.75
 20
1.000000000000004
 30
0.0
 40
0.5
  1
P4B-SD-515
100
AcDbAttributeDefinition
  3

  2
DESCRIPTION2
 70
     8
280
     0
  0
ATTDEF
  5
115
330
106
100
AcDbEntity
  8
AM_6
100
AcDbText
 10
9.75
 20
0.5000000000000036
 30
0.0
 40
0.5
  1
585
100
AcDbAttributeDefinition
  3

  2
WEIGHT1
 70
     8
280
     0
  0
ATTDEF
  5
116
330
106
100
AcDbEntity
  8
AM_6
100
AcDbText
 10
9.75
 20
0.0000000000000036
 30
0.0
 40
0.5
  1
585
100
AcDbAttributeDefinition
  3

  2
WEIGHT2
 70
     8
280
     0
  0
ATTDEF
  5
117
330
106
100
AcDbEntity
  8
AM_6
100
AcDbText
 10
9.75
 20
-0.4999999999999964
 30
0.0
 40
0.5
  1
12
100
AcDbAttributeDefinition
  3

  2
A
 70
     8
280
     0
  0
ATTDEF
  5
118
330
106
100
AcDbEntity
  8
AM_6
100
AcDbText
 10
9.75
 20
-0.9999999999999964
 30
0.0
 40
0.5
  1
12.00000
100
AcDbAttributeDefinition
  3

  2
A1
 70
     8
280
     0
  0
ATTDEF
  5
119
330
106
100
AcDbEntity
  8
AM_6
100
AcDbText
 10
9.75
 20
-1.499999999999996
 30
0.0
 40
0.5
  1
26-3/4
100
AcDbAttributeDefinition
  3

  2
B
 70
     8
280
     0
  0
ATTDEF
  5
11A
330
106
100
AcDbEntity
  8
AM_6
100
AcDbText
 10
9.75
 20
-1.999999999999996
 30
0.0
 40
0.5
  1
26.75000
100
AcDbAttributeDefinition
  3

  2
B1
 70
     8
280
     0
  0
ATTDEF
  5
11B
330
106
100
AcDbEntity
  8
AM_6
100
AcDbText
 10
9.75
 20
-2.499999999999996
 30
0.0
 40
0.5
  1
9-1/4
100
AcDbAttributeDefinition
  3

  2
C
 70
     8
280
     0
  0
ATTDEF
  5
11C
330
106
100
AcDbEntity
  8
AM_6
100
AcDbText
 10
9.75
 20
-2.999999999999996
 30
0.0
 40
0.5
  1
9.25000
100
AcDbAttributeDefinition
  3

  2
C1
 70
     8
280
     0
  0
ATTDEF
  5
11D
330
106
100
AcDbEntity
  8
AM_6
100
AcDbText
 10
9.75
 20
-3.499999999999996
 30
0.0
 40
0.5
  1
21-3/8
100
AcDbAttributeDefinition
  3

  2
DMIN
 70
     8
280
     0
  0
ATTDEF
  5
11E
330
106
100
AcDbEntity
  8
AM_6
100
AcDbText
 10
9.75
 20
-3.999999999999996
 30
0.0
 40
0.5
  1
21.37500
100
AcDbAttributeDefinition
  3

  2
DMIN1
 70
     8
280
     0
  0
ATTDEF
  5
11F
330
106
100
AcDbEntity
  8
AM_6
100
AcDbText
 10
9.75
 20
-4.499999999999996
 30
0.0
 40
0.5
  1
23-5/8
100
AcDbAttributeDefinition
  3

  2
DMAX
 70
     8
280
     0
  0
ATTDEF
  5
120
330
106
100
AcDbEntity
  8
AM_6
100
AcDbText
 10
9.75
 20
-4.999999999999996
 30
0.0
 40
0.5
  1
23.62500
100
AcDbAttributeDefinition
  3

  2
DMAX1
 70
     8
280
     0
  0
ATTDEF
  5
121
330
106
100
AcDbEntity
  8
AM_6
100
AcDbText
 10
9.75
 20
-5.499999999999996
 30
0.0
 40
0.5
  1
5
100
AcDbAttributeDefinition
  3

  2
E
 70
     8
280
     0
  0
ATTDEF
  5
122
330
106
100
AcDbEntity
  8
AM_6
100
AcDbText
 10
9.75
 20
-5.999999999999996
 30
0.0
 40
0.5
  1
5.00000
100
AcDbAttributeDefinition
  3

  2
E1
 70
     8
280
     0
  0
ATTDEF
  5
123
330
106
100
AcDbEntity
  8
AM_6
100
AcDbText
 10
9.75
 20
-6.499999999999996
 30
0.0
 40
0.5
  1
1-1/8
100
AcDbAttributeDefinition
  3

  2
F
 70
     8
280
     0
  0
ATTDEF
  5
124
330
106
100
AcDbEntity
  8
AM_6
100
AcDbText
 10
9.75
 20
-6.999999999999996
 30
0.0
 40
0.5
  1
1.12500
100
AcDbAttributeDefinition
  3

  2
F1
 70
     8
280
     0
  0
ATTDEF
  5
125
330
106
100
AcDbEntity
  8
AM_6
100
AcDbText
 10
9.75
 20
-7.499999999999996
 30
0.0
 40
0.5
  1
2-1/4
100
AcDbAttributeDefinition
  3

  2
G
 70
     8
280
     0
  0
ATTDEF
  5
126
330
106
100
AcDbEntity
  8
AM_6
100
AcDbText
 10
9.75
 20
-7.999999999999996
 30
0.0
 40
0.5
  1
2.25000
100
AcDbAttributeDefinition
  3

  2
G1
 70
     8
280
     0
  0
ATTDEF
  5
127
330
106
100
AcDbEntity
  8
AM_6
100
AcDbText
 10
9.75
 20
-8.499999999999996
 30
0.0
 40
0.5
  1
5
100
AcDbAttributeDefinition
  3

  2
H
 70
     8
280
     0
  0
ATTDEF
  5
128
330
106
100
AcDbEntity
  8
AM_6
100
AcDbText
 10
9.75
 20
-8.999999999999996
 30
0.0
 40
0.5
  1
5.00000
100
AcDbAttributeDefinition
  3

  2
H1
 70
     8
280
     0
  0
ATTDEF
  5
129
330
106
100
AcDbEntity
  8
AM_6
100
AcDbText
 10
9.75
 20
-9.499999999999996
 30
0.0
 40
0.5
  1
19
100
AcDbAttributeDefinition
  3

  2
J
 70
     8
280
     0
  0
ATTDEF
  5
12A
330
106
100
AcDbEntity
  8
AM_6
100
AcDbText
 10
9.75
 20
-9.999999999999996
 30
0.0
 40
0.5
  1
19.00000
100
AcDbAttributeDefinition
  3

  2
J1
 70
     8
280
     0
  0
ATTDEF
  5
12B
330
106
100
AcDbEntity
  8
AM_6
100
AcDbText
 10
9.75
 20
-10.5
 30
0.0
 40
0.5
  1
9-1/2
100
AcDbAttributeDefinition
  3

  2
L
 70
     8
280
     0
  0
ATTDEF
  5
12C
330
106
100
AcDbEntity
  8
AM_6
100
AcDbText
 10
9.75
 20
-11.0
 30
0.0
 40
0.5
  1
9.50000
100
AcDbAttributeDefinition
  3

  2
L1
 70
     8
280
     0
  0
ATTDEF
  5
12D
330
106
100
AcDbEntity
  8
AM_6
100
AcDbText
 10
9.75
 20
-11.5
 30
0.0
 40
0.5
  1
9
100
AcDbAttributeDefinition
  3

  2
M
 70
     8
280
     0
  0
ATTDEF
  5
12E
330
106
100
AcDbEntity
  8
AM_6
100
AcDbText
 10
9.75
 20
-12.0
 30
0.0
 40
0.5
  1
9.00000
100
AcDbAttributeDefinition
  3

  2
M1
 70
     8
280
     0
  0
ATTDEF
  5
12F
330
106
100
AcDbEntity
  8
AM_6
100
AcDbText
 10
9.75
 20
-12.5
 30
0.0
 40
0.5
  1
17-3/8
100
AcDbAttributeDefinition
  3

  2
P
 70
     8
280
     0
  0
ATTDEF
  5
130
330
106
100
AcDbEntity
  8
AM_6
100
AcDbText
 10
9.75
 20
-13.0
 30
0.0
 40
0.5
  1
17.37500
100
AcDbAttributeDefinition
  3

  2
P1
 70
     8
280
     0
  0
ATTDEF
  5
131
330
106
100
AcDbEntity
  8
AM_6
100
AcDbText
 10
9.75
 20
-13.5
 30
0.0
 40
0.5
  1
6
100
AcDbAttributeDefinition
  3

  2
R
 70
     8
280
     0
  0
ATTDEF
  5
132
330
106
100
AcDbEntity
  8
AM_6
100
AcDbText
 10
9.75
 20
-14.0
 30
0.0
 40
0.5
  1
6.00000
100
AcDbAttributeDefinition
  3

  2
R1
 70
     8
280
     0
  0
ATTDEF
  5
133
330
106
100
AcDbEntity
  8
AM_6
100
AcDbText
 10
9.75
 20
-14.5
 30
0.0
 40
0.5
  1
6
100
AcDbAttributeDefinition
  3

  2
S
 70
     8
280
     0
  0
ATTDEF
  5
134
330
106
100
AcDbEntity
  8
AM_6
100
AcDbText
 10
9.75
 20
-15.0
 30
0.0
 40
0.5
  1
6.00000
100
AcDbAttributeDefinition
  3

  2
S1
 70
     8
280
     0
  0
ATTDEF
  5
135
330
106
100
AcDbEntity
  8
AM_6
100
AcDbText
 10
9.75
 20
-15.5
 30
0.0
 40
0.5
  1
3/4
100
AcDbAttributeDefinition
  3

  2
EXP
 70
     8
280
     0
  0
ATTDEF
  5
136
330
106
100
AcDbEntity
  8
AM_6
100
AcDbText
 10
9.75
 20
-16.0
 30
0.0
 40
0.5
  1
baldor
100
AcDbAttributeDefinition
  3

  2
COMPANY
 70
     8
280
     0
  0
LINE
  5
137
330
106
100
AcDbEntity
  8
AM_9
100
AcDbLine
 10
-3.044871794871796
 20
5.9525
 30
0.0
 11
-3.044871794871796
 21
-5.9525
 31
0.0
  0
LINE
  5
138
330
106
100
AcDbEntity
  8
AM_9
100
AcDbLine
 10
3.044871794871796
 20
-5.9525
 30
0.0
 11
3.044871794871796
 21
5.9525
 31
0.0
  0
LINE
  5
139
330
106
100
AcDbEntity
  8
AM_9
100
AcDbLine
 10
3.044871794871796
 20
5.9525
 30
0.0
 11
-3.044871794871796
 21
5.9525
 31
0.0
  0
ARC
  5
13A
330
106
100
AcDbEntity
  8
AM_9
100
AcDbCircle
 10
-3.092371794871797
 20
5.952500000000001
 30
0.0
 40
0.0475000000000008
100
AcDbArc
 50
0.0
 51
90.0
  0
ARC
  5
13B
330
106
100
AcDbEntity
  8
AM_9
100
AcDbCircle
 10
3.092371794871797
 20
5.952500000000001
 30
0.0
 40
0.0475000000000003
100
AcDbArc
 50
90.0
 51
180.0
  0
LINE
  5
13C
330
106
100
AcDbEntity
  8
AM_9
100
AcDbLine
 10
3.044871794871795
 20
-5.9525
 30
0.0
 11
-3.044871794871795
 21
-5.9525
 31
0.0
  0
ARC
  5
13D
330
106
100
AcDbEntity
  8
AM_9
100
AcDbCircle
 10
-3.0923717948718
 20
-5.952499999999997
 30
0.0
 40
0.0475000000000048
100
AcDbArc
 50
270.0
 51
0.0
  0
ARC
  5
13E
330
106
100
AcDbEntity
  8
AM_9
100
AcDbCircle
 10
3.0923717948718
 20
-5.952499999999997
 30
0.0
 40
0.0475000000000048
100
AcDbArc
 50
180.0
 51
270.0
  0
LINE
  5
13F
330
106
100
AcDbEntity
  8
AM_9
100
AcDbLine
 10
-4.749999999999999
 20
5.0
 30
0.0
 11
-4.749999999999999
 21
-5.0
 31
0.0
  0
LINE
  5
140
330
106
100
AcDbEntity
  8
AM_9
100
AcDbLine
 10
4.749999999999999
 20
-5.0
 30
0.0
 11
4.749999999999999
 21
5.0
 31
0.0
  0
LINE
  5
142
330
106
100
AcDbEntity
  8
AM_4
100
AcDbLine
 10
4.433333333333336
 20
6.000000000000004
 30
0.0
 11
-4.433333333244686
 21
6.000000000000004
 31
0.0
  0
ARC
  5
143
330
106
100
AcDbEntity
  8
AM_4
100
AcDbCircle
 10
-4.433333333333333
 20
5.683333333333334
 30
0.0
 40
0.3166666666666673
100
AcDbArc
 50
90.0
 51
180.0
  0
ARC
  5
144
330
106
100
AcDbEntity
  8
AM_4
100
AcDbCircle
 10
4.433333333333333
 20
5.683333333333334
 30
0.0
 40
0.3166666666666673
100
AcDbArc
 50
0.0
 51
90.0
  0
LINE
  5
145
330
106
100
AcDbEntity
  8
AM_4
100
AcDbLine
 10
4.433333333333334
 20
-6.000000000000004
 30
0.0
 11
-4.433333333244684
 21
-6.000000000000004
 31
0.0
  0
ARC
  5
146
330
106
100
AcDbEntity
  8
AM_4
100
AcDbCircle
 10
-4.433333333333332
 20
-5.683333333333334
 30
0.0
 40
0.3166666666666673
100
AcDbArc
 50
180.0
 51
270.0
  0
ARC
  5
147
330
106
100
AcDbEntity
  8
AM_4
100
AcDbCircle
 10
4.433333333333332
 20
-5.683333333333334
 30
0.0
 40
0.3166666666666682
100
AcDbArc
 50
270.0
 51
0.0
  0
LINE
  5
148
330
106
100
AcDbEntity
  8
AM_4
100
AcDbLine
 10
4.75
 20
5.683333333333334
 30
0.0
 11
-4.749999999999999
 21
5.683333333333334
 31
0.0
  0
LINE
  5
149
330
106
100
AcDbEntity
  8
AM_4
100
AcDbLine
 10
4.749999999999999
 20
-5.683333333333334
 30
0.0
 11
-4.749999999999999
 21
-5.683333333333334
 31
0.0
  0
LINE
  5
14A
330
106
100
AcDbEntity
  8
AM_4
100
AcDbLine
 10
-4.749999999999999
 20
-5.0
 30
0.0
 11
-4.749999999999999
 21
-5.683333333333334
 31
0.0
  0
LINE
  5
14B
330
106
100
AcDbEntity
  8
AM_4
100
AcDbLine
 10
-4.749999999999999
 20
5.683333333333334
 30
0.0
 11
-4.749999999999999
 21
5.0
 31
0.0
  0
LINE
  5
14C
330
106
100
AcDbEntity
  8
AM_4
100
AcDbLine
 10
4.749999999999999
 20
5.0
 30
0.0
 11
4.749999999999999
 21
5.683333333333334
 31
0.0
  0
LINE
  5
14D
330
106
100
AcDbEntity
  8
AM_4
100
AcDbLine
 10
4.749999999999999
 20
-5.683333333333334
 30
0.0
 11
4.749999999999999
 21
-5.0
 31
0.0
  0
ENDBLK
  5
109
330
106
100
AcDbEntity
  8
0
100
AcDbBlockEnd
  0
BLOCK
  5
150
330
14E
100
AcDbEntity
  8
0
100
AcDbBlockBegin
  2
4_066381p_0_in_066381_4
 70
     2
 10
0.0
 20
0.0
 30
0.0
  3
4_066381p_0_in_066381_4
  1

  0
ATTDEF
  5
152
330
14E
100
AcDbEntity
  8
AM_6
100
AcDbText
 10
18.375
 20
5.000000000000001
 30
0.0
 40
0.5
  1
Special Duty Pillow Block - 4 Bolt - Inch - Body
100
AcDbAttributeDefinition
  3

  2
NN
 70
     8
280
     0
  0
ATTDEF
  5
153
330
14E
100
AcDbEntity
  8
AM_6
100
AcDbText
 10
18.375
 20
4.500000000000001
 30
0.0
 40
0.5
  1
Special Duty
100
AcDbAttributeDefinition
  3

  2
NT
 70
     8
280
     0
  0
ATTDEF
  5
154
330
14E
100
AcDbEntity
  8
AM_6
100
AcDbText
 10
18.375
 20
4.000000000000001
 30
0.0
 40
0.5
  1
066381p
100
AcDbAttributeDefinition
  3

  2
NB
 70
     8
280
     0
  0
ATTDEF
  5
155
330
14E
100
AcDbEntity
  8
AM_6
100
AcDbText
 10
18.375
 20
3.500000000000001
 30
0.0
 40
0.5
  1
$PN.
100
AcDbAttributeDefinition
  3

  2
NBSYN
 70
     8
280
     0
  0
ATTDEF
  5
156
330
14E
100
AcDbEntity
  8
AM_6
100
AcDbText
 10
18.375
 20
3.000000000000001
 30
0.0
 40
0.5
  1
066381p
100
AcDbAttributeDefinition
  3

  2
LINA
 70
     8
280
     0
  0
ATTDEF
  5
157
330
14E
100
AcDbEntity
  8
AM_6
100
AcDbText
 10
18.375
 20
2.500000000000001
 30
0.0
 40
0.5
  1
5-15/16
100
AcDbAttributeDefinition
  3

  2
SS
 70
     8
280
     0
  0
ATTDEF
  5
158
330
14E
100
AcDbEntity
  8
AM_6
100
AcDbText
 10
18.375
 20
2.000000000000001
 30
0.0
 40
0.5
  1
5.93750
100
AcDbAttributeDefinition
  3

  2
SS1
 70
     8
280
     0
  0
ATTDEF
  5
159
330
14E
100
AcDbEntity
  8
AM_6
100
AcDbText
 10
18.375
 20
1.500000000000001
 30
0.0
 40
0.5
  1
Gray Iron Non - Expansion
100
AcDbAttributeDefinition
  3

  2
TYPE
 70
     8
280
     0
  0
ATTDEF
  5
15A
330
14E
100
AcDbEntity
  8
AM_6
100
AcDbText
 10
18.375
 20
1.000000000000001
 30
0.0
 40
0.5
  1
066381p
100
AcDbAttributeDefinition
  3

  2
PN1
 70
     8
280
     0
  0
ATTDEF
  5
15B
330
14E
100
AcDbEntity
  8
AM_6
100
AcDbText
 10
18.375
 20
0.5000000000000009
 30
0.0
 40
0.5
  1
066421b
100
AcDbAttributeDefinition
  3

  2
PN2
 70
     8
280
     0
  0
ATTDEF
  5
15C
330
14E
100
AcDbEntity
  8
AM_6
100
AcDbText
 10
18.375
 20
0.0000000000000009
 30
0.0
 40
0.5
  1
P4B-SD-515
100
AcDbAttributeDefinition
  3

  2
DESCRIPTION1
 70
     8
280
     0
  0
ATTDEF
  5
15D
330
14E
100
AcDbEntity
  8
AM_6
100
AcDbText
 10
18.375
 20
-0.4999999999999991
 30
0.0
 40
0.5
  1
P4B-SD-515
100
AcDbAttributeDefinition
  3

  2
DESCRIPTION2
 70
     8
280
     0
  0
ATTDEF
  5
15E
330
14E
100
AcDbEntity
  8
AM_6
100
AcDbText
 10
18.375
 20
-0.9999999999999991
 30
0.0
 40
0.5
  1
585
100
AcDbAttributeDefinition
  3

  2
WEIGHT1
 70
     8
280
     0
  0
ATTDEF
  5
15F
330
14E
100
AcDbEntity
  8
AM_6
100
AcDbText
 10
18.375
 20
-1.499999999999999
 30
0.0
 40
0.5
  1
585
100
AcDbAttributeDefinition
  3

  2
WEIGHT2
 70
     8
280
     0
  0
ATTDEF
  5
160
330
14E
100
AcDbEntity
  8
AM_6
100
AcDbText
 10
18.375
 20
-1.999999999999999
 30
0.0
 40
0.5
  1
12
100
AcDbAttributeDefinition
  3

  2
A
 70
     8
280
     0
  0
ATTDEF
  5
161
330
14E
100
AcDbEntity
  8
AM_6
100
AcDbText
 10
18.375
 20
-2.499999999999999
 30
0.0
 40
0.5
  1
12.00000
100
AcDbAttributeDefinition
  3

  2
A1
 70
     8
280
     0
  0
ATTDEF
  5
162
330
14E
100
AcDbEntity
  8
AM_6
100
AcDbText
 10
18.375
 20
-2.999999999999999
 30
0.0
 40
0.5
  1
26-3/4
100
AcDbAttributeDefinition
  3

  2
B
 70
     8
280
     0
  0
ATTDEF
  5
163
330
14E
100
AcDbEntity
  8
AM_6
100
AcDbText
 10
18.375
 20
-3.499999999999999
 30
0.0
 40
0.5
  1
26.75000
100
AcDbAttributeDefinition
  3

  2
B1
 70
     8
280
     0
  0
ATTDEF
  5
164
330
14E
100
AcDbEntity
  8
AM_6
100
AcDbText
 10
18.375
 20
-3.999999999999999
 30
0.0
 40
0.5
  1
9-1/4
100
AcDbAttributeDefinition
  3

  2
C
 70
     8
280
     0
  0
ATTDEF
  5
165
330
14E
100
AcDbEntity
  8
AM_6
100
AcDbText
 10
18.375
 20
-4.499999999999999
 30
0.0
 40
0.5
  1
9.25000
100
AcDbAttributeDefinition
  3

  2
C1
 70
     8
280
     0
  0
ATTDEF
  5
166
330
14E
100
AcDbEntity
  8
AM_6
100
AcDbText
 10
18.375
 20
-4.999999999999999
 30
0.0
 40
0.5
  1
21-3/8
100
AcDbAttributeDefinition
  3

  2
DMIN
 70
     8
280
     0
  0
ATTDEF
  5
167
330
14E
100
AcDbEntity
  8
AM_6
100
AcDbText
 10
18.375
 20
-5.499999999999999
 30
0.0
 40
0.5
  1
21.37500
100
AcDbAttributeDefinition
  3

  2
DMIN1
 70
     8
280
     0
  0
ATTDEF
  5
168
330
14E
100
AcDbEntity
  8
AM_6
100
AcDbText
 10
18.375
 20
-5.999999999999999
 30
0.0
 40
0.5
  1
23-5/8
100
AcDbAttributeDefinition
  3

  2
DMAX
 70
     8
280
     0
  0
ATTDEF
  5
169
330
14E
100
AcDbEntity
  8
AM_6
100
AcDbText
 10
18.375
 20
-6.499999999999999
 30
0.0
 40
0.5
  1
23.62500
100
AcDbAttributeDefinition
  3

  2
DMAX1
 70
     8
280
     0
  0
ATTDEF
  5
16A
330
14E
100
AcDbEntity
  8
AM_6
100
AcDbText
 10
18.375
 20
-6.999999999999999
 30
0.0
 40
0.5
  1
5
100
AcDbAttributeDefinition
  3

  2
E
 70
     8
280
     0
  0
ATTDEF
  5
16B
330
14E
100
AcDbEntity
  8
AM_6
100
AcDbText
 10
18.375
 20
-7.499999999999999
 30
0.0
 40
0.5
  1
5.00000
100
AcDbAttributeDefinition
  3

  2
E1
 70
     8
280
     0
  0
ATTDEF
  5
16C
330
14E
100
AcDbEntity
  8
AM_6
100
AcDbText
 10
18.375
 20
-7.999999999999999
 30
0.0
 40
0.5
  1
1-1/8
100
AcDbAttributeDefinition
  3

  2
F
 70
     8
280
     0
  0
ATTDEF
  5
16D
330
14E
100
AcDbEntity
  8
AM_6
100
AcDbText
 10
18.375
 20
-8.5
 30
0.0
 40
0.5
  1
1.12500
100
AcDbAttributeDefinition
  3

  2
F1
 70
     8
280
     0
  0
ATTDEF
  5
16E
330
14E
100
AcDbEntity
  8
AM_6
100
AcDbText
 10
18.375
 20
-9.0
 30
0.0
 40
0.5
  1
2-1/4
100
AcDbAttributeDefinition
  3

  2
G
 70
     8
280
     0
  0
ATTDEF
  5
16F
330
14E
100
AcDbEntity
  8
AM_6
100
AcDbText
 10
18.375
 20
-9.5
 30
0.0
 40
0.5
  1
2.25000
100
AcDbAttributeDefinition
  3

  2
G1
 70
     8
280
     0
  0
ATTDEF
  5
170
330
14E
100
AcDbEntity
  8
AM_6
100
AcDbText
 10
18.375
 20
-10.0
 30
0.0
 40
0.5
  1
5
100
AcDbAttributeDefinition
  3

  2
H
 70
     8
280
     0
  0
ATTDEF
  5
171
330
14E
100
AcDbEntity
  8
AM_6
100
AcDbText
 10
18.375
 20
-10.5
 30
0.0
 40
0.5
  1
5.00000
100
AcDbAttributeDefinition
  3

  2
H1
 70
     8
280
     0
  0
ATTDEF
  5
172
330
14E
100
AcDbEntity
  8
AM_6
100
AcDbText
 10
18.375
 20
-11.0
 30
0.0
 40
0.5
  1
19
100
AcDbAttributeDefinition
  3

  2
J
 70
     8
280
     0
  0
ATTDEF
  5
173
330
14E
100
AcDbEntity
  8
AM_6
100
AcDbText
 10
18.375
 20
-11.5
 30
0.0
 40
0.5
  1
19.00000
100
AcDbAttributeDefinition
  3

  2
J1
 70
     8
280
     0
  0
ATTDEF
  5
174
330
14E
100
AcDbEntity
  8
AM_6
100
AcDbText
 10
18.375
 20
-12.0
 30
0.0
 40
0.5
  1
0.625
100
AcDbAttributeDefinition
  3

  2
J11
 70
     8
280
     0
  0
ATTDEF
  5
175
330
14E
100
AcDbEntity
  8
AM_6
100
AcDbText
 10
18.375
 20
-12.5
 30
0.0
 40
0.5
  1
9-1/2
100
AcDbAttributeDefinition
  3

  2
L
 70
     8
280
     0
  0
ATTDEF
  5
176
330
14E
100
AcDbEntity
  8
AM_6
100
AcDbText
 10
18.375
 20
-13.0
 30
0.0
 40
0.5
  1
9.50000
100
AcDbAttributeDefinition
  3

  2
L1
 70
     8
280
     0
  0
ATTDEF
  5
177
330
14E
100
AcDbEntity
  8
AM_6
100
AcDbText
 10
18.375
 20
-13.5
 30
0.0
 40
0.5
  1
9
100
AcDbAttributeDefinition
  3

  2
M
 70
     8
280
     0
  0
ATTDEF
  5
178
330
14E
100
AcDbEntity
  8
AM_6
100
AcDbText
 10
18.375
 20
-14.0
 30
0.0
 40
0.5
  1
9.00000
100
AcDbAttributeDefinition
  3

  2
M1
 70
     8
280
     0
  0
ATTDEF
  5
179
330
14E
100
AcDbEntity
  8
AM_6
100
AcDbText
 10
18.375
 20
-14.5
 30
0.0
 40
0.5
  1
17-3/8
100
AcDbAttributeDefinition
  3

  2
P
 70
     8
280
     0
  0
ATTDEF
  5
17A
330
14E
100
AcDbEntity
  8
AM_6
100
AcDbText
 10
18.375
 20
-15.0
 30
0.0
 40
0.5
  1
17.37500
100
AcDbAttributeDefinition
  3

  2
P1
 70
     8
280
     0
  0
ATTDEF
  5
17B
330
14E
100
AcDbEntity
  8
AM_6
100
AcDbText
 10
18.375
 20
-15.5
 30
0.0
 40
0.5
  1
6
100
AcDbAttributeDefinition
  3

  2
R
 70
     8
280
     0
  0
ATTDEF
  5
17C
330
14E
100
AcDbEntity
  8
AM_6
100
AcDbText
 10
18.375
 20
-16.0
 30
0.0
 40
0.5
  1
6.00000
100
AcDbAttributeDefinition
  3

  2
R1
 70
     8
280
     0
  0
ATTDEF
  5
17D
330
14E
100
AcDbEntity
  8
AM_6
100
AcDbText
 10
18.375
 20
-16.5
 30
0.0
 40
0.5
  1
6
100
AcDbAttributeDefinition
  3

  2
S
 70
     8
280
     0
  0
ATTDEF
  5
17E
330
14E
100
AcDbEntity
  8
AM_6
100
AcDbText
 10
18.375
 20
-17.0
 30
0.0
 40
0.5
  1
6.00000
100
AcDbAttributeDefinition
  3

  2
S1
 70
     8
280
     0
  0
ATTDEF
  5
17F
330
14E
100
AcDbEntity
  8
AM_6
100
AcDbText
 10
18.375
 20
-17.5
 30
0.0
 40
0.5
  1
3/4
100
AcDbAttributeDefinition
  3

  2
EXP
 70
     8
280
     0
  0
ATTDEF
  5
180
330
14E
100
AcDbEntity
  8
AM_6
100
AcDbText
 10
18.375
 20
-18.0
 30
0.0
 40
0.5
  1
baldor
100
AcDbAttributeDefinition
  3

  2
COMPANY
 70
     8
280
     0
  0
LINE
  5
181
330
14E
100
AcDbEntity
  8
AM_9
100
AcDbLine
 10
-6.904316894300688
 20
3.65625
 30
0.0
 11
-6.904316894300688
 21
4.625
 31
0.0
  0
LINE
  5
182
330
14E
100
AcDbEntity
  8
AM_9
100
AcDbLine
 10
-6.904316894300688
 20
-1.34375
 30
0.0
 11
-6.904316894300688
 21
1.34375
 31
0.0
  0
LINE
  5
183
330
14E
100
AcDbEntity
  8
AM_9
100
AcDbLine
 10
6.904316894300689
 20
4.625
 30
0.0
 11
6.904316894300689
 21
3.65625
 31
0.0
  0
LINE
  5
184
330
14E
100
AcDbEntity
  8
AM_9
100
AcDbLine
 10
6.904316894300689
 20
1.34375
 30
0.0
 11
6.904316894300689
 21
-1.34375
 31
0.0
  0
LINE
  5
185
330
14E
100
AcDbEntity
  8
AM_9
100
AcDbLine
 10
-6.904316894300688
 20
-4.625
 30
0.0
 11
-6.904316894300688
 21
-3.65625
 31
0.0
  0
LINE
  5
186
330
14E
100
AcDbEntity
  8
AM_9
100
AcDbLine
 10
6.904316894300689
 20
-3.65625
 30
0.0
 11
6.904316894300689
 21
-4.625
 31
0.0
  0
LINE
  5
187
330
14E
100
AcDbEntity
  8
AM_9
100
AcDbLine
 10
4.75
 20
-5.0
 30
0.0
 11
4.75
 21
5.000000000000001
 31
0.0
  0
LINE
  5
188
330
14E
100
AcDbEntity
  8
AM_9
100
AcDbLine
 10
-4.75
 20
5.000000000000001
 30
0.0
 11
-4.75
 21
-5.0
 31
0.0
  0
LINE
  5
189
330
14E
100
AcDbEntity
  8
AM_9
100
AcDbLine
 10
7.019720929929212
 20
3.65625
 30
0.0
 11
7.019720929929213
 21
4.625
 31
0.0
  0
LINE
  5
18A
330
14E
100
AcDbEntity
  8
AM_9
100
AcDbLine
 10
-7.01972092992921
 20
3.65625
 30
0.0
 11
-7.01972092992921
 21
4.625
 31
0.0
  0
LINE
  5
18B
330
14E
100
AcDbEntity
  8
AM_9
100
AcDbLine
 10
-7.01972092992921
 20
-1.34375
 30
0.0
 11
-7.01972092992921
 21
1.34375
 31
0.0
  0
LINE
  5
18C
330
14E
100
AcDbEntity
  8
AM_9
100
AcDbLine
 10
-7.01972092992921
 20
-4.625
 30
0.0
 11
-7.01972092992921
 21
-3.65625
 31
0.0
  0
LINE
  5
18D
330
14E
100
AcDbEntity
  8
AM_9
100
AcDbLine
 10
7.019720929929213
 20
-4.625
 30
0.0
 11
7.019720929929212
 21
-3.65625
 31
0.0
  0
LINE
  5
18E
330
14E
100
AcDbEntity
  8
AM_9
100
AcDbLine
 10
7.019720929929212
 20
-1.34375
 30
0.0
 11
7.019720929929212
 21
1.34375
 31
0.0
  0
LINE
  5
18F
330
14E
100
AcDbEntity
  8
AM_7
100
AcDbLine
 10
-2.027083333333333
 20
0.0000000000000006
 30
0.0
 11
2.027083333333333
 21
0.0000000000000006
 31
0.0
  0
LINE
  5
190
330
14E
100
AcDbEntity
  8
AM_7
100
AcDbLine
 10
-12.403125
 20
2.500000000000001
 30
0.0
 11
-10.09687499999999
 21
2.500000000000001
 31
0.0
  0
LINE
  5
191
330
14E
100
AcDbEntity
  8
AM_7
100
AcDbLine
 10
-10.6875
 20
1.909374999999994
 30
0.0
 11
-10.6875
 21
3.090625000000009
 31
0.0
  0
LINE
  5
192
330
14E
100
AcDbEntity
  8
AM_7
100
AcDbLine
 10
10.09687499999999
 20
2.5
 30
0.0
 11
12.403125
 21
2.5
 31
0.0
  0
LINE
  5
193
330
14E
100
AcDbEntity
  8
AM_7
100
AcDbLine
 10
10.6875
 20
1.909374999999992
 30
0.0
 11
10.6875
 21
3.090625000000007
 31
0.0
  0
LINE
  5
194
330
14E
100
AcDbEntity
  8
AM_7
100
AcDbLine
 10
-12.403125
 20
-2.499999999999999
 30
0.0
 11
-10.09687499999999
 21
-2.499999999999999
 31
0.0
  0
LINE
  5
195
330
14E
100
AcDbEntity
  8
AM_7
100
AcDbLine
 10
-11.81249999999999
 20
-3.090625000000006
 30
0.0
 11
-11.81249999999999
 21
-1.909374999999991
 31
0.0
  0
LINE
  5
196
330
14E
100
AcDbEntity
  8
AM_7
100
AcDbLine
 10
-11.81249999999999
 20
1.909374999999993
 30
0.0
 11
-11.81249999999999
 21
3.090625000000008
 31
0.0
  0
LINE
  5
197
330
14E
100
AcDbEntity
  8
AM_7
100
AcDbLine
 10
6.88934782608696
 20
-2.500000000000003
 30
0.0
 11
8.219347826086953
 21
-2.500000000000003
 31
0.0
  0
LINE
  5
198
330
14E
100
AcDbEntity
  8
AM_7
100
AcDbLine
 10
7.554347826086956
 20
-3.164999999999999
 30
0.0
 11
7.554347826086956
 21
-1.835000000000006
 31
0.0
  0
LINE
  5
199
330
14E
100
AcDbEntity
  8
AM_7
100
AcDbLine
 10
-8.219347826086965
 20
2.50000000000001
 30
0.0
 11
-6.889347826086948
 21
2.50000000000001
 31
0.0
  0
LINE
  5
19A
330
14E
100
AcDbEntity
  8
AM_7
100
AcDbLine
 10
-7.554347826086957
 20
1.835000000000001
 30
0.0
 11
-7.554347826086957
 21
3.165000000000019
 31
0.0
  0
LINE
  5
19B
330
14E
100
AcDbEntity
  8
AM_7
100
AcDbLine
 10
10.09687499999999
 20
-2.5
 30
0.0
 11
12.403125
 21
-2.5
 31
0.0
  0
LINE
  5
19C
330
14E
100
AcDbEntity
  8
AM_7
100
AcDbLine
 10
11.81249999999999
 20
-3.090625000000007
 30
0.0
 11
11.81249999999999
 21
-1.909374999999992
 31
0.0
  0
LINE
  5
19D
330
14E
100
AcDbEntity
  8
AM_7
100
AcDbLine
 10
-10.6875
 20
-3.090625000000006
 30
0.0
 11
-10.6875
 21
-1.909374999999991
 31
0.0
  0
LINE
  5
19E
330
14E
100
AcDbEntity
  8
AM_7
100
AcDbLine
 10
11.81249999999999
 20
1.909374999999992
 30
0.0
 11
11.81249999999999
 21
3.090625000000007
 31
0.0
  0
LINE
  5
19F
330
14E
100
AcDbEntity
  8
AM_7
100
AcDbLine
 10
-8.219347826086961
 20
-2.499999999999998
 30
0.0
 11
-6.889347826086957
 21
-2.499999999999998
 31
0.0
  0
LINE
  5
1A0
330
14E
100
AcDbEntity
  8
AM_7
100
AcDbLine
 10
-7.55434782608696
 20
-3.165
 30
0.0
 11
-7.55434782608696
 21
-1.834999999999995
 31
0.0
  0
LINE
  5
1A1
330
14E
100
AcDbEntity
  8
AM_7
100
AcDbLine
 10
10.6875
 20
-3.090625000000007
 30
0.0
 11
10.6875
 21
-1.909374999999992
 31
0.0
  0
LINE
  5
1A2
330
14E
100
AcDbEntity
  8
AM_7
100
AcDbLine
 10
6.889347826086958
 20
2.500000000000003
 30
0.0
 11
8.21934782608695
 21
2.500000000000003
 31
0.0
  0
LINE
  5
1A3
330
14E
100
AcDbEntity
  8
AM_7
100
AcDbLine
 10
7.554347826086954
 20
1.835000000000006
 30
0.0
 11
7.554347826086954
 21
3.164999999999999
 31
0.0
  0
LINE
  5
1A4
330
14E
100
AcDbEntity
  8
AM_4
100
AcDbLine
 10
13.375
 20
4.624999999999999
 30
0.0
 11
-13.375
 21
4.624999999999999
 31
0.0
  0
LINE
  5
1A5
330
14E
100
AcDbEntity
  8
AM_4
100
AcDbLine
 10
13.375
 20
-4.625000000000001
 30
0.0
 11
-13.375
 21
-4.625000000000001
 31
0.0
  0
LINE
  5
1A6
330
14E
100
AcDbEntity
  8
AM_4
100
AcDbLine
 10
13.375
 20
-4.625000000000001
 30
0.0
 11
13.375
 21
4.624999999999999
 31
0.0
  0
LINE
  5
1A7
330
14E
100
AcDbEntity
  8
AM_4
100
AcDbLine
 10
-13.375
 20
-4.625000000000001
 30
0.0
 11
-13.375
 21
4.624999999999999
 31
0.0
  0
LINE
  5
1A8
330
14E
100
AcDbEntity
  8
AM_4
100
AcDbLine
 10
-10.6875
 20
3.062500000000008
 30
0.0
 11
-11.81249999999999
 21
3.062500000000008
 31
0.0
  0
ARC
  5
1A9
330
14E
100
AcDbEntity
  8
AM_4
100
AcDbCircle
 10
-10.6875
 20
2.500000000000001
 30
0.0
 40
0.5625000000000073
100
AcDbArc
 50
270.0
 51
90.0
  0
LINE
  5
1AA
330
14E
100
AcDbEntity
  8
AM_4
100
AcDbLine
 10
-11.81249999999999
 20
1.937499999999994
 30
0.0
 11
-10.6875
 21
1.937499999999994
 31
0.0
  0
ARC
  5
1AB
330
14E
100
AcDbEntity
  8
AM_4
100
AcDbCircle
 10
-11.81249999999999
 20
2.500000000000001
 30
0.0
 40
0.5625000000000075
100
AcDbArc
 50
90.0
 51
270.0
  0
LINE
  5
1AC
330
14E
100
AcDbEntity
  8
AM_4
100
AcDbLine
 10
-12.875
 20
1.34375
 30
0.0
 11
-12.875
 21
3.65625
 31
0.0
  0
LINE
  5
1AD
330
14E
100
AcDbEntity
  8
AM_4
100
AcDbLine
 10
-10.6875
 20
-1.937499999999992
 30
0.0
 11
-11.81249999999999
 21
-1.937499999999992
 31
0.0
  0
ARC
  5
1AE
330
14E
100
AcDbEntity
  8
AM_4
100
AcDbCircle
 10
-10.6875
 20
-2.499999999999998
 30
0.0
 40
0.5625000000000075
100
AcDbArc
 50
270.0
 51
90.0
  0
LINE
  5
1AF
330
14E
100
AcDbEntity
  8
AM_4
100
AcDbLine
 10
-11.81249999999999
 20
-3.062500000000006
 30
0.0
 11
-10.6875
 21
-3.062500000000006
 31
0.0
  0
ARC
  5
1B0
330
14E
100
AcDbEntity
  8
AM_4
100
AcDbCircle
 10
-11.81249999999999
 20
-2.499999999999999
 30
0.0
 40
0.5625000000000071
100
AcDbArc
 50
90.0
 51
270.0
  0
LINE
  5
1B1
330
14E
100
AcDbEntity
  8
AM_4
100
AcDbLine
 10
-12.875
 20
-3.65625
 30
0.0
 11
-12.875
 21
-1.34375
 31
0.0
  0
LINE
  5
1B2
330
14E
100
AcDbEntity
  8
AM_4
100
AcDbLine
 10
11.81249999999999
 20
3.062500000000007
 30
0.0
 11
10.6875
 21
3.062500000000007
 31
0.0
  0
ARC
  5
1B3
330
14E
100
AcDbEntity
  8
AM_4
100
AcDbCircle
 10
11.81249999999999
 20
2.5
 30
0.0
 40
0.5625000000000073
100
AcDbArc
 50
270.0
 51
90.0
  0
LINE
  5
1B4
330
14E
100
AcDbEntity
  8
AM_4
100
AcDbLine
 10
10.6875
 20
1.937499999999993
 30
0.0
 11
11.8125
 21
1.937499999999993
 31
0.0
  0
ARC
  5
1B5
330
14E
100
AcDbEntity
  8
AM_4
100
AcDbCircle
 10
10.6875
 20
2.5
 30
0.0
 40
0.5625000000000071
100
AcDbArc
 50
90.0
 51
270.0
  0
LINE
  5
1B6
330
14E
100
AcDbEntity
  8
AM_4
100
AcDbLine
 10
12.875
 20
1.34375
 30
0.0
 11
12.875
 21
3.65625
 31
0.0
  0
LINE
  5
1B7
330
14E
100
AcDbEntity
  8
AM_4
100
AcDbLine
 10
11.81249999999999
 20
-1.937499999999994
 30
0.0
 11
10.6875
 21
-1.937499999999993
 31
0.0
  0
ARC
  5
1B8
330
14E
100
AcDbEntity
  8
AM_4
100
AcDbCircle
 10
11.81249999999999
 20
-2.5
 30
0.0
 40
0.5625000000000071
100
AcDbArc
 50
270.0
 51
90.0
  0
LINE
  5
1B9
330
14E
100
AcDbEntity
  8
AM_4
100
AcDbLine
 10
10.6875
 20
-3.062500000000007
 30
0.0
 11
11.8125
 21
-3.062500000000007
 31
0.0
  0
ARC
  5
1BA
330
14E
100
AcDbEntity
  8
AM_4
100
AcDbCircle
 10
10.6875
 20
-2.5
 30
0.0
 40
0.5625000000000069
100
AcDbArc
 50
90.0
 51
270.0
  0
LINE
  5
1BB
330
14E
100
AcDbEntity
  8
AM_4
100
AcDbLine
 10
12.875
 20
-3.65625
 30
0.0
 11
12.875
 21
-1.34375
 31
0.0
  0
LINE
  5
1BC
330
14E
100
AcDbEntity
  8
AM_4
100
AcDbLine
 10
-9.139583333333334
 20
-3.65625
 30
0.0
 11
-9.139583333333334
 21
-1.34375
 31
0.0
  0
LINE
  5
1BD
330
14E
100
AcDbEntity
  8
AM_4
100
AcDbLine
 10
9.139583333333334
 20
1.34375
 30
0.0
 11
9.139583333333334
 21
3.65625
 31
0.0
  0
LINE
  5
1BE
330
14E
100
AcDbEntity
  8
AM_4
100
AcDbLine
 10
9.139583333333334
 20
-3.65625
 30
0.0
 11
9.139583333333334
 21
-1.34375
 31
0.0
  0
LINE
  5
1BF
330
14E
100
AcDbEntity
  8
AM_4
100
AcDbLine
 10
-9.139583333333334
 20
1.34375
 30
0.0
 11
-9.139583333333334
 21
3.65625
 31
0.0
  0
LINE
  5
1C0
330
14E
100
AcDbEntity
  8
AM_4
100
AcDbLine
 10
-10.70431689430069
 20
3.65625
 30
0.0
 11
-10.70431689430069
 21
4.624999999999999
 31
0.0
  0
LINE
  5
1C1
330
14E
100
AcDbEntity
  8
AM_4
100
AcDbLine
 10
-10.70431689430069
 20
-1.34375
 30
0.0
 11
-10.70431689430069
 21
1.34375
 31
0.0
  0
LINE
  5
1C2
330
14E
100
AcDbEntity
  8
AM_4
100
AcDbLine
 10
10.70431689430069
 20
3.65625
 30
0.0
 11
10.70431689430069
 21
4.624999999999999
 31
0.0
  0
LINE
  5
1C3
330
14E
100
AcDbEntity
  8
AM_4
100
AcDbLine
 10
10.70431689430069
 20
-1.34375
 30
0.0
 11
10.70431689430069
 21
1.34375
 31
0.0
  0
LINE
  5
1C4
330
14E
100
AcDbEntity
  8
AM_4
100
AcDbLine
 10
-10.70431689430069
 20
-4.625000000000001
 30
0.0
 11
-10.70431689430069
 21
-3.65625
 31
0.0
  0
LINE
  5
1C5
330
14E
100
AcDbEntity
  8
AM_4
100
AcDbLine
 10
10.70431689430069
 20
-4.625000000000001
 30
0.0
 11
10.70431689430069
 21
-3.65625
 31
0.0
  0
LINE
  5
1C6
330
14E
100
AcDbEntity
  8
AM_4
100
AcDbLine
 10
5.135135135135135
 20
-5.0
 30
0.0
 11
-5.135135135135135
 21
-5.0
 31
0.0
  0
LINE
  5
1C7
330
14E
100
AcDbEntity
  8
AM_4
100
AcDbLine
 10
5.135135135135135
 20
-5.0
 30
0.0
 11
5.135135135135135
 21
-4.625
 31
0.0
  0
LINE
  5
1C8
330
14E
100
AcDbEntity
  8
AM_4
100
AcDbLine
 10
-5.135135135135135
 20
-4.625
 30
0.0
 11
-5.135135135135135
 21
-5.0
 31
0.0
  0
LINE
  5
1C9
330
14E
100
AcDbEntity
  8
AM_4
100
AcDbLine
 10
5.135135135135135
 20
5.0
 30
0.0
 11
-5.135135135135135
 21
5.0
 31
0.0
  0
LINE
  5
1CA
330
14E
100
AcDbEntity
  8
AM_4
100
AcDbLine
 10
5.135135135135135
 20
4.625
 30
0.0
 11
5.135135135135135
 21
5.0
 31
0.0
  0
LINE
  5
1CB
330
14E
100
AcDbEntity
  8
AM_4
100
AcDbLine
 10
-5.135135135135135
 20
5.0
 30
0.0
 11
-5.135135135135135
 21
4.625
 31
0.0
  0
ARC
  5
1CC
330
14E
100
AcDbEntity
  8
AM_4
100
AcDbCircle
 10
-7.446221999672989
 20
-2.5
 30
0.0
 40
1.241278000327011
100
AcDbArc
 50
111.3302001103401
 51
248.6697998896598
  0
LINE
  5
1CD
330
14E
100
AcDbEntity
  8
AM_4
100
AcDbLine
 10
-4.955464515933172
 20
-1.34375
 30
0.0
 11
-13.375
 21
-1.34375
 31
0.0
  0
LINE
  5
1CE
330
14E
100
AcDbEntity
  8
AM_4
100
AcDbLine
 10
-13.375
 20
-3.65625
 30
0.0
 11
-4.955464515933172
 21
-3.65625
 31
0.0
  0
ARC
  5
1CF
330
14E
100
AcDbEntity
  8
AM_4
100
AcDbCircle
 10
7.44622199967299
 20
-2.5
 30
0.0
 40
1.24127800032701
100
AcDbArc
 50
291.3302001103401
 51
68.66979988965988
  0
LINE
  5
1D0
330
14E
100
AcDbEntity
  8
AM_4
100
AcDbLine
 10
4.955464515933173
 20
-3.65625
 30
0.0
 11
13.375
 21
-3.65625
 31
0.0
  0
LINE
  5
1D1
330
14E
100
AcDbEntity
  8
AM_4
100
AcDbLine
 10
13.375
 20
-1.34375
 30
0.0
 11
4.955464515933174
 21
-1.34375
 31
0.0
  0
LINE
  5
1D2
330
14E
100
AcDbEntity
  8
AM_4
100
AcDbLine
 10
-13.375
 20
1.34375
 30
0.0
 11
-4.955464515933172
 21
1.343749999999999
 31
0.0
  0
LINE
  5
1D3
330
14E
100
AcDbEntity
  8
AM_4
100
AcDbLine
 10
-4.955464515933173
 20
3.65625
 30
0.0
 11
-13.375
 21
3.65625
 31
0.0
  0
ARC
  5
1D4
330
14E
100
AcDbEntity
  8
AM_4
100
AcDbCircle
 10
-7.446221999672989
 20
2.5
 30
0.0
 40
1.241278000327011
100
AcDbArc
 50
111.3302001103401
 51
248.6697998896598
  0
ARC
  5
1D5
330
14E
100
AcDbEntity
  8
AM_4
100
AcDbCircle
 10
7.446221999672989
 20
2.500000000000001
 30
0.0
 40
1.241278000327011
100
AcDbArc
 50
291.3302001103401
 51
68.66979988965987
  0
LINE
  5
1D6
330
14E
100
AcDbEntity
  8
AM_4
100
AcDbLine
 10
4.955464515933173
 20
1.34375
 30
0.0
 11
13.375
 21
1.34375
 31
0.0
  0
LINE
  5
1D7
330
14E
100
AcDbEntity
  8
AM_4
100
AcDbLine
 10
13.375
 20
3.65625
 30
0.0
 11
4.955464515933174
 21
3.656250000000002
 31
0.0
  0
LINE
  5
1D8
330
14E
100
AcDbEntity
  8
AM_4
100
AcDbLine
 10
7.554347826086956
 20
-3.231310340973526
 30
0.0
 11
8.18768115942029
 21
-2.865655170486762
 31
0.0
  0
LINE
  5
1D9
330
14E
100
AcDbEntity
  8
AM_4
100
AcDbLine
 10
6.921014492753624
 20
-2.865655170486762
 30
0.0
 11
7.554347826086956
 21
-3.231310340973526
 31
0.0
  0
LINE
  5
1DA
330
14E
100
AcDbEntity
  8
AM_4
100
AcDbLine
 10
8.18768115942029
 20
-2.134344829513237
 30
0.0
 11
7.554347826086956
 21
-1.768689659026474
 31
0.0
  0
LINE
  5
1DB
330
14E
100
AcDbEntity
  8
AM_4
100
AcDbLine
 10
8.18768115942029
 20
-2.865655170486762
 30
0.0
 11
8.18768115942029
 21
-2.134344829513237
 31
0.0
  0
LINE
  5
1DC
330
14E
100
AcDbEntity
  8
AM_4
100
AcDbLine
 10
7.554347826086956
 20
-1.768689659026474
 30
0.0
 11
6.921014492753624
 21
-2.134344829513237
 31
0.0
  0
LINE
  5
1DD
330
14E
100
AcDbEntity
  8
AM_4
100
AcDbLine
 10
6.921014492753624
 20
-2.134344829513237
 30
0.0
 11
6.921014492753624
 21
-2.865655170486762
 31
0.0
  0
LINE
  5
1DE
330
14E
100
AcDbEntity
  8
AM_4
100
AcDbLine
 10
7.554347826086956
 20
3.231310340973526
 30
0.0
 11
6.921014492753624
 21
2.865655170486764
 31
0.0
  0
LINE
  5
1DF
330
14E
100
AcDbEntity
  8
AM_4
100
AcDbLine
 10
6.921014492753624
 20
2.865655170486764
 30
0.0
 11
6.921014492753624
 21
2.134344829513238
 31
0.0
  0
LINE
  5
1E0
330
14E
100
AcDbEntity
  8
AM_4
100
AcDbLine
 10
-8.18768115942029
 20
2.134344829513238
 30
0.0
 11
-7.554347826086956
 21
1.768689659026474
 31
0.0
  0
LINE
  5
1E1
330
14E
100
AcDbEntity
  8
AM_4
100
AcDbLine
 10
-7.554347826086956
 20
1.768689659026474
 30
0.0
 11
-6.921014492753624
 21
2.134344829513238
 31
0.0
  0
LINE
  5
1E2
330
14E
100
AcDbEntity
  8
AM_4
100
AcDbLine
 10
-6.921014492753624
 20
2.865655170486764
 30
0.0
 11
-7.554347826086956
 21
3.231310340973526
 31
0.0
  0
LINE
  5
1E3
330
14E
100
AcDbEntity
  8
AM_4
100
AcDbLine
 10
-6.921014492753624
 20
2.134344829513238
 30
0.0
 11
-6.921014492753624
 21
2.865655170486764
 31
0.0
  0
LINE
  5
1E4
330
14E
100
AcDbEntity
  8
AM_4
100
AcDbLine
 10
-7.554347826086956
 20
3.231310340973526
 30
0.0
 11
-8.18768115942029
 21
2.865655170486764
 31
0.0
  0
LINE
  5
1E5
330
14E
100
AcDbEntity
  8
AM_4
100
AcDbLine
 10
-8.18768115942029
 20
2.865655170486764
 30
0.0
 11
-8.18768115942029
 21
2.134344829513238
 31
0.0
  0
LINE
  5
1E6
330
14E
100
AcDbEntity
  8
AM_4
100
AcDbLine
 10
7.554347826086956
 20
1.768689659026474
 30
0.0
 11
8.18768115942029
 21
2.134344829513238
 31
0.0
  0
LINE
  5
1E7
330
14E
100
AcDbEntity
  8
AM_4
100
AcDbLine
 10
6.921014492753624
 20
2.134344829513238
 30
0.0
 11
7.554347826086956
 21
1.768689659026474
 31
0.0
  0
LINE
  5
1E8
330
14E
100
AcDbEntity
  8
AM_4
100
AcDbLine
 10
8.18768115942029
 20
2.134344829513238
 30
0.0
 11
8.18768115942029
 21
2.865655170486764
 31
0.0
  0
LINE
  5
1E9
330
14E
100
AcDbEntity
  8
AM_4
100
AcDbLine
 10
8.18768115942029
 20
2.865655170486764
 30
0.0
 11
7.554347826086956
 21
3.231310340973526
 31
0.0
  0
LINE
  5
1EA
330
14E
100
AcDbEntity
  8
AM_4
100
AcDbLine
 10
-7.554347826086956
 20
-3.231310340973526
 30
0.0
 11
-6.921014492753624
 21
-2.865655170486762
 31
0.0
  0
LINE
  5
1EB
330
14E
100
AcDbEntity
  8
AM_4
100
AcDbLine
 10
-6.921014492753624
 20
-2.865655170486762
 30
0.0
 11
-6.921014492753624
 21
-2.134344829513237
 31
0.0
  0
LINE
  5
1EC
330
14E
100
AcDbEntity
  8
AM_4
100
AcDbLine
 10
-8.18768115942029
 20
-2.865655170486762
 30
0.0
 11
-7.554347826086956
 21
-3.231310340973526
 31
0.0
  0
LINE
  5
1ED
330
14E
100
AcDbEntity
  8
AM_4
100
AcDbLine
 10
-6.921014492753624
 20
-2.134344829513237
 30
0.0
 11
-7.554347826086956
 21
-1.768689659026474
 31
0.0
  0
LINE
  5
1EE
330
14E
100
AcDbEntity
  8
AM_4
100
AcDbLine
 10
-7.554347826086956
 20
-1.768689659026474
 30
0.0
 11
-8.18768115942029
 21
-2.134344829513237
 31
0.0
  0
LINE
  5
1EF
330
14E
100
AcDbEntity
  8
AM_4
100
AcDbLine
 10
-8.18768115942029
 20
-2.134344829513237
 30
0.0
 11
-8.18768115942029
 21
-2.865655170486762
 31
0.0
  0
CIRCLE
  5
1F0
330
14E
100
AcDbEntity
  8
AM_4
100
AcDbCircle
 10
7.554347826086956
 20
-2.5
 30
0.0
 40
0.3125000000000006
  0
CIRCLE
  5
1F1
330
14E
100
AcDbEntity
  8
AM_4
100
AcDbCircle
 10
-7.554347826086956
 20
-2.5
 30
0.0
 40
0.3124999999999994
  0
CIRCLE
  5
1F2
330
14E
100
AcDbEntity
  8
AM_4
100
AcDbCircle
 10
-7.554347826086956
 20
2.5
 30
0.0
 40
0.3124999999999994
  0
CIRCLE
  5
1F3
330
14E
100
AcDbEntity
  8
AM_4
100
AcDbCircle
 10
7.554347826086956
 20
2.5
 30
0.0
 40
0.3125000000000006
  0
LINE
  5
1F4
330
14E
100
AcDbEntity
  8
AM_4
100
AcDbLine
 10
4.955464515933173
 20
1.34375
 30
0.0
 11
4.955464515933174
 21
3.656250000000002
 31
0.0
  0
LINE
  5
1F5
330
14E
100
AcDbEntity
  8
AM_4
100
AcDbLine
 10
-4.955464515933173
 20
3.65625
 30
0.0
 11
-4.955464515933172
 21
1.343749999999999
 31
0.0
  0
LINE
  5
1F6
330
14E
100
AcDbEntity
  8
AM_4
100
AcDbLine
 10
-4.955464515933172
 20
-1.34375
 30
0.0
 11
-4.955464515933172
 21
-3.65625
 31
0.0
  0
LINE
  5
1F7
330
14E
100
AcDbEntity
  8
AM_4
100
AcDbLine
 10
4.955464515933173
 20
-3.65625
 30
0.0
 11
4.955464515933174
 21
-1.34375
 31
0.0
  0
LINE
  5
1F8
330
14E
100
AcDbEntity
  8
AM_4
100
AcDbLine
 10
7.239583333333333
 20
-4.625
 30
0.0
 11
7.239583333333333
 21
-3.65625
 31
0.0
  0
LINE
  5
1F9
330
14E
100
AcDbEntity
  8
AM_4
100
AcDbLine
 10
7.239583333333333
 20
-1.34375
 30
0.0
 11
7.239583333333333
 21
1.34375
 31
0.0
  0
LINE
  5
1FA
330
14E
100
AcDbEntity
  8
AM_4
100
AcDbLine
 10
7.239583333333333
 20
3.65625
 30
0.0
 11
7.239583333333333
 21
4.625
 31
0.0
  0
LINE
  5
1FB
330
14E
100
AcDbEntity
  8
AM_4
100
AcDbLine
 10
-7.239583333333331
 20
4.625
 30
0.0
 11
-7.239583333333331
 21
3.65625
 31
0.0
  0
LINE
  5
1FC
330
14E
100
AcDbEntity
  8
AM_4
100
AcDbLine
 10
-7.239583333333331
 20
1.34375
 30
0.0
 11
-7.239583333333331
 21
-1.34375
 31
0.0
  0
LINE
  5
1FD
330
14E
100
AcDbEntity
  8
AM_4
100
AcDbLine
 10
-7.239583333333331
 20
-3.65625
 30
0.0
 11
-7.239583333333331
 21
-4.625
 31
0.0
  0
CIRCLE
  5
1FE
330
14E
100
AcDbEntity
  8
AM_4
100
AcDbCircle
 10
0.0
 20
0.0000000000000006
 30
0.0
 40
1.930555555555555
  0
CIRCLE
  5
1FF
330
14E
100
AcDbEntity
  8
AM_4
100
AcDbCircle
 10
0.0
 20
0.0000000000000006
 30
0.0
 40
1.7375
  0
CIRCLE
  5
200
330
14E
100
AcDbEntity
  8
AM_4
100
AcDbCircle
 10
7.554347826086953
 20
-2.499999999999998
 30
0.0
 40
0.6333333333333295
  0
CIRCLE
  5
201
330
14E
100
AcDbEntity
  8
AM_4
100
AcDbCircle
 10
-7.554347826086953
 20
2.499999999999998
 30
0.0
 40
0.6333333333333371
  0
CIRCLE
  5
202
330
14E
100
AcDbEntity
  8
AM_4
100
AcDbCircle
 10
7.554347826086965
 20
2.500000000000005
 30
0.0
 40
0.6333333333333248
  0
CIRCLE
  5
203
330
14E
100
AcDbEntity
  8
AM_4
100
AcDbCircle
 10
-7.554347826086957
 20
-2.500000000000005
 30
0.0
 40
0.633333333333338
  0
CIRCLE
  5
205
330
14E
100
AcDbEntity
  8
AM_5
100
AcDbCircle
 10
7.554347826086957
 20
-2.499999999999999
 30
0.0
 40
0.2794499999999998
  0
CIRCLE
  5
206
330
14E
100
AcDbEntity
  8
AM_5
100
AcDbCircle
 10
-7.554347826086957
 20
-2.5
 30
0.0
 40
0.2794500000000001
  0
CIRCLE
  5
207
330
14E
100
AcDbEntity
  8
AM_5
100
AcDbCircle
 10
7.554347826086957
 20
2.500000000000001
 30
0.0
 40
0.2794499999999998
  0
CIRCLE
  5
208
330
14E
100
AcDbEntity
  8
AM_5
100
AcDbCircle
 10
-7.554347826086957
 20
2.500000000000001
 30
0.0
 40
0.2794500000000001
  0
ENDBLK
  5
151
330
14E
100
AcDbEntity
  8
0
100
AcDbBlockEnd
  0
ENDSEC
  0
SECTION
  2
ENTITIES
  0
INSERT
  5
6F
330
1F
100
AcDbEntity
  8
0
100
AcDbBlockReference
  2
1_066381_4
 10
0.0
 20
0.0
 30
0.0
  0
POINT
  5
20A
330
1F
100
AcDbEntity
  8
ConnectionPoints
100
AcDbPoint
 10
0.0
 20
6.0
 30
-0.0000000000000004
  0
POINT
  5
20B
330
1F
100
AcDbEntity
  8
ConnectionPoints
100
AcDbPoint
 10
0.0
 20
6.0
 30
-0.0000000000000004
  0
ENDSEC
  0
SECTION
  2
OBJECTS
  0
DICTIONARY
  5
C
330
0
100
AcDbDictionary
281
     1
  3
ACAD_DETAILVIEWSTYLE
350
213
  3
ACAD_GROUP
350
D
  3
ACAD_LAYOUT
350
1A
  3
ACAD_MATERIAL
350
43
  3
ACAD_MLEADERSTYLE
350
6B
  3
ACAD_MLINESTYLE
350
17
  3
ACAD_PLOTSETTINGS
350
19
  3
ACAD_PLOTSTYLENAME
350
E
  3
ACAD_SCALELIST
350
47
  3
ACAD_SECTIONVIEWSTYLE
350
214
  3
ACAD_TABLESTYLE
350
69
  3
ACAD_VISUALSTYLE
350
2A
  3
ACDB_RECOMPOSE_DATA
350
210
  3
AcDbVariableDictionary
350
20C
  0
SUN
  5
6D
330
29
100
AcDbSun
 90
        1
290
     0
 63
     7
421
 16777215
 40
1.0
291
     1
 91
  2455826
 92
 54000000
292
     0
 70
     2
 71
   256
280
     1
  0
DICTIONARY
  5
213
102
{ACAD_REACTORS
330
C
102
}
330
C
100
AcDbDictionary
281
     1
  0
DICTIONARY
  5
D
102
{ACAD_REACTORS
330
C
102
}
330
C
100
AcDbDictionary
281
     1
  0
DICTIONARY
  5
1A
102
{ACAD_REACTORS
330
C
102
}
330
C
100
AcDbDictionary
281
     1
  3
Layout1
350
1E
  3
Layout2
350
26
  3
Model
350
22
  0
DICTIONARY
  5
43
102
{ACAD_REACTORS
330
C
102
}
330
C
100
AcDbDictionary
281
     1
  3
ByBlock
350
45
  3
ByLayer
350
44
  3
Global
350
46
  0
DICTIONARY
  5
6B
102
{ACAD_REACTORS
330
C
102
}
330
C
100
AcDbDictionary
281
     1
  3
Standard
350
6C
  0
DICTIONARY
  5
17
102
{ACAD_REACTORS
330
C
102
}
330
C
100
AcDbDictionary
281
     1
  3
Standard
350
18
  0
DICTIONARY
  5
19
102
{ACAD_REACTORS
330
C
102
}
330
C
100
AcDbDictionary
281
     1
  0
ACDBDICTIONARYWDFLT
  5
E
102
{ACAD_REACTORS
330
C
102
}
330
C
100
AcDbDictionary
281
     1
  3
Normal
350
F
100
AcDbDictionaryWithDefault
340
F
  0
DICTIONARY
  5
47
102
{ACAD_REACTORS
330
C
102
}
330
C
100
AcDbDictionary
281
     1
  3
A0
350
48
  3
A1
350
49
  3
A2
350
4A
  3
A3
350
4B
  3
A4
350
4C
  3
A5
350
4D
  3
A6
350
4E
  3
A7
350
4F
  3
A8
350
50
  3
A9
350
51
  3
B0
350
52
  3
B1
350
53
  3
B2
350
54
  3
B3
350
55
  3
B4
350
56
  3
B5
350
57
  3
B6
350
58
  3
B7
350
59
  3
B8
350
5A
  3
B9
350
5B
  3
C0
350
5C
  3
C1
350
5D
  3
C2
350
5E
  3
C3
350
5F
  3
C4
350
60
  3
C5
350
61
  3
C6
350
62
  3
C7
350
63
  3
C8
350
64
  3
C9
350
65
  3
D0
350
66
  3
D1
350
67
  3
D2
350
68
  0
DICTIONARY
  5
214
102
{ACAD_REACTORS
330
C
102
}
330
C
100
AcDbDictionary
281
     1
  0
DICTIONARY
  5
69
102
{ACAD_REACTORS
330
C
102
}
330
C
100
AcDbDictionary
281
     1
  3
Standard
350
6A
  0
DICTIONARY
  5
2A
102
{ACAD_REACTORS
330
C
102
}
330
C
100
AcDbDictionary
281
     1
  3
2dWireframe
350
2F
  3
Basic
350
32
  3
Brighten
350
36
  3
ColorChange
350
3A
  3
Conceptual
350
34
  3
Dim
350
35
  3
EdgeColorOff
350
3D
  3
Facepattern
350
39
  3
Flat
350
2B
  3
FlatWithEdges
350
2C
  3
Gouraud
350
2D
  3
GouraudWithEdges
350
2E
  3
Hidden
350
31
  3
JitterOff
350
3B
  3
Linepattern
350
38
  3
OverhangOff
350
3C
  3
Realistic
350
33
  3
Shaded
350
42
  3
Shaded with edges
350
41
  3
Shades of Gray
350
3E
  3
Sketchy
350
3F
  3
Thicken
350
37
  3
Wireframe
350
30
  3
X-Ray
350
40
  0
XRECORD
  5
210
102
{ACAD_REACTORS
330
C
102
}
330
C
100
AcDbXrecord
280
     1
 90
        1
330
6A
  0
DICTIONARY
  5
20C
102
{ACAD_REACTORS
330
C
102
}
330
C
100
AcDbDictionary
281
     1
  3
CANNOSCALE
350
20D
  3
CMLEADERSTYLE
350
212
  3
CTABLESTYLE
350
211
  0
LAYOUT
  5
1E
102
{ACAD_REACTORS
330
1A
102
}
330
1A
100
AcDbPlotSettings
  1

  2
none_device
  4

  6

 40
0.0
 41
0.0
 42
0.0
 43
0.0
 44
0.0
 45
0.0
 46
0.0
 47
0.0
 48
0.0
 49
0.0
140
0.0
141
0.0
142
1.0
143
1.0
 70
   688
 72
     0
 73
     0
 74
     5
  7

 75
    16
 76
     0
 77
     2
 78
   300
147
1.0
148
0.0
149
0.0
100
AcDbLayout
  1
Layout1
 70
     1
 71
     1
 10
0.0
 20
0.0
 11
12.0
 21
9.0
 12
0.0
 22
0.0
 32
0.0
 14
1.000000000000000E+20
 24
1.000000000000000E+20
 34
1.000000000000000E+20
 15
-1.000000000000000E+20
 25
-1.000000000000000E+20
 35
-1.000000000000000E+20
146
0.0
 13
0.0
 23
0.0
 33
0.0
 16
1.0
 26
0.0
 36
0.0
 17
0.0
 27
1.0
 37
0.0
 76
     0
330
1B
  0
LAYOUT
  5
26
102
{ACAD_REACTORS
330
1A
102
}
330
1A
100
AcDbPlotSettings
  1

  2
none_device
  4

  6

 40
0.0
 41
0.0
 42
0.0
 43
0.0
 44
0.0
 45
0.0
 46
0.0
 47
0.0
 48
0.0
 49
0.0
140
0.0
141
0.0
142
1.0
143
1.0
 70
   688
 72
     0
 73
     0
 74
     5
  7

 75
    16
 76
     0
 77
     2
 78
   300
147
1.0
148
0.0
149
0.0
100
AcDbLayout
  1
Layout2
 70
     1
 71
     2
 10
0.0
 20
0.0
 11
0.0
 21
0.0
 12
0.0
 22
0.0
 32
0.0
 14
0.0
 24
0.0
 34
0.0
 15
0.0
 25
0.0
 35
0.0
146
0.0
 13
0.0
 23
0.0
 33
0.0
 16
1.0
 26
0.0
 36
0.0
 17
0.0
 27
1.0
 37
0.0
 76
     0
330
23
  0
LAYOUT
  5
22
102
{ACAD_REACTORS
330
1A
102
}
330
1A
100
AcDbPlotSettings
  1

  2
none_device
  4
Letter_(8.50_x_11.00_Inches)
  6

 40
6.35
 41
6.35
 42
6.35000508
 43
6.35000508
 44
215.9
 45
279.4
 46
0.0
 47
0.0
 48
0.0
 49
0.0
140
0.0
141
0.0
142
1.0
143
1.0
 70
  1712
 72
     0
 73
     0
 74
     0
  7

 75
     0
 76
     0
 77
     2
 78
   300
147
1.0
148
0.0
149
0.0
100
AcDbLayout
  1
Model
 70
     1
 71
     0
 10
0.0
 20
0.0
 11
12.0
 21
9.0
 12
0.0
 22
0.0
 32
0.0
 14
1.000000000000000E+20
 24
1.000000000000000E+20
 34
1.000000000000000E+20
 15
-1.000000000000000E+20
 25
-1.000000000000000E+20
 35
-1.000000000000000E+20
146
0.0
 13
0.0
 23
0.0
 33
0.0
 16
1.0
 26
0.0
 36
0.0
 17
0.0
 27
1.0
 37
0.0
 76
     0
330
1F
331
29
  0
MATERIAL
  5
45
102
{ACAD_REACTORS
330
43
102
}
330
43
100
AcDbMaterial
  1
ByBlock
 72
     1
 94
      127
  0
MATERIAL
  5
44
102
{ACAD_REACTORS
330
43
102
}
330
43
100
AcDbMaterial
  1
ByLayer
 72
     1
 94
      127
  0
MATERIAL
  5
46
102
{ACAD_REACTORS
330
43
102
}
330
43
100
AcDbMaterial
  1
Global
 72
     1
 94
      127
  0
MLEADERSTYLE
  5
6C
102
{ACAD_REACTORS
330
6B
102
}
330
6B
100
AcDbMLeaderStyle
179
     2
170
     2
171
     1
172
     0
 90
        2
 40
0.0
 41
0.0
173
     1
 91
-1056964608
340
14
 92
       -2
290
     1
 42
0.09
291
     1
 43
0.36
  3
Standard
341
0
 44
0.18
300

342
11
174
     1
178
     6
175
     1
176
     0
 93
-1056964608
 45
0.18
292
     0
297
     0
 46
0.18
343
0
 94
-1056964608
 47
1.0
 49
1.0
140
1.0
293
     1
141
0.0
294
     1
177
     0
142
1.0
295
     0
296
     0
143
0.125
271
     0
272
     9
273
     9
298
     0
  0
MLINESTYLE
  5
18
102
{ACAD_REACTORS
330
17
102
}
330
17
100
AcDbMlineStyle
  2
Standard
 70
     0
  3

 62
   256
 51
90.0
 52
90.0
 71
     2
 49
0.5
 62
   256
  6
BYLAYER
 49
-0.5
 62
   256
  6
BYLAYER
  0
ACDBPLACEHOLDER
  5
F
102
{ACAD_REACTORS
330
E
102
}
330
E
  0
SCALE
  5
48
102
{ACAD_REACTORS
330
47
102
}
330
47
100
AcDbScale
 70
     0
300
1:1
140
1.0
141
1.0
290
     1
  0
SCALE
  5
49
102
{ACAD_REACTORS
330
47
102
}
330
47
100
AcDbScale
 70
     0
300
1:2
140
1.0
141
2.0
290
     0
  0
SCALE
  5
4A
102
{ACAD_REACTORS
330
47
102
}
330
47
100
AcDbScale
 70
     0
300
1:4
140
1.0
141
4.0
290
     0
  0
SCALE
  5
4B
102
{ACAD_REACTORS
330
47
102
}
330
47
100
AcDbScale
 70
     0
300
1:5
140
1.0
141
5.0
290
     0
  0
SCALE
  5
4C
102
{ACAD_REACTORS
330
47
102
}
330
47
100
AcDbScale
 70
     0
300
1:8
140
1.0
141
8.0
290
     0
  0
SCALE
  5
4D
102
{ACAD_REACTORS
330
47
102
}
330
47
100
AcDbScale
 70
     0
300
1:10
140
1.0
141
10.0
290
     0
  0
SCALE
  5
4E
102
{ACAD_REACTORS
330
47
102
}
330
47
100
AcDbScale
 70
     0
300
1:16
140
1.0
141
16.0
290
     0
  0
SCALE
  5
4F
102
{ACAD_REACTORS
330
47
102
}
330
47
100
AcDbScale
 70
     0
300
1:20
140
1.0
141
20.0
290
     0
  0
SCALE
  5
50
102
{ACAD_REACTORS
330
47
102
}
330
47
100
AcDbScale
 70
     0
300
1:30
140
1.0
141
30.0
290
     0
  0
SCALE
  5
51
102
{ACAD_REACTORS
330
47
102
}
330
47
100
AcDbScale
 70
     0
300
1:40
140
1.0
141
40.0
290
     0
  0
SCALE
  5
52
102
{ACAD_REACTORS
330
47
102
}
330
47
100
AcDbScale
 70
     0
300
1:50
140
1.0
141
50.0
290
     0
  0
SCALE
  5
53
102
{ACAD_REACTORS
330
47
102
}
330
47
100
AcDbScale
 70
     0
300
1:100
140
1.0
141
100.0
290
     0
  0
SCALE
  5
54
102
{ACAD_REACTORS
330
47
102
}
330
47
100
AcDbScale
 70
     0
300
2:1
140
2.0
141
1.0
290
     0
  0
SCALE
  5
55
102
{ACAD_REACTORS
330
47
102
}
330
47
100
AcDbScale
 70
     0
300
4:1
140
4.0
141
1.0
290
     0
  0
SCALE
  5
56
102
{ACAD_REACTORS
330
47
102
}
330
47
100
AcDbScale
 70
     0
300
8:1
140
8.0
141
1.0
290
     0
  0
SCALE
  5
57
102
{ACAD_REACTORS
330
47
102
}
330
47
100
AcDbScale
 70
     0
300
10:1
140
10.0
141
1.0
290
     0
  0
SCALE
  5
58
102
{ACAD_REACTORS
330
47
102
}
330
47
100
AcDbScale
 70
     0
300
100:1
140
100.0
141
1.0
290
     0
  0
SCALE
  5
59
102
{ACAD_REACTORS
330
47
102
}
330
47
100
AcDbScale
 70
     0
300
1/128" = 1'-0"
140
0.0078125
141
12.0
290
     0
  0
SCALE
  5
5A
102
{ACAD_REACTORS
330
47
102
}
330
47
100
AcDbScale
 70
     0
300
1/64" = 1'-0"
140
0.015625
141
12.0
290
     0
  0
SCALE
  5
5B
102
{ACAD_REACTORS
330
47
102
}
330
47
100
AcDbScale
 70
     0
300
1/32" = 1'-0"
140
0.03125
141
12.0
290
     0
  0
SCALE
  5
5C
102
{ACAD_REACTORS
330
47
102
}
330
47
100
AcDbScale
 70
     0
300
1/16" = 1'-0"
140
0.0625
141
12.0
290
     0
  0
SCALE
  5
5D
102
{ACAD_REACTORS
330
47
102
}
330
47
100
AcDbScale
 70
     0
300
3/32" = 1'-0"
140
0.09375
141
12.0
290
     0
  0
SCALE
  5
5E
102
{ACAD_REACTORS
330
47
102
}
330
47
100
AcDbScale
 70
     0
300
1/8" = 1'-0"
140
0.125
141
12.0
290
     0
  0
SCALE
  5
5F
102
{ACAD_REACTORS
330
47
102
}
330
47
100
AcDbScale
 70
     0
300
3/16" = 1'-0"
140
0.1875
141
12.0
290
     0
  0
SCALE
  5
60
102
{ACAD_REACTORS
330
47
102
}
330
47
100
AcDbScale
 70
     0
300
1/4" = 1'-0"
140
0.25
141
12.0
290
     0
  0
SCALE
  5
61
102
{ACAD_REACTORS
330
47
102
}
330
47
100
AcDbScale
 70
     0
300
3/8" = 1'-0"
140
0.375
141
12.0
290
     0
  0
SCALE
  5
62
102
{ACAD_REACTORS
330
47
102
}
330
47
100
AcDbScale
 70
     0
300
1/2" = 1'-0"
140
0.5
141
12.0
290
     0
  0
SCALE
  5
63
102
{ACAD_REACTORS
330
47
102
}
330
47
100
AcDbScale
 70
     0
300
3/4" = 1'-0"
140
0.75
141
12.0
290
     0
  0
SCALE
  5
64
102
{ACAD_REACTORS
330
47
102
}
330
47
100
AcDbScale
 70
     0
300
1" = 1'-0"
140
1.0
141
12.0
290
     0
  0
SCALE
  5
65
102
{ACAD_REACTORS
330
47
102
}
330
47
100
AcDbScale
 70
     0
300
1-1/2" = 1'-0"
140
1.5
141
12.0
290
     0
  0
SCALE
  5
66
102
{ACAD_REACTORS
330
47
102
}
330
47
100
AcDbScale
 70
     0
300
3" = 1'-0"
140
3.0
141
12.0
290
     0
  0
SCALE
  5
67
102
{ACAD_REACTORS
330
47
102
}
330
47
100
AcDbScale
 70
     0
300
6" = 1'-0"
140
6.0
141
12.0
290
     0
  0
SCALE
  5
68
102
{ACAD_REACTORS
330
47
102
}
330
47
100
AcDbScale
 70
     0
300
1'-0" = 1'-0"
140
12.0
141
12.0
290
     0
  0
TABLESTYLE
  5
6A
102
{ACAD_REACTORS
330
69
102
}
102
{ACAD_XDICTIONARY
360
20E
102
}
330
69
100
AcDbTableStyle
  3
Standard
 70
     0
 71
     0
 40
0.06
 41
0.06
280
     0
281
     0
  7
Standard
140
0.18
170
     2
 62
     0
 63
   257
283
     0
 90
        4
 91
        0
  1

274
    -2
284
     1
 64
     0
275
    -2
285
     1
 65
     0
276
    -2
286
     1
 66
     0
277
    -2
287
     1
 67
     0
278
    -2
288
     1
 68
     0
279
    -2
289
     1
 69
     0
  7
Standard
140
0.25
170
     5
 62
     0
 63
   257
283
     0
 90
        4
 91
        0
  1

274
    -2
284
     1
 64
     0
275
    -2
285
     1
 65
     0
276
    -2
286
     1
 66
     0
277
    -2
287
     1
 67
     0
278
    -2
288
     1
 68
     0
279
    -2
289
     1
 69
     0
  7
Standard
140
0.18
170
     5
 62
     0
 63
   257
283
     0
 90
        4
 91
        0
  1

274
    -2
284
     1
 64
     0
275
    -2
285
     1
 65
     0
276
    -2
286
     1
 66
     0
277
    -2
287
     1
 67
     0
278
    -2
288
     1
 68
     0
279
    -2
289
     1
 69
     0
  0
VISUALSTYLE
  5
2F
102
{ACAD_REACTORS
330
2A
102
}
330
2A
100
AcDbVisualStyle
  2
2dWireframe
 70
     4
177
     3
291
     0
 70
    58
 90
        0
176
     1
 90
        2
176
     1
 90
        0
176
     1
 90
        0
176
     1
 40
0.6
176
     1
 40
30.0
176
     1
 62
     7
420
 16777215
176
     1
 90
        1
176
     1
 90
        4
176
     1
 62
     7
176
     1
 62
   257
176
     1
 90
        1
176
     1
 90
        1
176
     1
 40
1.0
176
     1
 90
        0
176
     1
 62
   257
176
     1
 40
1.0
176
     1
 90
        1
176
     1
 90
        6
176
     1
 90
        2
176
     1
 62
     7
176
     1
 90
        5
176
     1
 90
        0
176
     1
 90
        0
176
     1
290
     0
176
     1
 90
        1
176
     1
 40
0.0
176
     1
 90
        0
176
     1
290
     1
176
     1
290
     1
176
     1
290
     0
176
     1
290
     0
176
     1
290
     0
176
     1
290
     0
176
     1
290
     0
176
     1
290
     0
176
     1
290
     0
176
     1
 90
       50
176
     1
 40
0.0
176
     1
 40
1.0
176
     1
 90
        0
176
     1
 62
    18
420
        0
176
     1
 90
       50
176
     1
 90
        3
176
     1
 62
     5
420
      255
176
     1
290
     0
176
     1
 90
       50
176
     1
 90
       50
176
     1
 90
       50
176
     1
290
     0
176
     1
 90
       50
176
     1
 62
   256
176
     0
 40
1.0
176
     0
 90
        2
176
     1
  1
strokes_ogs.tif
176
     1
290
     0
176
     1
 40
1.0
176
     1
 40
1.0
176
     1
  0
VISUALSTYLE
  5
32
102
{ACAD_REACTORS
330
2A
102
}
330
2A
100
AcDbVisualStyle
  2
Basic
 70
     7
177
     3
291
     1
 70
    58
 90
        1
176
     1
 90
        0
176
     1
 90
        1
176
     1
 90
        0
176
     1
 40
0.6
176
     1
 40
30.0
176
     1
 62
     7
420
 16777215
176
     1
 90
        0
176
     1
 90
        4
176
     1
 62
     7
176
     1
 62
   257
176
     1
 90
        1
176
     1
 90
        1
176
     1
 40
1.0
176
     1
 90
        8
176
     1
 62
     7
176
     1
 40
1.0
176
     1
 90
        1
176
     1
 90
        6
176
     1
 90
        2
176
     1
 62
     7
176
     1
 90
        5
176
     1
 90
        0
176
     1
 90
        0
176
     1
290
     0
176
     1
 90
        1
176
     1
 40
0.0
176
     1
 90
        0
176
     1
290
     0
176
     1
290
     1
176
     1
290
     1
176
     1
290
     0
176
     1
290
     0
176
     1
290
     0
176
     1
290
     0
176
     1
290
     0
176
     1
290
     0
176
     1
 90
       50
176
     1
 40
0.0
176
     1
 40
1.0
176
     1
 90
        0
176
     1
 62
    18
420
        0
176
     1
 90
       50
176
     1
 90
        3
176
     1
 62
     5
420
      255
176
     1
290
     0
176
     1
 90
       50
176
     1
 90
       50
176
     1
 90
       50
176
     1
290
     0
176
     1
 90
       50
176
     1
 62
   256
176
     0
 40
1.0
176
     0
 90
        2
176
     1
  1
strokes_ogs.tif
176
     1
290
     0
176
     1
 40
1.0
176
     1
 40
1.0
176
     1
  0
VISUALSTYLE
  5
36
102
{ACAD_REACTORS
330
2A
102
}
330
2A
100
AcDbVisualStyle
  2
Brighten
 70
    12
177
     3
291
     1
 70
    58
 90
        2
176
     1
 90
        2
176
     1
 90
        0
176
     1
 90
        0
176
     1
 40
0.6
176
     1
 40
30.0
176
     1
 62
     7
420
 16777215
176
     1
 90
        1
176
     1
 90
        4
176
     1
 62
     7
176
     1
 62
   257
176
     1
 90
        1
176
     1
 90
        1
176
     1
 40
1.0
176
     1
 90
        8
176
     1
 62
     7
176
     1
 40
1.0
176
     1
 90
        1
176
     1
 90
        6
176
     1
 90
        2
176
     1
 62
     7
176
     1
 90
        5
176
     1
 90
        0
176
     1
 90
        0
176
     1
290
     0
176
     1
 90
        1
176
     1
 40
50.0
176
     1
 90
        0
176
     1
290
     0
176
     1
290
     1
176
     1
290
     1
176
     1
290
     0
176
     1
290
     0
176
     1
290
     0
176
     1
290
     0
176
     1
290
     0
176
     1
290
     0
176
     1
 90
       50
176
     1
 40
0.0
176
     1
 40
1.0
176
     1
 90
        0
176
     1
 62
    18
420
        0
176
     1
 90
       50
176
     1
 90
        3
176
     1
 62
     5
420
      255
176
     1
290
     0
176
     1
 90
       50
176
     1
 90
       50
176
     1
 90
       50
176
     1
290
     0
176
     1
 90
       50
176
     1
 62
   256
176
     0
 40
1.0
176
     0
 90
        2
176
     1
  1
strokes_ogs.tif
176
     1
290
     0
176
     1
 40
1.0
176
     1
 40
1.0
176
     1
  0
VISUALSTYLE
  5
3A
102
{ACAD_REACTORS
330
2A
102
}
330
2A
100
AcDbVisualStyle
  2
ColorChange
 70
    16
177
     3
291
     1
 70
    58
 90
        2
176
     1
 90
        2
176
     1
 90
        3
176
     1
 90
        0
176
     1
 40
0.6
176
     1
 40
30.0
176
     1
 62
     8
420
  8421504
176
     1
 90
        1
176
     1
 90
        4
176
     1
 62
     7
176
     1
 62
   257
176
     1
 90
        1
176
     1
 90
        1
176
     1
 40
1.0
176
     1
 90
        8
176
     1
 62
     8
420
  8421504
176
     1
 40
1.0
176
     1
 90
        1
176
     1
 90
        6
176
     1
 90
        2
176
     1
 62
     7
176
     1
 90
        5
176
     1
 90
        0
176
     1
 90
        0
176
     1
290
     0
176
     1
 90
        1
176
     1
 40
0.0
176
     1
 90
        0
176
     1
290
     0
176
     1
290
     1
176
     1
290
     1
176
     1
290
     0
176
     1
290
     0
176
     1
290
     0
176
     1
290
     0
176
     1
290
     0
176
     1
290
     0
176
     1
 90
       50
176
     1
 40
0.0
176
     1
 40
1.0
176
     1
 90
        0
176
     1
 62
    18
420
        0
176
     1
 90
       50
176
     1
 90
        3
176
     1
 62
     5
420
      255
176
     1
290
     0
176
     1
 90
       50
176
     1
 90
       50
176
     1
 90
       50
176
     1
290
     0
176
     1
 90
       50
176
     1
 62
   256
176
     0
 40
1.0
176
     0
 90
        2
176
     1
  1
strokes_ogs.tif
176
     1
290
     0
176
     1
 40
1.0
176
     1
 40
1.0
176
     1
  0
VISUALSTYLE
  5
34
102
{ACAD_REACTORS
330
2A
102
}
330
2A
100
AcDbVisualStyle
  2
Conceptual
 70
     9
177
     3
291
     0
 70
    58
 90
        3
176
     1
 90
        2
176
     1
 90
        0
176
     1
 90
        0
176
     1
 40
0.6
176
     1
 40
30.0
176
     1
 62
     7
420
 16777215
176
     1
 90
        2
176
     1
 90
        2
176
     1
 62
     7
176
     1
 62
   257
176
     1
 90
        1
176
     1
 90
        1
176
     1
 40
179.0
176
     1
 90
        8
176
     1
 62
     7
176
     1
 40
1.0
176
     1
 90
        1
176
     1
 90
        6
176
     1
 90
        2
176
     1
 62
     7
176
     1
 90
        3
176
     1
 90
        0
176
     1
 90
        0
176
     1
290
     0
176
     1
 90
        1
176
     1
 40
0.0
176
     1
 90
        0
176
     1
290
     0
176
     1
290
     1
176
     1
290
     1
176
     1
290
     0
176
     1
290
     0
176
     1
290
     0
176
     1
290
     0
176
     1
290
     0
176
     1
290
     0
176
     1
 90
       50
176
     1
 40
0.0
176
     1
 40
1.0
176
     1
 90
        0
176
     1
 62
    18
420
        0
176
     1
 90
       50
176
     1
 90
        3
176
     1
 62
     5
420
      255
176
     1
290
     0
176
     1
 90
       50
176
     1
 90
       50
176
     1
 90
       50
176
     1
290
     0
176
     1
 90
       50
176
     1
 62
   256
176
     0
 40
1.0
176
     0
 90
        2
176
     1
  1
strokes_ogs.tif
176
     1
290
     0
176
     1
 40
1.0
176
     1
 40
1.0
176
     1
  0
VISUALSTYLE
  5
35
102
{ACAD_REACTORS
330
2A
102
}
330
2A
100
AcDbVisualStyle
  2
Dim
 70
    11
177
     3
291
     1
 70
    58
 90
        2
176
     1
 90
        2
176
     1
 90
        0
176
     1
 90
        0
176
     1
 40
0.6
176
     1
 40
30.0
176
     1
 62
     7
420
 16777215
176
     1
 90
        1
176
     1
 90
        4
176
     1
 62
     7
176
     1
 62
   257
176
     1
 90
        1
176
     1
 90
        1
176
     1
 40
1.0
176
     1
 90
        8
176
     1
 62
     7
176
     1
 40
1.0
176
     1
 90
        1
176
     1
 90
        6
176
     1
 90
        2
176
     1
 62
     7
176
     1
 90
        5
176
     1
 90
        0
176
     1
 90
        0
176
     1
290
     0
176
     1
 90
        1
176
     1
 40
-50.0
176
     1
 90
        0
176
     1
290
     0
176
     1
290
     1
176
     1
290
     1
176
     1
290
     0
176
     1
290
     0
176
     1
290
     0
176
     1
290
     0
176
     1
290
     0
176
     1
290
     0
176
     1
 90
       50
176
     1
 40
0.0
176
     1
 40
1.0
176
     1
 90
        0
176
     1
 62
    18
420
        0
176
     1
 90
       50
176
     1
 90
        3
176
     1
 62
     5
420
      255
176
     1
290
     0
176
     1
 90
       50
176
     1
 90
       50
176
     1
 90
       50
176
     1
290
     0
176
     1
 90
       50
176
     1
 62
   256
176
     0
 40
1.0
176
     0
 90
        2
176
     1
  1
strokes_ogs.tif
176
     1
290
     0
176
     1
 40
1.0
176
     1
 40
1.0
176
     1
  0
VISUALSTYLE
  5
3D
102
{ACAD_REACTORS
330
2A
102
}
330
2A
100
AcDbVisualStyle
  2
EdgeColorOff
 70
    22
177
     3
291
     1
 70
    58
 90
        2
176
     0
 90
        2
176
     0
 90
        0
176
     0
 90
        0
176
     0
 40
0.6
176
     0
 40
30.0
176
     0
 62
     7
420
 16777215
176
     0
 90
        1
176
     0
 90
        4
176
     0
 62
     7
176
     0
 62
   257
176
     0
 90
        1
176
     0
 90
        1
176
     0
 40
1.0
176
     0
 90
        8
176
     2
 62
     7
176
     0
 40
1.0
176
     0
 90
        1
176
     0
 90
        6
176
     0
 90
        2
176
     0
 62
     7
176
     0
 90
        5
176
     0
 90
        0
176
     0
 90
        0
176
     0
290
     0
176
     0
 90
        1
176
     0
 40
0.0
176
     0
 90
        0
176
     0
290
     0
176
     0
290
     1
176
     0
290
     1
176
     0
290
     0
176
     0
290
     0
176
     0
290
     0
176
     0
290
     0
176
     0
290
     0
176
     0
290
     0
176
     0
 90
       50
176
     0
 40
0.0
176
     0
 40
1.0
176
     0
 90
        0
176
     0
 62
    18
420
        0
176
     0
 90
       50
176
     0
 90
        3
176
     0
 62
     5
420
      255
176
     0
290
     0
176
     0
 90
       50
176
     0
 90
       50
176
     0
 90
       50
176
     0
290
     0
176
     0
 90
       50
176
     0
 62
   256
176
     0
 40
1.0
176
     0
 90
        2
176
     0
  1
strokes_ogs.tif
176
     0
290
     0
176
     0
 40
1.0
176
     0
 40
1.0
176
     0
  0
VISUALSTYLE
  5
39
102
{ACAD_REACTORS
330
2A
102
}
330
2A
100
AcDbVisualStyle
  2
Facepattern
 70
    15
177
     3
291
     1
 70
    58
 90
        2
176
     1
 90
        2
176
     1
 90
        0
176
     1
 90
        0
176
     1
 40
0.6
176
     1
 40
30.0
176
     1
 62
     7
420
 16777215
176
     1
 90
        1
176
     1
 90
        4
176
     1
 62
     7
176
     1
 62
   257
176
     1
 90
        1
176
     1
 90
        1
176
     1
 40
1.0
176
     1
 90
        8
176
     1
 62
     7
176
     1
 40
1.0
176
     1
 90
        1
176
     1
 90
        6
176
     1
 90
        2
176
     1
 62
     7
176
     1
 90
        5
176
     1
 90
        0
176
     1
 90
        0
176
     1
290
     0
176
     1
 90
        1
176
     1
 40
0.0
176
     1
 90
        0
176
     1
290
     0
176
     1
290
     1
176
     1
290
     1
176
     1
290
     0
176
     1
290
     0
176
     1
290
     0
176
     1
290
     0
176
     1
290
     0
176
     1
290
     0
176
     1
 90
       50
176
     1
 40
0.0
176
     1
 40
1.0
176
     1
 90
        0
176
     1
 62
    18
420
        0
176
     1
 90
       50
176
     1
 90
        3
176
     1
 62
     5
420
      255
176
     1
290
     0
176
     1
 90
       50
176
     1
 90
       50
176
     1
 90
       50
176
     1
290
     0
176
     1
 90
       50
176
     1
 62
   256
176
     0
 40
1.0
176
     0
 90
        2
176
     1
  1
strokes_ogs.tif
176
     1
290
     0
176
     1
 40
1.0
176
     1
 40
1.0
176
     1
  0
VISUALSTYLE
  5
2B
102
{ACAD_REACTORS
330
2A
102
}
330
2A
100
AcDbVisualStyle
  2
Flat
 70
     0
177
     3
291
     1
 70
    58
 90
        2
176
     1
 90
        1
176
     1
 90
        1
176
     1
 90
        2
176
     1
 40
0.6
176
     1
 40
30.0
176
     1
 62
     7
420
 16777215
176
     1
 90
        0
176
     1
 90
        0
176
     1
 62
     7
176
     1
 62
   257
176
     1
 90
        1
176
     1
 90
        1
176
     1
 40
1.0
176
     1
 90
        8
176
     1
 62
     7
176
     1
 40
1.0
176
     1
 90
        1
176
     1
 90
        6
176
     1
 90
        2
176
     1
 62
     7
176
     1
 90
        5
176
     1
 90
        0
176
     1
 90
        0
176
     1
290
     0
176
     1
 90
       13
176
     1
 40
0.0
176
     1
 90
        0
176
     1
290
     0
176
     1
290
     1
176
     1
290
     1
176
     1
290
     0
176
     1
290
     0
176
     1
290
     0
176
     1
290
     0
176
     1
290
     0
176
     1
290
     0
176
     1
 90
       50
176
     1
 40
0.0
176
     1
 40
1.0
176
     1
 90
        0
176
     1
 62
    18
420
        0
176
     1
 90
       50
176
     1
 90
        3
176
     1
 62
     5
420
      255
176
     1
290
     0
176
     1
 90
       50
176
     1
 90
       50
176
     1
 90
       50
176
     1
290
     0
176
     1
 90
       50
176
     1
 62
   256
176
     0
 40
1.0
176
     0
 90
        2
176
     1
  1
strokes_ogs.tif
176
     1
290
     0
176
     1
 40
1.0
176
     1
 40
1.0
176
     1
  0
VISUALSTYLE
  5
2C
102
{ACAD_REACTORS
330
2A
102
}
330
2A
100
AcDbVisualStyle
  2
FlatWithEdges
 70
     1
177
     3
291
     1
 70
    58
 90
        2
176
     1
 90
        1
176
     1
 90
        1
176
     1
 90
        2
176
     1
 40
0.6
176
     1
 40
30.0
176
     1
 62
     7
420
 16777215
176
     1
 90
        1
176
     1
 90
        0
176
     1
 62
     7
176
     1
 62
   257
176
     1
 90
        1
176
     1
 90
        1
176
     1
 40
1.0
176
     1
 90
        0
176
     1
 62
   257
176
     1
 40
1.0
176
     1
 90
        1
176
     1
 90
        6
176
     1
 90
        2
176
     1
 62
     7
176
     1
 90
        5
176
     1
 90
        0
176
     1
 90
        0
176
     1
290
     0
176
     1
 90
       13
176
     1
 40
0.0
176
     1
 90
        0
176
     1
290
     0
176
     1
290
     1
176
     1
290
     1
176
     1
290
     0
176
     1
290
     0
176
     1
290
     0
176
     1
290
     0
176
     1
290
     0
176
     1
290
     0
176
     1
 90
       50
176
     1
 40
0.0
176
     1
 40
1.0
176
     1
 90
        0
176
     1
 62
    18
420
        0
176
     1
 90
       50
176
     1
 90
        3
176
     1
 62
     5
420
      255
176
     1
290
     0
176
     1
 90
       50
176
     1
 90
       50
176
     1
 90
       50
176
     1
290
     0
176
     1
 90
       50
176
     1
 62
   256
176
     0
 40
1.0
176
     0
 90
        2
176
     1
  1
strokes_ogs.tif
176
     1
290
     0
176
     1
 40
1.0
176
     1
 40
1.0
176
     1
  0
VISUALSTYLE
  5
2D
102
{ACAD_REACTORS
330
2A
102
}
330
2A
100
AcDbVisualStyle
  2
Gouraud
 70
     2
177
     3
291
     1
 70
    58
 90
        2
176
     1
 90
        2
176
     1
 90
        1
176
     1
 90
        2
176
     1
 40
0.6
176
     1
 40
30.0
176
     1
 62
     7
420
 16777215
176
     1
 90
        0
176
     1
 90
        0
176
     1
 62
     7
176
     1
 62
   257
176
     1
 90
        1
176
     1
 90
        1
176
     1
 40
1.0
176
     1
 90
        0
176
     1
 62
     7
176
     1
 40
1.0
176
     1
 90
        1
176
     1
 90
        6
176
     1
 90
        2
176
     1
 62
     7
176
     1
 90
        5
176
     1
 90
        0
176
     1
 90
        0
176
     1
290
     0
176
     1
 90
       13
176
     1
 40
0.0
176
     1
 90
        0
176
     1
290
     0
176
     1
290
     1
176
     1
290
     1
176
     1
290
     0
176
     1
290
     0
176
     1
290
     0
176
     1
290
     0
176
     1
290
     0
176
     1
290
     0
176
     1
 90
       50
176
     1
 40
0.0
176
     1
 40
1.0
176
     1
 90
        0
176
     1
 62
    18
420
        0
176
     1
 90
       50
176
     1
 90
        3
176
     1
 62
     5
420
      255
176
     1
290
     0
176
     1
 90
       50
176
     1
 90
       50
176
     1
 90
       50
176
     1
290
     0
176
     1
 90
       50
176
     1
 62
   256
176
     0
 40
1.0
176
     0
 90
        2
176
     1
  1
strokes_ogs.tif
176
     1
290
     0
176
     1
 40
1.0
176
     1
 40
1.0
176
     1
  0
VISUALSTYLE
  5
2E
102
{ACAD_REACTORS
330
2A
102
}
330
2A
100
AcDbVisualStyle
  2
GouraudWithEdges
 70
     3
177
     3
291
     1
 70
    58
 90
        2
176
     1
 90
        2
176
     1
 90
        1
176
     1
 90
        2
176
     1
 40
0.6
176
     1
 40
30.0
176
     1
 62
     7
420
 16777215
176
     1
 90
        1
176
     1
 90
        0
176
     1
 62
     7
176
     1
 62
   257
176
     1
 90
        1
176
     1
 90
        1
176
     1
 40
1.0
176
     1
 90
        0
176
     1
 62
   257
176
     1
 40
1.0
176
     1
 90
        1
176
     1
 90
        6
176
     1
 90
        2
176
     1
 62
     7
176
     1
 90
        5
176
     1
 90
        0
176
     1
 90
        0
176
     1
290
     0
176
     1
 90
       13
176
     1
 40
0.0
176
     1
 90
        0
176
     1
290
     0
176
     1
290
     1
176
     1
290
     1
176
     1
290
     0
176
     1
290
     0
176
     1
290
     0
176
     1
290
     0
176
     1
290
     0
176
     1
290
     0
176
     1
 90
       50
176
     1
 40
0.0
176
     1
 40
1.0
176
     1
 90
        0
176
     1
 62
    18
420
        0
176
     1
 90
       50
176
     1
 90
        3
176
     1
 62
     5
420
      255
176
     1
290
     0
176
     1
 90
       50
176
     1
 90
       50
176
     1
 90
       50
176
     1
290
     0
176
     1
 90
       50
176
     1
 62
   256
176
     0
 40
1.0
176
     0
 90
        2
176
     1
  1
strokes_ogs.tif
176
     1
290
     0
176
     1
 40
1.0
176
     1
 40
1.0
176
     1
  0
VISUALSTYLE
  5
31
102
{ACAD_REACTORS
330
2A
102
}
330
2A
100
AcDbVisualStyle
  2
Hidden
 70
     6
177
     3
291
     0
 70
    58
 90
        1
176
     1
 90
        2
176
     1
 90
        2
176
     1
 90
        0
176
     1
 40
0.6
176
     1
 40
30.0
176
     1
 62
     7
420
 16777215
176
     1
 90
        2
176
     1
 90
        2
176
     1
 62
     7
176
     1
 62
   257
176
     1
 90
        2
176
     1
 90
        1
176
     1
 40
40.0
176
     1
 90
        0
176
     1
 62
   257
176
     1
 40
1.0
176
     1
 90
        1
176
     1
 90
        6
176
     1
 90
        2
176
     1
 62
     7
176
     1
 90
        3
176
     1
 90
        0
176
     1
 90
        0
176
     1
290
     0
176
     1
 90
        1
176
     1
 40
0.0
176
     1
 90
        0
176
     1
290
     0
176
     1
290
     1
176
     1
290
     1
176
     1
290
     0
176
     1
290
     0
176
     1
290
     0
176
     1
290
     0
176
     1
290
     0
176
     1
290
     0
176
     1
 90
       50
176
     1
 40
0.0
176
     1
 40
1.0
176
     1
 90
        0
176
     1
 62
    18
420
        0
176
     1
 90
       50
176
     1
 90
        3
176
     1
 62
     5
420
      255
176
     1
290
     0
176
     1
 90
       50
176
     1
 90
       50
176
     1
 90
       50
176
     1
290
     0
176
     1
 90
       50
176
     1
 62
   256
176
     0
 40
1.0
176
     0
 90
        2
176
     1
  1
strokes_ogs.tif
176
     1
290
     0
176
     1
 40
1.0
176
     1
 40
1.0
176
     1
  0
VISUALSTYLE
  5
3B
102
{ACAD_REACTORS
330
2A
102
}
330
2A
100
AcDbVisualStyle
  2
JitterOff
 70
    20
177
     3
291
     1
 70
    58
 90
        2
176
     0
 90
        2
176
     0
 90
        0
176
     0
 90
        0
176
     0
 40
0.6
176
     0
 40
30.0
176
     0
 62
     7
420
 16777215
176
     0
 90
        1
176
     0
 90
        4
176
     0
 62
     7
176
     0
 62
   257
176
     0
 90
        1
176
     0
 90
        1
176
     0
 40
1.0
176
     0
 90
       10
176
     2
 62
     7
176
     0
 40
1.0
176
     0
 90
        1
176
     0
 90
        6
176
     0
 90
        2
176
     0
 62
     7
176
     0
 90
        5
176
     0
 90
        0
176
     0
 90
        0
176
     0
290
     0
176
     0
 90
        1
176
     0
 40
0.0
176
     0
 90
        0
176
     0
290
     0
176
     0
290
     1
176
     0
290
     1
176
     0
290
     0
176
     0
290
     0
176
     0
290
     0
176
     0
290
     0
176
     0
290
     0
176
     0
290
     0
176
     0
 90
       50
176
     0
 40
0.0
176
     0
 40
1.0
176
     0
 90
        0
176
     0
 62
    18
420
        0
176
     0
 90
       50
176
     0
 90
        3
176
     0
 62
     5
420
      255
176
     0
290
     0
176
     0
 90
       50
176
     0
 90
       50
176
     0
 90
       50
176
     0
290
     0
176
     0
 90
       50
176
     0
 62
   256
176
     0
 40
1.0
176
     0
 90
        2
176
     0
  1
strokes_ogs.tif
176
     0
290
     0
176
     0
 40
1.0
176
     0
 40
1.0
176
     0
  0
VISUALSTYLE
  5
38
102
{ACAD_REACTORS
330
2A
102
}
330
2A
100
AcDbVisualStyle
  2
Linepattern
 70
    14
177
     3
291
     1
 70
    58
 90
        2
176
     1
 90
        2
176
     1
 90
        0
176
     1
 90
        0
176
     1
 40
0.6
176
     1
 40
30.0
176
     1
 62
     7
420
 16777215
176
     1
 90
        1
176
     1
 90
        4
176
     1
 62
     7
176
     1
 62
   257
176
     1
 90
        7
176
     1
 90
        7
176
     1
 40
1.0
176
     1
 90
        8
176
     1
 62
     7
176
     1
 40
1.0
176
     1
 90
        1
176
     1
 90
        6
176
     1
 90
        2
176
     1
 62
     7
176
     1
 90
        5
176
     1
 90
        0
176
     1
 90
        0
176
     1
290
     0
176
     1
 90
        1
176
     1
 40
0.0
176
     1
 90
        0
176
     1
290
     0
176
     1
290
     1
176
     1
290
     1
176
     1
290
     0
176
     1
290
     0
176
     1
290
     0
176
     1
290
     0
176
     1
290
     0
176
     1
290
     0
176
     1
 90
       50
176
     1
 40
0.0
176
     1
 40
1.0
176
     1
 90
        0
176
     1
 62
    18
420
        0
176
     1
 90
       50
176
     1
 90
        3
176
     1
 62
     5
420
      255
176
     1
290
     0
176
     1
 90
       50
176
     1
 90
       50
176
     1
 90
       50
176
     1
290
     0
176
     1
 90
       50
176
     1
 62
   256
176
     0
 40
1.0
176
     0
 90
        2
176
     1
  1
strokes_ogs.tif
176
     1
290
     0
176
     1
 40
1.0
176
     1
 40
1.0
176
     1
  0
VISUALSTYLE
  5
3C
102
{ACAD_REACTORS
330
2A
102
}
330
2A
100
AcDbVisualStyle
  2
OverhangOff
 70
    21
177
     3
291
     1
 70
    58
 90
        2
176
     0
 90
        2
176
     0
 90
        0
176
     0
 90
        0
176
     0
 40
0.6
176
     0
 40
30.0
176
     0
 62
     7
420
 16777215
176
     0
 90
        1
176
     0
 90
        4
176
     0
 62
     7
176
     0
 62
   257
176
     0
 90
        1
176
     0
 90
        1
176
     0
 40
1.0
176
     0
 90
        9
176
     2
 62
     7
176
     0
 40
1.0
176
     0
 90
        1
176
     0
 90
        6
176
     0
 90
        2
176
     0
 62
     7
176
     0
 90
        5
176
     0
 90
        0
176
     0
 90
        0
176
     0
290
     0
176
     0
 90
        1
176
     0
 40
0.0
176
     0
 90
        0
176
     0
290
     0
176
     0
290
     1
176
     0
290
     1
176
     0
290
     0
176
     0
290
     0
176
     0
290
     0
176
     0
290
     0
176
     0
290
     0
176
     0
290
     0
176
     0
 90
       50
176
     0
 40
0.0
176
     0
 40
1.0
176
     0
 90
        0
176
     0
 62
    18
420
        0
176
     0
 90
       50
176
     0
 90
        3
176
     0
 62
     5
420
      255
176
     0
290
     0
176
     0
 90
       50
176
     0
 90
       50
176
     0
 90
       50
176
     0
290
     0
176
     0
 90
       50
176
     0
 62
   256
176
     0
 40
1.0
176
     0
 90
        2
176
     0
  1
strokes_ogs.tif
176
     0
290
     0
176
     0
 40
1.0
176
     0
 40
1.0
176
     0
  0
VISUALSTYLE
  5
33
102
{ACAD_REACTORS
330
2A
102
}
330
2A
100
AcDbVisualStyle
  2
Realistic
 70
     8
177
     3
291
     0
 70
    58
 90
        2
176
     1
 90
        3
176
     1
 90
        0
176
     1
 90
        2
176
     1
 40
0.6
176
     1
 40
30.0
176
     1
 62
     7
420
 16777215
176
     1
 90
        0
176
     1
 90
        0
176
     1
 62
     7
176
     1
 62
   257
176
     1
 90
        1
176
     1
 90
        1
176
     1
 40
1.0
176
     1
 90
        8
176
     1
 62
   257
176
     1
 40
1.0
176
     1
 90
        1
176
     1
 90
        6
176
     1
 90
        2
176
     1
 62
     7
176
     1
 90
        3
176
     1
 90
        0
176
     1
 90
        0
176
     1
290
     0
176
     1
 90
       13
176
     1
 40
0.0
176
     1
 90
        0
176
     1
290
     0
176
     1
290
     1
176
     1
290
     1
176
     1
290
     0
176
     1
290
     0
176
     1
290
     0
176
     1
290
     0
176
     1
290
     0
176
     1
290
     0
176
     1
 90
       50
176
     1
 40
0.0
176
     1
 40
1.0
176
     1
 90
        0
176
     1
 62
    18
420
        0
176
     1
 90
       50
176
     1
 90
        3
176
     1
 62
     5
420
      255
176
     1
290
     0
176
     1
 90
       50
176
     1
 90
       50
176
     1
 90
       50
176
     1
290
     0
176
     1
 90
       50
176
     1
 62
   256
176
     0
 40
1.0
176
     0
 90
        2
176
     1
  1
strokes_ogs.tif
176
     1
290
     0
176
     1
 40
1.0
176
     1
 40
1.0
176
     1
  0
VISUALSTYLE
  5
42
102
{ACAD_REACTORS
330
2A
102
}
330
2A
100
AcDbVisualStyle
  2
Shaded
 70
    27
177
     3
291
     0
 70
    58
 90
        2
176
     1
 90
        2
176
     1
 90
        1
176
     1
 90
        2
176
     1
 40
0.6
176
     1
 40
30.0
176
     1
 62
     7
420
 16777215
176
     1
 90
        0
176
     1
 90
        4
176
     1
 62
     7
176
     1
 62
   257
176
     1
 90
        1
176
     1
 90
        1
176
     1
 40
1.0
176
     1
 90
        8
176
     1
 62
   257
176
     1
 40
1.0
176
     1
 90
        1
176
     1
 90
        6
176
     1
 90
        2
176
     1
 62
     8
420
  7895160
176
     1
 90
        3
176
     1
 90
        0
176
     1
 90
        0
176
     1
290
     0
176
     1
 90
        5
176
     1
 40
0.0
176
     1
 90
        0
176
     1
290
     0
176
     1
290
     1
176
     1
290
     1
176
     1
290
     0
176
     1
290
     0
176
     1
290
     0
176
     1
290
     0
176
     1
290
     0
176
     1
290
     0
176
     1
 90
       50
176
     1
 40
0.0
176
     1
 40
1.0
176
     1
 90
        0
176
     1
 62
    18
420
        0
176
     1
 90
       50
176
     1
 90
        3
176
     1
 62
     5
420
      255
176
     1
290
     0
176
     1
 90
       50
176
     1
 90
       50
176
     1
 90
       50
176
     1
290
     0
176
     1
 90
       50
176
     1
 62
   256
176
     0
 40
1.0
176
     0
 90
        2
176
     1
  1
strokes_ogs.tif
176
     1
290
     0
176
     1
 40
1.0
176
     1
 40
1.0
176
     1
  0
VISUALSTYLE
  5
41
102
{ACAD_REACTORS
330
2A
102
}
330
2A
100
AcDbVisualStyle
  2
Shaded with edges
 70
    26
177
     3
291
     0
 70
    58
 90
        2
176
     1
 90
        2
176
     1
 90
        1
176
     1
 90
        2
176
     1
 40
0.6
176
     1
 40
30.0
176
     1
 62
     7
420
 16777215
176
     1
 90
        1
176
     1
 90
       10
176
     1
 62
     7
176
     1
 62
   257
176
     1
 90
        2
176
     1
 90
        1
176
     1
 40
1.0
176
     1
 90
        8
176
     1
 62
   257
176
     1
 40
1.0
176
     1
 90
        1
176
     1
 90
        6
176
     1
 90
        2
176
     1
 62
     7
176
     1
 90
        3
176
     1
 90
        0
176
     1
 90
        0
176
     1
290
     0
176
     1
 90
        5
176
     1
 40
0.0
176
     1
 90
        0
176
     1
290
     0
176
     1
290
     1
176
     1
290
     1
176
     1
290
     0
176
     1
290
     0
176
     1
290
     0
176
     1
290
     0
176
     1
290
     0
176
     1
290
     0
176
     1
 90
       50
176
     1
 40
0.0
176
     1
 40
1.0
176
     1
 90
        0
176
     1
 62
    18
420
        0
176
     1
 90
       50
176
     1
 90
        3
176
     1
 62
     5
420
      255
176
     1
290
     0
176
     1
 90
       50
176
     1
 90
       50
176
     1
 90
       50
176
     1
290
     0
176
     1
 90
       50
176
     1
 62
   256
176
     0
 40
1.0
176
     0
 90
        2
176
     1
  1
strokes_ogs.tif
176
     1
290
     0
176
     1
 40
1.0
176
     1
 40
1.0
176
     1
  0
VISUALSTYLE
  5
3E
102
{ACAD_REACTORS
330
2A
102
}
330
2A
100
AcDbVisualStyle
  2
Shades of Gray
 70
    23
177
     3
291
     0
 70
    58
 90
        2
176
     1
 90
        2
176
     1
 90
        3
176
     1
 90
        0
176
     1
 40
0.6
176
     1
 40
30.0
176
     1
 62
     7
420
 16777215
176
     1
 90
        2
176
     1
 90
        2
176
     1
 62
     7
176
     1
 62
     7
176
     1
 90
        1
176
     1
 90
        1
176
     1
 40
40.0
176
     1
 90
        8
176
     1
 62
     7
176
     1
 40
1.0
176
     1
 90
        1
176
     1
 90
        6
176
     1
 90
        2
176
     1
 62
     7
176
     1
 90
        3
176
     1
 90
        0
176
     1
 90
        0
176
     1
290
     0
176
     1
 90
        1
176
     1
 40
0.0
176
     1
 90
        0
176
     1
290
     0
176
     1
290
     1
176
     1
290
     1
176
     1
290
     0
176
     1
290
     0
176
     1
290
     0
176
     1
290
     0
176
     1
290
     0
176
     1
290
     0
176
     1
 90
       50
176
     1
 40
0.0
176
     1
 40
1.0
176
     1
 90
        0
176
     1
 62
    18
420
        0
176
     1
 90
       50
176
     1
 90
        3
176
     1
 62
     5
420
      255
176
     1
290
     0
176
     1
 90
       50
176
     1
 90
       50
176
     1
 90
       50
176
     1
290
     0
176
     1
 90
       50
176
     1
 62
   256
176
     0
 40
1.0
176
     0
 90
        2
176
     1
  1
strokes_ogs.tif
176
     1
290
     0
176
     1
 40
1.0
176
     1
 40
1.0
176
     1
  0
VISUALSTYLE
  5
3F
102
{ACAD_REACTORS
330
2A
102
}
330
2A
100
AcDbVisualStyle
  2
Sketchy
 70
    24
177
     3
291
     0
 70
    58
 90
        1
176
     1
 90
        2
176
     1
 90
        2
176
     1
 90
        0
176
     1
 40
0.6
176
     1
 40
30.0
176
     1
 62
     7
420
 16777215
176
     1
 90
        2
176
     1
 90
        2
176
     1
 62
     7
176
     1
 62
     7
176
     1
 90
        1
176
     1
 90
        1
176
     1
 40
40.0
176
     1
 90
       11
176
     1
 62
     7
176
     1
 40
1.0
176
     1
 90
        1
176
     1
 90
        6
176
     1
 90
        2
176
     1
 62
     7
176
     1
 90
        6
176
     1
 90
        0
176
     1
 90
        0
176
     1
290
     0
176
     1
 90
        1
176
     1
 40
0.0
176
     1
 90
        0
176
     1
290
     0
176
     1
290
     1
176
     1
290
     1
176
     1
290
     0
176
     1
290
     0
176
     1
290
     0
176
     1
290
     0
176
     1
290
     0
176
     1
290
     0
176
     1
 90
       50
176
     1
 40
0.0
176
     1
 40
1.0
176
     1
 90
        0
176
     1
 62
    18
420
        0
176
     1
 90
       50
176
     1
 90
        3
176
     1
 62
     5
420
      255
176
     1
290
     0
176
     1
 90
       50
176
     1
 90
       50
176
     1
 90
       50
176
     1
290
     0
176
     1
 90
       50
176
     1
 62
   256
176
     0
 40
1.0
176
     0
 90
        2
176
     1
  1
strokes_ogs.tif
176
     1
290
     0
176
     1
 40
1.0
176
     1
 40
1.0
176
     1
  0
VISUALSTYLE
  5
37
102
{ACAD_REACTORS
330
2A
102
}
330
2A
100
AcDbVisualStyle
  2
Thicken
 70
    13
177
     3
291
     1
 70
    58
 90
        2
176
     1
 90
        2
176
     1
 90
        0
176
     1
 90
        0
176
     1
 40
0.6
176
     1
 40
30.0
176
     1
 62
     7
420
 16777215
176
     1
 90
        1
176
     1
 90
        4
176
     1
 62
     7
176
     1
 62
   257
176
     1
 90
        1
176
     1
 90
        1
176
     1
 40
1.0
176
     1
 90
       12
176
     1
 62
     7
176
     1
 40
1.0
176
     1
 90
        1
176
     1
 90
        6
176
     1
 90
        2
176
     1
 62
     7
176
     1
 90
        5
176
     1
 90
        0
176
     1
 90
        0
176
     1
290
     0
176
     1
 90
        1
176
     1
 40
0.0
176
     1
 90
        0
176
     1
290
     0
176
     1
290
     1
176
     1
290
     1
176
     1
290
     0
176
     1
290
     0
176
     1
290
     0
176
     1
290
     0
176
     1
290
     0
176
     1
290
     0
176
     1
 90
       50
176
     1
 40
0.0
176
     1
 40
1.0
176
     1
 90
        0
176
     1
 62
    18
420
        0
176
     1
 90
       50
176
     1
 90
        3
176
     1
 62
     5
420
      255
176
     1
290
     0
176
     1
 90
       50
176
     1
 90
       50
176
     1
 90
       50
176
     1
290
     0
176
     1
 90
       50
176
     1
 62
   256
176
     0
 40
1.0
176
     0
 90
        2
176
     1
  1
strokes_ogs.tif
176
     1
290
     0
176
     1
 40
1.0
176
     1
 40
1.0
176
     1
  0
VISUALSTYLE
  5
30
102
{ACAD_REACTORS
330
2A
102
}
330
2A
100
AcDbVisualStyle
  2
Wireframe
 70
     5
177
     3
291
     0
 70
    58
 90
        0
176
     1
 90
        2
176
     1
 90
        0
176
     1
 90
        0
176
     1
 40
0.6
176
     1
 40
30.0
176
     1
 62
     7
420
 16777215
176
     1
 90
        1
176
     1
 90
        4
176
     1
 62
     7
176
     1
 62
   257
176
     1
 90
        1
176
     1
 90
        1
176
     1
 40
1.0
176
     1
 90
        0
176
     1
 62
   257
176
     1
 40
1.0
176
     1
 90
        1
176
     1
 90
        6
176
     1
 90
        2
176
     1
 62
     7
176
     1
 90
        3
176
     1
 90
        0
176
     1
 90
        0
176
     1
290
     0
176
     1
 90
        1
176
     1
 40
0.0
176
     1
 90
        0
176
     1
290
     0
176
     1
290
     1
176
     1
290
     1
176
     1
290
     0
176
     1
290
     0
176
     1
290
     0
176
     1
290
     0
176
     1
290
     0
176
     1
290
     0
176
     1
 90
       50
176
     1
 40
0.0
176
     1
 40
1.0
176
     1
 90
        0
176
     1
 62
    18
420
        0
176
     1
 90
       50
176
     1
 90
        3
176
     1
 62
     5
420
      255
176
     1
290
     0
176
     1
 90
       50
176
     1
 90
       50
176
     1
 90
       50
176
     1
290
     0
176
     1
 90
       50
176
     1
 62
   256
176
     0
 40
1.0
176
     0
 90
        2
176
     1
  1
strokes_ogs.tif
176
     1
290
     0
176
     1
 40
1.0
176
     1
 40
1.0
176
     1
  0
VISUALSTYLE
  5
40
102
{ACAD_REACTORS
330
2A
102
}
330
2A
100
AcDbVisualStyle
  2
X-Ray
 70
    25
177
     3
291
     0
 70
    58
 90
        2
176
     1
 90
        2
176
     1
 90
        1
176
     1
 90
        1
176
     1
 40
0.5
176
     1
 40
30.0
176
     1
 62
     7
420
 16777215
176
     1
 90
        1
176
     1
 90
        0
176
     1
 62
     7
176
     1
 62
   257
176
     1
 90
        1
176
     1
 90
        1
176
     1
 40
1.0
176
     1
 90
        8
176
     1
 62
     7
176
     1
 40
1.0
176
     1
 90
        1
176
     1
 90
        6
176
     1
 90
        2
176
     1
 62
     7
176
     1
 90
        3
176
     1
 90
        0
176
     1
 90
        0
176
     1
290
     0
176
     1
 90
       13
176
     1
 40
0.0
176
     1
 90
        0
176
     1
290
     0
176
     1
290
     1
176
     1
290
     1
176
     1
290
     0
176
     1
290
     0
176
     1
290
     0
176
     1
290
     0
176
     1
290
     0
176
     1
290
     0
176
     1
 90
       50
176
     1
 40
0.0
176
     1
 40
1.0
176
     1
 90
        0
176
     1
 62
    18
420
        0
176
     1
 90
       50
176
     1
 90
        3
176
     1
 62
     5
420
      255
176
     1
290
     0
176
     1
 90
       50
176
     1
 90
       50
176
     1
 90
       50
176
     1
290
     0
176
     1
 90
       50
176
     1
 62
   256
176
     0
 40
1.0
176
     0
 90
        2
176
     1
  1
strokes_ogs.tif
176
     1
290
     0
176
     1
 40
1.0
176
     1
 40
1.0
176
     1
  0
DICTIONARYVAR
  5
20D
102
{ACAD_REACTORS
330
20C
102
}
330
20C
100
DictionaryVariables
280
     0
  1
1:1
  0
DICTIONARYVAR
  5
212
102
{ACAD_REACTORS
330
20C
102
}
330
20C
100
DictionaryVariables
280
     0
  1
Standard
  0
DICTIONARYVAR
  5
211
102
{ACAD_REACTORS
330
20C
102
}
330
20C
100
DictionaryVariables
280
     0
  1
Standard
  0
DICTIONARY
  5
20E
330
6A
100
AcDbDictionary
280
     1
281
     1
  3
ACAD_ROUNDTRIP_2008_TABLESTYLE_CELLSTYLEMAP
360
20F
  0
CELLSTYLEMAP
  5
20F
102
{ACAD_REACTORS
330
20E
102
}
330
20E
100
AcDbCellStyleMap
 90
        3
300
CELLSTYLE
  1
TABLEFORMAT_BEGIN
 90
        5
170
     1
 91
        0
 92
    32768
 62
   257
 93
        1
300
CONTENTFORMAT
  1
CONTENTFORMAT_BEGIN
 90
        0
 91
        0
 92
        4
 93
        0
300

 40
0.0
140
1.0
 94
        5
 62
     0
340
11
144
0.25
309
CONTENTFORMAT_END
171
     1
301
MARGIN
  1
CELLMARGIN_BEGIN
 40
0.06
 40
0.06
 40
0.06
 40
0.06
 40
0.06
 40
0.06
309
CELLMARGIN_END
 94
        6
 95
        1
302
GRIDFORMAT
  1
GRIDFORMAT_BEGIN
 90
        0
 91
        1
 62
     0
 92
       -2
340
14
 93
        0
 40
0.045
309
GRIDFORMAT_END
 95
        2
302
GRIDFORMAT
  1
GRIDFORMAT_BEGIN
 90
        0
 91
        1
 62
     0
 92
       -2
340
14
 93
        0
 40
0.045
309
GRIDFORMAT_END
 95
        4
302
GRIDFORMAT
  1
GRIDFORMAT_BEGIN
 90
        0
 91
        1
 62
     0
 92
       -2
340
14
 93
        0
 40
0.045
309
GRIDFORMAT_END
 95
        8
302
GRIDFORMAT
  1
GRIDFORMAT_BEGIN
 90
        0
 91
        1
 62
     0
 92
       -2
340
14
 93
        0
 40
0.045
309
GRIDFORMAT_END
 95
       16
302
GRIDFORMAT
  1
GRIDFORMAT_BEGIN
 90
        0
 91
        1
 62
     0
 92
       -2
340
14
 93
        0
 40
0.045
309
GRIDFORMAT_END
 95
       32
302
GRIDFORMAT
  1
GRIDFORMAT_BEGIN
 90
        0
 91
        1
 62
     0
 92
       -2
340
14
 93
        0
 40
0.045
309
GRIDFORMAT_END
309
TABLEFORMAT_END
  1
CELLSTYLE_BEGIN
 90
        1
 91
        1
300
_TITLE
309
CELLSTYLE_END
300
CELLSTYLE
  1
TABLEFORMAT_BEGIN
 90
        5
170
     1
 91
        0
 92
        0
 62
   257
 93
        1
300
CONTENTFORMAT
  1
CONTENTFORMAT_BEGIN
 90
        0
 91
        0
 92
        4
 93
        0
300

 40
0.0
140
1.0
 94
        5
 62
     0
340
11
144
0.18
309
CONTENTFORMAT_END
171
     1
301
MARGIN
  1
CELLMARGIN_BEGIN
 40
0.06
 40
0.06
 40
0.06
 40
0.06
 40
0.06
 40
0.06
309
CELLMARGIN_END
 94
        6
 95
        1
302
GRIDFORMAT
  1
GRIDFORMAT_BEGIN
 90
        0
 91
        1
 62
     0
 92
       -2
340
14
 93
        0
 40
0.045
309
GRIDFORMAT_END
 95
        2
302
GRIDFORMAT
  1
GRIDFORMAT_BEGIN
 90
        0
 91
        1
 62
     0
 92
       -2
340
14
 93
        0
 40
0.045
309
GRIDFORMAT_END
 95
        4
302
GRIDFORMAT
  1
GRIDFORMAT_BEGIN
 90
        0
 91
        1
 62
     0
 92
       -2
340
14
 93
        0
 40
0.045
309
GRIDFORMAT_END
 95
        8
302
GRIDFORMAT
  1
GRIDFORMAT_BEGIN
 90
        0
 91
        1
 62
     0
 92
       -2
340
14
 93
        0
 40
0.045
309
GRIDFORMAT_END
 95
       16
302
GRIDFORMAT
  1
GRIDFORMAT_BEGIN
 90
        0
 91
        1
 62
     0
 92
       -2
340
14
 93
        0
 40
0.045
309
GRIDFORMAT_END
 95
       32
302
GRIDFORMAT
  1
GRIDFORMAT_BEGIN
 90
        0
 91
        1
 62
     0
 92
       -2
340
14
 93
        0
 40
0.045
309
GRIDFORMAT_END
309
TABLEFORMAT_END
  1
CELLSTYLE_BEGIN
 90
        2
 91
        1
300
_HEADER
309
CELLSTYLE_END
300
CELLSTYLE
  1
TABLEFORMAT_BEGIN
 90
        5
170
     1
 91
        0
 92
        0
 62
   257
 93
        1
300
CONTENTFORMAT
  1
CONTENTFORMAT_BEGIN
 90
        0
 91
        0
 92
        4
 93
        0
300

 40
0.0
140
1.0
 94
        2
 62
     0
340
11
144
0.18
309
CONTENTFORMAT_END
171
     1
301
MARGIN
  1
CELLMARGIN_BEGIN
 40
0.06
 40
0.06
 40
0.06
 40
0.06
 40
0.06
 40
0.06
309
CELLMARGIN_END
 94
        6
 95
        1
302
GRIDFORMAT
  1
GRIDFORMAT_BEGIN
 90
        0
 91
        1
 62
     0
 92
       -2
340
14
 93
        0
 40
0.045
309
GRIDFORMAT_END
 95
        2
302
GRIDFORMAT
  1
GRIDFORMAT_BEGIN
 90
        0
 91
        1
 62
     0
 92
       -2
340
14
 93
        0
 40
0.045
309
GRIDFORMAT_END
 95
        4
302
GRIDFORMAT
  1
GRIDFORMAT_BEGIN
 90
        0
 91
        1
 62
     0
 92
       -2
340
14
 93
        0
 40
0.045
309
GRIDFORMAT_END
 95
        8
302
GRIDFORMAT
  1
GRIDFORMAT_BEGIN
 90
        0
 91
        1
 62
     0
 92
       -2
340
14
 93
        0
 40
0.045
309
GRIDFORMAT_END
 95
       16
302
GRIDFORMAT
  1
GRIDFORMAT_BEGIN
 90
        0
 91
        1
 62
     0
 92
       -2
340
14
 93
        0
 40
0.045
309
GRIDFORMAT_END
 95
       32
302
GRIDFORMAT
  1
GRIDFORMAT_BEGIN
 90
        0
 91
        1
 62
     0
 92
       -2
340
14
 93
        0
 40
0.045
309
GRIDFORMAT_END
309
TABLEFORMAT_END
  1
CELLSTYLE_BEGIN
 90
        3
 91
        2
300
_DATA
309
CELLSTYLE_END
  0
ENDSEC
  0
EOF