0
SECTION
  2
HEADER
  9
$ACADVER
  1
AC1027
  9
$ACADMAINTVER
 70
     8
  9
$DWGCODEPAGE
  3
ANSI_1252
  9
$REQUIREDVERSIONS
160
                 0
  9
$COMMENTS
  1
File was created by Cadenas
  9
$CUSTOMPROPERTYTAG
  1
NN
  9
$CUSTOMPROPERTY
  1
Special Duty Pillow Block - Inch 4-Bolt Base Gray Iron Non-Expansion
  9
$CUSTOMPROPERTYTAG
  1
NT
  9
$CUSTOMPROPERTY
  1
Special Duty
  9
$CUSTOMPROPERTYTAG
  1
NB
  9
$CUSTOMPROPERTY
  1
066379
  9
$CUSTOMPROPERTYTAG
  1
NBSYN
  9
$CUSTOMPROPERTY
  1
$PN.
  9
$CUSTOMPROPERTYTAG
  1
LINA
  9
$CUSTOMPROPERTY
  1
066379
  9
$CUSTOMPROPERTYTAG
  1
SS
  9
$CUSTOMPROPERTY
  1
5-7/16
  9
$CUSTOMPROPERTYTAG
  1
PN
  9
$CUSTOMPROPERTY
  1
066379
  9
$CUSTOMPROPERTYTAG
  1
TYPE
  9
$CUSTOMPROPERTY
  1
Gray Iron Non - Expansion
  9
$CUSTOMPROPERTYTAG
  1
DESCRIPTION
  9
$CUSTOMPROPERTY
  1
P4B-SD-507
  9
$CUSTOMPROPERTYTAG
  1
WEIGHT
  9
$CUSTOMPROPERTY
  1
585
  9
$CUSTOMPROPERTYTAG
  1
A
  9
$CUSTOMPROPERTY
  1
12
  9
$CUSTOMPROPERTYTAG
  1
B
  9
$CUSTOMPROPERTY
  1
26-3/4
  9
$CUSTOMPROPERTYTAG
  1
C
  9
$CUSTOMPROPERTY
  1
9-1/4
  9
$CUSTOMPROPERTYTAG
  1
DMIN
  9
$CUSTOMPROPERTY
  1
21-3/8
  9
$CUSTOMPROPERTYTAG
  1
DMAX
  9
$CUSTOMPROPERTY
  1
23-5/8
  9
$CUSTOMPROPERTYTAG
  1
E
  9
$CUSTOMPROPERTY
  1
5
  9
$CUSTOMPROPERTYTAG
  1
F
  9
$CUSTOMPROPERTY
  1
1-1/8
  9
$CUSTOMPROPERTYTAG
  1
G
  9
$CUSTOMPROPERTY
  1
2-1/4
  9
$CUSTOMPROPERTYTAG
  1
H
  9
$CUSTOMPROPERTY
  1
5
  9
$CUSTOMPROPERTYTAG
  1
J
  9
$CUSTOMPROPERTY
  1
19
  9
$CUSTOMPROPERTYTAG
  1
L
  9
$CUSTOMPROPERTY
  1
9-1/2
  9
$CUSTOMPROPERTYTAG
  1
M
  9
$CUSTOMPROPERTY
  1
9
  9
$CUSTOMPROPERTYTAG
  1
P
  9
$CUSTOMPROPERTY
  1
17-3/8
  9
$CUSTOMPROPERTYTAG
  1
R
  9
$CUSTOMPROPERTY
  1
6
  9
$CUSTOMPROPERTYTAG
  1
S
  9
$CUSTOMPROPERTY
  1
6
  9
$CUSTOMPROPERTYTAG
  1
EXP
  9
$CUSTOMPROPERTY
  1
3/4
  9
$CUSTOMPROPERTYTAG
  1
COMPANY
  9
$CUSTOMPROPERTY
  1
baldor
  9
$INSBASE
 10
0.0
 20
0.0
 30
0.0
  9
$EXTMIN
 10
1.000000000000000E+20
 20
1.000000000000000E+20
 30
1.000000000000000E+20
  9
$EXTMAX
 10
-1.000000000000000E+20
 20
-1.000000000000000E+20
 30
-1.000000000000000E+20
  9
$LIMMIN
 10
0.0
 20
0.0
  9
$LIMMAX
 10
12.0
 20
9.0
  9
$ORTHOMODE
 70
     0
  9
$REGENMODE
 70
     1
  9
$FILLMODE
 70
     1
  9
$QTEXTMODE
 70
     0
  9
$MIRRTEXT
 70
     1
  9
$LTSCALE
 40
1.0
  9
$ATTMODE
 70
     1
  9
$TEXTSIZE
 40
0.2
  9
$TRACEWID
 40
0.05
  9
$TEXTSTYLE
  7
Standard
  9
$CLAYER
  8
0
  9
$CELTYPE
  6
ByLayer
  9
$CECOLOR
 62
   256
  9
$CELTSCALE
 40
1.0
  9
$DISPSILH
 70
     0
  9
$DIMSCALE
 40
1.0
  9
$DIMASZ
 40
0.18
  9
$DIMEXO
 40
0.0625
  9
$DIMDLI
 40
0.38
  9
$DIMRND
 40
0.0
  9
$DIMDLE
 40
0.0
  9
$DIMEXE
 40
0.18
  9
$DIMTP
 40
0.0
  9
$DIMTM
 40
0.0
  9
$DIMTXT
 40
0.18
  9
$DIMCEN
 40
0.09
  9
$DIMTSZ
 40
0.0
  9
$DIMTOL
 70
     0
  9
$DIMLIM
 70
     0
  9
$DIMTIH
 70
     1
  9
$DIMTOH
 70
     1
  9
$DIMSE1
 70
     0
  9
$DIMSE2
 70
     0
  9
$DIMTAD
 70
     0
  9
$DIMZIN
 70
     0
  9
$DIMBLK
  1

  9
$DIMASO
 70
     1
  9
$DIMSHO
 70
     1
  9
$DIMPOST
  1

  9
$DIMAPOST
  1

  9
$DIMALT
 70
     0
  9
$DIMALTD
 70
     2
  9
$DIMALTF
 40
25.4
  9
$DIMLFAC
 40
1.0
  9
$DIMTOFL
 70
     0
  9
$DIMTVP
 40
0.0
  9
$DIMTIX
 70
     0
  9
$DIMSOXD
 70
     0
  9
$DIMSAH
 70
     0
  9
$DIMBLK1
  1

  9
$DIMBLK2
  1

  9
$DIMSTYLE
  2
Standard
  9
$DIMCLRD
 70
     0
  9
$DIMCLRE
 70
     0
  9
$DIMCLRT
 70
     0
  9
$DIMTFAC
 40
1.0
  9
$DIMGAP
 40
0.09
  9
$DIMJUST
 70
     0
  9
$DIMSD1
 70
     0
  9
$DIMSD2
 70
     0
  9
$DIMTOLJ
 70
     1
  9
$DIMTZIN
 70
     0
  9
$DIMALTZ
 70
     0
  9
$DIMALTTZ
 70
     0
  9
$DIMUPT
 70
     0
  9
$DIMDEC
 70
     4
  9
$DIMTDEC
 70
     4
  9
$DIMALTU
 70
     2
  9
$DIMALTTD
 70
     2
  9
$DIMTXSTY
  7
Standard
  9
$DIMAUNIT
 70
     0
  9
$DIMADEC
 70
     0
  9
$DIMALTRND
 40
0.0
  9
$DIMAZIN
 70
     0
  9
$DIMDSEP
 70
    46
  9
$DIMATFIT
 70
     3
  9
$DIMFRAC
 70
     0
  9
$DIMLDRBLK
  1

  9
$DIMLUNIT
 70
     2
  9
$DIMLWD
 70
    -2
  9
$DIMLWE
 70
    -2
  9
$DIMTMOVE
 70
     0
  9
$DIMFXL
 40
1.0
  9
$DIMFXLON
 70
     0
  9
$DIMJOGANG
 40
0.7853981633974483
  9
$DIMTFILL
 70
     0
  9
$DIMTFILLCLR
 70
     0
  9
$DIMARCSYM
 70
     0
  9
$DIMLTYPE
  6

  9
$DIMLTEX1
  6

  9
$DIMLTEX2
  6

  9
$DIMTXTDIRECTION
 70
     0
  9
$LUNITS
 70
     2
  9
$LUPREC
 70
     4
  9
$SKETCHINC
 40
0.1
  9
$FILLETRAD
 40
0.5
  9
$AUNITS
 70
     0
  9
$AUPREC
 70
     0
  9
$MENU
  1
.
  9
$ELEVATION
 40
0.0
  9
$PELEVATION
 40
0.0
  9
$THICKNESS
 40
0.0
  9
$LIMCHECK
 70
     0
  9
$CHAMFERA
 40
0.0
  9
$CHAMFERB
 40
0.0
  9
$CHAMFERC
 40
0.0
  9
$CHAMFERD
 40
0.0
  9
$SKPOLY
 70
     0
  9
$TDCREATE
 40
2458168.977730035
  9
$TDUCREATE
 40
2458168.936063368
  9
$TDUPDATE
 40
2458168.977730035
  9
$TDUUPDATE
 40
2458168.936063368
  9
$TDINDWG
 40
0.0000000116
  9
$TDUSRTIMER
 40
0.0000000116
  9
$USRTIMER
 70
     1
  9
$ANGBASE
 50
0.0
  9
$ANGDIR
 70
     0
  9
$PDMODE
 70
     0
  9
$PDSIZE
 40
0.0
  9
$PLINEWID
 40
0.0
  9
$SPLFRAME
 70
     0
  9
$SPLINETYPE
 70
     6
  9
$SPLINESEGS
 70
     8
  9
$HANDSEED
  5
1FF
  9
$SURFTAB1
 70
     6
  9
$SURFTAB2
 70
     6
  9
$SURFTYPE
 70
     6
  9
$SURFU
 70
     6
  9
$SURFV
 70
     6
  9
$UCSBASE
  2

  9
$UCSNAME
  2

  9
$UCSORG
 10
0.0
 20
0.0
 30
0.0
  9
$UCSXDIR
 10
1.0
 20
0.0
 30
0.0
  9
$UCSYDIR
 10
0.0
 20
1.0
 30
0.0
  9
$UCSORTHOREF
  2

  9
$UCSORTHOVIEW
 70
     0
  9
$UCSORGTOP
 10
0.0
 20
0.0
 30
0.0
  9
$UCSORGBOTTOM
 10
0.0
 20
0.0
 30
0.0
  9
$UCSORGLEFT
 10
0.0
 20
0.0
 30
0.0
  9
$UCSORGRIGHT
 10
0.0
 20
0.0
 30
0.0
  9
$UCSORGFRONT
 10
0.0
 20
0.0
 30
0.0
  9
$UCSORGBACK
 10
0.0
 20
0.0
 30
0.0
  9
$PUCSBASE
  2

  9
$PUCSNAME
  2

  9
$PUCSORG
 10
0.0
 20
0.0
 30
0.0
  9
$PUCSXDIR
 10
1.0
 20
0.0
 30
0.0
  9
$PUCSYDIR
 10
0.0
 20
1.0
 30
0.0
  9
$PUCSORTHOREF
  2

  9
$PUCSORTHOVIEW
 70
     0
  9
$PUCSORGTOP
 10
0.0
 20
0.0
 30
0.0
  9
$PUCSORGBOTTOM
 10
0.0
 20
0.0
 30
0.0
  9
$PUCSORGLEFT
 10
0.0
 20
0.0
 30
0.0
  9
$PUCSORGRIGHT
 10
0.0
 20
0.0
 30
0.0
  9
$PUCSORGFRONT
 10
0.0
 20
0.0
 30
0.0
  9
$PUCSORGBACK
 10
0.0
 20
0.0
 30
0.0
  9
$USERI1
 70
     0
  9
$USERI2
 70
     0
  9
$USERI3
 70
     0
  9
$USERI4
 70
     0
  9
$USERI5
 70
     0
  9
$USERR1
 40
0.0
  9
$USERR2
 40
0.0
  9
$USERR3
 40
0.0
  9
$USERR4
 40
0.0
  9
$USERR5
 40
0.0
  9
$WORLDVIEW
 70
     1
  9
$SHADEDGE
 70
     3
  9
$SHADEDIF
 70
    70
  9
$TILEMODE
 70
     1
  9
$MAXACTVP
 70
    64
  9
$PINSBASE
 10
0.0
 20
0.0
 30
0.0
  9
$PLIMCHECK
 70
     0
  9
$PEXTMIN
 10
1.000000000000000E+20
 20
1.000000000000000E+20
 30
1.000000000000000E+20
  9
$PEXTMAX
 10
-1.000000000000000E+20
 20
-1.000000000000000E+20
 30
-1.000000000000000E+20
  9
$PLIMMIN
 10
0.0
 20
0.0
  9
$PLIMMAX
 10
12.0
 20
9.0
  9
$UNITMODE
 70
     0
  9
$VISRETAIN
 70
     1
  9
$PLINEGEN
 70
     0
  9
$PSLTSCALE
 70
     1
  9
$TREEDEPTH
 70
  3020
  9
$CMLSTYLE
  2
Standard
  9
$CMLJUST
 70
     0
  9
$CMLSCALE
 40
1.0
  9
$PROXYGRAPHICS
 70
     1
  9
$MEASUREMENT
 70
     0
  9
$CELWEIGHT
370
    -1
  9
$ENDCAPS
280
     0
  9
$JOINSTYLE
280
     0
  9
$LWDISPLAY
290
     0
  9
$INSUNITS
 70
     1
  9
$HYPERLINKBASE
  1

  9
$STYLESHEET
  1

  9
$XEDIT
290
     1
  9
$CEPSNTYPE
380
     0
  9
$PSTYLEMODE
290
     1
  9
$FINGERPRINTGUID
  2
{27CAAA95-9541-4D26-9CC6-AFAF539B940A}
  9
$VERSIONGUID
  2
{FAEB1C32-E019-11D5-929B-00C0DF256EC4}
  9
$EXTNAMES
290
     1
  9
$PSVPSCALE
 40
0.0
  9
$OLESTARTUP
290
     0
  9
$SORTENTS
280
   127
  9
$INDEXCTL
280
     0
  9
$HIDETEXT
280
     1
  9
$XCLIPFRAME
280
     2
  9
$HALOGAP
280
     0
  9
$OBSCOLOR
 70
   257
  9
$OBSLTYPE
280
     0
  9
$INTERSECTIONDISPLAY
280
     0
  9
$INTERSECTIONCOLOR
 70
   257
  9
$DIMASSOC
280
     2
  9
$PROJECTNAME
  1

  9
$CAMERADISPLAY
290
     0
  9
$LENSLENGTH
 40
50.0
  9
$CAMERAHEIGHT
 40
0.0
  9
$STEPSPERSEC
 40
2.0
  9
$STEPSIZE
 40
6.0
  9
$3DDWFPREC
 40
2.0
  9
$PSOLWIDTH
 40
0.25
  9
$PSOLHEIGHT
 40
4.0
  9
$LOFTANG1
 40
1.570796326794897
  9
$LOFTANG2
 40
1.570796326794897
  9
$LOFTMAG1
 40
0.0
  9
$LOFTMAG2
 40
0.0
  9
$LOFTPARAM
 70
     7
  9
$LOFTNORMALS
280
     1
  9
$LATITUDE
 40
37.795
  9
$LONGITUDE
 40
-122.394
  9
$NORTHDIRECTION
 40
0.0
  9
$TIMEZONE
 70
 -8000
  9
$LIGHTGLYPHDISPLAY
280
     1
  9
$TILEMODELIGHTSYNCH
280
     1
  9
$CMATERIAL
347
44
  9
$SOLIDHIST
280
     0
  9
$SHOWHIST
280
     1
  9
$DWFFRAME
280
     2
  9
$DGNFRAME
280
     2
  9
$REALWORLDSCALE
290
     1
  9
$INTERFERECOLOR
 62
   256
  9
$CSHADOW
280
     0
  9
$SHADOWPLANELOCATION
 40
0.0
  0
ENDSEC
  0
SECTION
  2
CLASSES
  0
CLASS
  1
ACDBDICTIONARYWDFLT
  2
AcDbDictionaryWithDefault
  3
ObjectDBX Classes
 90
        0
 91
        4
280
     0
281
     0
  0
CLASS
  1
VISUALSTYLE
  2
AcDbVisualStyle
  3
ObjectDBX Classes
 90
     4095
 91
        4
280
     0
281
     0
  0
CLASS
  1
MATERIAL
  2
AcDbMaterial
  3
ObjectDBX Classes
 90
     1153
 91
        4
280
     0
281
     0
  0
CLASS
  1
SCALE
  2
AcDbScale
  3
ObjectDBX Classes
 90
     1153
 91
        4
280
     0
281
     0
  0
CLASS
  1
TABLESTYLE
  2
AcDbTableStyle
  3
ObjectDBX Classes
 90
     4095
 91
        4
280
     0
281
     0
  0
CLASS
  1
MLEADERSTYLE
  2
AcDbMLeaderStyle
  3
ACDB_MLEADERSTYLE_CLASS
 90
     4095
 91
        4
280
     0
281
     0
  0
CLASS
  1
SUN
  2
AcDbSun
  3
SCENEOE
 90
     1153
 91
        4
280
     0
281
     0
  0
CLASS
  1
DICTIONARYVAR
  2
AcDbDictionaryVar
  3
ObjectDBX Classes
 90
        0
 91
        4
280
     0
281
     0
  0
CLASS
  1
CELLSTYLEMAP
  2
AcDbCellStyleMap
  3
ObjectDBX Classes
 90
     1152
 91
        4
280
     0
281
     0
  0
ENDSEC
  0
SECTION
  2
TABLES
  0
TABLE
  2
VPORT
  5
8
330
0
100
AcDbSymbolTable
 70
     1
  0
VPORT
  5
29
330
8
100
AcDbSymbolTableRecord
100
AcDbViewportTableRecord
  2
*Active
 70
     0
 10
0.0
 20
0.0
 11
1.0
 21
1.0
 12
0.0000000000000178
 22
0.5949999999999989
 13
0.0
 23
0.0
 14
0.5
 24
0.5
 15
0.5
 25
0.5
 16
0.0
 26
0.0
 36
1.0
 17
0.0
 27
0.0
 37
0.0
 40
19.5738
 41
0.6878582595101621
 42
50.0
 43
0.0
 44
0.0
 50
0.0
 51
0.0
 71
     0
 72
   100
 73
     1
 74
     3
 75
     0
 76
     0
 77
     0
 78
     0
281
     0
 65
     1
110
0.0
120
0.0
130
0.0
111
1.0
121
0.0
131
0.0
112
0.0
122
1.0
132
0.0
 79
     0
146
0.0
348
2F
 60
     3
 61
     5
292
     1
282
     1
141
0.0
142
0.0
 63
   250
361
6D
  0
ENDTAB
  0
TABLE
  2
LTYPE
  5
5
330
0
100
AcDbSymbolTable
 70
     3
  0
LTYPE
  5
14
330
5
100
AcDbSymbolTableRecord
100
AcDbLinetypeTableRecord
  2
ByBlock
 70
     0
  3

 72
    65
 73
     0
 40
0.0
  0
LTYPE
  5
15
330
5
100
AcDbSymbolTableRecord
100
AcDbLinetypeTableRecord
  2
ByLayer
 70
     0
  3

 72
    65
 73
     0
 40
0.0
  0
LTYPE
  5
16
330
5
100
AcDbSymbolTableRecord
100
AcDbLinetypeTableRecord
  2
Continuous
 70
     0
  3
Solid line
 72
    65
 73
     0
 40
0.0
  0
LTYPE
  5
BF
330
5
100
AcDbSymbolTableRecord
100
AcDbLinetypeTableRecord
  2
Dashed
 70
     0
  3

 72
    65
 73
     2
 40
2.0
 49
1.0
 74
     0
 49
-1.0
 74
     0
  0
LTYPE
  5
103
330
5
100
AcDbSymbolTableRecord
100
AcDbLinetypeTableRecord
  2
Center
 70
     0
  3

 72
    65
 73
     4
 40
1.5
 49
0.45
 74
     0
 49
-0.5
 74
     0
 49
0.05
 74
     0
 49
-0.5
 74
     0
  0
ENDTAB
  0
TABLE
  2
LAYER
  5
2
330
0
100
AcDbSymbolTable
 70
     7
  0
LAYER
  5
10
330
2
100
AcDbSymbolTableRecord
100
AcDbLayerTableRecord
  2
0
 70
     0
 62
     7
  6
Continuous
370
    -3
390
F
347
46
348
0
  0
LAYER
  5
72
330
2
100
AcDbSymbolTableRecord
100
AcDbLayerTableRecord
  2
AM_6
 70
     0
 62
    -2
  6
Continuous
370
    35
390
F
347
46
348
0
  0
LAYER
  5
C0
330
2
100
AcDbSymbolTableRecord
100
AcDbLayerTableRecord
  2
AM_9
 70
     0
 62
     6
  6
Dashed
370
    25
390
F
347
46
348
0
  0
LAYER
  5
104
330
2
100
AcDbSymbolTableRecord
100
AcDbLayerTableRecord
  2
AM_7
 70
     0
 62
     7
  6
Center
370
    25
390
F
347
46
348
0
  0
LAYER
  5
141
330
2
100
AcDbSymbolTableRecord
100
AcDbLayerTableRecord
  2
AM_4
 70
     0
 62
     7
  6
Continuous
370
    50
390
F
347
46
348
0
  0
LAYER
  5
1E8
330
2
100
AcDbSymbolTableRecord
100
AcDbLayerTableRecord
  2
AM_5
 70
     0
 62
     3
  6
Continuous
370
    25
390
F
347
46
348
0
  0
LAYER
  5
1F3
330
2
100
AcDbSymbolTableRecord
100
AcDbLayerTableRecord
  2
ConnectionPoints
 70
     0
 62
     7
  6
Continuous
370
    50
390
F
347
46
348
0
  0
ENDTAB
  0
TABLE
  2
STYLE
  5
3
330
0
100
AcDbSymbolTable
 70
     1
  0
STYLE
  5
11
330
3
100
AcDbSymbolTableRecord
100
AcDbTextStyleTableRecord
  2
Standard
 70
     0
 40
0.0
 41
1.0
 50
0.0
 71
     0
 42
0.2
  3
txt
  4

  0
ENDTAB
  0
TABLE
  2
VIEW
  5
6
330
0
100
AcDbSymbolTable
 70
     0
  0
ENDTAB
  0
TABLE
  2
UCS
  5
7
330
0
100
AcDbSymbolTable
 70
     0
  0
ENDTAB
  0
TABLE
  2
APPID
  5
9
330
0
100
AcDbSymbolTable
 70
     1
  0
APPID
  5
12
330
9
100
AcDbSymbolTableRecord
100
AcDbRegAppTableRecord
  2
ACAD
 70
     0
  0
ENDTAB
  0
TABLE
  2
DIMSTYLE
  5
A
330
0
100
AcDbSymbolTable
 70
     1
100
AcDbDimStyleTable
  0
DIMSTYLE
105
27
330
A
100
AcDbSymbolTableRecord
100
AcDbDimStyleTableRecord
  2
Standard
 70
     0
178
     0
340
11
  0
ENDTAB
  0
TABLE
  2
BLOCK_RECORD
  5
1
330
0
100
AcDbSymbolTable
 70
     5
  0
BLOCK_RECORD
  5
1F
330
1
100
AcDbSymbolTableRecord
100
AcDbBlockTableRecord
  2
*Model_Space
340
22
 70
     0
280
     1
281
     0
  0
BLOCK_RECORD
  5
1B
330
1
100
AcDbSymbolTableRecord
100
AcDbBlockTableRecord
  2
*Paper_Space
340
1E
 70
     0
280
     1
281
     0
  0
BLOCK_RECORD
  5
23
330
1
100
AcDbSymbolTableRecord
100
AcDbBlockTableRecord
  2
*Paper_Space0
340
26
 70
     0
280
     1
281
     0
  0
BLOCK_RECORD
  5
6E
330
1
100
AcDbSymbolTableRecord
100
AcDbBlockTableRecord
  2
1_066379_2
340
0
102
{BLKREFS
331
6F
102
}
 70
     0
280
     1
281
     0
  0
BLOCK_RECORD
  5
8E
330
1
100
AcDbSymbolTableRecord
100
AcDbBlockTableRecord
  2
2_066379re_0_in_066379_2
340
0
102
{BLKREFS
331
8F
102
}
 70
     0
280
     1
281
     0
  0
BLOCK_RECORD
  5
106
330
1
100
AcDbSymbolTableRecord
100
AcDbBlockTableRecord
  2
3_066379r_0_in_066379_2
340
0
102
{BLKREFS
331
107
102
}
 70
     0
280
     1
281
     0
  0
BLOCK_RECORD
  5
14E
330
1
100
AcDbSymbolTableRecord
100
AcDbBlockTableRecord
  2
4_066379p_0_in_066379_2
340
0
102
{BLKREFS
331
14F
102
}
 70
     0
280
     1
281
     0
  0
ENDTAB
  0
ENDSEC
  0
SECTION
  2
BLOCKS
  0
BLOCK
  5
20
330
1F
100
AcDbEntity
  8
0
100
AcDbBlockBegin
  2
*Model_Space
 70
     0
 10
0.0
 20
0.0
 30
0.0
  3
*Model_Space
  1

  0
ENDBLK
  5
21
330
1F
100
AcDbEntity
  8
0
100
AcDbBlockEnd
  0
BLOCK
  5
1C
330
1B
100
AcDbEntity
 67
     1
  8
0
100
AcDbBlockBegin
  2
*Paper_Space
 70
     0
 10
0.0
 20
0.0
 30
0.0
  3
*Paper_Space
  1

  0
ENDBLK
  5
1D
330
1B
100
AcDbEntity
 67
     1
  8
0
100
AcDbBlockEnd
  0
BLOCK
  5
24
330
23
100
AcDbEntity
  8
0
100
AcDbBlockBegin
  2
*Paper_Space0
 70
     0
 10
0.0
 20
0.0
 30
0.0
  3
*Paper_Space0
  1

  0
ENDBLK
  5
25
330
23
100
AcDbEntity
  8
0
100
AcDbBlockEnd
  0
BLOCK
  5
70
330
6E
100
AcDbEntity
  8
0
100
AcDbBlockBegin
  2
1_066379_2
 70
     2
 10
0.0
 20
0.0
 30
0.0
  3
1_066379_2
  1

  0
ATTDEF
  5
73
330
6E
100
AcDbEntity
  8
AM_6
100
AcDbText
 10
11.60000000000002
 20
10.19
 30
0.0
 40
0.5
  1
Special Duty Pillow Block - Inch 4-Bolt Base Gray Iron Non-Expansion
100
AcDbAttributeDefinition
  3

  2
NN
 70
     8
280
     0
  0
ATTDEF
  5
74
330
6E
100
AcDbEntity
  8
AM_6
100
AcDbText
 10
11.60000000000002
 20
9.69
 30
0.0
 40
0.5
  1
Special Duty
100
AcDbAttributeDefinition
  3

  2
NT
 70
     8
280
     0
  0
ATTDEF
  5
75
330
6E
100
AcDbEntity
  8
AM_6
100
AcDbText
 10
11.60000000000002
 20
9.19
 30
0.0
 40
0.5
  1
066379
100
AcDbAttributeDefinition
  3

  2
NB
 70
     8
280
     0
  0
ATTDEF
  5
76
330
6E
100
AcDbEntity
  8
AM_6
100
AcDbText
 10
11.60000000000002
 20
8.69
 30
0.0
 40
0.5
  1
$PN.
100
AcDbAttributeDefinition
  3

  2
NBSYN
 70
     8
280
     0
  0
ATTDEF
  5
77
330
6E
100
AcDbEntity
  8
AM_6
100
AcDbText
 10
11.60000000000002
 20
8.19
 30
0.0
 40
0.5
  1
066379
100
AcDbAttributeDefinition
  3

  2
LINA
 70
     8
280
     0
  0
ATTDEF
  5
78
330
6E
100
AcDbEntity
  8
AM_6
100
AcDbText
 10
11.60000000000002
 20
7.69
 30
0.0
 40
0.5
  1
5-7/16
100
AcDbAttributeDefinition
  3

  2
SS
 70
     8
280
     0
  0
ATTDEF
  5
79
330
6E
100
AcDbEntity
  8
AM_6
100
AcDbText
 10
11.60000000000002
 20
7.19
 30
0.0
 40
0.5
  1
066379
100
AcDbAttributeDefinition
  3

  2
PN
 70
     8
280
     0
  0
ATTDEF
  5
7A
330
6E
100
AcDbEntity
  8
AM_6
100
AcDbText
 10
11.60000000000002
 20
6.69
 30
0.0
 40
0.5
  1
Gray Iron Non - Expansion
100
AcDbAttributeDefinition
  3

  2
TYPE
 70
     8
280
     0
  0
ATTDEF
  5
7B
330
6E
100
AcDbEntity
  8
AM_6
100
AcDbText
 10
11.60000000000002
 20
6.19
 30
0.0
 40
0.5
  1
P4B-SD-507
100
AcDbAttributeDefinition
  3

  2
DESCRIPTION
 70
     8
280
     0
  0
ATTDEF
  5
7C
330
6E
100
AcDbEntity
  8
AM_6
100
AcDbText
 10
11.60000000000002
 20
5.69
 30
0.0
 40
0.5
  1
585
100
AcDbAttributeDefinition
  3

  2
WEIGHT
 70
     8
280
     0
  0
ATTDEF
  5
7D
330
6E
100
AcDbEntity
  8
AM_6
100
AcDbText
 10
11.60000000000002
 20
5.19
 30
0.0
 40
0.5
  1
12
100
AcDbAttributeDefinition
  3

  2
A
 70
     8
280
     0
  0
ATTDEF
  5
7E
330
6E
100
AcDbEntity
  8
AM_6
100
AcDbText
 10
11.60000000000002
 20
4.69
 30
0.0
 40
0.5
  1
26-3/4
100
AcDbAttributeDefinition
  3

  2
B
 70
     8
280
     0
  0
ATTDEF
  5
7F
330
6E
100
AcDbEntity
  8
AM_6
100
AcDbText
 10
11.60000000000002
 20
4.19
 30
0.0
 40
0.5
  1
9-1/4
100
AcDbAttributeDefinition
  3

  2
C
 70
     8
280
     0
  0
ATTDEF
  5
80
330
6E
100
AcDbEntity
  8
AM_6
100
AcDbText
 10
11.60000000000002
 20
3.69
 30
0.0
 40
0.5
  1
21-3/8
100
AcDbAttributeDefinition
  3

  2
DMIN
 70
     8
280
     0
  0
ATTDEF
  5
81
330
6E
100
AcDbEntity
  8
AM_6
100
AcDbText
 10
11.60000000000002
 20
3.19
 30
0.0
 40
0.5
  1
23-5/8
100
AcDbAttributeDefinition
  3

  2
DMAX
 70
     8
280
     0
  0
ATTDEF
  5
82
330
6E
100
AcDbEntity
  8
AM_6
100
AcDbText
 10
11.60000000000002
 20
2.69
 30
0.0
 40
0.5
  1
5
100
AcDbAttributeDefinition
  3

  2
E
 70
     8
280
     0
  0
ATTDEF
  5
83
330
6E
100
AcDbEntity
  8
AM_6
100
AcDbText
 10
11.60000000000002
 20
2.19
 30
0.0
 40
0.5
  1
1-1/8
100
AcDbAttributeDefinition
  3

  2
F
 70
     8
280
     0
  0
ATTDEF
  5
84
330
6E
100
AcDbEntity
  8
AM_6
100
AcDbText
 10
11.60000000000002
 20
1.69
 30
0.0
 40
0.5
  1
2-1/4
100
AcDbAttributeDefinition
  3

  2
G
 70
     8
280
     0
  0
ATTDEF
  5
85
330
6E
100
AcDbEntity
  8
AM_6
100
AcDbText
 10
11.60000000000002
 20
1.19
 30
0.0
 40
0.5
  1
5
100
AcDbAttributeDefinition
  3

  2
H
 70
     8
280
     0
  0
ATTDEF
  5
86
330
6E
100
AcDbEntity
  8
AM_6
100
AcDbText
 10
11.60000000000002
 20
0.6899999999999995
 30
0.0
 40
0.5
  1
19
100
AcDbAttributeDefinition
  3

  2
J
 70
     8
280
     0
  0
ATTDEF
  5
87
330
6E
100
AcDbEntity
  8
AM_6
100
AcDbText
 10
11.60000000000002
 20
0.1899999999999995
 30
0.0
 40
0.5
  1
9-1/2
100
AcDbAttributeDefinition
  3

  2
L
 70
     8
280
     0
  0
ATTDEF
  5
88
330
6E
100
AcDbEntity
  8
AM_6
100
AcDbText
 10
11.60000000000002
 20
-0.3100000000000005
 30
0.0
 40
0.5
  1
9
100
AcDbAttributeDefinition
  3

  2
M
 70
     8
280
     0
  0
ATTDEF
  5
89
330
6E
100
AcDbEntity
  8
AM_6
100
AcDbText
 10
11.60000000000002
 20
-0.8100000000000005
 30
0.0
 40
0.5
  1
17-3/8
100
AcDbAttributeDefinition
  3

  2
P
 70
     8
280
     0
  0
ATTDEF
  5
8A
330
6E
100
AcDbEntity
  8
AM_6
100
AcDbText
 10
11.60000000000002
 20
-1.31
 30
0.0
 40
0.5
  1
6
100
AcDbAttributeDefinition
  3

  2
R
 70
     8
280
     0
  0
ATTDEF
  5
8B
330
6E
100
AcDbEntity
  8
AM_6
100
AcDbText
 10
11.60000000000002
 20
-1.81
 30
0.0
 40
0.5
  1
6
100
AcDbAttributeDefinition
  3

  2
S
 70
     8
280
     0
  0
ATTDEF
  5
8C
330
6E
100
AcDbEntity
  8
AM_6
100
AcDbText
 10
11.60000000000002
 20
-2.31
 30
0.0
 40
0.5
  1
3/4
100
AcDbAttributeDefinition
  3

  2
EXP
 70
     8
280
     0
  0
ATTDEF
  5
8D
330
6E
100
AcDbEntity
  8
AM_6
100
AcDbText
 10
11.60000000000002
 20
-2.81
 30
0.0
 40
0.5
  1
baldor
100
AcDbAttributeDefinition
  3

  2
COMPANY
 70
     8
280
     0
  0
INSERT
  5
8F
330
6E
100
AcDbEntity
  8
0
100
AcDbBlockReference
  2
2_066379re_0_in_066379_2
 10
0.0
 20
0.0
 30
0.0
  0
INSERT
  5
107
330
6E
100
AcDbEntity
  8
0
100
AcDbBlockReference
  2
3_066379r_0_in_066379_2
 10
0.0
 20
0.0
 30
0.0
  0
INSERT
  5
14F
330
6E
100
AcDbEntity
  8
0
100
AcDbBlockReference
  2
4_066379p_0_in_066379_2
 10
0.0
 20
0.0
 30
0.0
  0
ENDBLK
  5
71
330
6E
100
AcDbEntity
  8
0
100
AcDbBlockEnd
  0
BLOCK
  5
90
330
8E
100
AcDbEntity
  8
0
100
AcDbBlockBegin
  2
2_066379re_0_in_066379_2
 70
     2
 10
0.0
 20
0.0
 30
0.0
  3
2_066379re_0_in_066379_2
  1

  0
ATTDEF
  5
92
330
8E
100
AcDbEntity
  8
AM_6
100
AcDbText
 10
11.60000000000002
 20
2.788461538461538
 30
0.0
 40
0.5
  1
Special Duty Pillow Block - 4 Bolt - Inch - Body - RING
100
AcDbAttributeDefinition
  3

  2
NN
 70
     8
280
     0
  0
ATTDEF
  5
93
330
8E
100
AcDbEntity
  8
AM_6
100
AcDbText
 10
11.60000000000002
 20
2.288461538461538
 30
0.0
 40
0.5
  1
Special Duty
100
AcDbAttributeDefinition
  3

  2
NT
 70
     8
280
     0
  0
ATTDEF
  5
94
330
8E
100
AcDbEntity
  8
AM_6
100
AcDbText
 10
11.60000000000002
 20
1.788461538461538
 30
0.0
 40
0.5
  1
066379re
100
AcDbAttributeDefinition
  3

  2
NB
 70
     8
280
     0
  0
ATTDEF
  5
95
330
8E
100
AcDbEntity
  8
AM_6
100
AcDbText
 10
11.60000000000002
 20
1.288461538461538
 30
0.0
 40
0.5
  1
$PN1.
100
AcDbAttributeDefinition
  3

  2
NBSYN
 70
     8
280
     0
  0
ATTDEF
  5
96
330
8E
100
AcDbEntity
  8
AM_6
100
AcDbText
 10
11.60000000000002
 20
0.7884615384615379
 30
0.0
 40
0.5
  1
066379re
100
AcDbAttributeDefinition
  3

  2
LINA
 70
     8
280
     0
  0
ATTDEF
  5
97
330
8E
100
AcDbEntity
  8
AM_6
100
AcDbText
 10
11.60000000000002
 20
0.2884615384615379
 30
0.0
 40
0.5
  1
5-7/16
100
AcDbAttributeDefinition
  3

  2
SS
 70
     8
280
     0
  0
ATTDEF
  5
98
330
8E
100
AcDbEntity
  8
AM_6
100
AcDbText
 10
11.60000000000002
 20
-0.2115384615384621
 30
0.0
 40
0.5
  1
5.43750
100
AcDbAttributeDefinition
  3

  2
SS1
 70
     8
280
     0
  0
ATTDEF
  5
99
330
8E
100
AcDbEntity
  8
AM_6
100
AcDbText
 10
11.60000000000002
 20
-0.7115384615384621
 30
0.0
 40
0.5
  1
066379re
100
AcDbAttributeDefinition
  3

  2
PN1
 70
     8
280
     0
  0
ATTDEF
  5
9A
330
8E
100
AcDbEntity
  8
AM_6
100
AcDbText
 10
11.60000000000002
 20
-1.211538461538462
 30
0.0
 40
0.5
  1
066419
100
AcDbAttributeDefinition
  3

  2
PN2
 70
     8
280
     0
  0
ATTDEF
  5
9B
330
8E
100
AcDbEntity
  8
AM_6
100
AcDbText
 10
11.60000000000002
 20
-1.711538461538462
 30
0.0
 40
0.5
  1
P4B-SD-507
100
AcDbAttributeDefinition
  3

  2
DESCRIPTION1
 70
     8
280
     0
  0
ATTDEF
  5
9C
330
8E
100
AcDbEntity
  8
AM_6
100
AcDbText
 10
11.60000000000002
 20
-2.211538461538462
 30
0.0
 40
0.5
  1
P4B-SD-507
100
AcDbAttributeDefinition
  3

  2
DESCRIPTION2
 70
     8
280
     0
  0
ATTDEF
  5
9D
330
8E
100
AcDbEntity
  8
AM_6
100
AcDbText
 10
11.60000000000002
 20
-2.711538461538462
 30
0.0
 40
0.5
  1
585
100
AcDbAttributeDefinition
  3

  2
WEIGHT1
 70
     8
280
     0
  0
ATTDEF
  5
9E
330
8E
100
AcDbEntity
  8
AM_6
100
AcDbText
 10
11.60000000000002
 20
-3.211538461538462
 30
0.0
 40
0.5
  1
585
100
AcDbAttributeDefinition
  3

  2
WEIGHT2
 70
     8
280
     0
  0
ATTDEF
  5
9F
330
8E
100
AcDbEntity
  8
AM_6
100
AcDbText
 10
11.60000000000002
 20
-3.711538461538462
 30
0.0
 40
0.5
  1
12
100
AcDbAttributeDefinition
  3

  2
A
 70
     8
280
     0
  0
ATTDEF
  5
A0
330
8E
100
AcDbEntity
  8
AM_6
100
AcDbText
 10
11.60000000000002
 20
-4.211538461538462
 30
0.0
 40
0.5
  1
12.00000
100
AcDbAttributeDefinition
  3

  2
A1
 70
     8
280
     0
  0
ATTDEF
  5
A1
330
8E
100
AcDbEntity
  8
AM_6
100
AcDbText
 10
11.60000000000002
 20
-4.711538461538462
 30
0.0
 40
0.5
  1
26-3/4
100
AcDbAttributeDefinition
  3

  2
B
 70
     8
280
     0
  0
ATTDEF
  5
A2
330
8E
100
AcDbEntity
  8
AM_6
100
AcDbText
 10
11.60000000000002
 20
-5.211538461538462
 30
0.0
 40
0.5
  1
26.75000
100
AcDbAttributeDefinition
  3

  2
B1
 70
     8
280
     0
  0
ATTDEF
  5
A3
330
8E
100
AcDbEntity
  8
AM_6
100
AcDbText
 10
11.60000000000002
 20
-5.711538461538462
 30
0.0
 40
0.5
  1
9-1/4
100
AcDbAttributeDefinition
  3

  2
C
 70
     8
280
     0
  0
ATTDEF
  5
A4
330
8E
100
AcDbEntity
  8
AM_6
100
AcDbText
 10
11.60000000000002
 20
-6.211538461538462
 30
0.0
 40
0.5
  1
9.25000
100
AcDbAttributeDefinition
  3

  2
C1
 70
     8
280
     0
  0
ATTDEF
  5
A5
330
8E
100
AcDbEntity
  8
AM_6
100
AcDbText
 10
11.60000000000002
 20
-6.711538461538462
 30
0.0
 40
0.5
  1
21-3/8
100
AcDbAttributeDefinition
  3

  2
DMIN
 70
     8
280
     0
  0
ATTDEF
  5
A6
330
8E
100
AcDbEntity
  8
AM_6
100
AcDbText
 10
11.60000000000002
 20
-7.211538461538462
 30
0.0
 40
0.5
  1
21.37500
100
AcDbAttributeDefinition
  3

  2
DMIN1
 70
     8
280
     0
  0
ATTDEF
  5
A7
330
8E
100
AcDbEntity
  8
AM_6
100
AcDbText
 10
11.60000000000002
 20
-7.711538461538462
 30
0.0
 40
0.5
  1
23-5/8
100
AcDbAttributeDefinition
  3

  2
DMAX
 70
     8
280
     0
  0
ATTDEF
  5
A8
330
8E
100
AcDbEntity
  8
AM_6
100
AcDbText
 10
11.60000000000002
 20
-8.211538461538462
 30
0.0
 40
0.5
  1
23.62500
100
AcDbAttributeDefinition
  3

  2
DMAX1
 70
     8
280
     0
  0
ATTDEF
  5
A9
330
8E
100
AcDbEntity
  8
AM_6
100
AcDbText
 10
11.60000000000002
 20
-8.711538461538462
 30
0.0
 40
0.5
  1
5
100
AcDbAttributeDefinition
  3

  2
E
 70
     8
280
     0
  0
ATTDEF
  5
AA
330
8E
100
AcDbEntity
  8
AM_6
100
AcDbText
 10
11.60000000000002
 20
-9.211538461538462
 30
0.0
 40
0.5
  1
5.00000
100
AcDbAttributeDefinition
  3

  2
E1
 70
     8
280
     0
  0
ATTDEF
  5
AB
330
8E
100
AcDbEntity
  8
AM_6
100
AcDbText
 10
11.60000000000002
 20
-9.711538461538462
 30
0.0
 40
0.5
  1
1-1/8
100
AcDbAttributeDefinition
  3

  2
F
 70
     8
280
     0
  0
ATTDEF
  5
AC
330
8E
100
AcDbEntity
  8
AM_6
100
AcDbText
 10
11.60000000000002
 20
-10.21153846153846
 30
0.0
 40
0.5
  1
1.12500
100
AcDbAttributeDefinition
  3

  2
F1
 70
     8
280
     0
  0
ATTDEF
  5
AD
330
8E
100
AcDbEntity
  8
AM_6
100
AcDbText
 10
11.60000000000002
 20
-10.71153846153846
 30
0.0
 40
0.5
  1
2-1/4
100
AcDbAttributeDefinition
  3

  2
G
 70
     8
280
     0
  0
ATTDEF
  5
AE
330
8E
100
AcDbEntity
  8
AM_6
100
AcDbText
 10
11.60000000000002
 20
-11.21153846153846
 30
0.0
 40
0.5
  1
2.25000
100
AcDbAttributeDefinition
  3

  2
G1
 70
     8
280
     0
  0
ATTDEF
  5
AF
330
8E
100
AcDbEntity
  8
AM_6
100
AcDbText
 10
11.60000000000002
 20
-11.71153846153846
 30
0.0
 40
0.5
  1
5
100
AcDbAttributeDefinition
  3

  2
H
 70
     8
280
     0
  0
ATTDEF
  5
B0
330
8E
100
AcDbEntity
  8
AM_6
100
AcDbText
 10
11.60000000000002
 20
-12.21153846153846
 30
0.0
 40
0.5
  1
5.00000
100
AcDbAttributeDefinition
  3

  2
H1
 70
     8
280
     0
  0
ATTDEF
  5
B1
330
8E
100
AcDbEntity
  8
AM_6
100
AcDbText
 10
11.60000000000002
 20
-12.71153846153846
 30
0.0
 40
0.5
  1
19
100
AcDbAttributeDefinition
  3

  2
J
 70
     8
280
     0
  0
ATTDEF
  5
B2
330
8E
100
AcDbEntity
  8
AM_6
100
AcDbText
 10
11.60000000000002
 20
-13.21153846153846
 30
0.0
 40
0.5
  1
19.00000
100
AcDbAttributeDefinition
  3

  2
J1
 70
     8
280
     0
  0
ATTDEF
  5
B3
330
8E
100
AcDbEntity
  8
AM_6
100
AcDbText
 10
11.60000000000002
 20
-13.71153846153846
 30
0.0
 40
0.5
  1
9-1/2
100
AcDbAttributeDefinition
  3

  2
L
 70
     8
280
     0
  0
ATTDEF
  5
B4
330
8E
100
AcDbEntity
  8
AM_6
100
AcDbText
 10
11.60000000000002
 20
-14.21153846153846
 30
0.0
 40
0.5
  1
9.50000
100
AcDbAttributeDefinition
  3

  2
L1
 70
     8
280
     0
  0
ATTDEF
  5
B5
330
8E
100
AcDbEntity
  8
AM_6
100
AcDbText
 10
11.60000000000002
 20
-14.71153846153846
 30
0.0
 40
0.5
  1
9
100
AcDbAttributeDefinition
  3

  2
M
 70
     8
280
     0
  0
ATTDEF
  5
B6
330
8E
100
AcDbEntity
  8
AM_6
100
AcDbText
 10
11.60000000000002
 20
-15.21153846153846
 30
0.0
 40
0.5
  1
9.00000
100
AcDbAttributeDefinition
  3

  2
M1
 70
     8
280
     0
  0
ATTDEF
  5
B7
330
8E
100
AcDbEntity
  8
AM_6
100
AcDbText
 10
11.60000000000002
 20
-15.71153846153846
 30
0.0
 40
0.5
  1
17-3/8
100
AcDbAttributeDefinition
  3

  2
P
 70
     8
280
     0
  0
ATTDEF
  5
B8
330
8E
100
AcDbEntity
  8
AM_6
100
AcDbText
 10
11.60000000000002
 20
-16.21153846153846
 30
0.0
 40
0.5
  1
17.37500
100
AcDbAttributeDefinition
  3

  2
P1
 70
     8
280
     0
  0
ATTDEF
  5
B9
330
8E
100
AcDbEntity
  8
AM_6
100
AcDbText
 10
11.60000000000002
 20
-16.71153846153846
 30
0.0
 40
0.5
  1
6
100
AcDbAttributeDefinition
  3

  2
R
 70
     8
280
     0
  0
ATTDEF
  5
BA
330
8E
100
AcDbEntity
  8
AM_6
100
AcDbText
 10
11.60000000000002
 20
-17.21153846153846
 30
0.0
 40
0.5
  1
6.00000
100
AcDbAttributeDefinition
  3

  2
R1
 70
     8
280
     0
  0
ATTDEF
  5
BB
330
8E
100
AcDbEntity
  8
AM_6
100
AcDbText
 10
11.60000000000002
 20
-17.71153846153846
 30
0.0
 40
0.5
  1
6
100
AcDbAttributeDefinition
  3

  2
S
 70
     8
280
     0
  0
ATTDEF
  5
BC
330
8E
100
AcDbEntity
  8
AM_6
100
AcDbText
 10
11.60000000000002
 20
-18.21153846153846
 30
0.0
 40
0.5
  1
6.00000
100
AcDbAttributeDefinition
  3

  2
S1
 70
     8
280
     0
  0
ATTDEF
  5
BD
330
8E
100
AcDbEntity
  8
AM_6
100
AcDbText
 10
11.60000000000002
 20
-18.71153846153846
 30
0.0
 40
0.5
  1
3/4
100
AcDbAttributeDefinition
  3

  2
EXP
 70
     8
280
     0
  0
ATTDEF
  5
BE
330
8E
100
AcDbEntity
  8
AM_6
100
AcDbText
 10
11.60000000000002
 20
-19.21153846153846
 30
0.0
 40
0.5
  1
baldor
100
AcDbAttributeDefinition
  3

  2
COMPANY
 70
     8
280
     0
  0
LINE
  5
C1
330
8E
100
AcDbEntity
  8
AM_9
100
AcDbLine
 10
5.4
 20
-2.133278792628182
 30
0.0
 11
5.4
 21
-2.182901574789791
 31
0.0
  0
LINE
  5
C2
330
8E
100
AcDbEntity
  8
AM_9
100
AcDbLine
 10
5.400000000000001
 20
-1.685444497876702
 30
0.0
 11
5.400000000000001
 21
-1.73506728003831
 31
0.0
  0
LINE
  5
C3
330
8E
100
AcDbEntity
  8
AM_9
100
AcDbLine
 10
5.083333333333334
 20
-1.922121425475529
 30
0.0
 11
5.083333333333334
 21
-1.971422791769951
 31
0.0
  0
LWPOLYLINE
  5
C4
330
8E
100
AcDbEntity
  8
AM_9
100
AcDbPolyline
 90
        6
 70
     0
 43
0.0
 10
5.085392297404146
 20
-1.947770382596538
 10
5.114562664078435
 20
-2.016961892101208
 10
5.175635340326417
 20
-2.073957711389849
 10
5.262303817098402
 20
-2.113482767929737
 10
5.364650505865174
 20
-2.132042881084648
 10
5.4
 20
-2.133278792628182
  0
LWPOLYLINE
  5
C5
330
8E
100
AcDbEntity
  8
AM_9
100
AcDbPolyline
 90
        3
 70
     0
 43
0.0
 10
5.083333413171724
 20
-1.922605558402442
 10
5.085344825773482
 20
-1.947479618636788
 10
5.085392297404146
 20
-1.947770382596538
  0
LWPOLYLINE
  5
C6
330
8E
100
AcDbEntity
  8
AM_9
100
AcDbPolyline
 90
        7
 70
     0
 43
0.0
 10
5.083333412875516
 20
-1.971581348143136
 10
5.085350573689396
 20
-1.946344517940194
 10
5.114600110312471
 20
-1.872334589006621
 10
5.175716580207898
 20
-1.807319560094864
 10
5.262405439954784
 20
-1.759724140212625
 10
5.364752600551235
 20
-1.736617242593402
 10
5.400000000000001
 20
-1.73506728003831
  0
LINE
  5
C7
330
8E
100
AcDbEntity
  8
AM_9
100
AcDbLine
 10
5.4
 20
1.685444497876701
 30
0.0
 11
5.4
 21
1.73506728003831
 31
0.0
  0
LINE
  5
C8
330
8E
100
AcDbEntity
  8
AM_9
100
AcDbLine
 10
5.400000000000001
 20
2.133278792628182
 30
0.0
 11
5.400000000000001
 21
2.18290157478979
 31
0.0
  0
LINE
  5
C9
330
8E
100
AcDbEntity
  8
AM_9
100
AcDbLine
 10
5.083333333333334
 20
1.97142279176995
 30
0.0
 11
5.083333333333334
 21
1.922121425475529
 31
0.0
  0
LWPOLYLINE
  5
CA
330
8E
100
AcDbEntity
  8
AM_9
100
AcDbPolyline
 90
        7
 70
     0
 43
0.0
 10
5.083333413171724
 20
1.92228755114838
 10
5.085344825773482
 20
1.897083207846803
 10
5.114562664078434
 20
1.823037654112365
 10
5.175635340326417
 20
1.757925190065431
 10
5.262303817098402
 20
1.710202371698759
 10
5.364650505865174
 20
1.687007621712562
 10
5.4
 20
1.685444497876702
  0
LWPOLYLINE
  5
CB
330
8E
100
AcDbEntity
  8
AM_9
100
AcDbPolyline
 90
        7
 70
     0
 43
0.0
 10
5.083333412875516
 20
1.971898764930234
 10
5.085350573689396
 20
1.996812652444751
 10
5.114600110312471
 20
2.06636902277611
 10
5.175716580207898
 20
2.123467390655622
 10
5.262405439954784
 20
2.163073901149062
 10
5.364752600551235
 20
2.181668697168885
 10
5.400000000000001
 20
2.182901574789791
  0
LINE
  5
CC
330
8E
100
AcDbEntity
  8
AM_9
100
AcDbLine
 10
-5.400000000000001
 20
2.133278792628182
 30
0.0
 11
-5.400000000000001
 21
2.18290157478979
 31
0.0
  0
LINE
  5
CD
330
8E
100
AcDbEntity
  8
AM_9
100
AcDbLine
 10
-5.400000000000001
 20
1.685444497876702
 30
0.0
 11
-5.400000000000001
 21
1.73506728003831
 31
0.0
  0
LINE
  5
CE
330
8E
100
AcDbEntity
  8
AM_9
100
AcDbLine
 10
-5.083333333333334
 20
1.922121425475529
 30
0.0
 11
-5.083333333333334
 21
1.97142279176995
 31
0.0
  0
LWPOLYLINE
  5
CF
330
8E
100
AcDbEntity
  8
AM_9
100
AcDbPolyline
 90
        6
 70
     0
 43
0.0
 10
-5.085392297404146
 20
1.947770382596535
 10
-5.114562664078434
 20
2.016961892101208
 10
-5.175635340326416
 20
2.073957711389848
 10
-5.262303817098402
 20
2.113482767929737
 10
-5.364650505865172
 20
2.132042881084648
 10
-5.400000000000001
 20
2.133278792628182
  0
LWPOLYLINE
  5
D0
330
8E
100
AcDbEntity
  8
AM_9
100
AcDbPolyline
 90
        3
 70
     0
 43
0.0
 10
-5.083333413171724
 20
1.922605558402441
 10
-5.085344825773482
 20
1.947479618636785
 10
-5.085392297404146
 20
1.947770382596535
  0
LWPOLYLINE
  5
D1
330
8E
100
AcDbEntity
  8
AM_9
100
AcDbPolyline
 90
        7
 70
     0
 43
0.0
 10
-5.083333412875516
 20
1.971581348143136
 10
-5.085350573689396
 20
1.946344517940193
 10
-5.114600110312471
 20
1.872334589006621
 10
-5.175716580207898
 20
1.807319560094863
 10
-5.262405439954783
 20
1.759724140212624
 10
-5.364752600551237
 20
1.7366172425934
 10
-5.400000000000001
 20
1.73506728003831
  0
LINE
  5
D2
330
8E
100
AcDbEntity
  8
AM_9
100
AcDbLine
 10
-5.400000000000001
 20
-1.685444497876702
 30
0.0
 11
-5.400000000000001
 21
-1.73506728003831
 31
0.0
  0
LINE
  5
D3
330
8E
100
AcDbEntity
  8
AM_9
100
AcDbLine
 10
-5.400000000000001
 20
-2.133278792628182
 30
0.0
 11
-5.400000000000001
 21
-2.18290157478979
 31
0.0
  0
LINE
  5
D4
330
8E
100
AcDbEntity
  8
AM_9
100
AcDbLine
 10
-5.083333333333334
 20
-1.971422791769951
 30
0.0
 11
-5.083333333333334
 21
-1.922121425475529
 31
0.0
  0
LWPOLYLINE
  5
D5
330
8E
100
AcDbEntity
  8
AM_9
100
AcDbPolyline
 90
        7
 70
     0
 43
0.0
 10
-5.083333413171724
 20
-1.92228755114838
 10
-5.085344825773482
 20
-1.897083207846803
 10
-5.114562664078434
 20
-1.823037654112365
 10
-5.175635340326416
 20
-1.757925190065432
 10
-5.262303817098402
 20
-1.710202371698759
 10
-5.364650505865172
 20
-1.687007621712563
 10
-5.400000000000001
 20
-1.685444497876702
  0
LWPOLYLINE
  5
D6
330
8E
100
AcDbEntity
  8
AM_9
100
AcDbPolyline
 90
        7
 70
     0
 43
0.0
 10
-5.083333412875516
 20
-1.971898764930234
 10
-5.085350573689396
 20
-1.996812652444752
 10
-5.114600110312471
 20
-2.06636902277611
 10
-5.175716580207898
 20
-2.123467390655622
 10
-5.262405439954783
 20
-2.163073901149063
 10
-5.364752600551237
 20
-2.181668697168886
 10
-5.400000000000001
 20
-2.182901574789791
  0
LINE
  5
D7
330
8E
100
AcDbEntity
  8
AM_9
100
AcDbLine
 10
-5.400000000000001
 20
2.133278792628182
 30
0.0
 11
-6.000000000000004
 21
2.133278792628181
 31
0.0
  0
LINE
  5
D8
330
8E
100
AcDbEntity
  8
AM_9
100
AcDbLine
 10
-5.084177446854236
 20
1.938715624215195
 30
0.0
 11
-5.083333413171724
 21
1.92228755114838
 31
0.0
  0
LINE
  5
D9
330
8E
100
AcDbEntity
  8
AM_9
100
AcDbLine
 10
-5.087831594583614
 20
1.959686287721492
 30
0.0
 11
-5.084177446854236
 21
1.938715624215195
 31
0.0
  0
LINE
  5
DA
330
8E
100
AcDbEntity
  8
AM_9
100
AcDbLine
 10
-5.087822886073782
 20
-1.884507938997981
 30
0.0
 11
-5.083333413171724
 21
-1.922605558402441
 31
0.0
  0
LINE
  5
DB
330
8E
100
AcDbEntity
  8
AM_9
100
AcDbLine
 10
-6.000000000000004
 20
-2.133278792628182
 30
0.0
 11
-5.400000000000001
 21
-2.133278792628182
 31
0.0
  0
LINE
  5
DC
330
8E
100
AcDbEntity
  8
AM_9
100
AcDbLine
 10
-5.085306681396213
 20
-1.94724343157334
 30
0.0
 11
-5.083333413171724
 21
-1.92228755114838
 31
0.0
  0
LWPOLYLINE
  5
DD
330
8E
100
AcDbEntity
  8
AM_9
100
AcDbPolyline
 90
        6
 70
     0
 43
0.0
 10
-5.400000000000001
 20
-2.133278792628182
 10
-5.295585059755508
 20
-2.122183149292333
 10
-5.202947515944394
 20
-2.089721778908547
 10
-5.132079689842323
 20
-2.038103227676633
 10
-5.091250799235993
 20
-1.971560478436515
 10
-5.085306681396213
 20
-1.94724343157334
  0
LINE
  5
DE
330
8E
100
AcDbEntity
  8
AM_9
100
AcDbLine
 10
-5.400000000000001
 20
-1.685444497876702
 30
0.0
 11
-6.000000000000004
 21
-1.685444497876702
 31
0.0
  0
LINE
  5
DF
330
8E
100
AcDbEntity
  8
AM_9
100
AcDbLine
 10
-6.000000000000004
 20
1.685444497876701
 30
0.0
 11
-5.400000000000001
 21
1.685444497876702
 31
0.0
  0
LWPOLYLINE
  5
E0
330
8E
100
AcDbEntity
  8
AM_9
100
AcDbPolyline
 90
        6
 70
     0
 43
0.0
 10
-5.400000000000001
 20
1.685444497876701
 10
-5.295585059755508
 20
1.699394081241804
 10
-5.202947515944394
 20
1.739156246360659
 10
-5.132079689842323
 20
1.799371222353545
 10
-5.091250799235993
 20
1.872044562067683
 10
-5.083333413171724
 20
1.922605558402441
  0
LWPOLYLINE
  5
E1
330
8E
100
AcDbEntity
  8
AM_9
100
AcDbPolyline
 90
        6
 70
     0
 43
0.0
 10
5.400000000000001
 20
-1.685444497876702
 10
5.295585059755508
 20
-1.699394081241806
 10
5.202947515944391
 20
-1.73915624636066
 10
5.132079689842322
 20
-1.799371222353546
 10
5.091250799235993
 20
-1.872044562067684
 10
5.083333413171724
 20
-1.922605558402442
  0
LINE
  5
E2
330
8E
100
AcDbEntity
  8
AM_9
100
AcDbLine
 10
5.4
 20
-2.133278792628182
 30
0.0
 11
6.000000000000004
 21
-2.133278792628182
 31
0.0
  0
LINE
  5
E3
330
8E
100
AcDbEntity
  8
AM_9
100
AcDbLine
 10
5.084177446854236
 20
-1.938715624215196
 30
0.0
 11
5.083333413171724
 21
-1.92228755114838
 31
0.0
  0
LINE
  5
E4
330
8E
100
AcDbEntity
  8
AM_9
100
AcDbLine
 10
5.087831594583614
 20
-1.959686287721492
 30
0.0
 11
5.084177446854236
 21
-1.938715624215196
 31
0.0
  0
LINE
  5
E5
330
8E
100
AcDbEntity
  8
AM_9
100
AcDbLine
 10
5.087822886073782
 20
1.884507938997982
 30
0.0
 11
5.083333413171724
 21
1.922605558402442
 31
0.0
  0
LINE
  5
E6
330
8E
100
AcDbEntity
  8
AM_9
100
AcDbLine
 10
6.000000000000004
 20
2.133278792628182
 30
0.0
 11
5.400000000000001
 21
2.133278792628182
 31
0.0
  0
LINE
  5
E7
330
8E
100
AcDbEntity
  8
AM_9
100
AcDbLine
 10
5.085306681396213
 20
1.947243431573342
 30
0.0
 11
5.083333413171724
 21
1.92228755114838
 31
0.0
  0
LWPOLYLINE
  5
E8
330
8E
100
AcDbEntity
  8
AM_9
100
AcDbPolyline
 90
        6
 70
     0
 43
0.0
 10
5.400000000000001
 20
2.133278792628182
 10
5.295585059755508
 20
2.122183149292332
 10
5.202947515944391
 20
2.089721778908546
 10
5.132079689842322
 20
2.038103227676632
 10
5.091250799235993
 20
1.971560478436514
 10
5.085306681396213
 20
1.947243431573342
  0
LINE
  5
E9
330
8E
100
AcDbEntity
  8
AM_9
100
AcDbLine
 10
5.4
 20
1.685444497876701
 30
0.0
 11
6.000000000000004
 21
1.685444497876701
 31
0.0
  0
LINE
  5
EA
330
8E
100
AcDbEntity
  8
AM_9
100
AcDbLine
 10
6.000000000000004
 20
-1.685444497876702
 30
0.0
 11
5.400000000000001
 21
-1.685444497876702
 31
0.0
  0
LINE
  5
EB
330
8E
100
AcDbEntity
  8
AM_9
100
AcDbLine
 10
6.000000000000004
 20
2.71875
 30
0.0
 11
-6.000000000000004
 21
2.71875
 31
0.0
  0
LINE
  5
EC
330
8E
100
AcDbEntity
  8
AM_9
100
AcDbLine
 10
-6.000000000000004
 20
-2.71875
 30
0.0
 11
6.000000000000004
 21
-2.71875
 31
0.0
  0
LINE
  5
ED
330
8E
100
AcDbEntity
  8
AM_9
100
AcDbLine
 10
5.400000000000001
 20
2.18290157478979
 30
0.0
 11
6.000000000000004
 21
2.182901574789791
 31
0.0
  0
LINE
  5
EE
330
8E
100
AcDbEntity
  8
AM_9
100
AcDbLine
 10
5.087831448234241
 20
2.008988392226347
 30
0.0
 11
5.083333412875516
 21
1.971581348143136
 31
0.0
  0
LINE
  5
EF
330
8E
100
AcDbEntity
  8
AM_9
100
AcDbLine
 10
5.084177112381498
 20
-1.955337135528973
 30
0.0
 11
5.083333412875516
 21
-1.971898764930234
 31
0.0
  0
LINE
  5
F0
330
8E
100
AcDbEntity
  8
AM_9
100
AcDbLine
 10
5.085310631712392
 20
-1.94659798522666
 30
0.0
 11
5.084177112381498
 21
-1.955337135528973
 31
0.0
  0
LINE
  5
F1
330
8E
100
AcDbEntity
  8
AM_9
100
AcDbLine
 10
5.087822960552364
 20
-1.933810306320418
 30
0.0
 11
5.085310631712392
 21
-1.94659798522666
 31
0.0
  0
LINE
  5
F2
330
8E
100
AcDbEntity
  8
AM_9
100
AcDbLine
 10
6.000000000000004
 20
-2.182901574789791
 30
0.0
 11
5.4
 21
-2.182901574789791
 31
0.0
  0
LWPOLYLINE
  5
F3
330
8E
100
AcDbEntity
  8
AM_9
100
AcDbPolyline
 90
        6
 70
     0
 43
0.0
 10
5.4
 20
-2.182901574789791
 10
5.29556509975557
 20
-2.171765412661476
 10
5.202909556387297
 20
-2.13919683937914
 10
5.132050019654205
 20
-2.087458350587442
 10
5.091241167570014
 20
-2.020840948789655
 10
5.083333412875516
 20
-1.971581348143136
  0
LINE
  5
F4
330
8E
100
AcDbEntity
  8
AM_9
100
AcDbLine
 10
5.400000000000001
 20
-1.73506728003831
 30
0.0
 11
6.000000000000004
 21
-1.73506728003831
 31
0.0
  0
LINE
  5
F5
330
8E
100
AcDbEntity
  8
AM_9
100
AcDbLine
 10
6.000000000000004
 20
1.73506728003831
 30
0.0
 11
5.4
 21
1.73506728003831
 31
0.0
  0
LWPOLYLINE
  5
F6
330
8E
100
AcDbEntity
  8
AM_9
100
AcDbPolyline
 90
        6
 70
     0
 43
0.0
 10
5.4
 20
1.73506728003831
 10
5.29556509975557
 20
1.748986204590138
 10
5.202909556387297
 20
1.788673987586778
 10
5.132050019654205
 20
1.848792953805818
 10
5.091241167570014
 20
1.921384816004908
 10
5.083333412875516
 20
1.971898764930234
  0
LINE
  5
F7
330
8E
100
AcDbEntity
  8
AM_9
100
AcDbLine
 10
-6.000000000000004
 20
2.18290157478979
 30
0.0
 11
-5.400000000000001
 21
2.18290157478979
 31
0.0
  0
LWPOLYLINE
  5
F8
330
8E
100
AcDbEntity
  8
AM_9
100
AcDbPolyline
 90
        6
 70
     0
 43
0.0
 10
-5.400000000000001
 20
2.18290157478979
 10
-5.29556509975557
 20
2.171765412661475
 10
-5.202909556387298
 20
2.139196839379141
 10
-5.132050019654203
 20
2.087458350587442
 10
-5.091241167570013
 20
2.020840948789654
 10
-5.083333412875516
 20
1.971581348143136
  0
LINE
  5
F9
330
8E
100
AcDbEntity
  8
AM_9
100
AcDbLine
 10
-5.400000000000001
 20
1.73506728003831
 30
0.0
 11
-6.000000000000004
 21
1.73506728003831
 31
0.0
  0
LINE
  5
FA
330
8E
100
AcDbEntity
  8
AM_9
100
AcDbLine
 10
-6.000000000000004
 20
-1.73506728003831
 30
0.0
 11
-5.400000000000001
 21
-1.73506728003831
 31
0.0
  0
LWPOLYLINE
  5
FB
330
8E
100
AcDbEntity
  8
AM_9
100
AcDbPolyline
 90
        6
 70
     0
 43
0.0
 10
-5.400000000000001
 20
-1.73506728003831
 10
-5.29556509975557
 20
-1.748986204590138
 10
-5.202909556387298
 20
-1.788673987586777
 10
-5.132050019654203
 20
-1.848792953805819
 10
-5.091241167570013
 20
-1.921384816004909
 10
-5.083333412875516
 20
-1.971898764930234
  0
LINE
  5
FC
330
8E
100
AcDbEntity
  8
AM_9
100
AcDbLine
 10
-5.400000000000001
 20
-2.18290157478979
 30
0.0
 11
-6.000000000000004
 21
-2.182901574789791
 31
0.0
  0
LINE
  5
FD
330
8E
100
AcDbEntity
  8
AM_9
100
AcDbLine
 10
-5.087831448234241
 20
-2.008988392226347
 30
0.0
 11
-5.083333412875516
 21
-1.971581348143136
 31
0.0
  0
LINE
  5
FE
330
8E
100
AcDbEntity
  8
AM_9
100
AcDbLine
 10
-5.084177112381499
 20
1.955337135528971
 30
0.0
 11
-5.083333412875516
 21
1.971898764930234
 31
0.0
  0
LINE
  5
FF
330
8E
100
AcDbEntity
  8
AM_9
100
AcDbLine
 10
-5.085310631712392
 20
1.946597985226657
 30
0.0
 11
-5.084177112381499
 21
1.955337135528971
 31
0.0
  0
LINE
  5
100
330
8E
100
AcDbEntity
  8
AM_9
100
AcDbLine
 10
-5.087822960552365
 20
1.933810306320418
 30
0.0
 11
-5.085310631712392
 21
1.946597985226657
 31
0.0
  0
LINE
  5
101
330
8E
100
AcDbEntity
  8
AM_9
100
AcDbLine
 10
6.000000000000004
 20
2.788461538461538
 30
0.0
 11
-6.000000000000004
 21
2.788461538461538
 31
0.0
  0
LINE
  5
102
330
8E
100
AcDbEntity
  8
AM_9
100
AcDbLine
 10
-6.000000000000004
 20
-2.788461538461538
 30
0.0
 11
6.000000000000004
 21
-2.788461538461538
 31
0.0
  0
LINE
  5
105
330
8E
100
AcDbEntity
  8
AM_7
100
AcDbLine
 10
6.600000000000022
 20
0.0
 30
0.0
 11
-6.599999999999987
 21
0.0
 31
0.0
  0
ENDBLK
  5
91
330
8E
100
AcDbEntity
  8
0
100
AcDbBlockEnd
  0
BLOCK
  5
108
330
106
100
AcDbEntity
  8
0
100
AcDbBlockBegin
  2
3_066379r_0_in_066379_2
 70
     2
 10
0.0
 20
0.0
 30
0.0
  3
3_066379r_0_in_066379_2
  1

  0
ATTDEF
  5
10A
330
106
100
AcDbEntity
  8
AM_6
100
AcDbText
 10
11.0
 20
4.75
 30
0.0
 40
0.5
  1
Special Duty Pillow Block - 4 Bolt - Inch - Body - Ins
100
AcDbAttributeDefinition
  3

  2
NN
 70
     8
280
     0
  0
ATTDEF
  5
10B
330
106
100
AcDbEntity
  8
AM_6
100
AcDbText
 10
11.0
 20
4.25
 30
0.0
 40
0.5
  1
Special Duty
100
AcDbAttributeDefinition
  3

  2
NT
 70
     8
280
     0
  0
ATTDEF
  5
10C
330
106
100
AcDbEntity
  8
AM_6
100
AcDbText
 10
11.0
 20
3.75
 30
0.0
 40
0.5
  1
066379r
100
AcDbAttributeDefinition
  3

  2
NB
 70
     8
280
     0
  0
ATTDEF
  5
10D
330
106
100
AcDbEntity
  8
AM_6
100
AcDbText
 10
11.0
 20
3.25
 30
0.0
 40
0.5
  1
$PN1.
100
AcDbAttributeDefinition
  3

  2
NBSYN
 70
     8
280
     0
  0
ATTDEF
  5
10E
330
106
100
AcDbEntity
  8
AM_6
100
AcDbText
 10
11.0
 20
2.75
 30
0.0
 40
0.5
  1
066379r
100
AcDbAttributeDefinition
  3

  2
LINA
 70
     8
280
     0
  0
ATTDEF
  5
10F
330
106
100
AcDbEntity
  8
AM_6
100
AcDbText
 10
11.0
 20
2.25
 30
0.0
 40
0.5
  1
5-7/16
100
AcDbAttributeDefinition
  3

  2
SS
 70
     8
280
     0
  0
ATTDEF
  5
110
330
106
100
AcDbEntity
  8
AM_6
100
AcDbText
 10
11.0
 20
1.75
 30
0.0
 40
0.5
  1
5.43750
100
AcDbAttributeDefinition
  3

  2
SS1
 70
     8
280
     0
  0
ATTDEF
  5
111
330
106
100
AcDbEntity
  8
AM_6
100
AcDbText
 10
11.0
 20
1.25
 30
0.0
 40
0.5
  1
066379r
100
AcDbAttributeDefinition
  3

  2
PN1
 70
     8
280
     0
  0
ATTDEF
  5
112
330
106
100
AcDbEntity
  8
AM_6
100
AcDbText
 10
11.0
 20
0.75
 30
0.0
 40
0.5
  1
066419
100
AcDbAttributeDefinition
  3

  2
PN2
 70
     8
280
     0
  0
ATTDEF
  5
113
330
106
100
AcDbEntity
  8
AM_6
100
AcDbText
 10
11.0
 20
0.25
 30
0.0
 40
0.5
  1
P4B-SD-507
100
AcDbAttributeDefinition
  3

  2
DESCRIPTION1
 70
     8
280
     0
  0
ATTDEF
  5
114
330
106
100
AcDbEntity
  8
AM_6
100
AcDbText
 10
11.0
 20
-0.25
 30
0.0
 40
0.5
  1
P4B-SD-507
100
AcDbAttributeDefinition
  3

  2
DESCRIPTION2
 70
     8
280
     0
  0
ATTDEF
  5
115
330
106
100
AcDbEntity
  8
AM_6
100
AcDbText
 10
11.0
 20
-0.75
 30
0.0
 40
0.5
  1
585
100
AcDbAttributeDefinition
  3

  2
WEIGHT1
 70
     8
280
     0
  0
ATTDEF
  5
116
330
106
100
AcDbEntity
  8
AM_6
100
AcDbText
 10
11.0
 20
-1.25
 30
0.0
 40
0.5
  1
585
100
AcDbAttributeDefinition
  3

  2
WEIGHT2
 70
     8
280
     0
  0
ATTDEF
  5
117
330
106
100
AcDbEntity
  8
AM_6
100
AcDbText
 10
11.0
 20
-1.75
 30
0.0
 40
0.5
  1
12
100
AcDbAttributeDefinition
  3

  2
A
 70
     8
280
     0
  0
ATTDEF
  5
118
330
106
100
AcDbEntity
  8
AM_6
100
AcDbText
 10
11.0
 20
-2.25
 30
0.0
 40
0.5
  1
12.00000
100
AcDbAttributeDefinition
  3

  2
A1
 70
     8
280
     0
  0
ATTDEF
  5
119
330
106
100
AcDbEntity
  8
AM_6
100
AcDbText
 10
11.0
 20
-2.75
 30
0.0
 40
0.5
  1
26-3/4
100
AcDbAttributeDefinition
  3

  2
B
 70
     8
280
     0
  0
ATTDEF
  5
11A
330
106
100
AcDbEntity
  8
AM_6
100
AcDbText
 10
11.0
 20
-3.25
 30
0.0
 40
0.5
  1
26.75000
100
AcDbAttributeDefinition
  3

  2
B1
 70
     8
280
     0
  0
ATTDEF
  5
11B
330
106
100
AcDbEntity
  8
AM_6
100
AcDbText
 10
11.0
 20
-3.75
 30
0.0
 40
0.5
  1
9-1/4
100
AcDbAttributeDefinition
  3

  2
C
 70
     8
280
     0
  0
ATTDEF
  5
11C
330
106
100
AcDbEntity
  8
AM_6
100
AcDbText
 10
11.0
 20
-4.25
 30
0.0
 40
0.5
  1
9.25000
100
AcDbAttributeDefinition
  3

  2
C1
 70
     8
280
     0
  0
ATTDEF
  5
11D
330
106
100
AcDbEntity
  8
AM_6
100
AcDbText
 10
11.0
 20
-4.75
 30
0.0
 40
0.5
  1
21-3/8
100
AcDbAttributeDefinition
  3

  2
DMIN
 70
     8
280
     0
  0
ATTDEF
  5
11E
330
106
100
AcDbEntity
  8
AM_6
100
AcDbText
 10
11.0
 20
-5.25
 30
0.0
 40
0.5
  1
21.37500
100
AcDbAttributeDefinition
  3

  2
DMIN1
 70
     8
280
     0
  0
ATTDEF
  5
11F
330
106
100
AcDbEntity
  8
AM_6
100
AcDbText
 10
11.0
 20
-5.75
 30
0.0
 40
0.5
  1
23-5/8
100
AcDbAttributeDefinition
  3

  2
DMAX
 70
     8
280
     0
  0
ATTDEF
  5
120
330
106
100
AcDbEntity
  8
AM_6
100
AcDbText
 10
11.0
 20
-6.25
 30
0.0
 40
0.5
  1
23.62500
100
AcDbAttributeDefinition
  3

  2
DMAX1
 70
     8
280
     0
  0
ATTDEF
  5
121
330
106
100
AcDbEntity
  8
AM_6
100
AcDbText
 10
11.0
 20
-6.75
 30
0.0
 40
0.5
  1
5
100
AcDbAttributeDefinition
  3

  2
E
 70
     8
280
     0
  0
ATTDEF
  5
122
330
106
100
AcDbEntity
  8
AM_6
100
AcDbText
 10
11.0
 20
-7.25
 30
0.0
 40
0.5
  1
5.00000
100
AcDbAttributeDefinition
  3

  2
E1
 70
     8
280
     0
  0
ATTDEF
  5
123
330
106
100
AcDbEntity
  8
AM_6
100
AcDbText
 10
11.0
 20
-7.75
 30
0.0
 40
0.5
  1
1-1/8
100
AcDbAttributeDefinition
  3

  2
F
 70
     8
280
     0
  0
ATTDEF
  5
124
330
106
100
AcDbEntity
  8
AM_6
100
AcDbText
 10
11.0
 20
-8.25
 30
0.0
 40
0.5
  1
1.12500
100
AcDbAttributeDefinition
  3

  2
F1
 70
     8
280
     0
  0
ATTDEF
  5
125
330
106
100
AcDbEntity
  8
AM_6
100
AcDbText
 10
11.0
 20
-8.75
 30
0.0
 40
0.5
  1
2-1/4
100
AcDbAttributeDefinition
  3

  2
G
 70
     8
280
     0
  0
ATTDEF
  5
126
330
106
100
AcDbEntity
  8
AM_6
100
AcDbText
 10
11.0
 20
-9.25
 30
0.0
 40
0.5
  1
2.25000
100
AcDbAttributeDefinition
  3

  2
G1
 70
     8
280
     0
  0
ATTDEF
  5
127
330
106
100
AcDbEntity
  8
AM_6
100
AcDbText
 10
11.0
 20
-9.75
 30
0.0
 40
0.5
  1
5
100
AcDbAttributeDefinition
  3

  2
H
 70
     8
280
     0
  0
ATTDEF
  5
128
330
106
100
AcDbEntity
  8
AM_6
100
AcDbText
 10
11.0
 20
-10.25
 30
0.0
 40
0.5
  1
5.00000
100
AcDbAttributeDefinition
  3

  2
H1
 70
     8
280
     0
  0
ATTDEF
  5
129
330
106
100
AcDbEntity
  8
AM_6
100
AcDbText
 10
11.0
 20
-10.75
 30
0.0
 40
0.5
  1
19
100
AcDbAttributeDefinition
  3

  2
J
 70
     8
280
     0
  0
ATTDEF
  5
12A
330
106
100
AcDbEntity
  8
AM_6
100
AcDbText
 10
11.0
 20
-11.25
 30
0.0
 40
0.5
  1
19.00000
100
AcDbAttributeDefinition
  3

  2
J1
 70
     8
280
     0
  0
ATTDEF
  5
12B
330
106
100
AcDbEntity
  8
AM_6
100
AcDbText
 10
11.0
 20
-11.75
 30
0.0
 40
0.5
  1
9-1/2
100
AcDbAttributeDefinition
  3

  2
L
 70
     8
280
     0
  0
ATTDEF
  5
12C
330
106
100
AcDbEntity
  8
AM_6
100
AcDbText
 10
11.0
 20
-12.25
 30
0.0
 40
0.5
  1
9.50000
100
AcDbAttributeDefinition
  3

  2
L1
 70
     8
280
     0
  0
ATTDEF
  5
12D
330
106
100
AcDbEntity
  8
AM_6
100
AcDbText
 10
11.0
 20
-12.75
 30
0.0
 40
0.5
  1
9
100
AcDbAttributeDefinition
  3

  2
M
 70
     8
280
     0
  0
ATTDEF
  5
12E
330
106
100
AcDbEntity
  8
AM_6
100
AcDbText
 10
11.0
 20
-13.25
 30
0.0
 40
0.5
  1
9.00000
100
AcDbAttributeDefinition
  3

  2
M1
 70
     8
280
     0
  0
ATTDEF
  5
12F
330
106
100
AcDbEntity
  8
AM_6
100
AcDbText
 10
11.0
 20
-13.75
 30
0.0
 40
0.5
  1
17-3/8
100
AcDbAttributeDefinition
  3

  2
P
 70
     8
280
     0
  0
ATTDEF
  5
130
330
106
100
AcDbEntity
  8
AM_6
100
AcDbText
 10
11.0
 20
-14.25
 30
0.0
 40
0.5
  1
17.37500
100
AcDbAttributeDefinition
  3

  2
P1
 70
     8
280
     0
  0
ATTDEF
  5
131
330
106
100
AcDbEntity
  8
AM_6
100
AcDbText
 10
11.0
 20
-14.75
 30
0.0
 40
0.5
  1
6
100
AcDbAttributeDefinition
  3

  2
R
 70
     8
280
     0
  0
ATTDEF
  5
132
330
106
100
AcDbEntity
  8
AM_6
100
AcDbText
 10
11.0
 20
-15.25
 30
0.0
 40
0.5
  1
6.00000
100
AcDbAttributeDefinition
  3

  2
R1
 70
     8
280
     0
  0
ATTDEF
  5
133
330
106
100
AcDbEntity
  8
AM_6
100
AcDbText
 10
11.0
 20
-15.75
 30
0.0
 40
0.5
  1
6
100
AcDbAttributeDefinition
  3

  2
S
 70
     8
280
     0
  0
ATTDEF
  5
134
330
106
100
AcDbEntity
  8
AM_6
100
AcDbText
 10
11.0
 20
-16.25
 30
0.0
 40
0.5
  1
6.00000
100
AcDbAttributeDefinition
  3

  2
S1
 70
     8
280
     0
  0
ATTDEF
  5
135
330
106
100
AcDbEntity
  8
AM_6
100
AcDbText
 10
11.0
 20
-16.75
 30
0.0
 40
0.5
  1
3/4
100
AcDbAttributeDefinition
  3

  2
EXP
 70
     8
280
     0
  0
ATTDEF
  5
136
330
106
100
AcDbEntity
  8
AM_6
100
AcDbText
 10
11.0
 20
-17.25
 30
0.0
 40
0.5
  1
baldor
100
AcDbAttributeDefinition
  3

  2
COMPANY
 70
     8
280
     0
  0
LINE
  5
137
330
106
100
AcDbEntity
  8
AM_9
100
AcDbLine
 10
5.952500000000009
 20
2.788461538461538
 30
0.0
 11
-5.9525
 21
2.788461538461538
 31
0.0
  0
LINE
  5
138
330
106
100
AcDbEntity
  8
AM_9
100
AcDbLine
 10
-5.9525
 20
-2.788461538461538
 30
0.0
 11
5.952500000000009
 21
-2.788461538461538
 31
0.0
  0
LINE
  5
139
330
106
100
AcDbEntity
  8
AM_9
100
AcDbLine
 10
5.952500000000009
 20
-2.788461538461539
 30
0.0
 11
5.952500000000009
 21
2.788461538461539
 31
0.0
  0
ARC
  5
13A
330
106
100
AcDbEntity
  8
AM_9
100
AcDbCircle
 10
5.952500000000001
 20
2.835961538461539
 30
0.0
 40
0.0475000000000003
100
AcDbArc
 50
270.0
 51
0.0
  0
ARC
  5
13B
330
106
100
AcDbEntity
  8
AM_9
100
AcDbCircle
 10
5.952500000000001
 20
-2.835961538461539
 30
0.0
 40
0.0475000000000012
100
AcDbArc
 50
0.0
 51
90.0
  0
LINE
  5
13C
330
106
100
AcDbEntity
  8
AM_9
100
AcDbLine
 10
-5.9525
 20
-2.788461538461538
 30
0.0
 11
-5.9525
 21
2.788461538461538
 31
0.0
  0
ARC
  5
13D
330
106
100
AcDbEntity
  8
AM_9
100
AcDbCircle
 10
-5.952499999999997
 20
2.835961538461543
 30
0.0
 40
0.0475000000000048
100
AcDbArc
 50
180.0
 51
270.0
  0
ARC
  5
13E
330
106
100
AcDbEntity
  8
AM_9
100
AcDbCircle
 10
-5.952499999999997
 20
-2.835961538461543
 30
0.0
 40
0.0475000000000052
100
AcDbArc
 50
90.0
 51
180.0
  0
LINE
  5
13F
330
106
100
AcDbEntity
  8
AM_9
100
AcDbLine
 10
5.0
 20
4.749999999999999
 30
0.0
 11
-5.0
 21
4.749999999999999
 31
0.0
  0
LINE
  5
140
330
106
100
AcDbEntity
  8
AM_9
100
AcDbLine
 10
-5.0
 20
-4.749999999999999
 30
0.0
 11
5.0
 21
-4.749999999999999
 31
0.0
  0
LINE
  5
142
330
106
100
AcDbEntity
  8
AM_4
100
AcDbLine
 10
6.000000000000004
 20
-4.433333333333336
 30
0.0
 11
6.000000000000004
 21
4.433333333333336
 31
0.0
  0
ARC
  5
143
330
106
100
AcDbEntity
  8
AM_4
100
AcDbCircle
 10
5.683333333333334
 20
4.433333333333333
 30
0.0
 40
0.3166666666666673
100
AcDbArc
 50
0.0
 51
90.0
  0
ARC
  5
144
330
106
100
AcDbEntity
  8
AM_4
100
AcDbCircle
 10
5.683333333333334
 20
-4.433333333333333
 30
0.0
 40
0.3166666666666673
100
AcDbArc
 50
270.0
 51
0.0
  0
LINE
  5
145
330
106
100
AcDbEntity
  8
AM_4
100
AcDbLine
 10
-6.000000000000004
 20
-4.433333333333334
 30
0.0
 11
-6.000000000000004
 21
4.433333333333334
 31
0.0
  0
ARC
  5
146
330
106
100
AcDbEntity
  8
AM_4
100
AcDbCircle
 10
-5.683333333333334
 20
4.433333333333332
 30
0.0
 40
0.3166666666666673
100
AcDbArc
 50
90.0
 51
180.0
  0
ARC
  5
147
330
106
100
AcDbEntity
  8
AM_4
100
AcDbCircle
 10
-5.683333333333333
 20
-4.433333333333331
 30
0.0
 40
0.3166666666666691
100
AcDbArc
 50
180.0
 51
270.0
  0
LINE
  5
148
330
106
100
AcDbEntity
  8
AM_4
100
AcDbLine
 10
5.683333333333334
 20
-4.749999999999999
 30
0.0
 11
5.683333333333334
 21
4.749999999999999
 31
0.0
  0
LINE
  5
149
330
106
100
AcDbEntity
  8
AM_4
100
AcDbLine
 10
-5.683333333333334
 20
-4.749999999999999
 30
0.0
 11
-5.683333333333334
 21
4.749999999999999
 31
0.0
  0
LINE
  5
14A
330
106
100
AcDbEntity
  8
AM_4
100
AcDbLine
 10
-5.0
 20
4.749999999999999
 30
0.0
 11
-5.683333333333334
 21
4.749999999999999
 31
0.0
  0
LINE
  5
14B
330
106
100
AcDbEntity
  8
AM_4
100
AcDbLine
 10
5.683333333333334
 20
4.749999999999999
 30
0.0
 11
5.0
 21
4.749999999999999
 31
0.0
  0
LINE
  5
14C
330
106
100
AcDbEntity
  8
AM_4
100
AcDbLine
 10
5.0
 20
-4.749999999999999
 30
0.0
 11
5.683333333333334
 21
-4.749999999999999
 31
0.0
  0
LINE
  5
14D
330
106
100
AcDbEntity
  8
AM_4
100
AcDbLine
 10
-5.683333333333334
 20
-4.749999999999999
 30
0.0
 11
-5.0
 21
-4.749999999999999
 31
0.0
  0
ENDBLK
  5
109
330
106
100
AcDbEntity
  8
0
100
AcDbBlockEnd
  0
BLOCK
  5
150
330
14E
100
AcDbEntity
  8
0
100
AcDbBlockBegin
  2
4_066379p_0_in_066379_2
 70
     2
 10
0.0
 20
0.0
 30
0.0
  3
4_066379p_0_in_066379_2
  1

  0
ATTDEF
  5
152
330
14E
100
AcDbEntity
  8
AM_6
100
AcDbText
 10
10.0
 20
10.19
 30
0.0
 40
0.5
  1
Special Duty Pillow Block - 4 Bolt - Inch - Body
100
AcDbAttributeDefinition
  3

  2
NN
 70
     8
280
     0
  0
ATTDEF
  5
153
330
14E
100
AcDbEntity
  8
AM_6
100
AcDbText
 10
10.0
 20
9.69
 30
0.0
 40
0.5
  1
Special Duty
100
AcDbAttributeDefinition
  3

  2
NT
 70
     8
280
     0
  0
ATTDEF
  5
154
330
14E
100
AcDbEntity
  8
AM_6
100
AcDbText
 10
10.0
 20
9.19
 30
0.0
 40
0.5
  1
066379p
100
AcDbAttributeDefinition
  3

  2
NB
 70
     8
280
     0
  0
ATTDEF
  5
155
330
14E
100
AcDbEntity
  8
AM_6
100
AcDbText
 10
10.0
 20
8.69
 30
0.0
 40
0.5
  1
$PN.
100
AcDbAttributeDefinition
  3

  2
NBSYN
 70
     8
280
     0
  0
ATTDEF
  5
156
330
14E
100
AcDbEntity
  8
AM_6
100
AcDbText
 10
10.0
 20
8.19
 30
0.0
 40
0.5
  1
066379p
100
AcDbAttributeDefinition
  3

  2
LINA
 70
     8
280
     0
  0
ATTDEF
  5
157
330
14E
100
AcDbEntity
  8
AM_6
100
AcDbText
 10
10.0
 20
7.69
 30
0.0
 40
0.5
  1
5-7/16
100
AcDbAttributeDefinition
  3

  2
SS
 70
     8
280
     0
  0
ATTDEF
  5
158
330
14E
100
AcDbEntity
  8
AM_6
100
AcDbText
 10
10.0
 20
7.19
 30
0.0
 40
0.5
  1
5.43750
100
AcDbAttributeDefinition
  3

  2
SS1
 70
     8
280
     0
  0
ATTDEF
  5
159
330
14E
100
AcDbEntity
  8
AM_6
100
AcDbText
 10
10.0
 20
6.69
 30
0.0
 40
0.5
  1
Gray Iron Non - Expansion
100
AcDbAttributeDefinition
  3

  2
TYPE
 70
     8
280
     0
  0
ATTDEF
  5
15A
330
14E
100
AcDbEntity
  8
AM_6
100
AcDbText
 10
10.0
 20
6.19
 30
0.0
 40
0.5
  1
066379p
100
AcDbAttributeDefinition
  3

  2
PN1
 70
     8
280
     0
  0
ATTDEF
  5
15B
330
14E
100
AcDbEntity
  8
AM_6
100
AcDbText
 10
10.0
 20
5.69
 30
0.0
 40
0.5
  1
066419b
100
AcDbAttributeDefinition
  3

  2
PN2
 70
     8
280
     0
  0
ATTDEF
  5
15C
330
14E
100
AcDbEntity
  8
AM_6
100
AcDbText
 10
10.0
 20
5.19
 30
0.0
 40
0.5
  1
P4B-SD-507
100
AcDbAttributeDefinition
  3

  2
DESCRIPTION1
 70
     8
280
     0
  0
ATTDEF
  5
15D
330
14E
100
AcDbEntity
  8
AM_6
100
AcDbText
 10
10.0
 20
4.69
 30
0.0
 40
0.5
  1
P4B-SD-507
100
AcDbAttributeDefinition
  3

  2
DESCRIPTION2
 70
     8
280
     0
  0
ATTDEF
  5
15E
330
14E
100
AcDbEntity
  8
AM_6
100
AcDbText
 10
10.0
 20
4.19
 30
0.0
 40
0.5
  1
585
100
AcDbAttributeDefinition
  3

  2
WEIGHT1
 70
     8
280
     0
  0
ATTDEF
  5
15F
330
14E
100
AcDbEntity
  8
AM_6
100
AcDbText
 10
10.0
 20
3.69
 30
0.0
 40
0.5
  1
585
100
AcDbAttributeDefinition
  3

  2
WEIGHT2
 70
     8
280
     0
  0
ATTDEF
  5
160
330
14E
100
AcDbEntity
  8
AM_6
100
AcDbText
 10
10.0
 20
3.19
 30
0.0
 40
0.5
  1
12
100
AcDbAttributeDefinition
  3

  2
A
 70
     8
280
     0
  0
ATTDEF
  5
161
330
14E
100
AcDbEntity
  8
AM_6
100
AcDbText
 10
10.0
 20
2.69
 30
0.0
 40
0.5
  1
12.00000
100
AcDbAttributeDefinition
  3

  2
A1
 70
     8
280
     0
  0
ATTDEF
  5
162
330
14E
100
AcDbEntity
  8
AM_6
100
AcDbText
 10
10.0
 20
2.19
 30
0.0
 40
0.5
  1
26-3/4
100
AcDbAttributeDefinition
  3

  2
B
 70
     8
280
     0
  0
ATTDEF
  5
163
330
14E
100
AcDbEntity
  8
AM_6
100
AcDbText
 10
10.0
 20
1.69
 30
0.0
 40
0.5
  1
26.75000
100
AcDbAttributeDefinition
  3

  2
B1
 70
     8
280
     0
  0
ATTDEF
  5
164
330
14E
100
AcDbEntity
  8
AM_6
100
AcDbText
 10
10.0
 20
1.19
 30
0.0
 40
0.5
  1
9-1/4
100
AcDbAttributeDefinition
  3

  2
C
 70
     8
280
     0
  0
ATTDEF
  5
165
330
14E
100
AcDbEntity
  8
AM_6
100
AcDbText
 10
10.0
 20
0.6899999999999995
 30
0.0
 40
0.5
  1
9.25000
100
AcDbAttributeDefinition
  3

  2
C1
 70
     8
280
     0
  0
ATTDEF
  5
166
330
14E
100
AcDbEntity
  8
AM_6
100
AcDbText
 10
10.0
 20
0.1899999999999995
 30
0.0
 40
0.5
  1
21-3/8
100
AcDbAttributeDefinition
  3

  2
DMIN
 70
     8
280
     0
  0
ATTDEF
  5
167
330
14E
100
AcDbEntity
  8
AM_6
100
AcDbText
 10
10.0
 20
-0.3100000000000005
 30
0.0
 40
0.5
  1
21.37500
100
AcDbAttributeDefinition
  3

  2
DMIN1
 70
     8
280
     0
  0
ATTDEF
  5
168
330
14E
100
AcDbEntity
  8
AM_6
100
AcDbText
 10
10.0
 20
-0.8100000000000005
 30
0.0
 40
0.5
  1
23-5/8
100
AcDbAttributeDefinition
  3

  2
DMAX
 70
     8
280
     0
  0
ATTDEF
  5
169
330
14E
100
AcDbEntity
  8
AM_6
100
AcDbText
 10
10.0
 20
-1.31
 30
0.0
 40
0.5
  1
23.62500
100
AcDbAttributeDefinition
  3

  2
DMAX1
 70
     8
280
     0
  0
ATTDEF
  5
16A
330
14E
100
AcDbEntity
  8
AM_6
100
AcDbText
 10
10.0
 20
-1.81
 30
0.0
 40
0.5
  1
5
100
AcDbAttributeDefinition
  3

  2
E
 70
     8
280
     0
  0
ATTDEF
  5
16B
330
14E
100
AcDbEntity
  8
AM_6
100
AcDbText
 10
10.0
 20
-2.31
 30
0.0
 40
0.5
  1
5.00000
100
AcDbAttributeDefinition
  3

  2
E1
 70
     8
280
     0
  0
ATTDEF
  5
16C
330
14E
100
AcDbEntity
  8
AM_6
100
AcDbText
 10
10.0
 20
-2.81
 30
0.0
 40
0.5
  1
1-1/8
100
AcDbAttributeDefinition
  3

  2
F
 70
     8
280
     0
  0
ATTDEF
  5
16D
330
14E
100
AcDbEntity
  8
AM_6
100
AcDbText
 10
10.0
 20
-3.31
 30
0.0
 40
0.5
  1
1.12500
100
AcDbAttributeDefinition
  3

  2
F1
 70
     8
280
     0
  0
ATTDEF
  5
16E
330
14E
100
AcDbEntity
  8
AM_6
100
AcDbText
 10
10.0
 20
-3.81
 30
0.0
 40
0.5
  1
2-1/4
100
AcDbAttributeDefinition
  3

  2
G
 70
     8
280
     0
  0
ATTDEF
  5
16F
330
14E
100
AcDbEntity
  8
AM_6
100
AcDbText
 10
10.0
 20
-4.31
 30
0.0
 40
0.5
  1
2.25000
100
AcDbAttributeDefinition
  3

  2
G1
 70
     8
280
     0
  0
ATTDEF
  5
170
330
14E
100
AcDbEntity
  8
AM_6
100
AcDbText
 10
10.0
 20
-4.81
 30
0.0
 40
0.5
  1
5
100
AcDbAttributeDefinition
  3

  2
H
 70
     8
280
     0
  0
ATTDEF
  5
171
330
14E
100
AcDbEntity
  8
AM_6
100
AcDbText
 10
10.0
 20
-5.31
 30
0.0
 40
0.5
  1
5.00000
100
AcDbAttributeDefinition
  3

  2
H1
 70
     8
280
     0
  0
ATTDEF
  5
172
330
14E
100
AcDbEntity
  8
AM_6
100
AcDbText
 10
10.0
 20
-5.81
 30
0.0
 40
0.5
  1
19
100
AcDbAttributeDefinition
  3

  2
J
 70
     8
280
     0
  0
ATTDEF
  5
173
330
14E
100
AcDbEntity
  8
AM_6
100
AcDbText
 10
10.0
 20
-6.31
 30
0.0
 40
0.5
  1
19.00000
100
AcDbAttributeDefinition
  3

  2
J1
 70
     8
280
     0
  0
ATTDEF
  5
174
330
14E
100
AcDbEntity
  8
AM_6
100
AcDbText
 10
10.0
 20
-6.81
 30
0.0
 40
0.5
  1
0.625
100
AcDbAttributeDefinition
  3

  2
J11
 70
     8
280
     0
  0
ATTDEF
  5
175
330
14E
100
AcDbEntity
  8
AM_6
100
AcDbText
 10
10.0
 20
-7.31
 30
0.0
 40
0.5
  1
9-1/2
100
AcDbAttributeDefinition
  3

  2
L
 70
     8
280
     0
  0
ATTDEF
  5
176
330
14E
100
AcDbEntity
  8
AM_6
100
AcDbText
 10
10.0
 20
-7.81
 30
0.0
 40
0.5
  1
9.50000
100
AcDbAttributeDefinition
  3

  2
L1
 70
     8
280
     0
  0
ATTDEF
  5
177
330
14E
100
AcDbEntity
  8
AM_6
100
AcDbText
 10
10.0
 20
-8.31
 30
0.0
 40
0.5
  1
9
100
AcDbAttributeDefinition
  3

  2
M
 70
     8
280
     0
  0
ATTDEF
  5
178
330
14E
100
AcDbEntity
  8
AM_6
100
AcDbText
 10
10.0
 20
-8.81
 30
0.0
 40
0.5
  1
9.00000
100
AcDbAttributeDefinition
  3

  2
M1
 70
     8
280
     0
  0
ATTDEF
  5
179
330
14E
100
AcDbEntity
  8
AM_6
100
AcDbText
 10
10.0
 20
-9.31
 30
0.0
 40
0.5
  1
17-3/8
100
AcDbAttributeDefinition
  3

  2
P
 70
     8
280
     0
  0
ATTDEF
  5
17A
330
14E
100
AcDbEntity
  8
AM_6
100
AcDbText
 10
10.0
 20
-9.81
 30
0.0
 40
0.5
  1
17.37500
100
AcDbAttributeDefinition
  3

  2
P1
 70
     8
280
     0
  0
ATTDEF
  5
17B
330
14E
100
AcDbEntity
  8
AM_6
100
AcDbText
 10
10.0
 20
-10.31
 30
0.0
 40
0.5
  1
6
100
AcDbAttributeDefinition
  3

  2
R
 70
     8
280
     0
  0
ATTDEF
  5
17C
330
14E
100
AcDbEntity
  8
AM_6
100
AcDbText
 10
10.0
 20
-10.81
 30
0.0
 40
0.5
  1
6.00000
100
AcDbAttributeDefinition
  3

  2
R1
 70
     8
280
     0
  0
ATTDEF
  5
17D
330
14E
100
AcDbEntity
  8
AM_6
100
AcDbText
 10
10.0
 20
-11.31
 30
0.0
 40
0.5
  1
6
100
AcDbAttributeDefinition
  3

  2
S
 70
     8
280
     0
  0
ATTDEF
  5
17E
330
14E
100
AcDbEntity
  8
AM_6
100
AcDbText
 10
10.0
 20
-11.81
 30
0.0
 40
0.5
  1
6.00000
100
AcDbAttributeDefinition
  3

  2
S1
 70
     8
280
     0
  0
ATTDEF
  5
17F
330
14E
100
AcDbEntity
  8
AM_6
100
AcDbText
 10
10.0
 20
-12.31
 30
0.0
 40
0.5
  1
3/4
100
AcDbAttributeDefinition
  3

  2
EXP
 70
     8
280
     0
  0
ATTDEF
  5
180
330
14E
100
AcDbEntity
  8
AM_6
100
AcDbText
 10
10.0
 20
-12.81
 30
0.0
 40
0.5
  1
baldor
100
AcDbAttributeDefinition
  3

  2
COMPANY
 70
     8
280
     0
  0
LINE
  5
181
330
14E
100
AcDbEntity
  8
AM_9
100
AcDbLine
 10
-5.0
 20
-4.75
 30
0.0
 11
5.000000000000001
 21
-4.75
 31
0.0
  0
LINE
  5
182
330
14E
100
AcDbEntity
  8
AM_9
100
AcDbLine
 10
5.000000000000001
 20
4.75
 30
0.0
 11
-5.0
 21
4.75
 31
0.0
  0
LINE
  5
183
330
14E
100
AcDbEntity
  8
AM_9
100
AcDbLine
 10
1.726516853167462
 20
7.236955232316209
 30
0.0
 11
1.721156227552278
 21
7.235678223215824
 31
0.0
  0
LINE
  5
184
330
14E
100
AcDbEntity
  8
AM_9
100
AcDbLine
 10
3.062500000000008
 20
-4.0
 30
0.0
 11
3.062500000000008
 21
-9.0
 31
0.0
  0
LINE
  5
185
330
14E
100
AcDbEntity
  8
AM_9
100
AcDbLine
 10
1.937499999999994
 20
-4.0
 30
0.0
 11
1.937499999999994
 21
-9.0
 31
0.0
  0
LINE
  5
186
330
14E
100
AcDbEntity
  8
AM_9
100
AcDbLine
 10
-1.937499999999992
 20
-4.0
 30
0.0
 11
-1.937499999999992
 21
-9.0
 31
0.0
  0
LINE
  5
187
330
14E
100
AcDbEntity
  8
AM_9
100
AcDbLine
 10
-3.062500000000007
 20
-4.0
 30
0.0
 11
-3.062500000000007
 21
-9.0
 31
0.0
  0
LINE
  5
188
330
14E
100
AcDbEntity
  8
AM_7
100
AcDbLine
 10
-2.5
 20
6.275277777777778
 30
0.0
 11
-2.5
 21
5.230277777777777
 31
0.0
  0
LINE
  5
189
330
14E
100
AcDbEntity
  8
AM_7
100
AcDbLine
 10
2.5
 20
6.275277777777778
 30
0.0
 11
2.5
 21
5.230277777777777
 31
0.0
  0
LINE
  5
18A
330
14E
100
AcDbEntity
  8
AM_7
100
AcDbLine
 10
0.0
 20
10.19
 30
0.0
 11
0.0
 21
6.009999999999999
 31
0.0
  0
LINE
  5
18B
330
14E
100
AcDbEntity
  8
AM_4
100
AcDbLine
 10
1.7375
 20
10.0
 30
0.0
 11
-1.7375
 21
10.0
 31
0.0
  0
LINE
  5
18C
330
14E
100
AcDbEntity
  8
AM_4
100
AcDbLine
 10
-1.7375
 20
10.0
 30
0.0
 11
-1.7375
 21
9.31
 31
0.0
  0
LINE
  5
18D
330
14E
100
AcDbEntity
  8
AM_4
100
AcDbLine
 10
1.7375
 20
9.31
 30
0.0
 11
1.7375
 21
10.0
 31
0.0
  0
LINE
  5
18E
330
14E
100
AcDbEntity
  8
AM_4
100
AcDbLine
 10
-1.7375
 20
8.930000000000001
 30
0.0
 11
-1.7375
 21
7.239583333333328
 31
0.0
  0
LINE
  5
18F
330
14E
100
AcDbEntity
  8
AM_4
100
AcDbLine
 10
1.7375
 20
7.239583333333327
 30
0.0
 11
1.7375
 21
8.930000000000001
 31
0.0
  0
LINE
  5
190
330
14E
100
AcDbEntity
  8
AM_4
100
AcDbLine
 10
1.930555555555555
 20
9.31
 30
0.0
 11
-1.930555555555555
 21
9.31
 31
0.0
  0
LINE
  5
191
330
14E
100
AcDbEntity
  8
AM_4
100
AcDbLine
 10
1.930555555555555
 20
8.930000000000001
 30
0.0
 11
-1.930555555555555
 21
8.930000000000001
 31
0.0
  0
LINE
  5
192
330
14E
100
AcDbEntity
  8
AM_4
100
AcDbLine
 10
-1.930555555555555
 20
9.31
 30
0.0
 11
-1.930555555555555
 21
8.930000000000001
 31
0.0
  0
LINE
  5
193
330
14E
100
AcDbEntity
  8
AM_4
100
AcDbLine
 10
1.930555555555555
 20
8.930000000000001
 30
0.0
 11
1.930555555555555
 21
9.31
 31
0.0
  0
LINE
  5
194
330
14E
100
AcDbEntity
  8
AM_4
100
AcDbLine
 10
-5.0
 20
-5.135135135135135
 30
0.0
 11
-5.0
 21
5.135135135135135
 31
0.0
  0
LINE
  5
195
330
14E
100
AcDbEntity
  8
AM_4
100
AcDbLine
 10
-5.0
 20
-5.135135135135135
 30
0.0
 11
-4.625
 21
-5.135135135135135
 31
0.0
  0
LINE
  5
196
330
14E
100
AcDbEntity
  8
AM_4
100
AcDbLine
 10
-4.625
 20
5.135135135135135
 30
0.0
 11
-5.0
 21
5.135135135135135
 31
0.0
  0
LINE
  5
197
330
14E
100
AcDbEntity
  8
AM_4
100
AcDbLine
 10
5.0
 20
-5.135135135135135
 30
0.0
 11
5.0
 21
5.135135135135135
 31
0.0
  0
LINE
  5
198
330
14E
100
AcDbEntity
  8
AM_4
100
AcDbLine
 10
4.625
 20
-5.135135135135135
 30
0.0
 11
5.0
 21
-5.135135135135135
 31
0.0
  0
LINE
  5
199
330
14E
100
AcDbEntity
  8
AM_4
100
AcDbLine
 10
5.0
 20
5.135135135135135
 30
0.0
 11
4.625
 21
5.135135135135135
 31
0.0
  0
LINE
  5
19A
330
14E
100
AcDbEntity
  8
AM_4
100
AcDbLine
 10
4.625
 20
7.239583333333328
 30
0.0
 11
1.7375
 21
7.239583333333328
 31
0.0
  0
LINE
  5
19B
330
14E
100
AcDbEntity
  8
AM_4
100
AcDbLine
 10
-1.736127802510138
 20
7.239583333333328
 30
0.0
 11
-4.625
 21
7.239583333333328
 31
0.0
  0
LWPOLYLINE
  5
19C
330
14E
100
AcDbEntity
  8
AM_4
100
AcDbPolyline
 90
       38
 70
     0
 43
0.0
 10
-1.737499999999803
 20
7.23958333333328
 10
-1.736681511372532
 20
7.239386939666982
 10
-1.725983557511293
 20
7.236825638070238
 10
-1.703024788184818
 20
7.231386728660667
 10
-1.669643622859146
 20
7.223596548504464
 10
-1.62542758956754
 20
7.213506459358378
 10
-1.568979215113812
 20
7.200995811669617
 10
-1.501849132752655
 20
7.186669006419288
 10
-1.425388045410798
 20
7.171080044138432
 10
-1.339470309904133
 20
7.154497976894839
 10
-1.241874579939919
 20
7.136870875303416
 10
-1.135542531309811
 20
7.119137407768669
 10
-1.021839144823169
 20
7.101890300998415
 10
-0.9009357291604146
 20
7.085502507116591
 10
-0.7697680746518218
 20
7.070025362027557
 10
-0.6327356175511613
 20
7.056416580106047
 10
-0.4958522421460634
 20
7.045466296538381
 10
-0.3553750740648829
 20
7.036970373217746
 10
-0.2078693923080895
 20
7.031070860866941
 10
-0.0587400786914419
 20
7.028236691171006
 10
0.0826409138878996
 20
7.028482180552054
 10
0.2234435054671257
 20
7.031542333685629
 10
0.3667391433790428
 20
7.037558572065969
 10
0.5073415390078385
 20
7.046279587660466
 10
0.6398284011676524
 20
7.057059663485092
 10
0.7679980960910741
 20
7.069828970058412
 10
0.8943500447985446
 20
7.084670838510749
 10
1.014461525198885
 20
7.100830428646114
 10
1.127156581388873
 20
7.117806062657597
 10
1.232174890592309
 20
7.135188543499313
 10
1.33141411036039
 20
7.152994448676484
 10
1.421154915162652
 20
7.170240015729506
 10
1.499799446044372
 20
7.186240271633175
 10
1.568008843603241
 20
7.200785535196536
 10
1.626783675919357
 20
7.213810390607995
 10
1.673473806884292
 20
7.224484422614911
 10
1.721087357698312
 20
7.235661841401009
 10
1.7375
 20
7.239583333333327
  0
LINE
  5
19D
330
14E
100
AcDbEntity
  8
AM_4
100
AcDbLine
 10
2.1875
 20
6.194727777777778
 30
0.0
 11
2.1875
 21
5.82063492063492
 31
0.0
  0
LINE
  5
19E
330
14E
100
AcDbEntity
  8
AM_4
100
AcDbLine
 10
2.812500000000001
 20
5.82063492063492
 30
0.0
 11
2.812500000000001
 21
6.194727777777778
 31
0.0
  0
LINE
  5
19F
330
14E
100
AcDbEntity
  8
AM_4
100
AcDbLine
 10
-2.220549999999999
 20
6.227777777777778
 30
0.0
 11
-2.77945
 21
6.227777777777778
 31
0.0
  0
LINE
  5
1A0
330
14E
100
AcDbEntity
  8
AM_4
100
AcDbLine
 10
-2.77945
 20
6.227777777777778
 30
0.0
 11
-2.8125
 21
6.194727777777778
 31
0.0
  0
LINE
  5
1A1
330
14E
100
AcDbEntity
  8
AM_4
100
AcDbLine
 10
-2.187499999999999
 20
6.194727777777778
 30
0.0
 11
-2.220549999999999
 21
6.227777777777778
 31
0.0
  0
LINE
  5
1A2
330
14E
100
AcDbEntity
  8
AM_4
100
AcDbLine
 10
-2.187499999999999
 20
6.194727777777778
 30
0.0
 11
-2.8125
 21
6.194727777777778
 31
0.0
  0
LINE
  5
1A3
330
14E
100
AcDbEntity
  8
AM_4
100
AcDbLine
 10
-2.8125
 20
6.194727777777778
 30
0.0
 11
-2.8125
 21
5.82063492063492
 31
0.0
  0
LINE
  5
1A4
330
14E
100
AcDbEntity
  8
AM_4
100
AcDbLine
 10
-2.187499999999999
 20
5.82063492063492
 30
0.0
 11
-2.187499999999999
 21
6.194727777777778
 31
0.0
  0
LINE
  5
1A5
330
14E
100
AcDbEntity
  8
AM_4
100
AcDbLine
 10
2.812500000000001
 20
6.194727777777778
 30
0.0
 11
2.1875
 21
6.194727777777778
 31
0.0
  0
LINE
  5
1A6
330
14E
100
AcDbEntity
  8
AM_4
100
AcDbLine
 10
2.779450000000001
 20
6.227777777777778
 30
0.0
 11
2.22055
 21
6.227777777777778
 31
0.0
  0
LINE
  5
1A7
330
14E
100
AcDbEntity
  8
AM_4
100
AcDbLine
 10
2.22055
 20
6.227777777777778
 30
0.0
 11
2.1875
 21
6.194727777777778
 31
0.0
  0
LINE
  5
1A8
330
14E
100
AcDbEntity
  8
AM_4
100
AcDbLine
 10
2.812500000000001
 20
6.194727777777778
 30
0.0
 11
2.779450000000001
 21
6.227777777777778
 31
0.0
  0
LINE
  5
1A9
330
14E
100
AcDbEntity
  8
AM_4
100
AcDbLine
 10
3.231310340973526
 20
5.764067868899461
 30
0.0
 11
3.133333333333334
 21
5.82063492063492
 31
0.0
  0
LINE
  5
1AA
330
14E
100
AcDbEntity
  8
AM_4
100
AcDbLine
 10
3.133333333333334
 20
5.82063492063492
 30
0.0
 11
1.866666666666667
 21
5.82063492063492
 31
0.0
  0
LINE
  5
1AB
330
14E
100
AcDbEntity
  8
AM_4
100
AcDbLine
 10
-3.231310340973526
 20
5.334344829513237
 30
0.0
 11
-3.133333333333333
 21
5.277777777777778
 31
0.0
  0
LINE
  5
1AC
330
14E
100
AcDbEntity
  8
AM_4
100
AcDbLine
 10
-1.866666666666666
 20
5.82063492063492
 30
0.0
 11
-3.133333333333333
 21
5.82063492063492
 31
0.0
  0
LINE
  5
1AD
330
14E
100
AcDbEntity
  8
AM_4
100
AcDbLine
 10
-3.133333333333333
 20
5.82063492063492
 30
0.0
 11
-3.231310340973526
 21
5.764067868899461
 31
0.0
  0
LINE
  5
1AE
330
14E
100
AcDbEntity
  8
AM_4
100
AcDbLine
 10
3.133333333333334
 20
5.277777777777778
 30
0.0
 11
3.231310340973526
 21
5.334344829513237
 31
0.0
  0
LINE
  5
1AF
330
14E
100
AcDbEntity
  8
AM_4
100
AcDbLine
 10
1.768689659026475
 20
5.334344829513237
 30
0.0
 11
1.866666666666667
 21
5.277777777777778
 31
0.0
  0
LINE
  5
1B0
330
14E
100
AcDbEntity
  8
AM_4
100
AcDbLine
 10
1.866666666666667
 20
5.82063492063492
 30
0.0
 11
1.768689659026475
 21
5.764067868899461
 31
0.0
  0
LINE
  5
1B1
330
14E
100
AcDbEntity
  8
AM_4
100
AcDbLine
 10
-1.768689659026474
 20
5.764067868899461
 30
0.0
 11
-1.866666666666666
 21
5.82063492063492
 31
0.0
  0
LINE
  5
1B2
330
14E
100
AcDbEntity
  8
AM_4
100
AcDbLine
 10
-1.866666666666666
 20
5.277777777777778
 30
0.0
 11
-1.768689659026474
 21
5.334344829513237
 31
0.0
  0
LINE
  5
1B3
330
14E
100
AcDbEntity
  8
AM_4
100
AcDbLine
 10
-3.231310340973526
 20
5.764067868899461
 30
0.0
 11
-3.231310340973526
 21
5.334344829513237
 31
0.0
  0
LWPOLYLINE
  5
1B4
330
14E
100
AcDbEntity
  8
AM_4
100
AcDbPolyline
 90
        4
 70
     0
 43
0.0
 10
-3.048482755730144
 20
5.277777777777778
 10
-3.061486792044926
 20
5.278085961992462
 10
-3.146532538086413
 20
5.294904595021
 10
-3.231310340973526
 20
5.334344829513237
  0
LWPOLYLINE
  5
1B5
330
14E
100
AcDbEntity
  8
AM_4
100
AcDbPolyline
 90
        3
 70
     0
 43
0.0
 10
-3.231310340973526
 20
5.764067868899461
 10
-3.141737940201218
 20
5.80510893172629
 10
-3.048482755730144
 20
5.82063492063492
  0
LINE
  5
1B6
330
14E
100
AcDbEntity
  8
AM_4
100
AcDbLine
 10
1.768689659026475
 20
5.764067868899461
 30
0.0
 11
1.768689659026475
 21
5.334344829513237
 31
0.0
  0
LWPOLYLINE
  5
1B7
330
14E
100
AcDbEntity
  8
AM_4
100
AcDbPolyline
 90
        4
 70
     0
 43
0.0
 10
1.951517244269856
 20
5.277777777777778
 10
1.938513207955074
 20
5.278085961992462
 10
1.853467461913587
 20
5.294904595021
 10
1.768689659026475
 20
5.334344829513237
  0
LWPOLYLINE
  5
1B8
330
14E
100
AcDbEntity
  8
AM_4
100
AcDbPolyline
 90
        3
 70
     0
 43
0.0
 10
2.134344829513238
 20
5.334344829513237
 10
2.04477242874093
 20
5.293303766686408
 10
1.951517244269856
 20
5.277777777777778
  0
LWPOLYLINE
  5
1B9
330
14E
100
AcDbEntity
  8
AM_4
100
AcDbPolyline
 90
        3
 70
     0
 43
0.0
 10
1.768689659026475
 20
5.764067868899461
 10
1.858262059798782
 20
5.80510893172629
 10
1.951517244269856
 20
5.82063492063492
  0
LWPOLYLINE
  5
1BA
330
14E
100
AcDbEntity
  8
AM_4
100
AcDbPolyline
 90
        4
 70
     0
 43
0.0
 10
-3.048482755730144
 20
5.82063492063492
 10
-3.035478719415362
 20
5.820326736420235
 10
-2.950432973373875
 20
5.803508103391697
 10
-2.865655170486762
 20
5.764067868899461
  0
LWPOLYLINE
  5
1BB
330
14E
100
AcDbEntity
  8
AM_4
100
AcDbPolyline
 90
        4
 70
     0
 43
0.0
 10
3.048482755730145
 20
5.277777777777778
 10
3.035478719415363
 20
5.278085961992462
 10
2.950432973373876
 20
5.294904595021
 10
2.865655170486764
 20
5.334344829513237
  0
LWPOLYLINE
  5
1BC
330
14E
100
AcDbEntity
  8
AM_4
100
AcDbPolyline
 90
        3
 70
     0
 43
0.0
 10
3.231310340973526
 20
5.334344829513237
 10
3.141737940201219
 20
5.293303766686408
 10
3.048482755730145
 20
5.277777777777778
  0
LINE
  5
1BD
330
14E
100
AcDbEntity
  8
AM_4
100
AcDbLine
 10
3.231310340973526
 20
5.764067868899461
 30
0.0
 11
3.231310340973526
 21
5.334344829513237
 31
0.0
  0
LWPOLYLINE
  5
1BE
330
14E
100
AcDbEntity
  8
AM_4
100
AcDbPolyline
 90
        4
 70
     0
 43
0.0
 10
3.048482755730145
 20
5.82063492063492
 10
3.061486792044927
 20
5.820326736420235
 10
3.146532538086414
 20
5.803508103391697
 10
3.231310340973526
 20
5.764067868899461
  0
LWPOLYLINE
  5
1BF
330
14E
100
AcDbEntity
  8
AM_4
100
AcDbPolyline
 90
        3
 70
     0
 43
0.0
 10
2.865655170486764
 20
5.764067868899461
 10
2.955227571259071
 20
5.80510893172629
 10
3.048482755730145
 20
5.82063492063492
  0
LINE
  5
1C0
330
14E
100
AcDbEntity
  8
AM_4
100
AcDbLine
 10
-2.865655170486762
 20
5.764067868899461
 30
0.0
 11
-2.865655170486762
 21
5.334344829513237
 31
0.0
  0
LWPOLYLINE
  5
1C1
330
14E
100
AcDbEntity
  8
AM_4
100
AcDbPolyline
 90
        4
 70
     0
 43
0.0
 10
-2.134344829513237
 20
5.334344829513237
 10
-2.209857971033554
 20
5.314322187965367
 10
-2.352876438236208
 20
5.287514160000615
 10
-2.5
 20
5.277777777777778
  0
LWPOLYLINE
  5
1C2
330
14E
100
AcDbEntity
  8
AM_4
100
AcDbPolyline
 90
        4
 70
     0
 43
0.0
 10
-2.865655170486762
 20
5.764067868899461
 10
-2.727775289818462
 20
5.79770604025538
 10
-2.585838801978723
 20
5.817291712156746
 10
-2.5
 20
5.82063492063492
  0
LWPOLYLINE
  5
1C3
330
14E
100
AcDbEntity
  8
AM_4
100
AcDbPolyline
 90
        4
 70
     0
 43
0.0
 10
-2.5
 20
5.82063492063492
 10
-2.354928985516777
 20
5.811164907414385
 10
-2.209857971033554
 20
5.78409051044733
 10
-2.134344829513237
 20
5.764067868899461
  0
LINE
  5
1C4
330
14E
100
AcDbEntity
  8
AM_4
100
AcDbLine
 10
2.134344829513238
 20
5.764067868899461
 30
0.0
 11
2.134344829513238
 21
5.334344829513237
 31
0.0
  0
LWPOLYLINE
  5
1C5
330
14E
100
AcDbEntity
  8
AM_4
100
AcDbPolyline
 90
        4
 70
     0
 43
0.0
 10
2.5
 20
5.277777777777778
 10
2.414161198021278
 20
5.281120986255951
 10
2.273686104641089
 20
5.300421929268119
 10
2.134344829513238
 20
5.334344829513237
  0
LWPOLYLINE
  5
1C6
330
14E
100
AcDbEntity
  8
AM_4
100
AcDbPolyline
 90
        4
 70
     0
 43
0.0
 10
2.865655170486764
 20
5.334344829513237
 10
2.790142028966446
 20
5.314322187965367
 10
2.647123561763792
 20
5.287514160000615
 10
2.5
 20
5.277777777777778
  0
LINE
  5
1C7
330
14E
100
AcDbEntity
  8
AM_4
100
AcDbLine
 10
2.865655170486764
 20
5.764067868899461
 30
0.0
 11
2.865655170486764
 21
5.334344829513237
 31
0.0
  0
LWPOLYLINE
  5
1C8
330
14E
100
AcDbEntity
  8
AM_4
100
AcDbPolyline
 90
        4
 70
     0
 43
0.0
 10
2.5
 20
5.82063492063492
 10
2.645071014483224
 20
5.811164907414385
 10
2.790142028966446
 20
5.78409051044733
 10
2.865655170486764
 20
5.764067868899461
  0
LWPOLYLINE
  5
1C9
330
14E
100
AcDbEntity
  8
AM_4
100
AcDbPolyline
 90
        4
 70
     0
 43
0.0
 10
-2.5
 20
5.277777777777778
 10
-2.585838801978723
 20
5.281120986255951
 10
-2.726313895358911
 20
5.300421929268119
 10
-2.865655170486762
 20
5.334344829513237
  0
LWPOLYLINE
  5
1CA
330
14E
100
AcDbEntity
  8
AM_4
100
AcDbPolyline
 90
        3
 70
     0
 43
0.0
 10
-2.865655170486762
 20
5.334344829513237
 10
-2.95522757125907
 20
5.293303766686408
 10
-3.048482755730144
 20
5.277777777777778
  0
LWPOLYLINE
  5
1CB
330
14E
100
AcDbEntity
  8
AM_4
100
AcDbPolyline
 90
        4
 70
     0
 43
0.0
 10
1.951517244269856
 20
5.82063492063492
 10
1.964521280584638
 20
5.820326736420235
 10
2.049567026626125
 20
5.803508103391697
 10
2.134344829513238
 20
5.764067868899461
  0
LWPOLYLINE
  5
1CC
330
14E
100
AcDbEntity
  8
AM_4
100
AcDbPolyline
 90
        4
 70
     0
 43
0.0
 10
2.134344829513238
 20
5.764067868899461
 10
2.272224710181539
 20
5.79770604025538
 10
2.414161198021278
 20
5.817291712156746
 10
2.5
 20
5.82063492063492
  0
LINE
  5
1CD
330
14E
100
AcDbEntity
  8
AM_4
100
AcDbLine
 10
-2.134344829513237
 20
5.764067868899461
 30
0.0
 11
-2.134344829513237
 21
5.334344829513237
 31
0.0
  0
LWPOLYLINE
  5
1CE
330
14E
100
AcDbEntity
  8
AM_4
100
AcDbPolyline
 90
        4
 70
     0
 43
0.0
 10
-1.951517244269855
 20
5.277777777777778
 10
-1.964521280584637
 20
5.278085961992462
 10
-2.049567026626124
 20
5.294904595021
 10
-2.134344829513237
 20
5.334344829513237
  0
LWPOLYLINE
  5
1CF
330
14E
100
AcDbEntity
  8
AM_4
100
AcDbPolyline
 90
        3
 70
     0
 43
0.0
 10
-1.768689659026474
 20
5.334344829513237
 10
-1.858262059798781
 20
5.293303766686408
 10
-1.951517244269855
 20
5.277777777777778
  0
LINE
  5
1D0
330
14E
100
AcDbEntity
  8
AM_4
100
AcDbLine
 10
-1.768689659026474
 20
5.764067868899461
 30
0.0
 11
-1.768689659026474
 21
5.334344829513237
 31
0.0
  0
LWPOLYLINE
  5
1D1
330
14E
100
AcDbEntity
  8
AM_4
100
AcDbPolyline
 90
        4
 70
     0
 43
0.0
 10
-1.951517244269855
 20
5.82063492063492
 10
-1.938513207955073
 20
5.820326736420235
 10
-1.853467461913586
 20
5.803508103391697
 10
-1.768689659026474
 20
5.764067868899461
  0
LWPOLYLINE
  5
1D2
330
14E
100
AcDbEntity
  8
AM_4
100
AcDbPolyline
 90
        3
 70
     0
 43
0.0
 10
-2.134344829513237
 20
5.764067868899461
 10
-2.044772428740929
 20
5.80510893172629
 10
-1.951517244269855
 20
5.82063492063492
  0
LINE
  5
1D3
330
14E
100
AcDbEntity
  8
AM_4
100
AcDbLine
 10
-3.65625
 20
5.277777777777778
 30
0.0
 11
-1.34375
 21
5.277777777777778
 31
0.0
  0
LINE
  5
1D4
330
14E
100
AcDbEntity
  8
AM_4
100
AcDbLine
 10
1.343750000000001
 20
5.277777777777778
 30
0.0
 11
3.656250000000002
 21
5.277777777777778
 31
0.0
  0
LWPOLYLINE
  5
1D5
330
14E
100
AcDbEntity
  8
AM_4
100
AcDbPolyline
 90
       17
 70
     0
 43
0.0
 10
-1.34375
 20
-3.537982449383855
 10
-1.410055472094232
 20
-3.649620347152701
 10
-1.503913143239201
 20
-3.743887574865241
 10
-1.620909327395415
 20
-3.815364417496674
 10
-1.766150616840027
 20
-3.869406231262488
 10
-1.920830820923778
 20
-3.904272300003591
 10
-2.094584166773873
 20
-3.927412649459791
 10
-2.280348305889893
 20
-3.940523100862917
 10
-2.47698323904133
 20
-3.945380082981935
 10
-2.675560491293151
 20
-3.942330812644133
 10
-2.874794305836013
 20
-3.930268053342045
 10
-3.05825017835179
 20
-3.907795558470691
 10
-3.230701294090297
 20
-3.870304356812219
 10
-3.372412058035678
 20
-3.818515489786879
 10
-3.494088133800554
 20
-3.745438086267092
 10
-3.586946266938419
 20
-3.653486051666823
 10
-3.656249999999999
 20
-3.537982449383855
  0
LWPOLYLINE
  5
1D6
330
14E
100
AcDbEntity
  8
AM_4
100
AcDbPolyline
 90
       17
 70
     0
 43
0.0
 10
3.656250000000001
 20
-3.537982449383855
 10
3.589944527905769
 20
-3.649620347152701
 10
3.4960868567608
 20
-3.74388757486524
 10
3.379090672604587
 20
-3.815364417496674
 10
3.233849383159975
 20
-3.869406231262488
 10
3.079169179076223
 20
-3.904272300003591
 10
2.905415833226128
 20
-3.927412649459791
 10
2.719651694110109
 20
-3.940523100862917
 10
2.523016760958674
 20
-3.945380082981935
 10
2.324439508706851
 20
-3.942330812644133
 10
2.125205694163989
 20
-3.930268053342045
 10
1.941749821648212
 20
-3.907795558470691
 10
1.769298705909704
 20
-3.870304356812219
 10
1.627587941964324
 20
-3.818515489786879
 10
1.505911866199446
 20
-3.745438086267092
 10
1.413053733061581
 20
-3.653486051666823
 10
1.343750000000001
 20
-3.537982449383855
  0
LINE
  5
1D7
330
14E
100
AcDbEntity
  8
AM_4
100
AcDbLine
 10
3.65625
 20
-1.770617097565577
 30
0.0
 11
4.625000000000001
 21
-1.770617097565577
 31
0.0
  0
LINE
  5
1D8
330
14E
100
AcDbEntity
  8
AM_4
100
AcDbLine
 10
-4.624999999999999
 20
-1.770617097565577
 30
0.0
 11
-3.65625
 21
-1.770617097565577
 31
0.0
  0
LINE
  5
1D9
330
14E
100
AcDbEntity
  8
AM_4
100
AcDbLine
 10
-1.34375
 20
-1.770617097565577
 30
0.0
 11
1.343750000000001
 21
-1.770617097565577
 31
0.0
  0
LINE
  5
1DA
330
14E
100
AcDbEntity
  8
AM_4
100
AcDbLine
 10
1.343750000000001
 20
-3.999999999999998
 30
0.0
 11
3.65625
 21
-3.999999999999998
 31
0.0
  0
LINE
  5
1DB
330
14E
100
AcDbEntity
  8
AM_4
100
AcDbLine
 10
-3.65625
 20
-3.999999999999998
 30
0.0
 11
-1.343749999999999
 21
-3.999999999999998
 31
0.0
  0
LINE
  5
1DC
330
14E
100
AcDbEntity
  8
AM_4
100
AcDbLine
 10
4.625000000000001
 20
-9.0
 30
0.0
 11
4.625
 21
7.239583333333328
 31
0.0
  0
LINE
  5
1DD
330
14E
100
AcDbEntity
  8
AM_4
100
AcDbLine
 10
-1.343749999999999
 20
-6.5
 30
0.0
 11
1.343750000000001
 21
-6.5
 31
0.0
  0
LINE
  5
1DE
330
14E
100
AcDbEntity
  8
AM_4
100
AcDbLine
 10
3.65625
 20
-6.5
 30
0.0
 11
3.656250000000002
 21
5.277777777777778
 31
0.0
  0
LINE
  5
1DF
330
14E
100
AcDbEntity
  8
AM_4
100
AcDbLine
 10
1.343750000000001
 20
-6.5
 30
0.0
 11
1.343750000000001
 21
5.277777777777778
 31
0.0
  0
LINE
  5
1E0
330
14E
100
AcDbEntity
  8
AM_4
100
AcDbLine
 10
3.65625
 20
-6.5
 30
0.0
 11
4.625000000000001
 21
-6.5
 31
0.0
  0
LINE
  5
1E1
330
14E
100
AcDbEntity
  8
AM_4
100
AcDbLine
 10
-4.624999999999999
 20
-9.0
 30
0.0
 11
-4.625
 21
7.239583333333328
 31
0.0
  0
LINE
  5
1E2
330
14E
100
AcDbEntity
  8
AM_4
100
AcDbLine
 10
-4.624999999999999
 20
-9.0
 30
0.0
 11
4.625000000000001
 21
-9.0
 31
0.0
  0
LINE
  5
1E3
330
14E
100
AcDbEntity
  8
AM_4
100
AcDbLine
 10
1.343750000000001
 20
-4.5
 30
0.0
 11
3.65625
 21
-4.5
 31
0.0
  0
LINE
  5
1E4
330
14E
100
AcDbEntity
  8
AM_4
100
AcDbLine
 10
-1.343749999999999
 20
-6.5
 30
0.0
 11
-1.34375
 21
5.277777777777778
 31
0.0
  0
LINE
  5
1E5
330
14E
100
AcDbEntity
  8
AM_4
100
AcDbLine
 10
-3.65625
 20
-4.5
 30
0.0
 11
-1.343749999999999
 21
-4.5
 31
0.0
  0
LINE
  5
1E6
330
14E
100
AcDbEntity
  8
AM_4
100
AcDbLine
 10
-3.65625
 20
-6.5
 30
0.0
 11
-3.65625
 21
5.277777777777778
 31
0.0
  0
LINE
  5
1E7
330
14E
100
AcDbEntity
  8
AM_4
100
AcDbLine
 10
-4.624999999999999
 20
-6.5
 30
0.0
 11
-3.65625
 21
-6.5
 31
0.0
  0
LINE
  5
1E9
330
14E
100
AcDbEntity
  8
AM_5
100
AcDbLine
 10
-2.77945
 20
6.227777777777778
 30
0.0
 11
-2.77945
 21
5.467777777777778
 31
0.0
  0
LINE
  5
1EA
330
14E
100
AcDbEntity
  8
AM_5
100
AcDbLine
 10
-2.8125
 20
5.467777777777778
 30
0.0
 11
-2.77945
 21
5.467777777777778
 31
0.0
  0
LINE
  5
1EB
330
14E
100
AcDbEntity
  8
AM_5
100
AcDbLine
 10
-2.8125
 20
5.467777777777778
 30
0.0
 11
-2.1875
 21
5.467777777777778
 31
0.0
  0
LINE
  5
1EC
330
14E
100
AcDbEntity
  8
AM_5
100
AcDbLine
 10
-2.220550000000001
 20
6.227777777777779
 30
0.0
 11
-2.220550000000001
 21
5.467777777777778
 31
0.0
  0
LINE
  5
1ED
330
14E
100
AcDbEntity
  8
AM_5
100
AcDbLine
 10
-2.1875
 20
5.467777777777778
 30
0.0
 11
-2.220550000000001
 21
5.467777777777778
 31
0.0
  0
LINE
  5
1EE
330
14E
100
AcDbEntity
  8
AM_5
100
AcDbLine
 10
2.22055
 20
6.227777777777778
 30
0.0
 11
2.22055
 21
5.467777777777778
 31
0.0
  0
LINE
  5
1EF
330
14E
100
AcDbEntity
  8
AM_5
100
AcDbLine
 10
2.1875
 20
5.467777777777778
 30
0.0
 11
2.22055
 21
5.467777777777778
 31
0.0
  0
LINE
  5
1F0
330
14E
100
AcDbEntity
  8
AM_5
100
AcDbLine
 10
2.1875
 20
5.467777777777778
 30
0.0
 11
2.8125
 21
5.467777777777778
 31
0.0
  0
LINE
  5
1F1
330
14E
100
AcDbEntity
  8
AM_5
100
AcDbLine
 10
2.779449999999999
 20
6.227777777777779
 30
0.0
 11
2.779449999999999
 21
5.467777777777778
 31
0.0
  0
LINE
  5
1F2
330
14E
100
AcDbEntity
  8
AM_5
100
AcDbLine
 10
2.8125
 20
5.467777777777778
 30
0.0
 11
2.779449999999999
 21
5.467777777777778
 31
0.0
  0
ENDBLK
  5
151
330
14E
100
AcDbEntity
  8
0
100
AcDbBlockEnd
  0
ENDSEC
  0
SECTION
  2
ENTITIES
  0
INSERT
  5
6F
330
1F
100
AcDbEntity
  8
0
100
AcDbBlockReference
  2
1_066379_2
 10
0.0
 20
0.0
 30
0.0
  0
POINT
  5
1F4
330
1F
100
AcDbEntity
  8
ConnectionPoints
100
AcDbPoint
 10
6.0
 20
0.0
 30
-0.0000000000000004
  0
POINT
  5
1F5
330
1F
100
AcDbEntity
  8
ConnectionPoints
100
AcDbPoint
 10
6.0
 20
0.0
 30
-0.0000000000000004
  0
ENDSEC
  0
SECTION
  2
OBJECTS
  0
DICTIONARY
  5
C
330
0
100
AcDbDictionary
281
     1
  3
ACAD_DETAILVIEWSTYLE
350
1FD
  3
ACAD_GROUP
350
D
  3
ACAD_LAYOUT
350
1A
  3
ACAD_MATERIAL
350
43
  3
ACAD_MLEADERSTYLE
350
6B
  3
ACAD_MLINESTYLE
350
17
  3
ACAD_PLOTSETTINGS
350
19
  3
ACAD_PLOTSTYLENAME
350
E
  3
ACAD_SCALELIST
350
47
  3
ACAD_SECTIONVIEWSTYLE
350
1FE
  3
ACAD_TABLESTYLE
350
69
  3
ACAD_VISUALSTYLE
350
2A
  3
ACDB_RECOMPOSE_DATA
350
1FA
  3
AcDbVariableDictionary
350
1F6
  0
SUN
  5
6D
330
29
100
AcDbSun
 90
        1
290
     0
 63
     7
421
 16777215
 40
1.0
291
     1
 91
  2455826
 92
 54000000
292
     0
 70
     2
 71
   256
280
     1
  0
DICTIONARY
  5
1FD
102
{ACAD_REACTORS
330
C
102
}
330
C
100
AcDbDictionary
281
     1
  0
DICTIONARY
  5
D
102
{ACAD_REACTORS
330
C
102
}
330
C
100
AcDbDictionary
281
     1
  0
DICTIONARY
  5
1A
102
{ACAD_REACTORS
330
C
102
}
330
C
100
AcDbDictionary
281
     1
  3
Layout1
350
1E
  3
Layout2
350
26
  3
Model
350
22
  0
DICTIONARY
  5
43
102
{ACAD_REACTORS
330
C
102
}
330
C
100
AcDbDictionary
281
     1
  3
ByBlock
350
45
  3
ByLayer
350
44
  3
Global
350
46
  0
DICTIONARY
  5
6B
102
{ACAD_REACTORS
330
C
102
}
330
C
100
AcDbDictionary
281
     1
  3
Standard
350
6C
  0
DICTIONARY
  5
17
102
{ACAD_REACTORS
330
C
102
}
330
C
100
AcDbDictionary
281
     1
  3
Standard
350
18
  0
DICTIONARY
  5
19
102
{ACAD_REACTORS
330
C
102
}
330
C
100
AcDbDictionary
281
     1
  0
ACDBDICTIONARYWDFLT
  5
E
102
{ACAD_REACTORS
330
C
102
}
330
C
100
AcDbDictionary
281
     1
  3
Normal
350
F
100
AcDbDictionaryWithDefault
340
F
  0
DICTIONARY
  5
47
102
{ACAD_REACTORS
330
C
102
}
330
C
100
AcDbDictionary
281
     1
  3
A0
350
48
  3
A1
350
49
  3
A2
350
4A
  3
A3
350
4B
  3
A4
350
4C
  3
A5
350
4D
  3
A6
350
4E
  3
A7
350
4F
  3
A8
350
50
  3
A9
350
51
  3
B0
350
52
  3
B1
350
53
  3
B2
350
54
  3
B3
350
55
  3
B4
350
56
  3
B5
350
57
  3
B6
350
58
  3
B7
350
59
  3
B8
350
5A
  3
B9
350
5B
  3
C0
350
5C
  3
C1
350
5D
  3
C2
350
5E
  3
C3
350
5F
  3
C4
350
60
  3
C5
350
61
  3
C6
350
62
  3
C7
350
63
  3
C8
350
64
  3
C9
350
65
  3
D0
350
66
  3
D1
350
67
  3
D2
350
68
  0
DICTIONARY
  5
1FE
102
{ACAD_REACTORS
330
C
102
}
330
C
100
AcDbDictionary
281
     1
  0
DICTIONARY
  5
69
102
{ACAD_REACTORS
330
C
102
}
330
C
100
AcDbDictionary
281
     1
  3
Standard
350
6A
  0
DICTIONARY
  5
2A
102
{ACAD_REACTORS
330
C
102
}
330
C
100
AcDbDictionary
281
     1
  3
2dWireframe
350
2F
  3
Basic
350
32
  3
Brighten
350
36
  3
ColorChange
350
3A
  3
Conceptual
350
34
  3
Dim
350
35
  3
EdgeColorOff
350
3D
  3
Facepattern
350
39
  3
Flat
350
2B
  3
FlatWithEdges
350
2C
  3
Gouraud
350
2D
  3
GouraudWithEdges
350
2E
  3
Hidden
350
31
  3
JitterOff
350
3B
  3
Linepattern
350
38
  3
OverhangOff
350
3C
  3
Realistic
350
33
  3
Shaded
350
42
  3
Shaded with edges
350
41
  3
Shades of Gray
350
3E
  3
Sketchy
350
3F
  3
Thicken
350
37
  3
Wireframe
350
30
  3
X-Ray
350
40
  0
XRECORD
  5
1FA
102
{ACAD_REACTORS
330
C
102
}
330
C
100
AcDbXrecord
280
     1
 90
        1
330
6A
  0
DICTIONARY
  5
1F6
102
{ACAD_REACTORS
330
C
102
}
330
C
100
AcDbDictionary
281
     1
  3
CANNOSCALE
350
1F7
  3
CMLEADERSTYLE
350
1FC
  3
CTABLESTYLE
350
1FB
  0
LAYOUT
  5
1E
102
{ACAD_REACTORS
330
1A
102
}
330
1A
100
AcDbPlotSettings
  1

  2
none_device
  4

  6

 40
0.0
 41
0.0
 42
0.0
 43
0.0
 44
0.0
 45
0.0
 46
0.0
 47
0.0
 48
0.0
 49
0.0
140
0.0
141
0.0
142
1.0
143
1.0
 70
   688
 72
     0
 73
     0
 74
     5
  7

 75
    16
 76
     0
 77
     2
 78
   300
147
1.0
148
0.0
149
0.0
100
AcDbLayout
  1
Layout1
 70
     1
 71
     1
 10
0.0
 20
0.0
 11
12.0
 21
9.0
 12
0.0
 22
0.0
 32
0.0
 14
1.000000000000000E+20
 24
1.000000000000000E+20
 34
1.000000000000000E+20
 15
-1.000000000000000E+20
 25
-1.000000000000000E+20
 35
-1.000000000000000E+20
146
0.0
 13
0.0
 23
0.0
 33
0.0
 16
1.0
 26
0.0
 36
0.0
 17
0.0
 27
1.0
 37
0.0
 76
     0
330
1B
  0
LAYOUT
  5
26
102
{ACAD_REACTORS
330
1A
102
}
330
1A
100
AcDbPlotSettings
  1

  2
none_device
  4

  6

 40
0.0
 41
0.0
 42
0.0
 43
0.0
 44
0.0
 45
0.0
 46
0.0
 47
0.0
 48
0.0
 49
0.0
140
0.0
141
0.0
142
1.0
143
1.0
 70
   688
 72
     0
 73
     0
 74
     5
  7

 75
    16
 76
     0
 77
     2
 78
   300
147
1.0
148
0.0
149
0.0
100
AcDbLayout
  1
Layout2
 70
     1
 71
     2
 10
0.0
 20
0.0
 11
0.0
 21
0.0
 12
0.0
 22
0.0
 32
0.0
 14
0.0
 24
0.0
 34
0.0
 15
0.0
 25
0.0
 35
0.0
146
0.0
 13
0.0
 23
0.0
 33
0.0
 16
1.0
 26
0.0
 36
0.0
 17
0.0
 27
1.0
 37
0.0
 76
     0
330
23
  0
LAYOUT
  5
22
102
{ACAD_REACTORS
330
1A
102
}
330
1A
100
AcDbPlotSettings
  1

  2
none_device
  4
Letter_(8.50_x_11.00_Inches)
  6

 40
6.35
 41
6.35
 42
6.35000508
 43
6.35000508
 44
215.9
 45
279.4
 46
0.0
 47
0.0
 48
0.0
 49
0.0
140
0.0
141
0.0
142
1.0
143
1.0
 70
  1712
 72
     0
 73
     0
 74
     0
  7

 75
     0
 76
     0
 77
     2
 78
   300
147
1.0
148
0.0
149
0.0
100
AcDbLayout
  1
Model
 70
     1
 71
     0
 10
0.0
 20
0.0
 11
12.0
 21
9.0
 12
0.0
 22
0.0
 32
0.0
 14
1.000000000000000E+20
 24
1.000000000000000E+20
 34
1.000000000000000E+20
 15
-1.000000000000000E+20
 25
-1.000000000000000E+20
 35
-1.000000000000000E+20
146
0.0
 13
0.0
 23
0.0
 33
0.0
 16
1.0
 26
0.0
 36
0.0
 17
0.0
 27
1.0
 37
0.0
 76
     0
330
1F
331
29
  0
MATERIAL
  5
45
102
{ACAD_REACTORS
330
43
102
}
330
43
100
AcDbMaterial
  1
ByBlock
 72
     1
 94
      127
  0
MATERIAL
  5
44
102
{ACAD_REACTORS
330
43
102
}
330
43
100
AcDbMaterial
  1
ByLayer
 72
     1
 94
      127
  0
MATERIAL
  5
46
102
{ACAD_REACTORS
330
43
102
}
330
43
100
AcDbMaterial
  1
Global
 72
     1
 94
      127
  0
MLEADERSTYLE
  5
6C
102
{ACAD_REACTORS
330
6B
102
}
330
6B
100
AcDbMLeaderStyle
179
     2
170
     2
171
     1
172
     0
 90
        2
 40
0.0
 41
0.0
173
     1
 91
-1056964608
340
14
 92
       -2
290
     1
 42
0.09
291
     1
 43
0.36
  3
Standard
341
0
 44
0.18
300

342
11
174
     1
178
     6
175
     1
176
     0
 93
-1056964608
 45
0.18
292
     0
297
     0
 46
0.18
343
0
 94
-1056964608
 47
1.0
 49
1.0
140
1.0
293
     1
141
0.0
294
     1
177
     0
142
1.0
295
     0
296
     0
143
0.125
271
     0
272
     9
273
     9
298
     0
  0
MLINESTYLE
  5
18
102
{ACAD_REACTORS
330
17
102
}
330
17
100
AcDbMlineStyle
  2
Standard
 70
     0
  3

 62
   256
 51
90.0
 52
90.0
 71
     2
 49
0.5
 62
   256
  6
BYLAYER
 49
-0.5
 62
   256
  6
BYLAYER
  0
ACDBPLACEHOLDER
  5
F
102
{ACAD_REACTORS
330
E
102
}
330
E
  0
SCALE
  5
48
102
{ACAD_REACTORS
330
47
102
}
330
47
100
AcDbScale
 70
     0
300
1:1
140
1.0
141
1.0
290
     1
  0
SCALE
  5
49
102
{ACAD_REACTORS
330
47
102
}
330
47
100
AcDbScale
 70
     0
300
1:2
140
1.0
141
2.0
290
     0
  0
SCALE
  5
4A
102
{ACAD_REACTORS
330
47
102
}
330
47
100
AcDbScale
 70
     0
300
1:4
140
1.0
141
4.0
290
     0
  0
SCALE
  5
4B
102
{ACAD_REACTORS
330
47
102
}
330
47
100
AcDbScale
 70
     0
300
1:5
140
1.0
141
5.0
290
     0
  0
SCALE
  5
4C
102
{ACAD_REACTORS
330
47
102
}
330
47
100
AcDbScale
 70
     0
300
1:8
140
1.0
141
8.0
290
     0
  0
SCALE
  5
4D
102
{ACAD_REACTORS
330
47
102
}
330
47
100
AcDbScale
 70
     0
300
1:10
140
1.0
141
10.0
290
     0
  0
SCALE
  5
4E
102
{ACAD_REACTORS
330
47
102
}
330
47
100
AcDbScale
 70
     0
300
1:16
140
1.0
141
16.0
290
     0
  0
SCALE
  5
4F
102
{ACAD_REACTORS
330
47
102
}
330
47
100
AcDbScale
 70
     0
300
1:20
140
1.0
141
20.0
290
     0
  0
SCALE
  5
50
102
{ACAD_REACTORS
330
47
102
}
330
47
100
AcDbScale
 70
     0
300
1:30
140
1.0
141
30.0
290
     0
  0
SCALE
  5
51
102
{ACAD_REACTORS
330
47
102
}
330
47
100
AcDbScale
 70
     0
300
1:40
140
1.0
141
40.0
290
     0
  0
SCALE
  5
52
102
{ACAD_REACTORS
330
47
102
}
330
47
100
AcDbScale
 70
     0
300
1:50
140
1.0
141
50.0
290
     0
  0
SCALE
  5
53
102
{ACAD_REACTORS
330
47
102
}
330
47
100
AcDbScale
 70
     0
300
1:100
140
1.0
141
100.0
290
     0
  0
SCALE
  5
54
102
{ACAD_REACTORS
330
47
102
}
330
47
100
AcDbScale
 70
     0
300
2:1
140
2.0
141
1.0
290
     0
  0
SCALE
  5
55
102
{ACAD_REACTORS
330
47
102
}
330
47
100
AcDbScale
 70
     0
300
4:1
140
4.0
141
1.0
290
     0
  0
SCALE
  5
56
102
{ACAD_REACTORS
330
47
102
}
330
47
100
AcDbScale
 70
     0
300
8:1
140
8.0
141
1.0
290
     0
  0
SCALE
  5
57
102
{ACAD_REACTORS
330
47
102
}
330
47
100
AcDbScale
 70
     0
300
10:1
140
10.0
141
1.0
290
     0
  0
SCALE
  5
58
102
{ACAD_REACTORS
330
47
102
}
330
47
100
AcDbScale
 70
     0
300
100:1
140
100.0
141
1.0
290
     0
  0
SCALE
  5
59
102
{ACAD_REACTORS
330
47
102
}
330
47
100
AcDbScale
 70
     0
300
1/128" = 1'-0"
140
0.0078125
141
12.0
290
     0
  0
SCALE
  5
5A
102
{ACAD_REACTORS
330
47
102
}
330
47
100
AcDbScale
 70
     0
300
1/64" = 1'-0"
140
0.015625
141
12.0
290
     0
  0
SCALE
  5
5B
102
{ACAD_REACTORS
330
47
102
}
330
47
100
AcDbScale
 70
     0
300
1/32" = 1'-0"
140
0.03125
141
12.0
290
     0
  0
SCALE
  5
5C
102
{ACAD_REACTORS
330
47
102
}
330
47
100
AcDbScale
 70
     0
300
1/16" = 1'-0"
140
0.0625
141
12.0
290
     0
  0
SCALE
  5
5D
102
{ACAD_REACTORS
330
47
102
}
330
47
100
AcDbScale
 70
     0
300
3/32" = 1'-0"
140
0.09375
141
12.0
290
     0
  0
SCALE
  5
5E
102
{ACAD_REACTORS
330
47
102
}
330
47
100
AcDbScale
 70
     0
300
1/8" = 1'-0"
140
0.125
141
12.0
290
     0
  0
SCALE
  5
5F
102
{ACAD_REACTORS
330
47
102
}
330
47
100
AcDbScale
 70
     0
300
3/16" = 1'-0"
140
0.1875
141
12.0
290
     0
  0
SCALE
  5
60
102
{ACAD_REACTORS
330
47
102
}
330
47
100
AcDbScale
 70
     0
300
1/4" = 1'-0"
140
0.25
141
12.0
290
     0
  0
SCALE
  5
61
102
{ACAD_REACTORS
330
47
102
}
330
47
100
AcDbScale
 70
     0
300
3/8" = 1'-0"
140
0.375
141
12.0
290
     0
  0
SCALE
  5
62
102
{ACAD_REACTORS
330
47
102
}
330
47
100
AcDbScale
 70
     0
300
1/2" = 1'-0"
140
0.5
141
12.0
290
     0
  0
SCALE
  5
63
102
{ACAD_REACTORS
330
47
102
}
330
47
100
AcDbScale
 70
     0
300
3/4" = 1'-0"
140
0.75
141
12.0
290
     0
  0
SCALE
  5
64
102
{ACAD_REACTORS
330
47
102
}
330
47
100
AcDbScale
 70
     0
300
1" = 1'-0"
140
1.0
141
12.0
290
     0
  0
SCALE
  5
65
102
{ACAD_REACTORS
330
47
102
}
330
47
100
AcDbScale
 70
     0
300
1-1/2" = 1'-0"
140
1.5
141
12.0
290
     0
  0
SCALE
  5
66
102
{ACAD_REACTORS
330
47
102
}
330
47
100
AcDbScale
 70
     0
300
3" = 1'-0"
140
3.0
141
12.0
290
     0
  0
SCALE
  5
67
102
{ACAD_REACTORS
330
47
102
}
330
47
100
AcDbScale
 70
     0
300
6" = 1'-0"
140
6.0
141
12.0
290
     0
  0
SCALE
  5
68
102
{ACAD_REACTORS
330
47
102
}
330
47
100
AcDbScale
 70
     0
300
1'-0" = 1'-0"
140
12.0
141
12.0
290
     0
  0
TABLESTYLE
  5
6A
102
{ACAD_REACTORS
330
69
102
}
102
{ACAD_XDICTIONARY
360
1F8
102
}
330
69
100
AcDbTableStyle
  3
Standard
 70
     0
 71
     0
 40
0.06
 41
0.06
280
     0
281
     0
  7
Standard
140
0.18
170
     2
 62
     0
 63
   257
283
     0
 90
        4
 91
        0
  1

274
    -2
284
     1
 64
     0
275
    -2
285
     1
 65
     0
276
    -2
286
     1
 66
     0
277
    -2
287
     1
 67
     0
278
    -2
288
     1
 68
     0
279
    -2
289
     1
 69
     0
  7
Standard
140
0.25
170
     5
 62
     0
 63
   257
283
     0
 90
        4
 91
        0
  1

274
    -2
284
     1
 64
     0
275
    -2
285
     1
 65
     0
276
    -2
286
     1
 66
     0
277
    -2
287
     1
 67
     0
278
    -2
288
     1
 68
     0
279
    -2
289
     1
 69
     0
  7
Standard
140
0.18
170
     5
 62
     0
 63
   257
283
     0
 90
        4
 91
        0
  1

274
    -2
284
     1
 64
     0
275
    -2
285
     1
 65
     0
276
    -2
286
     1
 66
     0
277
    -2
287
     1
 67
     0
278
    -2
288
     1
 68
     0
279
    -2
289
     1
 69
     0
  0
VISUALSTYLE
  5
2F
102
{ACAD_REACTORS
330
2A
102
}
330
2A
100
AcDbVisualStyle
  2
2dWireframe
 70
     4
177
     3
291
     0
 70
    58
 90
        0
176
     1
 90
        2
176
     1
 90
        0
176
     1
 90
        0
176
     1
 40
0.6
176
     1
 40
30.0
176
     1
 62
     7
420
 16777215
176
     1
 90
        1
176
     1
 90
        4
176
     1
 62
     7
176
     1
 62
   257
176
     1
 90
        1
176
     1
 90
        1
176
     1
 40
1.0
176
     1
 90
        0
176
     1
 62
   257
176
     1
 40
1.0
176
     1
 90
        1
176
     1
 90
        6
176
     1
 90
        2
176
     1
 62
     7
176
     1
 90
        5
176
     1
 90
        0
176
     1
 90
        0
176
     1
290
     0
176
     1
 90
        1
176
     1
 40
0.0
176
     1
 90
        0
176
     1
290
     1
176
     1
290
     1
176
     1
290
     0
176
     1
290
     0
176
     1
290
     0
176
     1
290
     0
176
     1
290
     0
176
     1
290
     0
176
     1
290
     0
176
     1
 90
       50
176
     1
 40
0.0
176
     1
 40
1.0
176
     1
 90
        0
176
     1
 62
    18
420
        0
176
     1
 90
       50
176
     1
 90
        3
176
     1
 62
     5
420
      255
176
     1
290
     0
176
     1
 90
       50
176
     1
 90
       50
176
     1
 90
       50
176
     1
290
     0
176
     1
 90
       50
176
     1
 62
   256
176
     0
 40
1.0
176
     0
 90
        2
176
     1
  1
strokes_ogs.tif
176
     1
290
     0
176
     1
 40
1.0
176
     1
 40
1.0
176
     1
  0
VISUALSTYLE
  5
32
102
{ACAD_REACTORS
330
2A
102
}
330
2A
100
AcDbVisualStyle
  2
Basic
 70
     7
177
     3
291
     1
 70
    58
 90
        1
176
     1
 90
        0
176
     1
 90
        1
176
     1
 90
        0
176
     1
 40
0.6
176
     1
 40
30.0
176
     1
 62
     7
420
 16777215
176
     1
 90
        0
176
     1
 90
        4
176
     1
 62
     7
176
     1
 62
   257
176
     1
 90
        1
176
     1
 90
        1
176
     1
 40
1.0
176
     1
 90
        8
176
     1
 62
     7
176
     1
 40
1.0
176
     1
 90
        1
176
     1
 90
        6
176
     1
 90
        2
176
     1
 62
     7
176
     1
 90
        5
176
     1
 90
        0
176
     1
 90
        0
176
     1
290
     0
176
     1
 90
        1
176
     1
 40
0.0
176
     1
 90
        0
176
     1
290
     0
176
     1
290
     1
176
     1
290
     1
176
     1
290
     0
176
     1
290
     0
176
     1
290
     0
176
     1
290
     0
176
     1
290
     0
176
     1
290
     0
176
     1
 90
       50
176
     1
 40
0.0
176
     1
 40
1.0
176
     1
 90
        0
176
     1
 62
    18
420
        0
176
     1
 90
       50
176
     1
 90
        3
176
     1
 62
     5
420
      255
176
     1
290
     0
176
     1
 90
       50
176
     1
 90
       50
176
     1
 90
       50
176
     1
290
     0
176
     1
 90
       50
176
     1
 62
   256
176
     0
 40
1.0
176
     0
 90
        2
176
     1
  1
strokes_ogs.tif
176
     1
290
     0
176
     1
 40
1.0
176
     1
 40
1.0
176
     1
  0
VISUALSTYLE
  5
36
102
{ACAD_REACTORS
330
2A
102
}
330
2A
100
AcDbVisualStyle
  2
Brighten
 70
    12
177
     3
291
     1
 70
    58
 90
        2
176
     1
 90
        2
176
     1
 90
        0
176
     1
 90
        0
176
     1
 40
0.6
176
     1
 40
30.0
176
     1
 62
     7
420
 16777215
176
     1
 90
        1
176
     1
 90
        4
176
     1
 62
     7
176
     1
 62
   257
176
     1
 90
        1
176
     1
 90
        1
176
     1
 40
1.0
176
     1
 90
        8
176
     1
 62
     7
176
     1
 40
1.0
176
     1
 90
        1
176
     1
 90
        6
176
     1
 90
        2
176
     1
 62
     7
176
     1
 90
        5
176
     1
 90
        0
176
     1
 90
        0
176
     1
290
     0
176
     1
 90
        1
176
     1
 40
50.0
176
     1
 90
        0
176
     1
290
     0
176
     1
290
     1
176
     1
290
     1
176
     1
290
     0
176
     1
290
     0
176
     1
290
     0
176
     1
290
     0
176
     1
290
     0
176
     1
290
     0
176
     1
 90
       50
176
     1
 40
0.0
176
     1
 40
1.0
176
     1
 90
        0
176
     1
 62
    18
420
        0
176
     1
 90
       50
176
     1
 90
        3
176
     1
 62
     5
420
      255
176
     1
290
     0
176
     1
 90
       50
176
     1
 90
       50
176
     1
 90
       50
176
     1
290
     0
176
     1
 90
       50
176
     1
 62
   256
176
     0
 40
1.0
176
     0
 90
        2
176
     1
  1
strokes_ogs.tif
176
     1
290
     0
176
     1
 40
1.0
176
     1
 40
1.0
176
     1
  0
VISUALSTYLE
  5
3A
102
{ACAD_REACTORS
330
2A
102
}
330
2A
100
AcDbVisualStyle
  2
ColorChange
 70
    16
177
     3
291
     1
 70
    58
 90
        2
176
     1
 90
        2
176
     1
 90
        3
176
     1
 90
        0
176
     1
 40
0.6
176
     1
 40
30.0
176
     1
 62
     8
420
  8421504
176
     1
 90
        1
176
     1
 90
        4
176
     1
 62
     7
176
     1
 62
   257
176
     1
 90
        1
176
     1
 90
        1
176
     1
 40
1.0
176
     1
 90
        8
176
     1
 62
     8
420
  8421504
176
     1
 40
1.0
176
     1
 90
        1
176
     1
 90
        6
176
     1
 90
        2
176
     1
 62
     7
176
     1
 90
        5
176
     1
 90
        0
176
     1
 90
        0
176
     1
290
     0
176
     1
 90
        1
176
     1
 40
0.0
176
     1
 90
        0
176
     1
290
     0
176
     1
290
     1
176
     1
290
     1
176
     1
290
     0
176
     1
290
     0
176
     1
290
     0
176
     1
290
     0
176
     1
290
     0
176
     1
290
     0
176
     1
 90
       50
176
     1
 40
0.0
176
     1
 40
1.0
176
     1
 90
        0
176
     1
 62
    18
420
        0
176
     1
 90
       50
176
     1
 90
        3
176
     1
 62
     5
420
      255
176
     1
290
     0
176
     1
 90
       50
176
     1
 90
       50
176
     1
 90
       50
176
     1
290
     0
176
     1
 90
       50
176
     1
 62
   256
176
     0
 40
1.0
176
     0
 90
        2
176
     1
  1
strokes_ogs.tif
176
     1
290
     0
176
     1
 40
1.0
176
     1
 40
1.0
176
     1
  0
VISUALSTYLE
  5
34
102
{ACAD_REACTORS
330
2A
102
}
330
2A
100
AcDbVisualStyle
  2
Conceptual
 70
     9
177
     3
291
     0
 70
    58
 90
        3
176
     1
 90
        2
176
     1
 90
        0
176
     1
 90
        0
176
     1
 40
0.6
176
     1
 40
30.0
176
     1
 62
     7
420
 16777215
176
     1
 90
        2
176
     1
 90
        2
176
     1
 62
     7
176
     1
 62
   257
176
     1
 90
        1
176
     1
 90
        1
176
     1
 40
179.0
176
     1
 90
        8
176
     1
 62
     7
176
     1
 40
1.0
176
     1
 90
        1
176
     1
 90
        6
176
     1
 90
        2
176
     1
 62
     7
176
     1
 90
        3
176
     1
 90
        0
176
     1
 90
        0
176
     1
290
     0
176
     1
 90
        1
176
     1
 40
0.0
176
     1
 90
        0
176
     1
290
     0
176
     1
290
     1
176
     1
290
     1
176
     1
290
     0
176
     1
290
     0
176
     1
290
     0
176
     1
290
     0
176
     1
290
     0
176
     1
290
     0
176
     1
 90
       50
176
     1
 40
0.0
176
     1
 40
1.0
176
     1
 90
        0
176
     1
 62
    18
420
        0
176
     1
 90
       50
176
     1
 90
        3
176
     1
 62
     5
420
      255
176
     1
290
     0
176
     1
 90
       50
176
     1
 90
       50
176
     1
 90
       50
176
     1
290
     0
176
     1
 90
       50
176
     1
 62
   256
176
     0
 40
1.0
176
     0
 90
        2
176
     1
  1
strokes_ogs.tif
176
     1
290
     0
176
     1
 40
1.0
176
     1
 40
1.0
176
     1
  0
VISUALSTYLE
  5
35
102
{ACAD_REACTORS
330
2A
102
}
330
2A
100
AcDbVisualStyle
  2
Dim
 70
    11
177
     3
291
     1
 70
    58
 90
        2
176
     1
 90
        2
176
     1
 90
        0
176
     1
 90
        0
176
     1
 40
0.6
176
     1
 40
30.0
176
     1
 62
     7
420
 16777215
176
     1
 90
        1
176
     1
 90
        4
176
     1
 62
     7
176
     1
 62
   257
176
     1
 90
        1
176
     1
 90
        1
176
     1
 40
1.0
176
     1
 90
        8
176
     1
 62
     7
176
     1
 40
1.0
176
     1
 90
        1
176
     1
 90
        6
176
     1
 90
        2
176
     1
 62
     7
176
     1
 90
        5
176
     1
 90
        0
176
     1
 90
        0
176
     1
290
     0
176
     1
 90
        1
176
     1
 40
-50.0
176
     1
 90
        0
176
     1
290
     0
176
     1
290
     1
176
     1
290
     1
176
     1
290
     0
176
     1
290
     0
176
     1
290
     0
176
     1
290
     0
176
     1
290
     0
176
     1
290
     0
176
     1
 90
       50
176
     1
 40
0.0
176
     1
 40
1.0
176
     1
 90
        0
176
     1
 62
    18
420
        0
176
     1
 90
       50
176
     1
 90
        3
176
     1
 62
     5
420
      255
176
     1
290
     0
176
     1
 90
       50
176
     1
 90
       50
176
     1
 90
       50
176
     1
290
     0
176
     1
 90
       50
176
     1
 62
   256
176
     0
 40
1.0
176
     0
 90
        2
176
     1
  1
strokes_ogs.tif
176
     1
290
     0
176
     1
 40
1.0
176
     1
 40
1.0
176
     1
  0
VISUALSTYLE
  5
3D
102
{ACAD_REACTORS
330
2A
102
}
330
2A
100
AcDbVisualStyle
  2
EdgeColorOff
 70
    22
177
     3
291
     1
 70
    58
 90
        2
176
     0
 90
        2
176
     0
 90
        0
176
     0
 90
        0
176
     0
 40
0.6
176
     0
 40
30.0
176
     0
 62
     7
420
 16777215
176
     0
 90
        1
176
     0
 90
        4
176
     0
 62
     7
176
     0
 62
   257
176
     0
 90
        1
176
     0
 90
        1
176
     0
 40
1.0
176
     0
 90
        8
176
     2
 62
     7
176
     0
 40
1.0
176
     0
 90
        1
176
     0
 90
        6
176
     0
 90
        2
176
     0
 62
     7
176
     0
 90
        5
176
     0
 90
        0
176
     0
 90
        0
176
     0
290
     0
176
     0
 90
        1
176
     0
 40
0.0
176
     0
 90
        0
176
     0
290
     0
176
     0
290
     1
176
     0
290
     1
176
     0
290
     0
176
     0
290
     0
176
     0
290
     0
176
     0
290
     0
176
     0
290
     0
176
     0
290
     0
176
     0
 90
       50
176
     0
 40
0.0
176
     0
 40
1.0
176
     0
 90
        0
176
     0
 62
    18
420
        0
176
     0
 90
       50
176
     0
 90
        3
176
     0
 62
     5
420
      255
176
     0
290
     0
176
     0
 90
       50
176
     0
 90
       50
176
     0
 90
       50
176
     0
290
     0
176
     0
 90
       50
176
     0
 62
   256
176
     0
 40
1.0
176
     0
 90
        2
176
     0
  1
strokes_ogs.tif
176
     0
290
     0
176
     0
 40
1.0
176
     0
 40
1.0
176
     0
  0
VISUALSTYLE
  5
39
102
{ACAD_REACTORS
330
2A
102
}
330
2A
100
AcDbVisualStyle
  2
Facepattern
 70
    15
177
     3
291
     1
 70
    58
 90
        2
176
     1
 90
        2
176
     1
 90
        0
176
     1
 90
        0
176
     1
 40
0.6
176
     1
 40
30.0
176
     1
 62
     7
420
 16777215
176
     1
 90
        1
176
     1
 90
        4
176
     1
 62
     7
176
     1
 62
   257
176
     1
 90
        1
176
     1
 90
        1
176
     1
 40
1.0
176
     1
 90
        8
176
     1
 62
     7
176
     1
 40
1.0
176
     1
 90
        1
176
     1
 90
        6
176
     1
 90
        2
176
     1
 62
     7
176
     1
 90
        5
176
     1
 90
        0
176
     1
 90
        0
176
     1
290
     0
176
     1
 90
        1
176
     1
 40
0.0
176
     1
 90
        0
176
     1
290
     0
176
     1
290
     1
176
     1
290
     1
176
     1
290
     0
176
     1
290
     0
176
     1
290
     0
176
     1
290
     0
176
     1
290
     0
176
     1
290
     0
176
     1
 90
       50
176
     1
 40
0.0
176
     1
 40
1.0
176
     1
 90
        0
176
     1
 62
    18
420
        0
176
     1
 90
       50
176
     1
 90
        3
176
     1
 62
     5
420
      255
176
     1
290
     0
176
     1
 90
       50
176
     1
 90
       50
176
     1
 90
       50
176
     1
290
     0
176
     1
 90
       50
176
     1
 62
   256
176
     0
 40
1.0
176
     0
 90
        2
176
     1
  1
strokes_ogs.tif
176
     1
290
     0
176
     1
 40
1.0
176
     1
 40
1.0
176
     1
  0
VISUALSTYLE
  5
2B
102
{ACAD_REACTORS
330
2A
102
}
330
2A
100
AcDbVisualStyle
  2
Flat
 70
     0
177
     3
291
     1
 70
    58
 90
        2
176
     1
 90
        1
176
     1
 90
        1
176
     1
 90
        2
176
     1
 40
0.6
176
     1
 40
30.0
176
     1
 62
     7
420
 16777215
176
     1
 90
        0
176
     1
 90
        0
176
     1
 62
     7
176
     1
 62
   257
176
     1
 90
        1
176
     1
 90
        1
176
     1
 40
1.0
176
     1
 90
        8
176
     1
 62
     7
176
     1
 40
1.0
176
     1
 90
        1
176
     1
 90
        6
176
     1
 90
        2
176
     1
 62
     7
176
     1
 90
        5
176
     1
 90
        0
176
     1
 90
        0
176
     1
290
     0
176
     1
 90
       13
176
     1
 40
0.0
176
     1
 90
        0
176
     1
290
     0
176
     1
290
     1
176
     1
290
     1
176
     1
290
     0
176
     1
290
     0
176
     1
290
     0
176
     1
290
     0
176
     1
290
     0
176
     1
290
     0
176
     1
 90
       50
176
     1
 40
0.0
176
     1
 40
1.0
176
     1
 90
        0
176
     1
 62
    18
420
        0
176
     1
 90
       50
176
     1
 90
        3
176
     1
 62
     5
420
      255
176
     1
290
     0
176
     1
 90
       50
176
     1
 90
       50
176
     1
 90
       50
176
     1
290
     0
176
     1
 90
       50
176
     1
 62
   256
176
     0
 40
1.0
176
     0
 90
        2
176
     1
  1
strokes_ogs.tif
176
     1
290
     0
176
     1
 40
1.0
176
     1
 40
1.0
176
     1
  0
VISUALSTYLE
  5
2C
102
{ACAD_REACTORS
330
2A
102
}
330
2A
100
AcDbVisualStyle
  2
FlatWithEdges
 70
     1
177
     3
291
     1
 70
    58
 90
        2
176
     1
 90
        1
176
     1
 90
        1
176
     1
 90
        2
176
     1
 40
0.6
176
     1
 40
30.0
176
     1
 62
     7
420
 16777215
176
     1
 90
        1
176
     1
 90
        0
176
     1
 62
     7
176
     1
 62
   257
176
     1
 90
        1
176
     1
 90
        1
176
     1
 40
1.0
176
     1
 90
        0
176
     1
 62
   257
176
     1
 40
1.0
176
     1
 90
        1
176
     1
 90
        6
176
     1
 90
        2
176
     1
 62
     7
176
     1
 90
        5
176
     1
 90
        0
176
     1
 90
        0
176
     1
290
     0
176
     1
 90
       13
176
     1
 40
0.0
176
     1
 90
        0
176
     1
290
     0
176
     1
290
     1
176
     1
290
     1
176
     1
290
     0
176
     1
290
     0
176
     1
290
     0
176
     1
290
     0
176
     1
290
     0
176
     1
290
     0
176
     1
 90
       50
176
     1
 40
0.0
176
     1
 40
1.0
176
     1
 90
        0
176
     1
 62
    18
420
        0
176
     1
 90
       50
176
     1
 90
        3
176
     1
 62
     5
420
      255
176
     1
290
     0
176
     1
 90
       50
176
     1
 90
       50
176
     1
 90
       50
176
     1
290
     0
176
     1
 90
       50
176
     1
 62
   256
176
     0
 40
1.0
176
     0
 90
        2
176
     1
  1
strokes_ogs.tif
176
     1
290
     0
176
     1
 40
1.0
176
     1
 40
1.0
176
     1
  0
VISUALSTYLE
  5
2D
102
{ACAD_REACTORS
330
2A
102
}
330
2A
100
AcDbVisualStyle
  2
Gouraud
 70
     2
177
     3
291
     1
 70
    58
 90
        2
176
     1
 90
        2
176
     1
 90
        1
176
     1
 90
        2
176
     1
 40
0.6
176
     1
 40
30.0
176
     1
 62
     7
420
 16777215
176
     1
 90
        0
176
     1
 90
        0
176
     1
 62
     7
176
     1
 62
   257
176
     1
 90
        1
176
     1
 90
        1
176
     1
 40
1.0
176
     1
 90
        0
176
     1
 62
     7
176
     1
 40
1.0
176
     1
 90
        1
176
     1
 90
        6
176
     1
 90
        2
176
     1
 62
     7
176
     1
 90
        5
176
     1
 90
        0
176
     1
 90
        0
176
     1
290
     0
176
     1
 90
       13
176
     1
 40
0.0
176
     1
 90
        0
176
     1
290
     0
176
     1
290
     1
176
     1
290
     1
176
     1
290
     0
176
     1
290
     0
176
     1
290
     0
176
     1
290
     0
176
     1
290
     0
176
     1
290
     0
176
     1
 90
       50
176
     1
 40
0.0
176
     1
 40
1.0
176
     1
 90
        0
176
     1
 62
    18
420
        0
176
     1
 90
       50
176
     1
 90
        3
176
     1
 62
     5
420
      255
176
     1
290
     0
176
     1
 90
       50
176
     1
 90
       50
176
     1
 90
       50
176
     1
290
     0
176
     1
 90
       50
176
     1
 62
   256
176
     0
 40
1.0
176
     0
 90
        2
176
     1
  1
strokes_ogs.tif
176
     1
290
     0
176
     1
 40
1.0
176
     1
 40
1.0
176
     1
  0
VISUALSTYLE
  5
2E
102
{ACAD_REACTORS
330
2A
102
}
330
2A
100
AcDbVisualStyle
  2
GouraudWithEdges
 70
     3
177
     3
291
     1
 70
    58
 90
        2
176
     1
 90
        2
176
     1
 90
        1
176
     1
 90
        2
176
     1
 40
0.6
176
     1
 40
30.0
176
     1
 62
     7
420
 16777215
176
     1
 90
        1
176
     1
 90
        0
176
     1
 62
     7
176
     1
 62
   257
176
     1
 90
        1
176
     1
 90
        1
176
     1
 40
1.0
176
     1
 90
        0
176
     1
 62
   257
176
     1
 40
1.0
176
     1
 90
        1
176
     1
 90
        6
176
     1
 90
        2
176
     1
 62
     7
176
     1
 90
        5
176
     1
 90
        0
176
     1
 90
        0
176
     1
290
     0
176
     1
 90
       13
176
     1
 40
0.0
176
     1
 90
        0
176
     1
290
     0
176
     1
290
     1
176
     1
290
     1
176
     1
290
     0
176
     1
290
     0
176
     1
290
     0
176
     1
290
     0
176
     1
290
     0
176
     1
290
     0
176
     1
 90
       50
176
     1
 40
0.0
176
     1
 40
1.0
176
     1
 90
        0
176
     1
 62
    18
420
        0
176
     1
 90
       50
176
     1
 90
        3
176
     1
 62
     5
420
      255
176
     1
290
     0
176
     1
 90
       50
176
     1
 90
       50
176
     1
 90
       50
176
     1
290
     0
176
     1
 90
       50
176
     1
 62
   256
176
     0
 40
1.0
176
     0
 90
        2
176
     1
  1
strokes_ogs.tif
176
     1
290
     0
176
     1
 40
1.0
176
     1
 40
1.0
176
     1
  0
VISUALSTYLE
  5
31
102
{ACAD_REACTORS
330
2A
102
}
330
2A
100
AcDbVisualStyle
  2
Hidden
 70
     6
177
     3
291
     0
 70
    58
 90
        1
176
     1
 90
        2
176
     1
 90
        2
176
     1
 90
        0
176
     1
 40
0.6
176
     1
 40
30.0
176
     1
 62
     7
420
 16777215
176
     1
 90
        2
176
     1
 90
        2
176
     1
 62
     7
176
     1
 62
   257
176
     1
 90
        2
176
     1
 90
        1
176
     1
 40
40.0
176
     1
 90
        0
176
     1
 62
   257
176
     1
 40
1.0
176
     1
 90
        1
176
     1
 90
        6
176
     1
 90
        2
176
     1
 62
     7
176
     1
 90
        3
176
     1
 90
        0
176
     1
 90
        0
176
     1
290
     0
176
     1
 90
        1
176
     1
 40
0.0
176
     1
 90
        0
176
     1
290
     0
176
     1
290
     1
176
     1
290
     1
176
     1
290
     0
176
     1
290
     0
176
     1
290
     0
176
     1
290
     0
176
     1
290
     0
176
     1
290
     0
176
     1
 90
       50
176
     1
 40
0.0
176
     1
 40
1.0
176
     1
 90
        0
176
     1
 62
    18
420
        0
176
     1
 90
       50
176
     1
 90
        3
176
     1
 62
     5
420
      255
176
     1
290
     0
176
     1
 90
       50
176
     1
 90
       50
176
     1
 90
       50
176
     1
290
     0
176
     1
 90
       50
176
     1
 62
   256
176
     0
 40
1.0
176
     0
 90
        2
176
     1
  1
strokes_ogs.tif
176
     1
290
     0
176
     1
 40
1.0
176
     1
 40
1.0
176
     1
  0
VISUALSTYLE
  5
3B
102
{ACAD_REACTORS
330
2A
102
}
330
2A
100
AcDbVisualStyle
  2
JitterOff
 70
    20
177
     3
291
     1
 70
    58
 90
        2
176
     0
 90
        2
176
     0
 90
        0
176
     0
 90
        0
176
     0
 40
0.6
176
     0
 40
30.0
176
     0
 62
     7
420
 16777215
176
     0
 90
        1
176
     0
 90
        4
176
     0
 62
     7
176
     0
 62
   257
176
     0
 90
        1
176
     0
 90
        1
176
     0
 40
1.0
176
     0
 90
       10
176
     2
 62
     7
176
     0
 40
1.0
176
     0
 90
        1
176
     0
 90
        6
176
     0
 90
        2
176
     0
 62
     7
176
     0
 90
        5
176
     0
 90
        0
176
     0
 90
        0
176
     0
290
     0
176
     0
 90
        1
176
     0
 40
0.0
176
     0
 90
        0
176
     0
290
     0
176
     0
290
     1
176
     0
290
     1
176
     0
290
     0
176
     0
290
     0
176
     0
290
     0
176
     0
290
     0
176
     0
290
     0
176
     0
290
     0
176
     0
 90
       50
176
     0
 40
0.0
176
     0
 40
1.0
176
     0
 90
        0
176
     0
 62
    18
420
        0
176
     0
 90
       50
176
     0
 90
        3
176
     0
 62
     5
420
      255
176
     0
290
     0
176
     0
 90
       50
176
     0
 90
       50
176
     0
 90
       50
176
     0
290
     0
176
     0
 90
       50
176
     0
 62
   256
176
     0
 40
1.0
176
     0
 90
        2
176
     0
  1
strokes_ogs.tif
176
     0
290
     0
176
     0
 40
1.0
176
     0
 40
1.0
176
     0
  0
VISUALSTYLE
  5
38
102
{ACAD_REACTORS
330
2A
102
}
330
2A
100
AcDbVisualStyle
  2
Linepattern
 70
    14
177
     3
291
     1
 70
    58
 90
        2
176
     1
 90
        2
176
     1
 90
        0
176
     1
 90
        0
176
     1
 40
0.6
176
     1
 40
30.0
176
     1
 62
     7
420
 16777215
176
     1
 90
        1
176
     1
 90
        4
176
     1
 62
     7
176
     1
 62
   257
176
     1
 90
        7
176
     1
 90
        7
176
     1
 40
1.0
176
     1
 90
        8
176
     1
 62
     7
176
     1
 40
1.0
176
     1
 90
        1
176
     1
 90
        6
176
     1
 90
        2
176
     1
 62
     7
176
     1
 90
        5
176
     1
 90
        0
176
     1
 90
        0
176
     1
290
     0
176
     1
 90
        1
176
     1
 40
0.0
176
     1
 90
        0
176
     1
290
     0
176
     1
290
     1
176
     1
290
     1
176
     1
290
     0
176
     1
290
     0
176
     1
290
     0
176
     1
290
     0
176
     1
290
     0
176
     1
290
     0
176
     1
 90
       50
176
     1
 40
0.0
176
     1
 40
1.0
176
     1
 90
        0
176
     1
 62
    18
420
        0
176
     1
 90
       50
176
     1
 90
        3
176
     1
 62
     5
420
      255
176
     1
290
     0
176
     1
 90
       50
176
     1
 90
       50
176
     1
 90
       50
176
     1
290
     0
176
     1
 90
       50
176
     1
 62
   256
176
     0
 40
1.0
176
     0
 90
        2
176
     1
  1
strokes_ogs.tif
176
     1
290
     0
176
     1
 40
1.0
176
     1
 40
1.0
176
     1
  0
VISUALSTYLE
  5
3C
102
{ACAD_REACTORS
330
2A
102
}
330
2A
100
AcDbVisualStyle
  2
OverhangOff
 70
    21
177
     3
291
     1
 70
    58
 90
        2
176
     0
 90
        2
176
     0
 90
        0
176
     0
 90
        0
176
     0
 40
0.6
176
     0
 40
30.0
176
     0
 62
     7
420
 16777215
176
     0
 90
        1
176
     0
 90
        4
176
     0
 62
     7
176
     0
 62
   257
176
     0
 90
        1
176
     0
 90
        1
176
     0
 40
1.0
176
     0
 90
        9
176
     2
 62
     7
176
     0
 40
1.0
176
     0
 90
        1
176
     0
 90
        6
176
     0
 90
        2
176
     0
 62
     7
176
     0
 90
        5
176
     0
 90
        0
176
     0
 90
        0
176
     0
290
     0
176
     0
 90
        1
176
     0
 40
0.0
176
     0
 90
        0
176
     0
290
     0
176
     0
290
     1
176
     0
290
     1
176
     0
290
     0
176
     0
290
     0
176
     0
290
     0
176
     0
290
     0
176
     0
290
     0
176
     0
290
     0
176
     0
 90
       50
176
     0
 40
0.0
176
     0
 40
1.0
176
     0
 90
        0
176
     0
 62
    18
420
        0
176
     0
 90
       50
176
     0
 90
        3
176
     0
 62
     5
420
      255
176
     0
290
     0
176
     0
 90
       50
176
     0
 90
       50
176
     0
 90
       50
176
     0
290
     0
176
     0
 90
       50
176
     0
 62
   256
176
     0
 40
1.0
176
     0
 90
        2
176
     0
  1
strokes_ogs.tif
176
     0
290
     0
176
     0
 40
1.0
176
     0
 40
1.0
176
     0
  0
VISUALSTYLE
  5
33
102
{ACAD_REACTORS
330
2A
102
}
330
2A
100
AcDbVisualStyle
  2
Realistic
 70
     8
177
     3
291
     0
 70
    58
 90
        2
176
     1
 90
        3
176
     1
 90
        0
176
     1
 90
        2
176
     1
 40
0.6
176
     1
 40
30.0
176
     1
 62
     7
420
 16777215
176
     1
 90
        0
176
     1
 90
        0
176
     1
 62
     7
176
     1
 62
   257
176
     1
 90
        1
176
     1
 90
        1
176
     1
 40
1.0
176
     1
 90
        8
176
     1
 62
   257
176
     1
 40
1.0
176
     1
 90
        1
176
     1
 90
        6
176
     1
 90
        2
176
     1
 62
     7
176
     1
 90
        3
176
     1
 90
        0
176
     1
 90
        0
176
     1
290
     0
176
     1
 90
       13
176
     1
 40
0.0
176
     1
 90
        0
176
     1
290
     0
176
     1
290
     1
176
     1
290
     1
176
     1
290
     0
176
     1
290
     0
176
     1
290
     0
176
     1
290
     0
176
     1
290
     0
176
     1
290
     0
176
     1
 90
       50
176
     1
 40
0.0
176
     1
 40
1.0
176
     1
 90
        0
176
     1
 62
    18
420
        0
176
     1
 90
       50
176
     1
 90
        3
176
     1
 62
     5
420
      255
176
     1
290
     0
176
     1
 90
       50
176
     1
 90
       50
176
     1
 90
       50
176
     1
290
     0
176
     1
 90
       50
176
     1
 62
   256
176
     0
 40
1.0
176
     0
 90
        2
176
     1
  1
strokes_ogs.tif
176
     1
290
     0
176
     1
 40
1.0
176
     1
 40
1.0
176
     1
  0
VISUALSTYLE
  5
42
102
{ACAD_REACTORS
330
2A
102
}
330
2A
100
AcDbVisualStyle
  2
Shaded
 70
    27
177
     3
291
     0
 70
    58
 90
        2
176
     1
 90
        2
176
     1
 90
        1
176
     1
 90
        2
176
     1
 40
0.6
176
     1
 40
30.0
176
     1
 62
     7
420
 16777215
176
     1
 90
        0
176
     1
 90
        4
176
     1
 62
     7
176
     1
 62
   257
176
     1
 90
        1
176
     1
 90
        1
176
     1
 40
1.0
176
     1
 90
        8
176
     1
 62
   257
176
     1
 40
1.0
176
     1
 90
        1
176
     1
 90
        6
176
     1
 90
        2
176
     1
 62
     8
420
  7895160
176
     1
 90
        3
176
     1
 90
        0
176
     1
 90
        0
176
     1
290
     0
176
     1
 90
        5
176
     1
 40
0.0
176
     1
 90
        0
176
     1
290
     0
176
     1
290
     1
176
     1
290
     1
176
     1
290
     0
176
     1
290
     0
176
     1
290
     0
176
     1
290
     0
176
     1
290
     0
176
     1
290
     0
176
     1
 90
       50
176
     1
 40
0.0
176
     1
 40
1.0
176
     1
 90
        0
176
     1
 62
    18
420
        0
176
     1
 90
       50
176
     1
 90
        3
176
     1
 62
     5
420
      255
176
     1
290
     0
176
     1
 90
       50
176
     1
 90
       50
176
     1
 90
       50
176
     1
290
     0
176
     1
 90
       50
176
     1
 62
   256
176
     0
 40
1.0
176
     0
 90
        2
176
     1
  1
strokes_ogs.tif
176
     1
290
     0
176
     1
 40
1.0
176
     1
 40
1.0
176
     1
  0
VISUALSTYLE
  5
41
102
{ACAD_REACTORS
330
2A
102
}
330
2A
100
AcDbVisualStyle
  2
Shaded with edges
 70
    26
177
     3
291
     0
 70
    58
 90
        2
176
     1
 90
        2
176
     1
 90
        1
176
     1
 90
        2
176
     1
 40
0.6
176
     1
 40
30.0
176
     1
 62
     7
420
 16777215
176
     1
 90
        1
176
     1
 90
       10
176
     1
 62
     7
176
     1
 62
   257
176
     1
 90
        2
176
     1
 90
        1
176
     1
 40
1.0
176
     1
 90
        8
176
     1
 62
   257
176
     1
 40
1.0
176
     1
 90
        1
176
     1
 90
        6
176
     1
 90
        2
176
     1
 62
     7
176
     1
 90
        3
176
     1
 90
        0
176
     1
 90
        0
176
     1
290
     0
176
     1
 90
        5
176
     1
 40
0.0
176
     1
 90
        0
176
     1
290
     0
176
     1
290
     1
176
     1
290
     1
176
     1
290
     0
176
     1
290
     0
176
     1
290
     0
176
     1
290
     0
176
     1
290
     0
176
     1
290
     0
176
     1
 90
       50
176
     1
 40
0.0
176
     1
 40
1.0
176
     1
 90
        0
176
     1
 62
    18
420
        0
176
     1
 90
       50
176
     1
 90
        3
176
     1
 62
     5
420
      255
176
     1
290
     0
176
     1
 90
       50
176
     1
 90
       50
176
     1
 90
       50
176
     1
290
     0
176
     1
 90
       50
176
     1
 62
   256
176
     0
 40
1.0
176
     0
 90
        2
176
     1
  1
strokes_ogs.tif
176
     1
290
     0
176
     1
 40
1.0
176
     1
 40
1.0
176
     1
  0
VISUALSTYLE
  5
3E
102
{ACAD_REACTORS
330
2A
102
}
330
2A
100
AcDbVisualStyle
  2
Shades of Gray
 70
    23
177
     3
291
     0
 70
    58
 90
        2
176
     1
 90
        2
176
     1
 90
        3
176
     1
 90
        0
176
     1
 40
0.6
176
     1
 40
30.0
176
     1
 62
     7
420
 16777215
176
     1
 90
        2
176
     1
 90
        2
176
     1
 62
     7
176
     1
 62
     7
176
     1
 90
        1
176
     1
 90
        1
176
     1
 40
40.0
176
     1
 90
        8
176
     1
 62
     7
176
     1
 40
1.0
176
     1
 90
        1
176
     1
 90
        6
176
     1
 90
        2
176
     1
 62
     7
176
     1
 90
        3
176
     1
 90
        0
176
     1
 90
        0
176
     1
290
     0
176
     1
 90
        1
176
     1
 40
0.0
176
     1
 90
        0
176
     1
290
     0
176
     1
290
     1
176
     1
290
     1
176
     1
290
     0
176
     1
290
     0
176
     1
290
     0
176
     1
290
     0
176
     1
290
     0
176
     1
290
     0
176
     1
 90
       50
176
     1
 40
0.0
176
     1
 40
1.0
176
     1
 90
        0
176
     1
 62
    18
420
        0
176
     1
 90
       50
176
     1
 90
        3
176
     1
 62
     5
420
      255
176
     1
290
     0
176
     1
 90
       50
176
     1
 90
       50
176
     1
 90
       50
176
     1
290
     0
176
     1
 90
       50
176
     1
 62
   256
176
     0
 40
1.0
176
     0
 90
        2
176
     1
  1
strokes_ogs.tif
176
     1
290
     0
176
     1
 40
1.0
176
     1
 40
1.0
176
     1
  0
VISUALSTYLE
  5
3F
102
{ACAD_REACTORS
330
2A
102
}
330
2A
100
AcDbVisualStyle
  2
Sketchy
 70
    24
177
     3
291
     0
 70
    58
 90
        1
176
     1
 90
        2
176
     1
 90
        2
176
     1
 90
        0
176
     1
 40
0.6
176
     1
 40
30.0
176
     1
 62
     7
420
 16777215
176
     1
 90
        2
176
     1
 90
        2
176
     1
 62
     7
176
     1
 62
     7
176
     1
 90
        1
176
     1
 90
        1
176
     1
 40
40.0
176
     1
 90
       11
176
     1
 62
     7
176
     1
 40
1.0
176
     1
 90
        1
176
     1
 90
        6
176
     1
 90
        2
176
     1
 62
     7
176
     1
 90
        6
176
     1
 90
        0
176
     1
 90
        0
176
     1
290
     0
176
     1
 90
        1
176
     1
 40
0.0
176
     1
 90
        0
176
     1
290
     0
176
     1
290
     1
176
     1
290
     1
176
     1
290
     0
176
     1
290
     0
176
     1
290
     0
176
     1
290
     0
176
     1
290
     0
176
     1
290
     0
176
     1
 90
       50
176
     1
 40
0.0
176
     1
 40
1.0
176
     1
 90
        0
176
     1
 62
    18
420
        0
176
     1
 90
       50
176
     1
 90
        3
176
     1
 62
     5
420
      255
176
     1
290
     0
176
     1
 90
       50
176
     1
 90
       50
176
     1
 90
       50
176
     1
290
     0
176
     1
 90
       50
176
     1
 62
   256
176
     0
 40
1.0
176
     0
 90
        2
176
     1
  1
strokes_ogs.tif
176
     1
290
     0
176
     1
 40
1.0
176
     1
 40
1.0
176
     1
  0
VISUALSTYLE
  5
37
102
{ACAD_REACTORS
330
2A
102
}
330
2A
100
AcDbVisualStyle
  2
Thicken
 70
    13
177
     3
291
     1
 70
    58
 90
        2
176
     1
 90
        2
176
     1
 90
        0
176
     1
 90
        0
176
     1
 40
0.6
176
     1
 40
30.0
176
     1
 62
     7
420
 16777215
176
     1
 90
        1
176
     1
 90
        4
176
     1
 62
     7
176
     1
 62
   257
176
     1
 90
        1
176
     1
 90
        1
176
     1
 40
1.0
176
     1
 90
       12
176
     1
 62
     7
176
     1
 40
1.0
176
     1
 90
        1
176
     1
 90
        6
176
     1
 90
        2
176
     1
 62
     7
176
     1
 90
        5
176
     1
 90
        0
176
     1
 90
        0
176
     1
290
     0
176
     1
 90
        1
176
     1
 40
0.0
176
     1
 90
        0
176
     1
290
     0
176
     1
290
     1
176
     1
290
     1
176
     1
290
     0
176
     1
290
     0
176
     1
290
     0
176
     1
290
     0
176
     1
290
     0
176
     1
290
     0
176
     1
 90
       50
176
     1
 40
0.0
176
     1
 40
1.0
176
     1
 90
        0
176
     1
 62
    18
420
        0
176
     1
 90
       50
176
     1
 90
        3
176
     1
 62
     5
420
      255
176
     1
290
     0
176
     1
 90
       50
176
     1
 90
       50
176
     1
 90
       50
176
     1
290
     0
176
     1
 90
       50
176
     1
 62
   256
176
     0
 40
1.0
176
     0
 90
        2
176
     1
  1
strokes_ogs.tif
176
     1
290
     0
176
     1
 40
1.0
176
     1
 40
1.0
176
     1
  0
VISUALSTYLE
  5
30
102
{ACAD_REACTORS
330
2A
102
}
330
2A
100
AcDbVisualStyle
  2
Wireframe
 70
     5
177
     3
291
     0
 70
    58
 90
        0
176
     1
 90
        2
176
     1
 90
        0
176
     1
 90
        0
176
     1
 40
0.6
176
     1
 40
30.0
176
     1
 62
     7
420
 16777215
176
     1
 90
        1
176
     1
 90
        4
176
     1
 62
     7
176
     1
 62
   257
176
     1
 90
        1
176
     1
 90
        1
176
     1
 40
1.0
176
     1
 90
        0
176
     1
 62
   257
176
     1
 40
1.0
176
     1
 90
        1
176
     1
 90
        6
176
     1
 90
        2
176
     1
 62
     7
176
     1
 90
        3
176
     1
 90
        0
176
     1
 90
        0
176
     1
290
     0
176
     1
 90
        1
176
     1
 40
0.0
176
     1
 90
        0
176
     1
290
     0
176
     1
290
     1
176
     1
290
     1
176
     1
290
     0
176
     1
290
     0
176
     1
290
     0
176
     1
290
     0
176
     1
290
     0
176
     1
290
     0
176
     1
 90
       50
176
     1
 40
0.0
176
     1
 40
1.0
176
     1
 90
        0
176
     1
 62
    18
420
        0
176
     1
 90
       50
176
     1
 90
        3
176
     1
 62
     5
420
      255
176
     1
290
     0
176
     1
 90
       50
176
     1
 90
       50
176
     1
 90
       50
176
     1
290
     0
176
     1
 90
       50
176
     1
 62
   256
176
     0
 40
1.0
176
     0
 90
        2
176
     1
  1
strokes_ogs.tif
176
     1
290
     0
176
     1
 40
1.0
176
     1
 40
1.0
176
     1
  0
VISUALSTYLE
  5
40
102
{ACAD_REACTORS
330
2A
102
}
330
2A
100
AcDbVisualStyle
  2
X-Ray
 70
    25
177
     3
291
     0
 70
    58
 90
        2
176
     1
 90
        2
176
     1
 90
        1
176
     1
 90
        1
176
     1
 40
0.5
176
     1
 40
30.0
176
     1
 62
     7
420
 16777215
176
     1
 90
        1
176
     1
 90
        0
176
     1
 62
     7
176
     1
 62
   257
176
     1
 90
        1
176
     1
 90
        1
176
     1
 40
1.0
176
     1
 90
        8
176
     1
 62
     7
176
     1
 40
1.0
176
     1
 90
        1
176
     1
 90
        6
176
     1
 90
        2
176
     1
 62
     7
176
     1
 90
        3
176
     1
 90
        0
176
     1
 90
        0
176
     1
290
     0
176
     1
 90
       13
176
     1
 40
0.0
176
     1
 90
        0
176
     1
290
     0
176
     1
290
     1
176
     1
290
     1
176
     1
290
     0
176
     1
290
     0
176
     1
290
     0
176
     1
290
     0
176
     1
290
     0
176
     1
290
     0
176
     1
 90
       50
176
     1
 40
0.0
176
     1
 40
1.0
176
     1
 90
        0
176
     1
 62
    18
420
        0
176
     1
 90
       50
176
     1
 90
        3
176
     1
 62
     5
420
      255
176
     1
290
     0
176
     1
 90
       50
176
     1
 90
       50
176
     1
 90
       50
176
     1
290
     0
176
     1
 90
       50
176
     1
 62
   256
176
     0
 40
1.0
176
     0
 90
        2
176
     1
  1
strokes_ogs.tif
176
     1
290
     0
176
     1
 40
1.0
176
     1
 40
1.0
176
     1
  0
DICTIONARYVAR
  5
1F7
102
{ACAD_REACTORS
330
1F6
102
}
330
1F6
100
DictionaryVariables
280
     0
  1
1:1
  0
DICTIONARYVAR
  5
1FC
102
{ACAD_REACTORS
330
1F6
102
}
330
1F6
100
DictionaryVariables
280
     0
  1
Standard
  0
DICTIONARYVAR
  5
1FB
102
{ACAD_REACTORS
330
1F6
102
}
330
1F6
100
DictionaryVariables
280
     0
  1
Standard
  0
DICTIONARY
  5
1F8
330
6A
100
AcDbDictionary
280
     1
281
     1
  3
ACAD_ROUNDTRIP_2008_TABLESTYLE_CELLSTYLEMAP
360
1F9
  0
CELLSTYLEMAP
  5
1F9
102
{ACAD_REACTORS
330
1F8
102
}
330
1F8
100
AcDbCellStyleMap
 90
        3
300
CELLSTYLE
  1
TABLEFORMAT_BEGIN
 90
        5
170
     1
 91
        0
 92
    32768
 62
   257
 93
        1
300
CONTENTFORMAT
  1
CONTENTFORMAT_BEGIN
 90
        0
 91
        0
 92
        4
 93
        0
300

 40
0.0
140
1.0
 94
        5
 62
     0
340
11
144
0.25
309
CONTENTFORMAT_END
171
     1
301
MARGIN
  1
CELLMARGIN_BEGIN
 40
0.06
 40
0.06
 40
0.06
 40
0.06
 40
0.06
 40
0.06
309
CELLMARGIN_END
 94
        6
 95
        1
302
GRIDFORMAT
  1
GRIDFORMAT_BEGIN
 90
        0
 91
        1
 62
     0
 92
       -2
340
14
 93
        0
 40
0.045
309
GRIDFORMAT_END
 95
        2
302
GRIDFORMAT
  1
GRIDFORMAT_BEGIN
 90
        0
 91
        1
 62
     0
 92
       -2
340
14
 93
        0
 40
0.045
309
GRIDFORMAT_END
 95
        4
302
GRIDFORMAT
  1
GRIDFORMAT_BEGIN
 90
        0
 91
        1
 62
     0
 92
       -2
340
14
 93
        0
 40
0.045
309
GRIDFORMAT_END
 95
        8
302
GRIDFORMAT
  1
GRIDFORMAT_BEGIN
 90
        0
 91
        1
 62
     0
 92
       -2
340
14
 93
        0
 40
0.045
309
GRIDFORMAT_END
 95
       16
302
GRIDFORMAT
  1
GRIDFORMAT_BEGIN
 90
        0
 91
        1
 62
     0
 92
       -2
340
14
 93
        0
 40
0.045
309
GRIDFORMAT_END
 95
       32
302
GRIDFORMAT
  1
GRIDFORMAT_BEGIN
 90
        0
 91
        1
 62
     0
 92
       -2
340
14
 93
        0
 40
0.045
309
GRIDFORMAT_END
309
TABLEFORMAT_END
  1
CELLSTYLE_BEGIN
 90
        1
 91
        1
300
_TITLE
309
CELLSTYLE_END
300
CELLSTYLE
  1
TABLEFORMAT_BEGIN
 90
        5
170
     1
 91
        0
 92
        0
 62
   257
 93
        1
300
CONTENTFORMAT
  1
CONTENTFORMAT_BEGIN
 90
        0
 91
        0
 92
        4
 93
        0
300

 40
0.0
140
1.0
 94
        5
 62
     0
340
11
144
0.18
309
CONTENTFORMAT_END
171
     1
301
MARGIN
  1
CELLMARGIN_BEGIN
 40
0.06
 40
0.06
 40
0.06
 40
0.06
 40
0.06
 40
0.06
309
CELLMARGIN_END
 94
        6
 95
        1
302
GRIDFORMAT
  1
GRIDFORMAT_BEGIN
 90
        0
 91
        1
 62
     0
 92
       -2
340
14
 93
        0
 40
0.045
309
GRIDFORMAT_END
 95
        2
302
GRIDFORMAT
  1
GRIDFORMAT_BEGIN
 90
        0
 91
        1
 62
     0
 92
       -2
340
14
 93
        0
 40
0.045
309
GRIDFORMAT_END
 95
        4
302
GRIDFORMAT
  1
GRIDFORMAT_BEGIN
 90
        0
 91
        1
 62
     0
 92
       -2
340
14
 93
        0
 40
0.045
309
GRIDFORMAT_END
 95
        8
302
GRIDFORMAT
  1
GRIDFORMAT_BEGIN
 90
        0
 91
        1
 62
     0
 92
       -2
340
14
 93
        0
 40
0.045
309
GRIDFORMAT_END
 95
       16
302
GRIDFORMAT
  1
GRIDFORMAT_BEGIN
 90
        0
 91
        1
 62
     0
 92
       -2
340
14
 93
        0
 40
0.045
309
GRIDFORMAT_END
 95
       32
302
GRIDFORMAT
  1
GRIDFORMAT_BEGIN
 90
        0
 91
        1
 62
     0
 92
       -2
340
14
 93
        0
 40
0.045
309
GRIDFORMAT_END
309
TABLEFORMAT_END
  1
CELLSTYLE_BEGIN
 90
        2
 91
        1
300
_HEADER
309
CELLSTYLE_END
300
CELLSTYLE
  1
TABLEFORMAT_BEGIN
 90
        5
170
     1
 91
        0
 92
        0
 62
   257
 93
        1
300
CONTENTFORMAT
  1
CONTENTFORMAT_BEGIN
 90
        0
 91
        0
 92
        4
 93
        0
300

 40
0.0
140
1.0
 94
        2
 62
     0
340
11
144
0.18
309
CONTENTFORMAT_END
171
     1
301
MARGIN
  1
CELLMARGIN_BEGIN
 40
0.06
 40
0.06
 40
0.06
 40
0.06
 40
0.06
 40
0.06
309
CELLMARGIN_END
 94
        6
 95
        1
302
GRIDFORMAT
  1
GRIDFORMAT_BEGIN
 90
        0
 91
        1
 62
     0
 92
       -2
340
14
 93
        0
 40
0.045
309
GRIDFORMAT_END
 95
        2
302
GRIDFORMAT
  1
GRIDFORMAT_BEGIN
 90
        0
 91
        1
 62
     0
 92
       -2
340
14
 93
        0
 40
0.045
309
GRIDFORMAT_END
 95
        4
302
GRIDFORMAT
  1
GRIDFORMAT_BEGIN
 90
        0
 91
        1
 62
     0
 92
       -2
340
14
 93
        0
 40
0.045
309
GRIDFORMAT_END
 95
        8
302
GRIDFORMAT
  1
GRIDFORMAT_BEGIN
 90
        0
 91
        1
 62
     0
 92
       -2
340
14
 93
        0
 40
0.045
309
GRIDFORMAT_END
 95
       16
302
GRIDFORMAT
  1
GRIDFORMAT_BEGIN
 90
        0
 91
        1
 62
     0
 92
       -2
340
14
 93
        0
 40
0.045
309
GRIDFORMAT_END
 95
       32
302
GRIDFORMAT
  1
GRIDFORMAT_BEGIN
 90
        0
 91
        1
 62
     0
 92
       -2
340
14
 93
        0
 40
0.045
309
GRIDFORMAT_END
309
TABLEFORMAT_END
  1
CELLSTYLE_BEGIN
 90
        3
 91
        2
300
_DATA
309
CELLSTYLE_END
  0
ENDSEC
  0
EOF