0
SECTION
  2
HEADER
  9
$ACADVER
  1
AC1027
  9
$ACADMAINTVER
 70
     8
  9
$DWGCODEPAGE
  3
ANSI_1252
  9
$REQUIREDVERSIONS
160
                 0
  9
$COMMENTS
  1
File was created by Cadenas
  9
$CUSTOMPROPERTYTAG
  1
NN
  9
$CUSTOMPROPERTY
  1
Special Duty Pillow Block - Inch 4-Bolt Base Gray Iron Non-Expansion
  9
$CUSTOMPROPERTYTAG
  1
NT
  9
$CUSTOMPROPERTY
  1
Special Duty
  9
$CUSTOMPROPERTYTAG
  1
NB
  9
$CUSTOMPROPERTY
  1
066238
  9
$CUSTOMPROPERTYTAG
  1
NBSYN
  9
$CUSTOMPROPERTY
  1
$PN.
  9
$CUSTOMPROPERTYTAG
  1
LINA
  9
$CUSTOMPROPERTY
  1
066238
  9
$CUSTOMPROPERTYTAG
  1
SS
  9
$CUSTOMPROPERTY
  1
3-15/16
  9
$CUSTOMPROPERTYTAG
  1
PN
  9
$CUSTOMPROPERTY
  1
066238
  9
$CUSTOMPROPERTYTAG
  1
TYPE
  9
$CUSTOMPROPERTY
  1
Gray Iron Non - Expansion
  9
$CUSTOMPROPERTYTAG
  1
DESCRIPTION
  9
$CUSTOMPROPERTY
  1
P4B-SD-315
  9
$CUSTOMPROPERTYTAG
  1
WEIGHT
  9
$CUSTOMPROPERTY
  1
215
  9
$CUSTOMPROPERTYTAG
  1
A
  9
$CUSTOMPROPERTY
  1
8-1/2
  9
$CUSTOMPROPERTYTAG
  1
B
  9
$CUSTOMPROPERTY
  1
19
  9
$CUSTOMPROPERTYTAG
  1
C
  9
$CUSTOMPROPERTY
  1
7
  9
$CUSTOMPROPERTYTAG
  1
DMIN
  9
$CUSTOMPROPERTY
  1
15
  9
$CUSTOMPROPERTYTAG
  1
DMAX
  9
$CUSTOMPROPERTY
  1
16
  9
$CUSTOMPROPERTYTAG
  1
E
  9
$CUSTOMPROPERTY
  1
3-1/4
  9
$CUSTOMPROPERTYTAG
  1
F
  9
$CUSTOMPROPERTY
  1
7/8
  9
$CUSTOMPROPERTYTAG
  1
G
  9
$CUSTOMPROPERTY
  1
1-1/2
  9
$CUSTOMPROPERTYTAG
  1
H
  9
$CUSTOMPROPERTY
  1
4
  9
$CUSTOMPROPERTYTAG
  1
J
  9
$CUSTOMPROPERTY
  1
13-3/8
  9
$CUSTOMPROPERTYTAG
  1
L
  9
$CUSTOMPROPERTY
  1
6-1/4
  9
$CUSTOMPROPERTYTAG
  1
M
  9
$CUSTOMPROPERTY
  1
6-3/8
  9
$CUSTOMPROPERTYTAG
  1
P
  9
$CUSTOMPROPERTY
  1
13-3/4
  9
$CUSTOMPROPERTYTAG
  1
R
  9
$CUSTOMPROPERTY
  1
4-1/4
  9
$CUSTOMPROPERTYTAG
  1
S
  9
$CUSTOMPROPERTY
  1
4-1/4
  9
$CUSTOMPROPERTYTAG
  1
EXP
  9
$CUSTOMPROPERTY
  1
3/4
  9
$CUSTOMPROPERTYTAG
  1
COMPANY
  9
$CUSTOMPROPERTY
  1
baldor
  9
$INSBASE
 10
0.0
 20
0.0
 30
0.0
  9
$EXTMIN
 10
1.000000000000000E+20
 20
1.000000000000000E+20
 30
1.000000000000000E+20
  9
$EXTMAX
 10
-1.000000000000000E+20
 20
-1.000000000000000E+20
 30
-1.000000000000000E+20
  9
$LIMMIN
 10
0.0
 20
0.0
  9
$LIMMAX
 10
12.0
 20
9.0
  9
$ORTHOMODE
 70
     0
  9
$REGENMODE
 70
     1
  9
$FILLMODE
 70
     1
  9
$QTEXTMODE
 70
     0
  9
$MIRRTEXT
 70
     1
  9
$LTSCALE
 40
1.0
  9
$ATTMODE
 70
     1
  9
$TEXTSIZE
 40
0.2
  9
$TRACEWID
 40
0.05
  9
$TEXTSTYLE
  7
Standard
  9
$CLAYER
  8
0
  9
$CELTYPE
  6
ByLayer
  9
$CECOLOR
 62
   256
  9
$CELTSCALE
 40
1.0
  9
$DISPSILH
 70
     0
  9
$DIMSCALE
 40
1.0
  9
$DIMASZ
 40
0.18
  9
$DIMEXO
 40
0.0625
  9
$DIMDLI
 40
0.38
  9
$DIMRND
 40
0.0
  9
$DIMDLE
 40
0.0
  9
$DIMEXE
 40
0.18
  9
$DIMTP
 40
0.0
  9
$DIMTM
 40
0.0
  9
$DIMTXT
 40
0.18
  9
$DIMCEN
 40
0.09
  9
$DIMTSZ
 40
0.0
  9
$DIMTOL
 70
     0
  9
$DIMLIM
 70
     0
  9
$DIMTIH
 70
     1
  9
$DIMTOH
 70
     1
  9
$DIMSE1
 70
     0
  9
$DIMSE2
 70
     0
  9
$DIMTAD
 70
     0
  9
$DIMZIN
 70
     0
  9
$DIMBLK
  1

  9
$DIMASO
 70
     1
  9
$DIMSHO
 70
     1
  9
$DIMPOST
  1

  9
$DIMAPOST
  1

  9
$DIMALT
 70
     0
  9
$DIMALTD
 70
     2
  9
$DIMALTF
 40
25.4
  9
$DIMLFAC
 40
1.0
  9
$DIMTOFL
 70
     0
  9
$DIMTVP
 40
0.0
  9
$DIMTIX
 70
     0
  9
$DIMSOXD
 70
     0
  9
$DIMSAH
 70
     0
  9
$DIMBLK1
  1

  9
$DIMBLK2
  1

  9
$DIMSTYLE
  2
Standard
  9
$DIMCLRD
 70
     0
  9
$DIMCLRE
 70
     0
  9
$DIMCLRT
 70
     0
  9
$DIMTFAC
 40
1.0
  9
$DIMGAP
 40
0.09
  9
$DIMJUST
 70
     0
  9
$DIMSD1
 70
     0
  9
$DIMSD2
 70
     0
  9
$DIMTOLJ
 70
     1
  9
$DIMTZIN
 70
     0
  9
$DIMALTZ
 70
     0
  9
$DIMALTTZ
 70
     0
  9
$DIMUPT
 70
     0
  9
$DIMDEC
 70
     4
  9
$DIMTDEC
 70
     4
  9
$DIMALTU
 70
     2
  9
$DIMALTTD
 70
     2
  9
$DIMTXSTY
  7
Standard
  9
$DIMAUNIT
 70
     0
  9
$DIMADEC
 70
     0
  9
$DIMALTRND
 40
0.0
  9
$DIMAZIN
 70
     0
  9
$DIMDSEP
 70
    46
  9
$DIMATFIT
 70
     3
  9
$DIMFRAC
 70
     0
  9
$DIMLDRBLK
  1

  9
$DIMLUNIT
 70
     2
  9
$DIMLWD
 70
    -2
  9
$DIMLWE
 70
    -2
  9
$DIMTMOVE
 70
     0
  9
$DIMFXL
 40
1.0
  9
$DIMFXLON
 70
     0
  9
$DIMJOGANG
 40
0.7853981633974483
  9
$DIMTFILL
 70
     0
  9
$DIMTFILLCLR
 70
     0
  9
$DIMARCSYM
 70
     0
  9
$DIMLTYPE
  6

  9
$DIMLTEX1
  6

  9
$DIMLTEX2
  6

  9
$DIMTXTDIRECTION
 70
     0
  9
$LUNITS
 70
     2
  9
$LUPREC
 70
     4
  9
$SKETCHINC
 40
0.1
  9
$FILLETRAD
 40
0.5
  9
$AUNITS
 70
     0
  9
$AUPREC
 70
     0
  9
$MENU
  1
.
  9
$ELEVATION
 40
0.0
  9
$PELEVATION
 40
0.0
  9
$THICKNESS
 40
0.0
  9
$LIMCHECK
 70
     0
  9
$CHAMFERA
 40
0.0
  9
$CHAMFERB
 40
0.0
  9
$CHAMFERC
 40
0.0
  9
$CHAMFERD
 40
0.0
  9
$SKPOLY
 70
     0
  9
$TDCREATE
 40
2458169.012739838
  9
$TDUCREATE
 40
2458168.971073171
  9
$TDUPDATE
 40
2458169.012740012
  9
$TDUUPDATE
 40
2458168.971073345
  9
$TDINDWG
 40
0.0000000116
  9
$TDUSRTIMER
 40
0.0000000116
  9
$USRTIMER
 70
     1
  9
$ANGBASE
 50
0.0
  9
$ANGDIR
 70
     0
  9
$PDMODE
 70
     0
  9
$PDSIZE
 40
0.0
  9
$PLINEWID
 40
0.0
  9
$SPLFRAME
 70
     0
  9
$SPLINETYPE
 70
     6
  9
$SPLINESEGS
 70
     8
  9
$HANDSEED
  5
229
  9
$SURFTAB1
 70
     6
  9
$SURFTAB2
 70
     6
  9
$SURFTYPE
 70
     6
  9
$SURFU
 70
     6
  9
$SURFV
 70
     6
  9
$UCSBASE
  2

  9
$UCSNAME
  2

  9
$UCSORG
 10
0.0
 20
0.0
 30
0.0
  9
$UCSXDIR
 10
1.0
 20
0.0
 30
0.0
  9
$UCSYDIR
 10
0.0
 20
1.0
 30
0.0
  9
$UCSORTHOREF
  2

  9
$UCSORTHOVIEW
 70
     0
  9
$UCSORGTOP
 10
0.0
 20
0.0
 30
0.0
  9
$UCSORGBOTTOM
 10
0.0
 20
0.0
 30
0.0
  9
$UCSORGLEFT
 10
0.0
 20
0.0
 30
0.0
  9
$UCSORGRIGHT
 10
0.0
 20
0.0
 30
0.0
  9
$UCSORGFRONT
 10
0.0
 20
0.0
 30
0.0
  9
$UCSORGBACK
 10
0.0
 20
0.0
 30
0.0
  9
$PUCSBASE
  2

  9
$PUCSNAME
  2

  9
$PUCSORG
 10
0.0
 20
0.0
 30
0.0
  9
$PUCSXDIR
 10
1.0
 20
0.0
 30
0.0
  9
$PUCSYDIR
 10
0.0
 20
1.0
 30
0.0
  9
$PUCSORTHOREF
  2

  9
$PUCSORTHOVIEW
 70
     0
  9
$PUCSORGTOP
 10
0.0
 20
0.0
 30
0.0
  9
$PUCSORGBOTTOM
 10
0.0
 20
0.0
 30
0.0
  9
$PUCSORGLEFT
 10
0.0
 20
0.0
 30
0.0
  9
$PUCSORGRIGHT
 10
0.0
 20
0.0
 30
0.0
  9
$PUCSORGFRONT
 10
0.0
 20
0.0
 30
0.0
  9
$PUCSORGBACK
 10
0.0
 20
0.0
 30
0.0
  9
$USERI1
 70
     0
  9
$USERI2
 70
     0
  9
$USERI3
 70
     0
  9
$USERI4
 70
     0
  9
$USERI5
 70
     0
  9
$USERR1
 40
0.0
  9
$USERR2
 40
0.0
  9
$USERR3
 40
0.0
  9
$USERR4
 40
0.0
  9
$USERR5
 40
0.0
  9
$WORLDVIEW
 70
     1
  9
$SHADEDGE
 70
     3
  9
$SHADEDIF
 70
    70
  9
$TILEMODE
 70
     1
  9
$MAXACTVP
 70
    64
  9
$PINSBASE
 10
0.0
 20
0.0
 30
0.0
  9
$PLIMCHECK
 70
     0
  9
$PEXTMIN
 10
1.000000000000000E+20
 20
1.000000000000000E+20
 30
1.000000000000000E+20
  9
$PEXTMAX
 10
-1.000000000000000E+20
 20
-1.000000000000000E+20
 30
-1.000000000000000E+20
  9
$PLIMMIN
 10
0.0
 20
0.0
  9
$PLIMMAX
 10
12.0
 20
9.0
  9
$UNITMODE
 70
     0
  9
$VISRETAIN
 70
     1
  9
$PLINEGEN
 70
     0
  9
$PSLTSCALE
 70
     1
  9
$TREEDEPTH
 70
  3020
  9
$CMLSTYLE
  2
Standard
  9
$CMLJUST
 70
     0
  9
$CMLSCALE
 40
1.0
  9
$PROXYGRAPHICS
 70
     1
  9
$MEASUREMENT
 70
     0
  9
$CELWEIGHT
370
    -1
  9
$ENDCAPS
280
     0
  9
$JOINSTYLE
280
     0
  9
$LWDISPLAY
290
     0
  9
$INSUNITS
 70
     1
  9
$HYPERLINKBASE
  1

  9
$STYLESHEET
  1

  9
$XEDIT
290
     1
  9
$CEPSNTYPE
380
     0
  9
$PSTYLEMODE
290
     1
  9
$FINGERPRINTGUID
  2
{6237CD92-23C7-4D90-A248-D525733E9E9C}
  9
$VERSIONGUID
  2
{FAEB1C32-E019-11D5-929B-00C0DF256EC4}
  9
$EXTNAMES
290
     1
  9
$PSVPSCALE
 40
0.0
  9
$OLESTARTUP
290
     0
  9
$SORTENTS
280
   127
  9
$INDEXCTL
280
     0
  9
$HIDETEXT
280
     1
  9
$XCLIPFRAME
280
     2
  9
$HALOGAP
280
     0
  9
$OBSCOLOR
 70
   257
  9
$OBSLTYPE
280
     0
  9
$INTERSECTIONDISPLAY
280
     0
  9
$INTERSECTIONCOLOR
 70
   257
  9
$DIMASSOC
280
     2
  9
$PROJECTNAME
  1

  9
$CAMERADISPLAY
290
     0
  9
$LENSLENGTH
 40
50.0
  9
$CAMERAHEIGHT
 40
0.0
  9
$STEPSPERSEC
 40
2.0
  9
$STEPSIZE
 40
6.0
  9
$3DDWFPREC
 40
2.0
  9
$PSOLWIDTH
 40
0.25
  9
$PSOLHEIGHT
 40
4.0
  9
$LOFTANG1
 40
1.570796326794897
  9
$LOFTANG2
 40
1.570796326794897
  9
$LOFTMAG1
 40
0.0
  9
$LOFTMAG2
 40
0.0
  9
$LOFTPARAM
 70
     7
  9
$LOFTNORMALS
280
     1
  9
$LATITUDE
 40
37.795
  9
$LONGITUDE
 40
-122.394
  9
$NORTHDIRECTION
 40
0.0
  9
$TIMEZONE
 70
 -8000
  9
$LIGHTGLYPHDISPLAY
280
     1
  9
$TILEMODELIGHTSYNCH
280
     1
  9
$CMATERIAL
347
44
  9
$SOLIDHIST
280
     0
  9
$SHOWHIST
280
     1
  9
$DWFFRAME
280
     2
  9
$DGNFRAME
280
     2
  9
$REALWORLDSCALE
290
     1
  9
$INTERFERECOLOR
 62
   256
  9
$CSHADOW
280
     0
  9
$SHADOWPLANELOCATION
 40
0.0
  0
ENDSEC
  0
SECTION
  2
CLASSES
  0
CLASS
  1
ACDBDICTIONARYWDFLT
  2
AcDbDictionaryWithDefault
  3
ObjectDBX Classes
 90
        0
 91
        4
280
     0
281
     0
  0
CLASS
  1
VISUALSTYLE
  2
AcDbVisualStyle
  3
ObjectDBX Classes
 90
     4095
 91
        4
280
     0
281
     0
  0
CLASS
  1
MATERIAL
  2
AcDbMaterial
  3
ObjectDBX Classes
 90
     1153
 91
        4
280
     0
281
     0
  0
CLASS
  1
SCALE
  2
AcDbScale
  3
ObjectDBX Classes
 90
     1153
 91
        4
280
     0
281
     0
  0
CLASS
  1
TABLESTYLE
  2
AcDbTableStyle
  3
ObjectDBX Classes
 90
     4095
 91
        4
280
     0
281
     0
  0
CLASS
  1
MLEADERSTYLE
  2
AcDbMLeaderStyle
  3
ACDB_MLEADERSTYLE_CLASS
 90
     4095
 91
        4
280
     0
281
     0
  0
CLASS
  1
SUN
  2
AcDbSun
  3
SCENEOE
 90
     1153
 91
        4
280
     0
281
     0
  0
CLASS
  1
DICTIONARYVAR
  2
AcDbDictionaryVar
  3
ObjectDBX Classes
 90
        0
 91
        4
280
     0
281
     0
  0
CLASS
  1
CELLSTYLEMAP
  2
AcDbCellStyleMap
  3
ObjectDBX Classes
 90
     1152
 91
        4
280
     0
281
     0
  0
ENDSEC
  0
SECTION
  2
TABLES
  0
TABLE
  2
VPORT
  5
8
330
0
100
AcDbSymbolTable
 70
     1
  0
VPORT
  5
29
330
8
100
AcDbSymbolTableRecord
100
AcDbViewportTableRecord
  2
*Active
 70
     0
 10
0.0
 20
0.0
 11
1.0
 21
1.0
 12
0.0
 22
0.0
 13
0.0
 23
0.0
 14
0.5
 24
0.5
 15
0.5
 25
0.5
 16
0.0
 26
0.0
 36
1.0
 17
0.0
 27
0.0000000000000178
 37
0.0
 40
9.536999999999997
 41
2.032085561497327
 42
50.0
 43
0.0
 44
0.0
 50
0.0
 51
0.0
 71
     0
 72
   100
 73
     1
 74
     3
 75
     0
 76
     0
 77
     0
 78
     0
281
     0
 65
     1
110
0.0
120
0.0
130
0.0
111
1.0
121
0.0
131
0.0
112
0.0
122
1.0
132
0.0
 79
     0
146
0.0
348
2F
 60
     3
 61
     5
292
     1
282
     1
141
0.0
142
0.0
 63
   250
361
6D
  0
ENDTAB
  0
TABLE
  2
LTYPE
  5
5
330
0
100
AcDbSymbolTable
 70
     3
  0
LTYPE
  5
14
330
5
100
AcDbSymbolTableRecord
100
AcDbLinetypeTableRecord
  2
ByBlock
 70
     0
  3

 72
    65
 73
     0
 40
0.0
  0
LTYPE
  5
15
330
5
100
AcDbSymbolTableRecord
100
AcDbLinetypeTableRecord
  2
ByLayer
 70
     0
  3

 72
    65
 73
     0
 40
0.0
  0
LTYPE
  5
16
330
5
100
AcDbSymbolTableRecord
100
AcDbLinetypeTableRecord
  2
Continuous
 70
     0
  3
Solid line
 72
    65
 73
     0
 40
0.0
  0
LTYPE
  5
BF
330
5
100
AcDbSymbolTableRecord
100
AcDbLinetypeTableRecord
  2
Dashed
 70
     0
  3

 72
    65
 73
     2
 40
2.0
 49
1.0
 74
     0
 49
-1.0
 74
     0
  0
LTYPE
  5
10F
330
5
100
AcDbSymbolTableRecord
100
AcDbLinetypeTableRecord
  2
Center
 70
     0
  3

 72
    65
 73
     4
 40
1.5
 49
0.45
 74
     0
 49
-0.5
 74
     0
 49
0.05
 74
     0
 49
-0.5
 74
     0
  0
ENDTAB
  0
TABLE
  2
LAYER
  5
2
330
0
100
AcDbSymbolTable
 70
     7
  0
LAYER
  5
10
330
2
100
AcDbSymbolTableRecord
100
AcDbLayerTableRecord
  2
0
 70
     0
 62
     7
  6
Continuous
370
    -3
390
F
347
46
348
0
  0
LAYER
  5
72
330
2
100
AcDbSymbolTableRecord
100
AcDbLayerTableRecord
  2
AM_6
 70
     0
 62
    -2
  6
Continuous
370
    35
390
F
347
46
348
0
  0
LAYER
  5
C0
330
2
100
AcDbSymbolTableRecord
100
AcDbLayerTableRecord
  2
AM_9
 70
     0
 62
     6
  6
Dashed
370
    25
390
F
347
46
348
0
  0
LAYER
  5
110
330
2
100
AcDbSymbolTableRecord
100
AcDbLayerTableRecord
  2
AM_7
 70
     0
 62
     7
  6
Center
370
    25
390
F
347
46
348
0
  0
LAYER
  5
14D
330
2
100
AcDbSymbolTableRecord
100
AcDbLayerTableRecord
  2
AM_4
 70
     0
 62
     7
  6
Continuous
370
    50
390
F
347
46
348
0
  0
LAYER
  5
218
330
2
100
AcDbSymbolTableRecord
100
AcDbLayerTableRecord
  2
AM_5
 70
     0
 62
     3
  6
Continuous
370
    25
390
F
347
46
348
0
  0
LAYER
  5
21D
330
2
100
AcDbSymbolTableRecord
100
AcDbLayerTableRecord
  2
ConnectionPoints
 70
     0
 62
     7
  6
Continuous
370
    50
390
F
347
46
348
0
  0
ENDTAB
  0
TABLE
  2
STYLE
  5
3
330
0
100
AcDbSymbolTable
 70
     1
  0
STYLE
  5
11
330
3
100
AcDbSymbolTableRecord
100
AcDbTextStyleTableRecord
  2
Standard
 70
     0
 40
0.0
 41
1.0
 50
0.0
 71
     0
 42
0.2
  3
txt
  4

  0
ENDTAB
  0
TABLE
  2
VIEW
  5
6
330
0
100
AcDbSymbolTable
 70
     0
  0
ENDTAB
  0
TABLE
  2
UCS
  5
7
330
0
100
AcDbSymbolTable
 70
     0
  0
ENDTAB
  0
TABLE
  2
APPID
  5
9
330
0
100
AcDbSymbolTable
 70
     1
  0
APPID
  5
12
330
9
100
AcDbSymbolTableRecord
100
AcDbRegAppTableRecord
  2
ACAD
 70
     0
  0
ENDTAB
  0
TABLE
  2
DIMSTYLE
  5
A
330
0
100
AcDbSymbolTable
 70
     1
100
AcDbDimStyleTable
  0
DIMSTYLE
105
27
330
A
100
AcDbSymbolTableRecord
100
AcDbDimStyleTableRecord
  2
Standard
 70
     0
178
     0
340
11
  0
ENDTAB
  0
TABLE
  2
BLOCK_RECORD
  5
1
330
0
100
AcDbSymbolTable
 70
     5
  0
BLOCK_RECORD
  5
1F
330
1
100
AcDbSymbolTableRecord
100
AcDbBlockTableRecord
  2
*Model_Space
340
22
 70
     0
280
     1
281
     0
  0
BLOCK_RECORD
  5
1B
330
1
100
AcDbSymbolTableRecord
100
AcDbBlockTableRecord
  2
*Paper_Space
340
1E
 70
     0
280
     1
281
     0
  0
BLOCK_RECORD
  5
23
330
1
100
AcDbSymbolTableRecord
100
AcDbBlockTableRecord
  2
*Paper_Space0
340
26
 70
     0
280
     1
281
     0
  0
BLOCK_RECORD
  5
6E
330
1
100
AcDbSymbolTableRecord
100
AcDbBlockTableRecord
  2
1_066238_4
340
0
102
{BLKREFS
331
6F
102
}
 70
     0
280
     1
281
     0
  0
BLOCK_RECORD
  5
8E
330
1
100
AcDbSymbolTableRecord
100
AcDbBlockTableRecord
  2
2_066238re_0_in_066238_4
340
0
102
{BLKREFS
331
8F
102
}
 70
     0
280
     1
281
     0
  0
BLOCK_RECORD
  5
112
330
1
100
AcDbSymbolTableRecord
100
AcDbBlockTableRecord
  2
3_066238r_0_in_066238_4
340
0
102
{BLKREFS
331
113
102
}
 70
     0
280
     1
281
     0
  0
BLOCK_RECORD
  5
15A
330
1
100
AcDbSymbolTableRecord
100
AcDbBlockTableRecord
  2
4_066238p_0_in_066238_4
340
0
102
{BLKREFS
331
15B
102
}
 70
     0
280
     1
281
     0
  0
ENDTAB
  0
ENDSEC
  0
SECTION
  2
BLOCKS
  0
BLOCK
  5
20
330
1F
100
AcDbEntity
  8
0
100
AcDbBlockBegin
  2
*Model_Space
 70
     0
 10
0.0
 20
0.0
 30
0.0
  3
*Model_Space
  1

  0
ENDBLK
  5
21
330
1F
100
AcDbEntity
  8
0
100
AcDbBlockEnd
  0
BLOCK
  5
1C
330
1B
100
AcDbEntity
 67
     1
  8
0
100
AcDbBlockBegin
  2
*Paper_Space
 70
     0
 10
0.0
 20
0.0
 30
0.0
  3
*Paper_Space
  1

  0
ENDBLK
  5
1D
330
1B
100
AcDbEntity
 67
     1
  8
0
100
AcDbBlockEnd
  0
BLOCK
  5
24
330
23
100
AcDbEntity
  8
0
100
AcDbBlockBegin
  2
*Paper_Space0
 70
     0
 10
0.0
 20
0.0
 30
0.0
  3
*Paper_Space0
  1

  0
ENDBLK
  5
25
330
23
100
AcDbEntity
  8
0
100
AcDbBlockEnd
  0
BLOCK
  5
70
330
6E
100
AcDbEntity
  8
0
100
AcDbBlockBegin
  2
1_066238_4
 70
     2
 10
0.0
 20
0.0
 30
0.0
  3
1_066238_4
  1

  0
ATTDEF
  5
73
330
6E
100
AcDbEntity
  8
AM_6
100
AcDbText
 10
14.5
 20
4.675000000000017
 30
0.0
 40
0.5
  1
Special Duty Pillow Block - Inch 4-Bolt Base Gray Iron Non-Expansion
100
AcDbAttributeDefinition
  3

  2
NN
 70
     8
280
     0
  0
ATTDEF
  5
74
330
6E
100
AcDbEntity
  8
AM_6
100
AcDbText
 10
14.5
 20
4.175000000000017
 30
0.0
 40
0.5
  1
Special Duty
100
AcDbAttributeDefinition
  3

  2
NT
 70
     8
280
     0
  0
ATTDEF
  5
75
330
6E
100
AcDbEntity
  8
AM_6
100
AcDbText
 10
14.5
 20
3.675000000000017
 30
0.0
 40
0.5
  1
066238
100
AcDbAttributeDefinition
  3

  2
NB
 70
     8
280
     0
  0
ATTDEF
  5
76
330
6E
100
AcDbEntity
  8
AM_6
100
AcDbText
 10
14.5
 20
3.175000000000017
 30
0.0
 40
0.5
  1
$PN.
100
AcDbAttributeDefinition
  3

  2
NBSYN
 70
     8
280
     0
  0
ATTDEF
  5
77
330
6E
100
AcDbEntity
  8
AM_6
100
AcDbText
 10
14.5
 20
2.675000000000017
 30
0.0
 40
0.5
  1
066238
100
AcDbAttributeDefinition
  3

  2
LINA
 70
     8
280
     0
  0
ATTDEF
  5
78
330
6E
100
AcDbEntity
  8
AM_6
100
AcDbText
 10
14.5
 20
2.175000000000017
 30
0.0
 40
0.5
  1
3-15/16
100
AcDbAttributeDefinition
  3

  2
SS
 70
     8
280
     0
  0
ATTDEF
  5
79
330
6E
100
AcDbEntity
  8
AM_6
100
AcDbText
 10
14.5
 20
1.675000000000017
 30
0.0
 40
0.5
  1
066238
100
AcDbAttributeDefinition
  3

  2
PN
 70
     8
280
     0
  0
ATTDEF
  5
7A
330
6E
100
AcDbEntity
  8
AM_6
100
AcDbText
 10
14.5
 20
1.175000000000017
 30
0.0
 40
0.5
  1
Gray Iron Non - Expansion
100
AcDbAttributeDefinition
  3

  2
TYPE
 70
     8
280
     0
  0
ATTDEF
  5
7B
330
6E
100
AcDbEntity
  8
AM_6
100
AcDbText
 10
14.5
 20
0.6750000000000167
 30
0.0
 40
0.5
  1
P4B-SD-315
100
AcDbAttributeDefinition
  3

  2
DESCRIPTION
 70
     8
280
     0
  0
ATTDEF
  5
7C
330
6E
100
AcDbEntity
  8
AM_6
100
AcDbText
 10
14.5
 20
0.1750000000000167
 30
0.0
 40
0.5
  1
215
100
AcDbAttributeDefinition
  3

  2
WEIGHT
 70
     8
280
     0
  0
ATTDEF
  5
7D
330
6E
100
AcDbEntity
  8
AM_6
100
AcDbText
 10
14.5
 20
-0.3249999999999833
 30
0.0
 40
0.5
  1
8-1/2
100
AcDbAttributeDefinition
  3

  2
A
 70
     8
280
     0
  0
ATTDEF
  5
7E
330
6E
100
AcDbEntity
  8
AM_6
100
AcDbText
 10
14.5
 20
-0.8249999999999833
 30
0.0
 40
0.5
  1
19
100
AcDbAttributeDefinition
  3

  2
B
 70
     8
280
     0
  0
ATTDEF
  5
7F
330
6E
100
AcDbEntity
  8
AM_6
100
AcDbText
 10
14.5
 20
-1.324999999999983
 30
0.0
 40
0.5
  1
7
100
AcDbAttributeDefinition
  3

  2
C
 70
     8
280
     0
  0
ATTDEF
  5
80
330
6E
100
AcDbEntity
  8
AM_6
100
AcDbText
 10
14.5
 20
-1.824999999999983
 30
0.0
 40
0.5
  1
15
100
AcDbAttributeDefinition
  3

  2
DMIN
 70
     8
280
     0
  0
ATTDEF
  5
81
330
6E
100
AcDbEntity
  8
AM_6
100
AcDbText
 10
14.5
 20
-2.324999999999983
 30
0.0
 40
0.5
  1
16
100
AcDbAttributeDefinition
  3

  2
DMAX
 70
     8
280
     0
  0
ATTDEF
  5
82
330
6E
100
AcDbEntity
  8
AM_6
100
AcDbText
 10
14.5
 20
-2.824999999999983
 30
0.0
 40
0.5
  1
3-1/4
100
AcDbAttributeDefinition
  3

  2
E
 70
     8
280
     0
  0
ATTDEF
  5
83
330
6E
100
AcDbEntity
  8
AM_6
100
AcDbText
 10
14.5
 20
-3.324999999999983
 30
0.0
 40
0.5
  1
7/8
100
AcDbAttributeDefinition
  3

  2
F
 70
     8
280
     0
  0
ATTDEF
  5
84
330
6E
100
AcDbEntity
  8
AM_6
100
AcDbText
 10
14.5
 20
-3.824999999999983
 30
0.0
 40
0.5
  1
1-1/2
100
AcDbAttributeDefinition
  3

  2
G
 70
     8
280
     0
  0
ATTDEF
  5
85
330
6E
100
AcDbEntity
  8
AM_6
100
AcDbText
 10
14.5
 20
-4.324999999999983
 30
0.0
 40
0.5
  1
4
100
AcDbAttributeDefinition
  3

  2
H
 70
     8
280
     0
  0
ATTDEF
  5
86
330
6E
100
AcDbEntity
  8
AM_6
100
AcDbText
 10
14.5
 20
-4.824999999999983
 30
0.0
 40
0.5
  1
13-3/8
100
AcDbAttributeDefinition
  3

  2
J
 70
     8
280
     0
  0
ATTDEF
  5
87
330
6E
100
AcDbEntity
  8
AM_6
100
AcDbText
 10
14.5
 20
-5.324999999999983
 30
0.0
 40
0.5
  1
6-1/4
100
AcDbAttributeDefinition
  3

  2
L
 70
     8
280
     0
  0
ATTDEF
  5
88
330
6E
100
AcDbEntity
  8
AM_6
100
AcDbText
 10
14.5
 20
-5.824999999999983
 30
0.0
 40
0.5
  1
6-3/8
100
AcDbAttributeDefinition
  3

  2
M
 70
     8
280
     0
  0
ATTDEF
  5
89
330
6E
100
AcDbEntity
  8
AM_6
100
AcDbText
 10
14.5
 20
-6.324999999999983
 30
0.0
 40
0.5
  1
13-3/4
100
AcDbAttributeDefinition
  3

  2
P
 70
     8
280
     0
  0
ATTDEF
  5
8A
330
6E
100
AcDbEntity
  8
AM_6
100
AcDbText
 10
14.5
 20
-6.824999999999983
 30
0.0
 40
0.5
  1
4-1/4
100
AcDbAttributeDefinition
  3

  2
R
 70
     8
280
     0
  0
ATTDEF
  5
8B
330
6E
100
AcDbEntity
  8
AM_6
100
AcDbText
 10
14.5
 20
-7.324999999999983
 30
0.0
 40
0.5
  1
4-1/4
100
AcDbAttributeDefinition
  3

  2
S
 70
     8
280
     0
  0
ATTDEF
  5
8C
330
6E
100
AcDbEntity
  8
AM_6
100
AcDbText
 10
14.5
 20
-7.824999999999983
 30
0.0
 40
0.5
  1
3/4
100
AcDbAttributeDefinition
  3

  2
EXP
 70
     8
280
     0
  0
ATTDEF
  5
8D
330
6E
100
AcDbEntity
  8
AM_6
100
AcDbText
 10
14.5
 20
-8.324999999999983
 30
0.0
 40
0.5
  1
baldor
100
AcDbAttributeDefinition
  3

  2
COMPANY
 70
     8
280
     0
  0
INSERT
  5
8F
330
6E
100
AcDbEntity
  8
0
100
AcDbBlockReference
  2
2_066238re_0_in_066238_4
 10
0.0
 20
0.0
 30
0.0
  0
INSERT
  5
113
330
6E
100
AcDbEntity
  8
0
100
AcDbBlockReference
  2
3_066238r_0_in_066238_4
 10
0.0
 20
0.0
 30
0.0
  0
INSERT
  5
15B
330
6E
100
AcDbEntity
  8
0
100
AcDbBlockReference
  2
4_066238p_0_in_066238_4
 10
0.0
 20
0.0
 30
0.0
  0
ENDBLK
  5
71
330
6E
100
AcDbEntity
  8
0
100
AcDbBlockEnd
  0
BLOCK
  5
90
330
8E
100
AcDbEntity
  8
0
100
AcDbBlockBegin
  2
2_066238re_0_in_066238_4
 70
     2
 10
0.0
 20
0.0
 30
0.0
  3
2_066238re_0_in_066238_4
  1

  0
ATTDEF
  5
92
330
8E
100
AcDbEntity
  8
AM_6
100
AcDbText
 10
7.019230769230769
 20
4.675000000000017
 30
0.0
 40
0.5
  1
Special Duty Pillow Block - 4 Bolt - Inch - Body - RING
100
AcDbAttributeDefinition
  3

  2
NN
 70
     8
280
     0
  0
ATTDEF
  5
93
330
8E
100
AcDbEntity
  8
AM_6
100
AcDbText
 10
7.019230769230769
 20
4.175000000000017
 30
0.0
 40
0.5
  1
Special Duty
100
AcDbAttributeDefinition
  3

  2
NT
 70
     8
280
     0
  0
ATTDEF
  5
94
330
8E
100
AcDbEntity
  8
AM_6
100
AcDbText
 10
7.019230769230769
 20
3.675000000000017
 30
0.0
 40
0.5
  1
066238re
100
AcDbAttributeDefinition
  3

  2
NB
 70
     8
280
     0
  0
ATTDEF
  5
95
330
8E
100
AcDbEntity
  8
AM_6
100
AcDbText
 10
7.019230769230769
 20
3.175000000000017
 30
0.0
 40
0.5
  1
$PN1.
100
AcDbAttributeDefinition
  3

  2
NBSYN
 70
     8
280
     0
  0
ATTDEF
  5
96
330
8E
100
AcDbEntity
  8
AM_6
100
AcDbText
 10
7.019230769230769
 20
2.675000000000017
 30
0.0
 40
0.5
  1
066238re
100
AcDbAttributeDefinition
  3

  2
LINA
 70
     8
280
     0
  0
ATTDEF
  5
97
330
8E
100
AcDbEntity
  8
AM_6
100
AcDbText
 10
7.019230769230769
 20
2.175000000000017
 30
0.0
 40
0.5
  1
3-15/16
100
AcDbAttributeDefinition
  3

  2
SS
 70
     8
280
     0
  0
ATTDEF
  5
98
330
8E
100
AcDbEntity
  8
AM_6
100
AcDbText
 10
7.019230769230769
 20
1.675000000000017
 30
0.0
 40
0.5
  1
3.93750
100
AcDbAttributeDefinition
  3

  2
SS1
 70
     8
280
     0
  0
ATTDEF
  5
99
330
8E
100
AcDbEntity
  8
AM_6
100
AcDbText
 10
7.019230769230769
 20
1.175000000000017
 30
0.0
 40
0.5
  1
066238re
100
AcDbAttributeDefinition
  3

  2
PN1
 70
     8
280
     0
  0
ATTDEF
  5
9A
330
8E
100
AcDbEntity
  8
AM_6
100
AcDbText
 10
7.019230769230769
 20
0.6750000000000167
 30
0.0
 40
0.5
  1
066274
100
AcDbAttributeDefinition
  3

  2
PN2
 70
     8
280
     0
  0
ATTDEF
  5
9B
330
8E
100
AcDbEntity
  8
AM_6
100
AcDbText
 10
7.019230769230769
 20
0.1750000000000167
 30
0.0
 40
0.5
  1
P4B-SD-315
100
AcDbAttributeDefinition
  3

  2
DESCRIPTION1
 70
     8
280
     0
  0
ATTDEF
  5
9C
330
8E
100
AcDbEntity
  8
AM_6
100
AcDbText
 10
7.019230769230769
 20
-0.3249999999999833
 30
0.0
 40
0.5
  1
P4B-SD-315
100
AcDbAttributeDefinition
  3

  2
DESCRIPTION2
 70
     8
280
     0
  0
ATTDEF
  5
9D
330
8E
100
AcDbEntity
  8
AM_6
100
AcDbText
 10
7.019230769230769
 20
-0.8249999999999833
 30
0.0
 40
0.5
  1
215
100
AcDbAttributeDefinition
  3

  2
WEIGHT1
 70
     8
280
     0
  0
ATTDEF
  5
9E
330
8E
100
AcDbEntity
  8
AM_6
100
AcDbText
 10
7.019230769230769
 20
-1.324999999999983
 30
0.0
 40
0.5
  1
230
100
AcDbAttributeDefinition
  3

  2
WEIGHT2
 70
     8
280
     0
  0
ATTDEF
  5
9F
330
8E
100
AcDbEntity
  8
AM_6
100
AcDbText
 10
7.019230769230769
 20
-1.824999999999983
 30
0.0
 40
0.5
  1
8-1/2
100
AcDbAttributeDefinition
  3

  2
A
 70
     8
280
     0
  0
ATTDEF
  5
A0
330
8E
100
AcDbEntity
  8
AM_6
100
AcDbText
 10
7.019230769230769
 20
-2.324999999999983
 30
0.0
 40
0.5
  1
8.50000
100
AcDbAttributeDefinition
  3

  2
A1
 70
     8
280
     0
  0
ATTDEF
  5
A1
330
8E
100
AcDbEntity
  8
AM_6
100
AcDbText
 10
7.019230769230769
 20
-2.824999999999983
 30
0.0
 40
0.5
  1
19
100
AcDbAttributeDefinition
  3

  2
B
 70
     8
280
     0
  0
ATTDEF
  5
A2
330
8E
100
AcDbEntity
  8
AM_6
100
AcDbText
 10
7.019230769230769
 20
-3.324999999999983
 30
0.0
 40
0.5
  1
19.00000
100
AcDbAttributeDefinition
  3

  2
B1
 70
     8
280
     0
  0
ATTDEF
  5
A3
330
8E
100
AcDbEntity
  8
AM_6
100
AcDbText
 10
7.019230769230769
 20
-3.824999999999983
 30
0.0
 40
0.5
  1
7
100
AcDbAttributeDefinition
  3

  2
C
 70
     8
280
     0
  0
ATTDEF
  5
A4
330
8E
100
AcDbEntity
  8
AM_6
100
AcDbText
 10
7.019230769230769
 20
-4.324999999999983
 30
0.0
 40
0.5
  1
7.00000
100
AcDbAttributeDefinition
  3

  2
C1
 70
     8
280
     0
  0
ATTDEF
  5
A5
330
8E
100
AcDbEntity
  8
AM_6
100
AcDbText
 10
7.019230769230769
 20
-4.824999999999983
 30
0.0
 40
0.5
  1
15
100
AcDbAttributeDefinition
  3

  2
DMIN
 70
     8
280
     0
  0
ATTDEF
  5
A6
330
8E
100
AcDbEntity
  8
AM_6
100
AcDbText
 10
7.019230769230769
 20
-5.324999999999983
 30
0.0
 40
0.5
  1
15.00000
100
AcDbAttributeDefinition
  3

  2
DMIN1
 70
     8
280
     0
  0
ATTDEF
  5
A7
330
8E
100
AcDbEntity
  8
AM_6
100
AcDbText
 10
7.019230769230769
 20
-5.824999999999983
 30
0.0
 40
0.5
  1
16
100
AcDbAttributeDefinition
  3

  2
DMAX
 70
     8
280
     0
  0
ATTDEF
  5
A8
330
8E
100
AcDbEntity
  8
AM_6
100
AcDbText
 10
7.019230769230769
 20
-6.324999999999983
 30
0.0
 40
0.5
  1
16.00000
100
AcDbAttributeDefinition
  3

  2
DMAX1
 70
     8
280
     0
  0
ATTDEF
  5
A9
330
8E
100
AcDbEntity
  8
AM_6
100
AcDbText
 10
7.019230769230769
 20
-6.824999999999983
 30
0.0
 40
0.5
  1
3-1/4
100
AcDbAttributeDefinition
  3

  2
E
 70
     8
280
     0
  0
ATTDEF
  5
AA
330
8E
100
AcDbEntity
  8
AM_6
100
AcDbText
 10
7.019230769230769
 20
-7.324999999999983
 30
0.0
 40
0.5
  1
3.25000
100
AcDbAttributeDefinition
  3

  2
E1
 70
     8
280
     0
  0
ATTDEF
  5
AB
330
8E
100
AcDbEntity
  8
AM_6
100
AcDbText
 10
7.019230769230769
 20
-7.824999999999983
 30
0.0
 40
0.5
  1
7/8
100
AcDbAttributeDefinition
  3

  2
F
 70
     8
280
     0
  0
ATTDEF
  5
AC
330
8E
100
AcDbEntity
  8
AM_6
100
AcDbText
 10
7.019230769230769
 20
-8.324999999999983
 30
0.0
 40
0.5
  1
0.87500
100
AcDbAttributeDefinition
  3

  2
F1
 70
     8
280
     0
  0
ATTDEF
  5
AD
330
8E
100
AcDbEntity
  8
AM_6
100
AcDbText
 10
7.019230769230769
 20
-8.824999999999983
 30
0.0
 40
0.5
  1
1-1/2
100
AcDbAttributeDefinition
  3

  2
G
 70
     8
280
     0
  0
ATTDEF
  5
AE
330
8E
100
AcDbEntity
  8
AM_6
100
AcDbText
 10
7.019230769230769
 20
-9.324999999999983
 30
0.0
 40
0.5
  1
1.50000
100
AcDbAttributeDefinition
  3

  2
G1
 70
     8
280
     0
  0
ATTDEF
  5
AF
330
8E
100
AcDbEntity
  8
AM_6
100
AcDbText
 10
7.019230769230769
 20
-9.824999999999983
 30
0.0
 40
0.5
  1
4
100
AcDbAttributeDefinition
  3

  2
H
 70
     8
280
     0
  0
ATTDEF
  5
B0
330
8E
100
AcDbEntity
  8
AM_6
100
AcDbText
 10
7.019230769230769
 20
-10.32499999999998
 30
0.0
 40
0.5
  1
4.00000
100
AcDbAttributeDefinition
  3

  2
H1
 70
     8
280
     0
  0
ATTDEF
  5
B1
330
8E
100
AcDbEntity
  8
AM_6
100
AcDbText
 10
7.019230769230769
 20
-10.82499999999998
 30
0.0
 40
0.5
  1
13-3/8
100
AcDbAttributeDefinition
  3

  2
J
 70
     8
280
     0
  0
ATTDEF
  5
B2
330
8E
100
AcDbEntity
  8
AM_6
100
AcDbText
 10
7.019230769230769
 20
-11.32499999999998
 30
0.0
 40
0.5
  1
13.37500
100
AcDbAttributeDefinition
  3

  2
J1
 70
     8
280
     0
  0
ATTDEF
  5
B3
330
8E
100
AcDbEntity
  8
AM_6
100
AcDbText
 10
7.019230769230769
 20
-11.82499999999998
 30
0.0
 40
0.5
  1
6-1/4
100
AcDbAttributeDefinition
  3

  2
L
 70
     8
280
     0
  0
ATTDEF
  5
B4
330
8E
100
AcDbEntity
  8
AM_6
100
AcDbText
 10
7.019230769230769
 20
-12.32499999999998
 30
0.0
 40
0.5
  1
6.25000
100
AcDbAttributeDefinition
  3

  2
L1
 70
     8
280
     0
  0
ATTDEF
  5
B5
330
8E
100
AcDbEntity
  8
AM_6
100
AcDbText
 10
7.019230769230769
 20
-12.82499999999998
 30
0.0
 40
0.5
  1
6-3/8
100
AcDbAttributeDefinition
  3

  2
M
 70
     8
280
     0
  0
ATTDEF
  5
B6
330
8E
100
AcDbEntity
  8
AM_6
100
AcDbText
 10
7.019230769230769
 20
-13.32499999999998
 30
0.0
 40
0.5
  1
6.37500
100
AcDbAttributeDefinition
  3

  2
M1
 70
     8
280
     0
  0
ATTDEF
  5
B7
330
8E
100
AcDbEntity
  8
AM_6
100
AcDbText
 10
7.019230769230769
 20
-13.82499999999998
 30
0.0
 40
0.5
  1
13-3/4
100
AcDbAttributeDefinition
  3

  2
P
 70
     8
280
     0
  0
ATTDEF
  5
B8
330
8E
100
AcDbEntity
  8
AM_6
100
AcDbText
 10
7.019230769230769
 20
-14.32499999999998
 30
0.0
 40
0.5
  1
13.75000
100
AcDbAttributeDefinition
  3

  2
P1
 70
     8
280
     0
  0
ATTDEF
  5
B9
330
8E
100
AcDbEntity
  8
AM_6
100
AcDbText
 10
7.019230769230769
 20
-14.82499999999998
 30
0.0
 40
0.5
  1
4-1/4
100
AcDbAttributeDefinition
  3

  2
R
 70
     8
280
     0
  0
ATTDEF
  5
BA
330
8E
100
AcDbEntity
  8
AM_6
100
AcDbText
 10
7.019230769230769
 20
-15.32499999999998
 30
0.0
 40
0.5
  1
4.25000
100
AcDbAttributeDefinition
  3

  2
R1
 70
     8
280
     0
  0
ATTDEF
  5
BB
330
8E
100
AcDbEntity
  8
AM_6
100
AcDbText
 10
7.019230769230769
 20
-15.82499999999998
 30
0.0
 40
0.5
  1
4-1/4
100
AcDbAttributeDefinition
  3

  2
S
 70
     8
280
     0
  0
ATTDEF
  5
BC
330
8E
100
AcDbEntity
  8
AM_6
100
AcDbText
 10
7.019230769230769
 20
-16.32499999999998
 30
0.0
 40
0.5
  1
4.25000
100
AcDbAttributeDefinition
  3

  2
S1
 70
     8
280
     0
  0
ATTDEF
  5
BD
330
8E
100
AcDbEntity
  8
AM_6
100
AcDbText
 10
7.019230769230769
 20
-16.82499999999998
 30
0.0
 40
0.5
  1
3/4
100
AcDbAttributeDefinition
  3

  2
EXP
 70
     8
280
     0
  0
ATTDEF
  5
BE
330
8E
100
AcDbEntity
  8
AM_6
100
AcDbText
 10
7.019230769230769
 20
-17.32499999999998
 30
0.0
 40
0.5
  1
baldor
100
AcDbAttributeDefinition
  3

  2
COMPANY
 70
     8
280
     0
  0
LINE
  5
C1
330
8E
100
AcDbEntity
  8
AM_9
100
AcDbLine
 10
1.236986232582966
 20
-3.825
 30
0.0
 11
1.272877997106979
 21
-3.825
 31
0.0
  0
LINE
  5
C2
330
8E
100
AcDbEntity
  8
AM_9
100
AcDbLine
 10
1.53161405807736
 20
-3.825
 30
0.0
 11
1.567505822601373
 21
-3.825
 31
0.0
  0
LINE
  5
C3
330
8E
100
AcDbEntity
  8
AM_9
100
AcDbLine
 10
1.427621604866567
 20
-3.616666666666666
 30
0.0
 11
1.391921567424935
 21
-3.616666666666666
 31
0.0
  0
LWPOLYLINE
  5
C4
330
8E
100
AcDbEntity
  8
AM_9
100
AcDbPolyline
 90
        7
 70
     0
 43
0.0
 10
1.392012553424727
 20
-3.616666718501794
 10
1.375355538702723
 20
-3.618003418868588
 10
1.326729130648784
 20
-3.637299537041749
 10
1.2841272038018
 20
-3.677580842224686
 10
1.253035077688353
 20
-3.734646829012066
 10
1.23798387902465
 20
-3.801981365801606
 10
1.236986232582966
 20
-3.825
  0
LWPOLYLINE
  5
C5
330
8E
100
AcDbEntity
  8
AM_9
100
AcDbPolyline
 90
        3
 70
     0
 43
0.0
 10
1.564832191150036
 20
-3.783311243692048
 10
1.566701041455529
 20
-3.802036875928524
 10
1.567505822601374
 20
-3.824999999999999
  0
LWPOLYLINE
  5
C6
330
8E
100
AcDbEntity
  8
AM_9
100
AcDbPolyline
 90
        6
 70
     0
 43
0.0
 10
1.427915522063938
 20
-3.616666718340279
 10
1.444395056585724
 20
-3.618006559572118
 10
1.490328096382476
 20
-3.637319964888914
 10
1.528133598976183
 20
-3.677625073970039
 10
1.55438390413675
 20
-3.73470202473775
 10
1.564832191150036
 20
-3.783311243692048
  0
LINE
  5
C7
330
8E
100
AcDbEntity
  8
AM_9
100
AcDbLine
 10
1.531614058077361
 20
3.825
 30
0.0
 11
1.567505822601374
 21
3.825
 31
0.0
  0
LINE
  5
C8
330
8E
100
AcDbEntity
  8
AM_9
100
AcDbLine
 10
1.236986232582965
 20
3.825
 30
0.0
 11
1.272877997106978
 21
3.825
 31
0.0
  0
LINE
  5
C9
330
8E
100
AcDbEntity
  8
AM_9
100
AcDbLine
 10
1.391921567424935
 20
3.616666666666666
 30
0.0
 11
1.427621604866567
 21
3.616666666666666
 31
0.0
  0
LWPOLYLINE
  5
CA
330
8E
100
AcDbEntity
  8
AM_9
100
AcDbPolyline
 90
        3
 70
     0
 43
0.0
 10
1.528948436625805
 20
3.783311865181881
 10
1.530807786031636
 20
3.801981365801606
 10
1.531614058077361
 20
3.825
  0
LWPOLYLINE
  5
CB
330
8E
100
AcDbEntity
  8
AM_9
100
AcDbPolyline
 90
        5
 70
     0
 43
0.0
 10
1.409870169226691
 20
3.618204883236563
 10
1.454567418990238
 20
3.63729953704175
 10
1.492311591778396
 20
3.677580842224686
 10
1.518512316901823
 20
3.734646829012068
 10
1.528948436625805
 20
3.783311865181881
  0
LWPOLYLINE
  5
CC
330
8E
100
AcDbEntity
  8
AM_9
100
AcDbPolyline
 90
        3
 70
     0
 43
0.0
 10
1.392220389740063
 20
3.616666718501794
 10
1.408677998926563
 20
3.618003418868588
 10
1.409870169226691
 20
3.618204883236563
  0
LWPOLYLINE
  5
CD
330
8E
100
AcDbEntity
  8
AM_9
100
AcDbPolyline
 90
        3
 70
     0
 43
0.0
 10
1.276163435046179
 20
3.783311243692049
 10
1.273868417895053
 20
3.802036875928523
 10
1.272877997106979
 20
3.825
  0
LWPOLYLINE
  5
CE
330
8E
100
AcDbEntity
  8
AM_9
100
AcDbPolyline
 90
        6
 70
     0
 43
0.0
 10
1.42770800980353
 20
3.616666718340279
 10
1.411033599854733
 20
3.618006559572118
 10
1.362429838392153
 20
3.637319964888915
 10
1.319886587206788
 20
3.677625073970039
 10
1.288869108159894
 20
3.73470202473775
 10
1.276163435046179
 20
3.783311243692049
  0
LINE
  5
CF
330
8E
100
AcDbEntity
  8
AM_9
100
AcDbLine
 10
-1.272877997106979
 20
3.825
 30
0.0
 11
-1.236986232582965
 21
3.825
 31
0.0
  0
LINE
  5
D0
330
8E
100
AcDbEntity
  8
AM_9
100
AcDbLine
 10
-1.567505822601374
 20
3.825
 30
0.0
 11
-1.531614058077361
 21
3.825
 31
0.0
  0
LINE
  5
D1
330
8E
100
AcDbEntity
  8
AM_9
100
AcDbLine
 10
-1.427621604866567
 20
3.616666666666666
 30
0.0
 11
-1.391921567424935
 21
3.616666666666666
 31
0.0
  0
LWPOLYLINE
  5
D2
330
8E
100
AcDbEntity
  8
AM_9
100
AcDbPolyline
 90
        7
 70
     0
 43
0.0
 10
-1.392012553424727
 20
3.616666718501794
 10
-1.375355538702723
 20
3.618003418868588
 10
-1.326729130648784
 20
3.637299537041749
 10
-1.284127203801801
 20
3.677580842224685
 10
-1.253035077688353
 20
3.734646829012066
 10
-1.23798387902465
 20
3.801981365801605
 10
-1.236986232582965
 20
3.825
  0
LWPOLYLINE
  5
D3
330
8E
100
AcDbEntity
  8
AM_9
100
AcDbPolyline
 90
        3
 70
     0
 43
0.0
 10
-1.564832191150035
 20
3.783311243692049
 10
-1.566701041455529
 20
3.802036875928523
 10
-1.567505822601374
 20
3.825
  0
LWPOLYLINE
  5
D4
330
8E
100
AcDbEntity
  8
AM_9
100
AcDbPolyline
 90
        6
 70
     0
 43
0.0
 10
-1.427915522063937
 20
3.616666718340279
 10
-1.444395056585724
 20
3.618006559572118
 10
-1.490328096382476
 20
3.637319964888914
 10
-1.528133598976183
 20
3.677625073970038
 10
-1.55438390413675
 20
3.73470202473775
 10
-1.564832191150035
 20
3.783311243692049
  0
LINE
  5
D5
330
8E
100
AcDbEntity
  8
AM_9
100
AcDbLine
 10
-1.567505822601374
 20
-3.825
 30
0.0
 11
-1.531614058077361
 21
-3.825
 31
0.0
  0
LINE
  5
D6
330
8E
100
AcDbEntity
  8
AM_9
100
AcDbLine
 10
-1.272877997106979
 20
-3.825
 30
0.0
 11
-1.236986232582965
 21
-3.825
 31
0.0
  0
LINE
  5
D7
330
8E
100
AcDbEntity
  8
AM_9
100
AcDbLine
 10
-1.391921567424935
 20
-3.616666666666666
 30
0.0
 11
-1.427621604866567
 21
-3.616666666666666
 31
0.0
  0
LWPOLYLINE
  5
D8
330
8E
100
AcDbEntity
  8
AM_9
100
AcDbPolyline
 90
        3
 70
     0
 43
0.0
 10
-1.528948436625805
 20
-3.783311865181882
 10
-1.530807786031636
 20
-3.801981365801606
 10
-1.53161405807736
 20
-3.825
  0
LWPOLYLINE
  5
D9
330
8E
100
AcDbEntity
  8
AM_9
100
AcDbPolyline
 90
        5
 70
     0
 43
0.0
 10
-1.409870169226691
 20
-3.618204883236563
 10
-1.454567418990238
 20
-3.637299537041749
 10
-1.492311591778396
 20
-3.677580842224686
 10
-1.518512316901823
 20
-3.734646829012066
 10
-1.528948436625805
 20
-3.783311865181882
  0
LWPOLYLINE
  5
DA
330
8E
100
AcDbEntity
  8
AM_9
100
AcDbPolyline
 90
        3
 70
     0
 43
0.0
 10
-1.392220389740063
 20
-3.616666718501794
 10
-1.408677998926563
 20
-3.618003418868588
 10
-1.409870169226691
 20
-3.618204883236563
  0
LWPOLYLINE
  5
DB
330
8E
100
AcDbEntity
  8
AM_9
100
AcDbPolyline
 90
        3
 70
     0
 43
0.0
 10
-1.276163435046178
 20
-3.783311243692049
 10
-1.273868417895053
 20
-3.802036875928525
 10
-1.272877997106979
 20
-3.824999999999999
  0
LWPOLYLINE
  5
DC
330
8E
100
AcDbEntity
  8
AM_9
100
AcDbPolyline
 90
        6
 70
     0
 43
0.0
 10
-1.42770800980353
 20
-3.616666718340279
 10
-1.411033599854733
 20
-3.618006559572118
 10
-1.362429838392152
 20
-3.637319964888915
 10
-1.319886587206788
 20
-3.677625073970038
 10
-1.288869108159894
 20
-3.73470202473775
 10
-1.276163435046178
 20
-3.783311243692049
  0
LINE
  5
DD
330
8E
100
AcDbEntity
  8
AM_9
100
AcDbLine
 10
1.236986232582966
 20
-3.825
 30
0.0
 11
1.236986232582966
 21
-4.25
 31
0.0
  0
LINE
  5
DE
330
8E
100
AcDbEntity
  8
AM_9
100
AcDbLine
 10
-1.236986232582966
 20
-4.25
 30
0.0
 11
-1.236986232582965
 21
-3.825
 31
0.0
  0
LWPOLYLINE
  5
DF
330
8E
100
AcDbEntity
  8
AM_9
100
AcDbPolyline
 90
        6
 70
     0
 43
0.0
 10
-1.236986232582965
 20
-3.825
 10
-1.246089364666153
 20
-3.75625953883819
 10
-1.272068183060238
 20
-3.695271931197331
 10
-1.311451300191404
 20
-3.648667669625169
 10
-1.359067189156682
 20
-3.621853143664084
 10
-1.392220389740063
 20
-3.616666718501794
  0
LINE
  5
E0
330
8E
100
AcDbEntity
  8
AM_9
100
AcDbLine
 10
-1.531614058077361
 20
-3.825
 30
0.0
 11
-1.531614058077361
 21
-4.25
 31
0.0
  0
LINE
  5
E1
330
8E
100
AcDbEntity
  8
AM_9
100
AcDbLine
 10
-1.405545644670569
 20
-3.617542605307445
 30
0.0
 11
-1.392012553424727
 21
-3.616666718501794
 31
0.0
  0
LINE
  5
E2
330
8E
100
AcDbEntity
  8
AM_9
100
AcDbLine
 10
-1.416637106149705
 20
-3.619625722001026
 30
0.0
 11
-1.405545644670569
 21
-3.617542605307445
 31
0.0
  0
LINE
  5
E3
330
8E
100
AcDbEntity
  8
AM_9
100
AcDbLine
 10
1.367178094601802
 20
-3.619620523744521
 30
0.0
 11
1.392220389740063
 21
-3.616666718501794
 31
0.0
  0
LINE
  5
E4
330
8E
100
AcDbEntity
  8
AM_9
100
AcDbLine
 10
1.531614058077361
 20
-4.25
 30
0.0
 11
1.53161405807736
 21
-3.825
 31
0.0
  0
LINE
  5
E5
330
8E
100
AcDbEntity
  8
AM_9
100
AcDbLine
 10
1.410058994786476
 20
-3.61823812086626
 30
0.0
 11
1.392012553424727
 21
-3.616666718501794
 31
0.0
  0
LWPOLYLINE
  5
E6
330
8E
100
AcDbEntity
  8
AM_9
100
AcDbPolyline
 90
        6
 70
     0
 43
0.0
 10
1.528935556996158
 20
-3.783212425833198
 10
1.524217129468733
 20
-3.75625953883819
 10
1.502604106258806
 20
-3.695271931197332
 10
1.468356921775586
 20
-3.648667669625168
 10
1.424399149767283
 20
-3.621853143664084
 10
1.410058994786476
 20
-3.61823812086626
  0
LINE
  5
E7
330
8E
100
AcDbEntity
  8
AM_9
100
AcDbLine
 10
1.53161405807736
 20
-3.825
 30
0.0
 11
1.528935556996158
 21
-3.783212425833198
 31
0.0
  0
LINE
  5
E8
330
8E
100
AcDbEntity
  8
AM_9
100
AcDbLine
 10
1.405545644670569
 20
3.617542605307445
 30
0.0
 11
1.392012553424726
 21
3.616666718501794
 31
0.0
  0
LINE
  5
E9
330
8E
100
AcDbEntity
  8
AM_9
100
AcDbLine
 10
1.416637106149705
 20
3.619625722001026
 30
0.0
 11
1.405545644670569
 21
3.617542605307445
 31
0.0
  0
LINE
  5
EA
330
8E
100
AcDbEntity
  8
AM_9
100
AcDbLine
 10
-1.3671780946018
 20
3.619620523744521
 30
0.0
 11
-1.392220389740063
 21
3.616666718501794
 31
0.0
  0
LINE
  5
EB
330
8E
100
AcDbEntity
  8
AM_9
100
AcDbLine
 10
-1.531614058077361
 20
4.25
 30
0.0
 11
-1.531614058077361
 21
3.825
 31
0.0
  0
LINE
  5
EC
330
8E
100
AcDbEntity
  8
AM_9
100
AcDbLine
 10
-1.410058994786474
 20
3.618238120866259
 30
0.0
 11
-1.392012553424727
 21
3.616666718501794
 31
0.0
  0
LWPOLYLINE
  5
ED
330
8E
100
AcDbEntity
  8
AM_9
100
AcDbPolyline
 90
        6
 70
     0
 43
0.0
 10
-1.528935556996157
 20
3.783212425833199
 10
-1.524217129468733
 20
3.756259538838191
 10
-1.502604106258806
 20
3.695271931197332
 10
-1.468356921775587
 20
3.648667669625169
 10
-1.424399149767283
 20
3.621853143664084
 10
-1.410058994786474
 20
3.618238120866259
  0
LINE
  5
EE
330
8E
100
AcDbEntity
  8
AM_9
100
AcDbLine
 10
-1.53161405807736
 20
3.825
 30
0.0
 11
-1.528935556996157
 21
3.783212425833199
 31
0.0
  0
LINE
  5
EF
330
8E
100
AcDbEntity
  8
AM_9
100
AcDbLine
 10
-1.236986232582965
 20
3.825
 30
0.0
 11
-1.236986232582965
 21
4.25
 31
0.0
  0
LINE
  5
F0
330
8E
100
AcDbEntity
  8
AM_9
100
AcDbLine
 10
1.236986232582966
 20
4.25
 30
0.0
 11
1.236986232582965
 21
3.825
 31
0.0
  0
LWPOLYLINE
  5
F1
330
8E
100
AcDbEntity
  8
AM_9
100
AcDbPolyline
 90
        6
 70
     0
 43
0.0
 10
1.236986232582965
 20
3.825
 10
1.246089364666153
 20
3.75625953883819
 10
1.272068183060239
 20
3.695271931197331
 10
1.311451300191405
 20
3.648667669625169
 10
1.359067189156682
 20
3.621853143664084
 10
1.392220389740063
 20
3.616666718501794
  0
LINE
  5
F2
330
8E
100
AcDbEntity
  8
AM_9
100
AcDbLine
 10
1.531614058077361
 20
3.825
 30
0.0
 11
1.531614058077361
 21
4.25
 31
0.0
  0
LINE
  5
F3
330
8E
100
AcDbEntity
  8
AM_9
100
AcDbLine
 10
-1.96875
 20
4.25
 30
0.0
 11
-1.96875
 21
-4.25
 31
0.0
  0
LINE
  5
F4
330
8E
100
AcDbEntity
  8
AM_9
100
AcDbLine
 10
1.96875
 20
-4.25
 30
0.0
 11
1.96875
 21
4.25
 31
0.0
  0
LINE
  5
F5
330
8E
100
AcDbEntity
  8
AM_9
100
AcDbLine
 10
1.272877997106978
 20
3.825
 30
0.0
 11
1.272877997106979
 21
4.25
 31
0.0
  0
LINE
  5
F6
330
8E
100
AcDbEntity
  8
AM_9
100
AcDbLine
 10
-1.272877997106979
 20
4.25
 30
0.0
 11
-1.272877997106979
 21
3.825
 31
0.0
  0
LWPOLYLINE
  5
F7
330
8E
100
AcDbEntity
  8
AM_9
100
AcDbPolyline
 90
        6
 70
     0
 43
0.0
 10
-1.276179167088671
 20
3.783212478224478
 10
-1.281962521311629
 20
3.756248707174948
 10
-1.307895911562345
 20
3.695251336143152
 10
-1.347221054208408
 20
3.648651591616561
 10
-1.394788659964
 20
3.621847928590963
 10
-1.427915522063937
 20
3.616666718340279
  0
LINE
  5
F8
330
8E
100
AcDbEntity
  8
AM_9
100
AcDbLine
 10
-1.272877997106979
 20
3.825
 30
0.0
 11
-1.276179167088671
 21
3.783212478224478
 31
0.0
  0
LINE
  5
F9
330
8E
100
AcDbEntity
  8
AM_9
100
AcDbLine
 10
-1.567505822601374
 20
3.825
 30
0.0
 11
-1.567505822601374
 21
4.25
 31
0.0
  0
LINE
  5
FA
330
8E
100
AcDbEntity
  8
AM_9
100
AcDbLine
 10
-1.452337606741268
 20
3.619625650660141
 30
0.0
 11
-1.42770800980353
 21
3.616666718340279
 31
0.0
  0
LINE
  5
FB
330
8E
100
AcDbEntity
  8
AM_9
100
AcDbLine
 10
1.41425641826783
 20
3.617542219209714
 30
0.0
 11
1.427915522063937
 21
3.616666718340279
 31
0.0
  0
LINE
  5
FC
330
8E
100
AcDbEntity
  8
AM_9
100
AcDbLine
 10
1.409620317370176
 20
3.618241152847646
 30
0.0
 11
1.41425641826783
 21
3.617542219209714
 31
0.0
  0
LINE
  5
FD
330
8E
100
AcDbEntity
  8
AM_9
100
AcDbLine
 10
1.402878621925446
 20
3.61962058400016
 30
0.0
 11
1.409620317370176
 21
3.618241152847646
 31
0.0
  0
LINE
  5
FE
330
8E
100
AcDbEntity
  8
AM_9
100
AcDbLine
 10
1.567505822601374
 20
4.25
 30
0.0
 11
1.567505822601374
 21
3.825
 31
0.0
  0
LWPOLYLINE
  5
FF
330
8E
100
AcDbEntity
  8
AM_9
100
AcDbPolyline
 90
        6
 70
     0
 43
0.0
 10
1.564819361107585
 20
3.783212478224478
 10
1.560084931457455
 20
3.756248707174949
 10
1.538408653097995
 20
3.695251336143153
 10
1.504090532682747
 20
3.648651591616561
 10
1.460088180023423
 20
3.621847928590963
 10
1.42770800980353
 20
3.616666718340279
  0
LINE
  5
100
330
8E
100
AcDbEntity
  8
AM_9
100
AcDbLine
 10
1.567505822601374
 20
3.825
 30
0.0
 11
1.564819361107585
 21
3.783212478224478
 31
0.0
  0
LINE
  5
101
330
8E
100
AcDbEntity
  8
AM_9
100
AcDbLine
 10
1.272877997106979
 20
-4.25
 30
0.0
 11
1.272877997106979
 21
-3.825
 31
0.0
  0
LWPOLYLINE
  5
102
330
8E
100
AcDbEntity
  8
AM_9
100
AcDbPolyline
 90
        6
 70
     0
 43
0.0
 10
1.276179167088671
 20
-3.783212478224478
 10
1.281962521311629
 20
-3.756248707174948
 10
1.307895911562345
 20
-3.695251336143153
 10
1.347221054208407
 20
-3.648651591616561
 10
1.394788659964001
 20
-3.621847928590963
 10
1.427915522063938
 20
-3.616666718340279
  0
LINE
  5
103
330
8E
100
AcDbEntity
  8
AM_9
100
AcDbLine
 10
1.272877997106978
 20
-3.825
 30
0.0
 11
1.276179167088671
 21
-3.783212478224478
 31
0.0
  0
LINE
  5
104
330
8E
100
AcDbEntity
  8
AM_9
100
AcDbLine
 10
1.567505822601373
 20
-3.825
 30
0.0
 11
1.567505822601374
 21
-4.25
 31
0.0
  0
LINE
  5
105
330
8E
100
AcDbEntity
  8
AM_9
100
AcDbLine
 10
1.452337606741268
 20
-3.619625650660141
 30
0.0
 11
1.42770800980353
 21
-3.616666718340279
 31
0.0
  0
LINE
  5
106
330
8E
100
AcDbEntity
  8
AM_9
100
AcDbLine
 10
-1.414256418267829
 20
-3.617542219209714
 30
0.0
 11
-1.427915522063938
 21
-3.616666718340279
 31
0.0
  0
LINE
  5
107
330
8E
100
AcDbEntity
  8
AM_9
100
AcDbLine
 10
-1.409620317370175
 20
-3.618241152847646
 30
0.0
 11
-1.414256418267829
 21
-3.617542219209714
 31
0.0
  0
LINE
  5
108
330
8E
100
AcDbEntity
  8
AM_9
100
AcDbLine
 10
-1.402878621925447
 20
-3.61962058400016
 30
0.0
 11
-1.409620317370175
 21
-3.618241152847646
 31
0.0
  0
LINE
  5
109
330
8E
100
AcDbEntity
  8
AM_9
100
AcDbLine
 10
-1.567505822601374
 20
-4.25
 30
0.0
 11
-1.567505822601374
 21
-3.825
 31
0.0
  0
LWPOLYLINE
  5
10A
330
8E
100
AcDbEntity
  8
AM_9
100
AcDbPolyline
 90
        6
 70
     0
 43
0.0
 10
-1.564819361107585
 20
-3.783212478224478
 10
-1.560084931457456
 20
-3.756248707174948
 10
-1.538408653097995
 20
-3.695251336143152
 10
-1.504090532682747
 20
-3.648651591616561
 10
-1.460088180023423
 20
-3.621847928590963
 10
-1.42770800980353
 20
-3.616666718340279
  0
LINE
  5
10B
330
8E
100
AcDbEntity
  8
AM_9
100
AcDbLine
 10
-1.567505822601374
 20
-3.825
 30
0.0
 11
-1.564819361107585
 21
-3.783212478224478
 31
0.0
  0
LINE
  5
10C
330
8E
100
AcDbEntity
  8
AM_9
100
AcDbLine
 10
-1.272877997106979
 20
-3.825
 30
0.0
 11
-1.272877997106979
 21
-4.25
 31
0.0
  0
LINE
  5
10D
330
8E
100
AcDbEntity
  8
AM_9
100
AcDbLine
 10
-2.019230769230769
 20
4.25
 30
0.0
 11
-2.019230769230769
 21
-4.25
 31
0.0
  0
LINE
  5
10E
330
8E
100
AcDbEntity
  8
AM_9
100
AcDbLine
 10
2.019230769230769
 20
-4.25
 30
0.0
 11
2.019230769230769
 21
4.25
 31
0.0
  0
LINE
  5
111
330
8E
100
AcDbEntity
  8
AM_7
100
AcDbLine
 10
0.0
 20
4.675000000000017
 30
0.0
 11
0.0
 21
-4.674999999999982
 31
0.0
  0
ENDBLK
  5
91
330
8E
100
AcDbEntity
  8
0
100
AcDbBlockEnd
  0
BLOCK
  5
114
330
112
100
AcDbEntity
  8
0
100
AcDbBlockBegin
  2
3_066238r_0_in_066238_4
 70
     2
 10
0.0
 20
0.0
 30
0.0
  3
3_066238r_0_in_066238_4
  1

  0
ATTDEF
  5
116
330
112
100
AcDbEntity
  8
AM_6
100
AcDbText
 10
8.125
 20
4.25
 30
0.0
 40
0.5
  1
Special Duty Pillow Block - 4 Bolt - Inch - Body - Ins
100
AcDbAttributeDefinition
  3

  2
NN
 70
     8
280
     0
  0
ATTDEF
  5
117
330
112
100
AcDbEntity
  8
AM_6
100
AcDbText
 10
8.125
 20
3.75
 30
0.0
 40
0.5
  1
Special Duty
100
AcDbAttributeDefinition
  3

  2
NT
 70
     8
280
     0
  0
ATTDEF
  5
118
330
112
100
AcDbEntity
  8
AM_6
100
AcDbText
 10
8.125
 20
3.25
 30
0.0
 40
0.5
  1
066238r
100
AcDbAttributeDefinition
  3

  2
NB
 70
     8
280
     0
  0
ATTDEF
  5
119
330
112
100
AcDbEntity
  8
AM_6
100
AcDbText
 10
8.125
 20
2.75
 30
0.0
 40
0.5
  1
$PN1.
100
AcDbAttributeDefinition
  3

  2
NBSYN
 70
     8
280
     0
  0
ATTDEF
  5
11A
330
112
100
AcDbEntity
  8
AM_6
100
AcDbText
 10
8.125
 20
2.25
 30
0.0
 40
0.5
  1
066238r
100
AcDbAttributeDefinition
  3

  2
LINA
 70
     8
280
     0
  0
ATTDEF
  5
11B
330
112
100
AcDbEntity
  8
AM_6
100
AcDbText
 10
8.125
 20
1.75
 30
0.0
 40
0.5
  1
3-15/16
100
AcDbAttributeDefinition
  3

  2
SS
 70
     8
280
     0
  0
ATTDEF
  5
11C
330
112
100
AcDbEntity
  8
AM_6
100
AcDbText
 10
8.125
 20
1.25
 30
0.0
 40
0.5
  1
3.93750
100
AcDbAttributeDefinition
  3

  2
SS1
 70
     8
280
     0
  0
ATTDEF
  5
11D
330
112
100
AcDbEntity
  8
AM_6
100
AcDbText
 10
8.125
 20
0.75
 30
0.0
 40
0.5
  1
066238r
100
AcDbAttributeDefinition
  3

  2
PN1
 70
     8
280
     0
  0
ATTDEF
  5
11E
330
112
100
AcDbEntity
  8
AM_6
100
AcDbText
 10
8.125
 20
0.25
 30
0.0
 40
0.5
  1
066274
100
AcDbAttributeDefinition
  3

  2
PN2
 70
     8
280
     0
  0
ATTDEF
  5
11F
330
112
100
AcDbEntity
  8
AM_6
100
AcDbText
 10
8.125
 20
-0.25
 30
0.0
 40
0.5
  1
P4B-SD-315
100
AcDbAttributeDefinition
  3

  2
DESCRIPTION1
 70
     8
280
     0
  0
ATTDEF
  5
120
330
112
100
AcDbEntity
  8
AM_6
100
AcDbText
 10
8.125
 20
-0.75
 30
0.0
 40
0.5
  1
P4B-SD-315
100
AcDbAttributeDefinition
  3

  2
DESCRIPTION2
 70
     8
280
     0
  0
ATTDEF
  5
121
330
112
100
AcDbEntity
  8
AM_6
100
AcDbText
 10
8.125
 20
-1.25
 30
0.0
 40
0.5
  1
215
100
AcDbAttributeDefinition
  3

  2
WEIGHT1
 70
     8
280
     0
  0
ATTDEF
  5
122
330
112
100
AcDbEntity
  8
AM_6
100
AcDbText
 10
8.125
 20
-1.75
 30
0.0
 40
0.5
  1
230
100
AcDbAttributeDefinition
  3

  2
WEIGHT2
 70
     8
280
     0
  0
ATTDEF
  5
123
330
112
100
AcDbEntity
  8
AM_6
100
AcDbText
 10
8.125
 20
-2.25
 30
0.0
 40
0.5
  1
8-1/2
100
AcDbAttributeDefinition
  3

  2
A
 70
     8
280
     0
  0
ATTDEF
  5
124
330
112
100
AcDbEntity
  8
AM_6
100
AcDbText
 10
8.125
 20
-2.75
 30
0.0
 40
0.5
  1
8.50000
100
AcDbAttributeDefinition
  3

  2
A1
 70
     8
280
     0
  0
ATTDEF
  5
125
330
112
100
AcDbEntity
  8
AM_6
100
AcDbText
 10
8.125
 20
-3.25
 30
0.0
 40
0.5
  1
19
100
AcDbAttributeDefinition
  3

  2
B
 70
     8
280
     0
  0
ATTDEF
  5
126
330
112
100
AcDbEntity
  8
AM_6
100
AcDbText
 10
8.125
 20
-3.75
 30
0.0
 40
0.5
  1
19.00000
100
AcDbAttributeDefinition
  3

  2
B1
 70
     8
280
     0
  0
ATTDEF
  5
127
330
112
100
AcDbEntity
  8
AM_6
100
AcDbText
 10
8.125
 20
-4.25
 30
0.0
 40
0.5
  1
7
100
AcDbAttributeDefinition
  3

  2
C
 70
     8
280
     0
  0
ATTDEF
  5
128
330
112
100
AcDbEntity
  8
AM_6
100
AcDbText
 10
8.125
 20
-4.75
 30
0.0
 40
0.5
  1
7.00000
100
AcDbAttributeDefinition
  3

  2
C1
 70
     8
280
     0
  0
ATTDEF
  5
129
330
112
100
AcDbEntity
  8
AM_6
100
AcDbText
 10
8.125
 20
-5.25
 30
0.0
 40
0.5
  1
15
100
AcDbAttributeDefinition
  3

  2
DMIN
 70
     8
280
     0
  0
ATTDEF
  5
12A
330
112
100
AcDbEntity
  8
AM_6
100
AcDbText
 10
8.125
 20
-5.75
 30
0.0
 40
0.5
  1
15.00000
100
AcDbAttributeDefinition
  3

  2
DMIN1
 70
     8
280
     0
  0
ATTDEF
  5
12B
330
112
100
AcDbEntity
  8
AM_6
100
AcDbText
 10
8.125
 20
-6.25
 30
0.0
 40
0.5
  1
16
100
AcDbAttributeDefinition
  3

  2
DMAX
 70
     8
280
     0
  0
ATTDEF
  5
12C
330
112
100
AcDbEntity
  8
AM_6
100
AcDbText
 10
8.125
 20
-6.75
 30
0.0
 40
0.5
  1
16.00000
100
AcDbAttributeDefinition
  3

  2
DMAX1
 70
     8
280
     0
  0
ATTDEF
  5
12D
330
112
100
AcDbEntity
  8
AM_6
100
AcDbText
 10
8.125
 20
-7.25
 30
0.0
 40
0.5
  1
3-1/4
100
AcDbAttributeDefinition
  3

  2
E
 70
     8
280
     0
  0
ATTDEF
  5
12E
330
112
100
AcDbEntity
  8
AM_6
100
AcDbText
 10
8.125
 20
-7.75
 30
0.0
 40
0.5
  1
3.25000
100
AcDbAttributeDefinition
  3

  2
E1
 70
     8
280
     0
  0
ATTDEF
  5
12F
330
112
100
AcDbEntity
  8
AM_6
100
AcDbText
 10
8.125
 20
-8.25
 30
0.0
 40
0.5
  1
7/8
100
AcDbAttributeDefinition
  3

  2
F
 70
     8
280
     0
  0
ATTDEF
  5
130
330
112
100
AcDbEntity
  8
AM_6
100
AcDbText
 10
8.125
 20
-8.75
 30
0.0
 40
0.5
  1
0.87500
100
AcDbAttributeDefinition
  3

  2
F1
 70
     8
280
     0
  0
ATTDEF
  5
131
330
112
100
AcDbEntity
  8
AM_6
100
AcDbText
 10
8.125
 20
-9.25
 30
0.0
 40
0.5
  1
1-1/2
100
AcDbAttributeDefinition
  3

  2
G
 70
     8
280
     0
  0
ATTDEF
  5
132
330
112
100
AcDbEntity
  8
AM_6
100
AcDbText
 10
8.125
 20
-9.75
 30
0.0
 40
0.5
  1
1.50000
100
AcDbAttributeDefinition
  3

  2
G1
 70
     8
280
     0
  0
ATTDEF
  5
133
330
112
100
AcDbEntity
  8
AM_6
100
AcDbText
 10
8.125
 20
-10.25
 30
0.0
 40
0.5
  1
4
100
AcDbAttributeDefinition
  3

  2
H
 70
     8
280
     0
  0
ATTDEF
  5
134
330
112
100
AcDbEntity
  8
AM_6
100
AcDbText
 10
8.125
 20
-10.75
 30
0.0
 40
0.5
  1
4.00000
100
AcDbAttributeDefinition
  3

  2
H1
 70
     8
280
     0
  0
ATTDEF
  5
135
330
112
100
AcDbEntity
  8
AM_6
100
AcDbText
 10
8.125
 20
-11.25
 30
0.0
 40
0.5
  1
13-3/8
100
AcDbAttributeDefinition
  3

  2
J
 70
     8
280
     0
  0
ATTDEF
  5
136
330
112
100
AcDbEntity
  8
AM_6
100
AcDbText
 10
8.125
 20
-11.75
 30
0.0
 40
0.5
  1
13.37500
100
AcDbAttributeDefinition
  3

  2
J1
 70
     8
280
     0
  0
ATTDEF
  5
137
330
112
100
AcDbEntity
  8
AM_6
100
AcDbText
 10
8.125
 20
-12.25
 30
0.0
 40
0.5
  1
6-1/4
100
AcDbAttributeDefinition
  3

  2
L
 70
     8
280
     0
  0
ATTDEF
  5
138
330
112
100
AcDbEntity
  8
AM_6
100
AcDbText
 10
8.125
 20
-12.75
 30
0.0
 40
0.5
  1
6.25000
100
AcDbAttributeDefinition
  3

  2
L1
 70
     8
280
     0
  0
ATTDEF
  5
139
330
112
100
AcDbEntity
  8
AM_6
100
AcDbText
 10
8.125
 20
-13.25
 30
0.0
 40
0.5
  1
6-3/8
100
AcDbAttributeDefinition
  3

  2
M
 70
     8
280
     0
  0
ATTDEF
  5
13A
330
112
100
AcDbEntity
  8
AM_6
100
AcDbText
 10
8.125
 20
-13.75
 30
0.0
 40
0.5
  1
6.37500
100
AcDbAttributeDefinition
  3

  2
M1
 70
     8
280
     0
  0
ATTDEF
  5
13B
330
112
100
AcDbEntity
  8
AM_6
100
AcDbText
 10
8.125
 20
-14.25
 30
0.0
 40
0.5
  1
13-3/4
100
AcDbAttributeDefinition
  3

  2
P
 70
     8
280
     0
  0
ATTDEF
  5
13C
330
112
100
AcDbEntity
  8
AM_6
100
AcDbText
 10
8.125
 20
-14.75
 30
0.0
 40
0.5
  1
13.75000
100
AcDbAttributeDefinition
  3

  2
P1
 70
     8
280
     0
  0
ATTDEF
  5
13D
330
112
100
AcDbEntity
  8
AM_6
100
AcDbText
 10
8.125
 20
-15.25
 30
0.0
 40
0.5
  1
4-1/4
100
AcDbAttributeDefinition
  3

  2
R
 70
     8
280
     0
  0
ATTDEF
  5
13E
330
112
100
AcDbEntity
  8
AM_6
100
AcDbText
 10
8.125
 20
-15.75
 30
0.0
 40
0.5
  1
4.25000
100
AcDbAttributeDefinition
  3

  2
R1
 70
     8
280
     0
  0
ATTDEF
  5
13F
330
112
100
AcDbEntity
  8
AM_6
100
AcDbText
 10
8.125
 20
-16.25
 30
0.0
 40
0.5
  1
4-1/4
100
AcDbAttributeDefinition
  3

  2
S
 70
     8
280
     0
  0
ATTDEF
  5
140
330
112
100
AcDbEntity
  8
AM_6
100
AcDbText
 10
8.125
 20
-16.75
 30
0.0
 40
0.5
  1
4.25000
100
AcDbAttributeDefinition
  3

  2
S1
 70
     8
280
     0
  0
ATTDEF
  5
141
330
112
100
AcDbEntity
  8
AM_6
100
AcDbText
 10
8.125
 20
-17.25
 30
0.0
 40
0.5
  1
3/4
100
AcDbAttributeDefinition
  3

  2
EXP
 70
     8
280
     0
  0
ATTDEF
  5
142
330
112
100
AcDbEntity
  8
AM_6
100
AcDbText
 10
8.125
 20
-17.75
 30
0.0
 40
0.5
  1
baldor
100
AcDbAttributeDefinition
  3

  2
COMPANY
 70
     8
280
     0
  0
LINE
  5
143
330
112
100
AcDbEntity
  8
AM_9
100
AcDbLine
 10
-2.019230769230769
 20
4.218750000000003
 30
0.0
 11
-2.019230769230769
 21
-4.218750000000003
 31
0.0
  0
LINE
  5
144
330
112
100
AcDbEntity
  8
AM_9
100
AcDbLine
 10
2.019230769230769
 20
-4.218750000000003
 30
0.0
 11
2.019230769230769
 21
4.218750000000003
 31
0.0
  0
LINE
  5
145
330
112
100
AcDbEntity
  8
AM_9
100
AcDbLine
 10
2.019230769230769
 20
4.218750000000003
 30
0.0
 11
-2.019230769230769
 21
4.218750000000003
 31
0.0
  0
ARC
  5
146
330
112
100
AcDbEntity
  8
AM_9
100
AcDbCircle
 10
-2.050480769230768
 20
4.218750000000002
 30
0.0
 40
0.0312499999999987
100
AcDbArc
 50
0.0
 51
90.0
  0
ARC
  5
147
330
112
100
AcDbEntity
  8
AM_9
100
AcDbCircle
 10
2.050480769230768
 20
4.218750000000002
 30
0.0
 40
0.0312499999999982
100
AcDbArc
 50
90.0
 51
180.0
  0
LINE
  5
148
330
112
100
AcDbEntity
  8
AM_9
100
AcDbLine
 10
2.019230769230769
 20
-4.218750000000003
 30
0.0
 11
-2.019230769230769
 21
-4.218750000000003
 31
0.0
  0
ARC
  5
149
330
112
100
AcDbEntity
  8
AM_9
100
AcDbCircle
 10
-2.050480769230768
 20
-4.218750000000002
 30
0.0
 40
0.0312499999999982
100
AcDbArc
 50
270.0
 51
0.0
  0
ARC
  5
14A
330
112
100
AcDbEntity
  8
AM_9
100
AcDbCircle
 10
2.050480769230768
 20
-4.218750000000002
 30
0.0
 40
0.0312499999999987
100
AcDbArc
 50
180.0
 51
270.0
  0
LINE
  5
14B
330
112
100
AcDbEntity
  8
AM_9
100
AcDbLine
 10
-3.125
 20
3.783783783783784
 30
0.0
 11
-3.125
 21
-3.783783783783784
 31
0.0
  0
LINE
  5
14C
330
112
100
AcDbEntity
  8
AM_9
100
AcDbLine
 10
3.125
 20
-3.783783783783784
 30
0.0
 11
3.125
 21
3.783783783783784
 31
0.0
  0
LINE
  5
14E
330
112
100
AcDbEntity
  8
AM_4
100
AcDbLine
 10
2.916666666666666
 20
-4.25
 30
0.0
 11
-2.916666666664985
 21
-4.25
 31
0.0
  0
ARC
  5
14F
330
112
100
AcDbEntity
  8
AM_4
100
AcDbCircle
 10
-2.916666666666667
 20
-4.041666666666668
 30
0.0
 40
0.2083333333333326
100
AcDbArc
 50
179.9999991462263
 51
270.0
  0
ARC
  5
150
330
112
100
AcDbEntity
  8
AM_4
100
AcDbCircle
 10
2.916666666666667
 20
-4.041666666666668
 30
0.0
 40
0.2083333333333321
100
AcDbArc
 50
270.0
 51
0.0000008537736463
  0
LINE
  5
151
330
112
100
AcDbEntity
  8
AM_4
100
AcDbLine
 10
2.916666669771074
 20
4.25
 30
0.0
 11
-2.916666669769393
 21
4.25
 31
0.0
  0
ARC
  5
152
330
112
100
AcDbEntity
  8
AM_4
100
AcDbCircle
 10
-2.916666666666664
 20
4.041666666666664
 30
0.0
 40
0.2083333333333357
100
AcDbArc
 50
90.0
 51
180.0
  0
ARC
  5
153
330
112
100
AcDbEntity
  8
AM_4
100
AcDbCircle
 10
2.916666666666664
 20
4.041666666666664
 30
0.0
 40
0.2083333333333357
100
AcDbArc
 50
0.0
 51
90.0
  0
LINE
  5
154
330
112
100
AcDbEntity
  8
AM_4
100
AcDbLine
 10
3.125
 20
4.041666666666665
 30
0.0
 11
-3.125
 21
4.041666666666665
 31
0.0
  0
LINE
  5
155
330
112
100
AcDbEntity
  8
AM_4
100
AcDbLine
 10
3.125
 20
-4.041666666666665
 30
0.0
 11
-3.125
 21
-4.041666666666665
 31
0.0
  0
LINE
  5
156
330
112
100
AcDbEntity
  8
AM_4
100
AcDbLine
 10
-3.125
 20
-3.783783783783784
 30
0.0
 11
-3.125
 21
-4.041666666666665
 31
0.0
  0
LINE
  5
157
330
112
100
AcDbEntity
  8
AM_4
100
AcDbLine
 10
-3.125
 20
4.041666666666665
 30
0.0
 11
-3.125
 21
3.783783783783784
 31
0.0
  0
LINE
  5
158
330
112
100
AcDbEntity
  8
AM_4
100
AcDbLine
 10
3.125
 20
3.783783783783784
 30
0.0
 11
3.125
 21
4.041666666666665
 31
0.0
  0
LINE
  5
159
330
112
100
AcDbEntity
  8
AM_4
100
AcDbLine
 10
3.125
 20
-4.041666666666665
 30
0.0
 11
3.125
 21
-3.783783783783784
 31
0.0
  0
ENDBLK
  5
115
330
112
100
AcDbEntity
  8
0
100
AcDbBlockEnd
  0
BLOCK
  5
15C
330
15A
100
AcDbEntity
  8
0
100
AcDbBlockBegin
  2
4_066238p_0_in_066238_4
 70
     2
 10
0.0
 20
0.0
 30
0.0
  3
4_066238p_0_in_066238_4
  1

  0
ATTDEF
  5
15E
330
15A
100
AcDbEntity
  8
AM_6
100
AcDbText
 10
14.5
 20
3.783783783783784
 30
0.0
 40
0.5
  1
Special Duty Pillow Block - 4 Bolt - Inch - Body
100
AcDbAttributeDefinition
  3

  2
NN
 70
     8
280
     0
  0
ATTDEF
  5
15F
330
15A
100
AcDbEntity
  8
AM_6
100
AcDbText
 10
14.5
 20
3.283783783783784
 30
0.0
 40
0.5
  1
Special Duty
100
AcDbAttributeDefinition
  3

  2
NT
 70
     8
280
     0
  0
ATTDEF
  5
160
330
15A
100
AcDbEntity
  8
AM_6
100
AcDbText
 10
14.5
 20
2.783783783783784
 30
0.0
 40
0.5
  1
066238p
100
AcDbAttributeDefinition
  3

  2
NB
 70
     8
280
     0
  0
ATTDEF
  5
161
330
15A
100
AcDbEntity
  8
AM_6
100
AcDbText
 10
14.5
 20
2.283783783783784
 30
0.0
 40
0.5
  1
$PN.
100
AcDbAttributeDefinition
  3

  2
NBSYN
 70
     8
280
     0
  0
ATTDEF
  5
162
330
15A
100
AcDbEntity
  8
AM_6
100
AcDbText
 10
14.5
 20
1.783783783783784
 30
0.0
 40
0.5
  1
066238p
100
AcDbAttributeDefinition
  3

  2
LINA
 70
     8
280
     0
  0
ATTDEF
  5
163
330
15A
100
AcDbEntity
  8
AM_6
100
AcDbText
 10
14.5
 20
1.283783783783784
 30
0.0
 40
0.5
  1
3-15/16
100
AcDbAttributeDefinition
  3

  2
SS
 70
     8
280
     0
  0
ATTDEF
  5
164
330
15A
100
AcDbEntity
  8
AM_6
100
AcDbText
 10
14.5
 20
0.7837837837837838
 30
0.0
 40
0.5
  1
3.93750
100
AcDbAttributeDefinition
  3

  2
SS1
 70
     8
280
     0
  0
ATTDEF
  5
165
330
15A
100
AcDbEntity
  8
AM_6
100
AcDbText
 10
14.5
 20
0.2837837837837838
 30
0.0
 40
0.5
  1
Gray Iron Non - Expansion
100
AcDbAttributeDefinition
  3

  2
TYPE
 70
     8
280
     0
  0
ATTDEF
  5
166
330
15A
100
AcDbEntity
  8
AM_6
100
AcDbText
 10
14.5
 20
-0.2162162162162162
 30
0.0
 40
0.5
  1
066238p
100
AcDbAttributeDefinition
  3

  2
PN1
 70
     8
280
     0
  0
ATTDEF
  5
167
330
15A
100
AcDbEntity
  8
AM_6
100
AcDbText
 10
14.5
 20
-0.7162162162162162
 30
0.0
 40
0.5
  1
066274b
100
AcDbAttributeDefinition
  3

  2
PN2
 70
     8
280
     0
  0
ATTDEF
  5
168
330
15A
100
AcDbEntity
  8
AM_6
100
AcDbText
 10
14.5
 20
-1.216216216216216
 30
0.0
 40
0.5
  1
P4B-SD-315
100
AcDbAttributeDefinition
  3

  2
DESCRIPTION1
 70
     8
280
     0
  0
ATTDEF
  5
169
330
15A
100
AcDbEntity
  8
AM_6
100
AcDbText
 10
14.5
 20
-1.716216216216216
 30
0.0
 40
0.5
  1
P4B-SD-315
100
AcDbAttributeDefinition
  3

  2
DESCRIPTION2
 70
     8
280
     0
  0
ATTDEF
  5
16A
330
15A
100
AcDbEntity
  8
AM_6
100
AcDbText
 10
14.5
 20
-2.216216216216216
 30
0.0
 40
0.5
  1
215
100
AcDbAttributeDefinition
  3

  2
WEIGHT1
 70
     8
280
     0
  0
ATTDEF
  5
16B
330
15A
100
AcDbEntity
  8
AM_6
100
AcDbText
 10
14.5
 20
-2.716216216216216
 30
0.0
 40
0.5
  1
230
100
AcDbAttributeDefinition
  3

  2
WEIGHT2
 70
     8
280
     0
  0
ATTDEF
  5
16C
330
15A
100
AcDbEntity
  8
AM_6
100
AcDbText
 10
14.5
 20
-3.216216216216216
 30
0.0
 40
0.5
  1
8-1/2
100
AcDbAttributeDefinition
  3

  2
A
 70
     8
280
     0
  0
ATTDEF
  5
16D
330
15A
100
AcDbEntity
  8
AM_6
100
AcDbText
 10
14.5
 20
-3.716216216216216
 30
0.0
 40
0.5
  1
8.50000
100
AcDbAttributeDefinition
  3

  2
A1
 70
     8
280
     0
  0
ATTDEF
  5
16E
330
15A
100
AcDbEntity
  8
AM_6
100
AcDbText
 10
14.5
 20
-4.216216216216216
 30
0.0
 40
0.5
  1
19
100
AcDbAttributeDefinition
  3

  2
B
 70
     8
280
     0
  0
ATTDEF
  5
16F
330
15A
100
AcDbEntity
  8
AM_6
100
AcDbText
 10
14.5
 20
-4.716216216216216
 30
0.0
 40
0.5
  1
19.00000
100
AcDbAttributeDefinition
  3

  2
B1
 70
     8
280
     0
  0
ATTDEF
  5
170
330
15A
100
AcDbEntity
  8
AM_6
100
AcDbText
 10
14.5
 20
-5.216216216216216
 30
0.0
 40
0.5
  1
7
100
AcDbAttributeDefinition
  3

  2
C
 70
     8
280
     0
  0
ATTDEF
  5
171
330
15A
100
AcDbEntity
  8
AM_6
100
AcDbText
 10
14.5
 20
-5.716216216216216
 30
0.0
 40
0.5
  1
7.00000
100
AcDbAttributeDefinition
  3

  2
C1
 70
     8
280
     0
  0
ATTDEF
  5
172
330
15A
100
AcDbEntity
  8
AM_6
100
AcDbText
 10
14.5
 20
-6.216216216216216
 30
0.0
 40
0.5
  1
15
100
AcDbAttributeDefinition
  3

  2
DMIN
 70
     8
280
     0
  0
ATTDEF
  5
173
330
15A
100
AcDbEntity
  8
AM_6
100
AcDbText
 10
14.5
 20
-6.716216216216216
 30
0.0
 40
0.5
  1
15.00000
100
AcDbAttributeDefinition
  3

  2
DMIN1
 70
     8
280
     0
  0
ATTDEF
  5
174
330
15A
100
AcDbEntity
  8
AM_6
100
AcDbText
 10
14.5
 20
-7.216216216216216
 30
0.0
 40
0.5
  1
16
100
AcDbAttributeDefinition
  3

  2
DMAX
 70
     8
280
     0
  0
ATTDEF
  5
175
330
15A
100
AcDbEntity
  8
AM_6
100
AcDbText
 10
14.5
 20
-7.716216216216216
 30
0.0
 40
0.5
  1
16.00000
100
AcDbAttributeDefinition
  3

  2
DMAX1
 70
     8
280
     0
  0
ATTDEF
  5
176
330
15A
100
AcDbEntity
  8
AM_6
100
AcDbText
 10
14.5
 20
-8.216216216216216
 30
0.0
 40
0.5
  1
3-1/4
100
AcDbAttributeDefinition
  3

  2
E
 70
     8
280
     0
  0
ATTDEF
  5
177
330
15A
100
AcDbEntity
  8
AM_6
100
AcDbText
 10
14.5
 20
-8.716216216216216
 30
0.0
 40
0.5
  1
3.25000
100
AcDbAttributeDefinition
  3

  2
E1
 70
     8
280
     0
  0
ATTDEF
  5
178
330
15A
100
AcDbEntity
  8
AM_6
100
AcDbText
 10
14.5
 20
-9.216216216216216
 30
0.0
 40
0.5
  1
7/8
100
AcDbAttributeDefinition
  3

  2
F
 70
     8
280
     0
  0
ATTDEF
  5
179
330
15A
100
AcDbEntity
  8
AM_6
100
AcDbText
 10
14.5
 20
-9.716216216216216
 30
0.0
 40
0.5
  1
0.87500
100
AcDbAttributeDefinition
  3

  2
F1
 70
     8
280
     0
  0
ATTDEF
  5
17A
330
15A
100
AcDbEntity
  8
AM_6
100
AcDbText
 10
14.5
 20
-10.21621621621622
 30
0.0
 40
0.5
  1
1-1/2
100
AcDbAttributeDefinition
  3

  2
G
 70
     8
280
     0
  0
ATTDEF
  5
17B
330
15A
100
AcDbEntity
  8
AM_6
100
AcDbText
 10
14.5
 20
-10.71621621621622
 30
0.0
 40
0.5
  1
1.50000
100
AcDbAttributeDefinition
  3

  2
G1
 70
     8
280
     0
  0
ATTDEF
  5
17C
330
15A
100
AcDbEntity
  8
AM_6
100
AcDbText
 10
14.5
 20
-11.21621621621622
 30
0.0
 40
0.5
  1
4
100
AcDbAttributeDefinition
  3

  2
H
 70
     8
280
     0
  0
ATTDEF
  5
17D
330
15A
100
AcDbEntity
  8
AM_6
100
AcDbText
 10
14.5
 20
-11.71621621621622
 30
0.0
 40
0.5
  1
4.00000
100
AcDbAttributeDefinition
  3

  2
H1
 70
     8
280
     0
  0
ATTDEF
  5
17E
330
15A
100
AcDbEntity
  8
AM_6
100
AcDbText
 10
14.5
 20
-12.21621621621622
 30
0.0
 40
0.5
  1
13-3/8
100
AcDbAttributeDefinition
  3

  2
J
 70
     8
280
     0
  0
ATTDEF
  5
17F
330
15A
100
AcDbEntity
  8
AM_6
100
AcDbText
 10
14.5
 20
-12.71621621621622
 30
0.0
 40
0.5
  1
13.37500
100
AcDbAttributeDefinition
  3

  2
J1
 70
     8
280
     0
  0
ATTDEF
  5
180
330
15A
100
AcDbEntity
  8
AM_6
100
AcDbText
 10
14.5
 20
-13.21621621621622
 30
0.0
 40
0.5
  1
0.438
100
AcDbAttributeDefinition
  3

  2
J11
 70
     8
280
     0
  0
ATTDEF
  5
181
330
15A
100
AcDbEntity
  8
AM_6
100
AcDbText
 10
14.5
 20
-13.71621621621622
 30
0.0
 40
0.5
  1
6-1/4
100
AcDbAttributeDefinition
  3

  2
L
 70
     8
280
     0
  0
ATTDEF
  5
182
330
15A
100
AcDbEntity
  8
AM_6
100
AcDbText
 10
14.5
 20
-14.21621621621622
 30
0.0
 40
0.5
  1
6.25000
100
AcDbAttributeDefinition
  3

  2
L1
 70
     8
280
     0
  0
ATTDEF
  5
183
330
15A
100
AcDbEntity
  8
AM_6
100
AcDbText
 10
14.5
 20
-14.71621621621622
 30
0.0
 40
0.5
  1
6-3/8
100
AcDbAttributeDefinition
  3

  2
M
 70
     8
280
     0
  0
ATTDEF
  5
184
330
15A
100
AcDbEntity
  8
AM_6
100
AcDbText
 10
14.5
 20
-15.21621621621622
 30
0.0
 40
0.5
  1
6.37500
100
AcDbAttributeDefinition
  3

  2
M1
 70
     8
280
     0
  0
ATTDEF
  5
185
330
15A
100
AcDbEntity
  8
AM_6
100
AcDbText
 10
14.5
 20
-15.71621621621622
 30
0.0
 40
0.5
  1
13-3/4
100
AcDbAttributeDefinition
  3

  2
P
 70
     8
280
     0
  0
ATTDEF
  5
186
330
15A
100
AcDbEntity
  8
AM_6
100
AcDbText
 10
14.5
 20
-16.21621621621622
 30
0.0
 40
0.5
  1
13.75000
100
AcDbAttributeDefinition
  3

  2
P1
 70
     8
280
     0
  0
ATTDEF
  5
187
330
15A
100
AcDbEntity
  8
AM_6
100
AcDbText
 10
14.5
 20
-16.71621621621622
 30
0.0
 40
0.5
  1
4-1/4
100
AcDbAttributeDefinition
  3

  2
R
 70
     8
280
     0
  0
ATTDEF
  5
188
330
15A
100
AcDbEntity
  8
AM_6
100
AcDbText
 10
14.5
 20
-17.21621621621622
 30
0.0
 40
0.5
  1
4.25000
100
AcDbAttributeDefinition
  3

  2
R1
 70
     8
280
     0
  0
ATTDEF
  5
189
330
15A
100
AcDbEntity
  8
AM_6
100
AcDbText
 10
14.5
 20
-17.71621621621622
 30
0.0
 40
0.5
  1
4-1/4
100
AcDbAttributeDefinition
  3

  2
S
 70
     8
280
     0
  0
ATTDEF
  5
18A
330
15A
100
AcDbEntity
  8
AM_6
100
AcDbText
 10
14.5
 20
-18.21621621621622
 30
0.0
 40
0.5
  1
4.25000
100
AcDbAttributeDefinition
  3

  2
S1
 70
     8
280
     0
  0
ATTDEF
  5
18B
330
15A
100
AcDbEntity
  8
AM_6
100
AcDbText
 10
14.5
 20
-18.71621621621622
 30
0.0
 40
0.5
  1
3/4
100
AcDbAttributeDefinition
  3

  2
EXP
 70
     8
280
     0
  0
ATTDEF
  5
18C
330
15A
100
AcDbEntity
  8
AM_6
100
AcDbText
 10
14.5
 20
-19.21621621621622
 30
0.0
 40
0.5
  1
baldor
100
AcDbAttributeDefinition
  3

  2
COMPANY
 70
     8
280
     0
  0
LINE
  5
18D
330
15A
100
AcDbEntity
  8
AM_9
100
AcDbLine
 10
-5.555432392111068
 20
2.5
 30
0.0
 11
-5.555432392111068
 21
3.5
 31
0.0
  0
LINE
  5
18E
330
15A
100
AcDbEntity
  8
AM_9
100
AcDbLine
 10
-5.555432392111068
 20
-0.7500000000000001
 30
0.0
 11
-5.555432392111068
 21
0.7499999999999998
 31
0.0
  0
LINE
  5
18F
330
15A
100
AcDbEntity
  8
AM_9
100
AcDbLine
 10
-5.555432392111068
 20
-3.5
 30
0.0
 11
-5.555432392111068
 21
-2.5
 31
0.0
  0
LINE
  5
190
330
15A
100
AcDbEntity
  8
AM_9
100
AcDbLine
 10
5.555432392111068
 20
3.5
 30
0.0
 11
5.555432392111068
 21
2.5
 31
0.0
  0
LINE
  5
191
330
15A
100
AcDbEntity
  8
AM_9
100
AcDbLine
 10
5.555432392111068
 20
0.7499999999999998
 30
0.0
 11
5.555432392111068
 21
-0.7500000000000001
 31
0.0
  0
LINE
  5
192
330
15A
100
AcDbEntity
  8
AM_9
100
AcDbLine
 10
5.555432392111068
 20
-2.5
 30
0.0
 11
5.555432392111068
 21
-3.5
 31
0.0
  0
LINE
  5
193
330
15A
100
AcDbEntity
  8
AM_9
100
AcDbLine
 10
3.125
 20
-3.783783783783784
 30
0.0
 11
3.125
 21
3.783783783783784
 31
0.0
  0
LINE
  5
194
330
15A
100
AcDbEntity
  8
AM_9
100
AcDbLine
 10
-3.125
 20
3.783783783783784
 30
0.0
 11
-3.125
 21
-3.783783783783784
 31
0.0
  0
LINE
  5
195
330
15A
100
AcDbEntity
  8
AM_9
100
AcDbLine
 10
5.610731055603726
 20
2.5
 30
0.0
 11
5.610731055603726
 21
3.5
 31
0.0
  0
LINE
  5
196
330
15A
100
AcDbEntity
  8
AM_9
100
AcDbLine
 10
-5.610731055603729
 20
2.5
 30
0.0
 11
-5.610731055603729
 21
3.5
 31
0.0
  0
LINE
  5
197
330
15A
100
AcDbEntity
  8
AM_9
100
AcDbLine
 10
-5.610731055603729
 20
-0.7500000000000001
 30
0.0
 11
-5.610731055603729
 21
0.7499999999999998
 31
0.0
  0
LINE
  5
198
330
15A
100
AcDbEntity
  8
AM_9
100
AcDbLine
 10
-5.610731055603729
 20
-3.5
 30
0.0
 11
-5.610731055603727
 21
-2.5
 31
0.0
  0
LINE
  5
199
330
15A
100
AcDbEntity
  8
AM_9
100
AcDbLine
 10
5.610731055603726
 20
-3.5
 30
0.0
 11
5.610731055603726
 21
-2.5
 31
0.0
  0
LINE
  5
19A
330
15A
100
AcDbEntity
  8
AM_9
100
AcDbLine
 10
5.610731055603726
 20
-0.7500000000000001
 30
0.0
 11
5.610731055603726
 21
0.7499999999999998
 31
0.0
  0
LINE
  5
19B
330
15A
100
AcDbEntity
  8
AM_7
100
AcDbLine
 10
-1.604166666666667
 20
0.0000000000000004
 30
0.0
 11
1.604166666666667
 21
0.0000000000000004
 31
0.0
  0
LINE
  5
19C
330
15A
100
AcDbEntity
  8
AM_7
100
AcDbLine
 10
7.474999999999985
 20
1.624999999999999
 30
0.0
 11
8.525
 21
1.624999999999999
 31
0.0
  0
LINE
  5
19D
330
15A
100
AcDbEntity
  8
AM_7
100
AcDbLine
 10
7.999999999999993
 20
1.099999999999992
 30
0.0
 11
7.999999999999993
 21
2.150000000000007
 31
0.0
  0
LINE
  5
19E
330
15A
100
AcDbEntity
  8
AM_7
100
AcDbLine
 10
-6.44638586956522
 20
1.625000000000002
 30
0.0
 11
-5.510135869565217
 21
1.625000000000002
 31
0.0
  0
LINE
  5
19F
330
15A
100
AcDbEntity
  8
AM_7
100
AcDbLine
 10
-5.978260869565219
 20
1.156875
 30
0.0
 11
-5.978260869565219
 21
2.093125000000003
 31
0.0
  0
LINE
  5
1A0
330
15A
100
AcDbEntity
  8
AM_7
100
AcDbLine
 10
-8.525
 20
1.625000000000001
 30
0.0
 11
-7.474999999999985
 21
1.625000000000001
 31
0.0
  0
LINE
  5
1A1
330
15A
100
AcDbEntity
  8
AM_7
100
AcDbLine
 10
-7.999999999999993
 20
1.099999999999993
 30
0.0
 11
-7.999999999999993
 21
2.150000000000008
 31
0.0
  0
LINE
  5
1A2
330
15A
100
AcDbEntity
  8
AM_7
100
AcDbLine
 10
5.510135869565219
 20
-1.625
 30
0.0
 11
6.446385869565218
 21
-1.625
 31
0.0
  0
LINE
  5
1A3
330
15A
100
AcDbEntity
  8
AM_7
100
AcDbLine
 10
5.978260869565219
 20
-2.093125
 30
0.0
 11
5.978260869565219
 21
-1.156875000000001
 31
0.0
  0
LINE
  5
1A4
330
15A
100
AcDbEntity
  8
AM_7
100
AcDbLine
 10
5.510135869565228
 20
1.62499999999999
 30
0.0
 11
6.446385869565208
 21
1.62499999999999
 31
0.0
  0
LINE
  5
1A5
330
15A
100
AcDbEntity
  8
AM_7
100
AcDbLine
 10
5.978260869565218
 20
1.156875
 30
0.0
 11
5.978260869565218
 21
2.09312499999998
 31
0.0
  0
LINE
  5
1A6
330
15A
100
AcDbEntity
  8
AM_7
100
AcDbLine
 10
-8.525
 20
-1.624999999999999
 30
0.0
 11
-7.474999999999985
 21
-1.624999999999999
 31
0.0
  0
LINE
  5
1A7
330
15A
100
AcDbEntity
  8
AM_7
100
AcDbLine
 10
-7.999999999999993
 20
-2.150000000000007
 30
0.0
 11
-7.999999999999993
 21
-1.099999999999992
 31
0.0
  0
LINE
  5
1A8
330
15A
100
AcDbEntity
  8
AM_7
100
AcDbLine
 10
-6.446385869565222
 20
-1.624999999999998
 30
0.0
 11
-5.510135869565217
 21
-1.624999999999998
 31
0.0
  0
LINE
  5
1A9
330
15A
100
AcDbEntity
  8
AM_7
100
AcDbLine
 10
-5.97826086956522
 20
-2.093125000000001
 30
0.0
 11
-5.97826086956522
 21
-1.156874999999996
 31
0.0
  0
LINE
  5
1AA
330
15A
100
AcDbEntity
  8
AM_7
100
AcDbLine
 10
7.474999999999985
 20
-1.625
 30
0.0
 11
8.525
 21
-1.625
 31
0.0
  0
LINE
  5
1AB
330
15A
100
AcDbEntity
  8
AM_7
100
AcDbLine
 10
7.999999999999993
 20
-2.150000000000008
 30
0.0
 11
7.999999999999993
 21
-1.099999999999993
 31
0.0
  0
LINE
  5
1AC
330
15A
100
AcDbEntity
  8
AM_4
100
AcDbLine
 10
9.5
 20
3.5
 30
0.0
 11
-9.5
 21
3.5
 31
0.0
  0
LINE
  5
1AD
330
15A
100
AcDbEntity
  8
AM_4
100
AcDbLine
 10
9.5
 20
-3.5
 30
0.0
 11
9.5
 21
3.5
 31
0.0
  0
LINE
  5
1AE
330
15A
100
AcDbEntity
  8
AM_4
100
AcDbLine
 10
-9.5
 20
-3.5
 30
0.0
 11
-9.5
 21
3.5
 31
0.0
  0
LINE
  5
1AF
330
15A
100
AcDbEntity
  8
AM_4
100
AcDbLine
 10
9.5
 20
-3.5
 30
0.0
 11
-9.5
 21
-3.5
 31
0.0
  0
ARC
  5
1B0
330
15A
100
AcDbEntity
  8
AM_4
100
AcDbCircle
 10
-7.500000000000002
 20
1.625000000000002
 30
0.0
 40
0.5000000000000082
100
AcDbArc
 50
270.0
 51
330.0735651333842
  0
ARC
  5
1B1
330
15A
100
AcDbEntity
  8
AM_4
100
AcDbCircle
 10
-7.500000000000001
 20
1.625000000000002
 30
0.0
 40
0.5000000000000068
100
AcDbArc
 50
29.92643486661554
 51
90.0
  0
ARC
  5
1B2
330
15A
100
AcDbEntity
  8
AM_4
100
AcDbCircle
 10
-7.999999999999993
 20
1.625000000000001
 30
0.0
 40
0.5000000000000071
100
AcDbArc
 50
90.0
 51
270.0
  0
LINE
  5
1B3
330
15A
100
AcDbEntity
  8
AM_4
100
AcDbLine
 10
-7.999999999999992
 20
1.124999999999994
 30
0.0
 11
-7.5
 21
1.124999999999994
 31
0.0
  0
LINE
  5
1B4
330
15A
100
AcDbEntity
  8
AM_4
100
AcDbLine
 10
-7.5
 20
2.125000000000008
 30
0.0
 11
-7.999999999999992
 21
2.125000000000008
 31
0.0
  0
LINE
  5
1B5
330
15A
100
AcDbEntity
  8
AM_4
100
AcDbLine
 10
-9.1
 20
0.7500000000000001
 30
0.0
 11
-9.1
 21
2.5
 31
0.0
  0
ARC
  5
1B6
330
15A
100
AcDbEntity
  8
AM_4
100
AcDbCircle
 10
7.500000000000001
 20
1.624999999999998
 30
0.0
 40
0.5000000000000089
100
AcDbArc
 50
90.0
 51
150.0735651333844
  0
ARC
  5
1B7
330
15A
100
AcDbEntity
  8
AM_4
100
AcDbCircle
 10
7.500000000000001
 20
1.625000000000001
 30
0.0
 40
0.5000000000000088
100
AcDbArc
 50
209.9264348666155
 51
270.0
  0
LINE
  5
1B8
330
15A
100
AcDbEntity
  8
AM_4
100
AcDbLine
 10
7.999999999999992
 20
2.125000000000007
 30
0.0
 11
7.5
 21
2.125000000000007
 31
0.0
  0
ARC
  5
1B9
330
15A
100
AcDbEntity
  8
AM_4
100
AcDbCircle
 10
7.999999999999993
 20
1.624999999999999
 30
0.0
 40
0.5000000000000067
100
AcDbArc
 50
270.0
 51
90.0
  0
LINE
  5
1BA
330
15A
100
AcDbEntity
  8
AM_4
100
AcDbLine
 10
7.5
 20
1.124999999999992
 30
0.0
 11
8.0
 21
1.124999999999993
 31
0.0
  0
LINE
  5
1BB
330
15A
100
AcDbEntity
  8
AM_4
100
AcDbLine
 10
9.1
 20
0.7500000000000001
 30
0.0
 11
9.1
 21
2.5
 31
0.0
  0
ARC
  5
1BC
330
15A
100
AcDbEntity
  8
AM_4
100
AcDbCircle
 10
-7.499999999999999
 20
-1.625000000000002
 30
0.0
 40
0.5000000000000042
100
AcDbArc
 50
270.0
 51
330.0735651333845
  0
ARC
  5
1BD
330
15A
100
AcDbEntity
  8
AM_4
100
AcDbCircle
 10
-7.500000000000002
 20
-1.625000000000001
 30
0.0
 40
0.5000000000000088
100
AcDbArc
 50
29.92643486661573
 51
90.0
  0
ARC
  5
1BE
330
15A
100
AcDbEntity
  8
AM_4
100
AcDbCircle
 10
-7.999999999999993
 20
-1.624999999999999
 30
0.0
 40
0.5000000000000073
100
AcDbArc
 50
90.0
 51
270.0
  0
LINE
  5
1BF
330
15A
100
AcDbEntity
  8
AM_4
100
AcDbLine
 10
-7.999999999999992
 20
-2.125000000000007
 30
0.0
 11
-7.5
 21
-2.125000000000006
 31
0.0
  0
LINE
  5
1C0
330
15A
100
AcDbEntity
  8
AM_4
100
AcDbLine
 10
-7.5
 20
-1.124999999999992
 30
0.0
 11
-7.999999999999992
 21
-1.124999999999992
 31
0.0
  0
LINE
  5
1C1
330
15A
100
AcDbEntity
  8
AM_4
100
AcDbLine
 10
-9.1
 20
-2.5
 30
0.0
 11
-9.1
 21
-0.7500000000000002
 31
0.0
  0
ARC
  5
1C2
330
15A
100
AcDbEntity
  8
AM_4
100
AcDbCircle
 10
7.500000000000001
 20
-1.625000000000002
 30
0.0
 40
0.5000000000000093
100
AcDbArc
 50
90.0
 51
150.0735651333845
  0
ARC
  5
1C3
330
15A
100
AcDbEntity
  8
AM_4
100
AcDbCircle
 10
7.500000000000001
 20
-1.624999999999998
 30
0.0
 40
0.5000000000000088
100
AcDbArc
 50
209.9264348666155
 51
270.0
  0
LINE
  5
1C4
330
15A
100
AcDbEntity
  8
AM_4
100
AcDbLine
 10
7.999999999999992
 20
-1.124999999999993
 30
0.0
 11
7.5
 21
-1.124999999999993
 31
0.0
  0
ARC
  5
1C5
330
15A
100
AcDbEntity
  8
AM_4
100
AcDbCircle
 10
7.999999999999993
 20
-1.625
 30
0.0
 40
0.5000000000000067
100
AcDbArc
 50
270.0
 51
90.0
  0
LINE
  5
1C6
330
15A
100
AcDbEntity
  8
AM_4
100
AcDbLine
 10
7.5
 20
-2.125000000000007
 30
0.0
 11
8.0
 21
-2.125000000000007
 31
0.0
  0
LINE
  5
1C7
330
15A
100
AcDbEntity
  8
AM_4
100
AcDbLine
 10
9.1
 20
-2.5
 30
0.0
 11
9.1
 21
-0.7500000000000002
 31
0.0
  0
LINE
  5
1C8
330
15A
100
AcDbEntity
  8
AM_4
100
AcDbLine
 10
-7.066666666666667
 20
1.874443825784944
 30
0.0
 11
-7.066666666666667
 21
2.5
 31
0.0
  0
LWPOLYLINE
  5
1C9
330
15A
100
AcDbEntity
  8
AM_4
100
AcDbPolyline
 90
        7
 70
     0
 43
0.0
 10
-7.066666666666667
 20
1.874443825784944
 10
-7.031366855302553
 20
1.799307130350391
 10
-7.008535577897717
 20
1.716993053040302
 10
-7.000088532961612
 20
1.634408779067109
 10
-7.005783333965999
 20
1.549171990569163
 10
-7.027644332863588
 20
1.461048410425145
 10
-7.066666666666667
 20
1.375556174215057
  0
LINE
  5
1CA
330
15A
100
AcDbEntity
  8
AM_4
100
AcDbLine
 10
-7.066666666666667
 20
0.7500000000000001
 30
0.0
 11
-7.066666666666667
 21
1.375556174215057
 31
0.0
  0
LINE
  5
1CB
330
15A
100
AcDbEntity
  8
AM_4
100
AcDbLine
 10
7.066666666666666
 20
0.7500000000000001
 30
0.0
 11
7.066666666666666
 21
1.375556174215057
 31
0.0
  0
LWPOLYLINE
  5
1CC
330
15A
100
AcDbEntity
  8
AM_4
100
AcDbPolyline
 90
        7
 70
     0
 43
0.0
 10
7.066666666666666
 20
1.375556174215057
 10
7.031366855302552
 20
1.450692869649611
 10
7.008535577897716
 20
1.5330069469597
 10
7.000088532961612
 20
1.615591220932892
 10
7.005783333965999
 20
1.700828009430839
 10
7.027644332863588
 20
1.788951589574854
 10
7.066666666666666
 20
1.874443825784942
  0
LINE
  5
1CD
330
15A
100
AcDbEntity
  8
AM_4
100
AcDbLine
 10
7.066666666666666
 20
1.874443825784942
 30
0.0
 11
7.066666666666666
 21
2.5
 31
0.0
  0
LINE
  5
1CE
330
15A
100
AcDbEntity
  8
AM_4
100
AcDbLine
 10
7.066666666666666
 20
-2.5
 30
0.0
 11
7.066666666666666
 21
-1.874443825784941
 31
0.0
  0
LWPOLYLINE
  5
1CF
330
15A
100
AcDbEntity
  8
AM_4
100
AcDbPolyline
 90
        7
 70
     0
 43
0.0
 10
7.066666666666666
 20
-1.874443825784941
 10
7.031366855302552
 20
-1.799307130350388
 10
7.008535577897717
 20
-1.716993053040299
 10
7.000088532961612
 20
-1.634408779067106
 10
7.005783333966
 20
-1.549171990569159
 10
7.027644332863588
 20
-1.461048410425145
 10
7.066666666666666
 20
-1.375556174215059
  0
LINE
  5
1D0
330
15A
100
AcDbEntity
  8
AM_4
100
AcDbLine
 10
7.066666666666666
 20
-1.375556174215059
 30
0.0
 11
7.066666666666666
 21
-0.7500000000000002
 31
0.0
  0
LINE
  5
1D1
330
15A
100
AcDbEntity
  8
AM_4
100
AcDbLine
 10
-7.066666666666667
 20
-1.375556174215056
 30
0.0
 11
-7.066666666666667
 21
-0.7500000000000002
 31
0.0
  0
LWPOLYLINE
  5
1D2
330
15A
100
AcDbEntity
  8
AM_4
100
AcDbPolyline
 90
        7
 70
     0
 43
0.0
 10
-7.066666666666667
 20
-1.375556174215056
 10
-7.031366855302553
 20
-1.450692869649609
 10
-7.008535577897717
 20
-1.533006946959699
 10
-7.000088532961612
 20
-1.615591220932891
 10
-7.005783333965999
 20
-1.700828009430838
 10
-7.027644332863588
 20
-1.788951589574854
 10
-7.066666666666667
 20
-1.874443825784943
  0
LINE
  5
1D3
330
15A
100
AcDbEntity
  8
AM_4
100
AcDbLine
 10
-7.066666666666667
 20
-2.5
 30
0.0
 11
-7.066666666666667
 21
-1.874443825784943
 31
0.0
  0
LINE
  5
1D4
330
15A
100
AcDbEntity
  8
AM_4
100
AcDbLine
 10
-8.230432392111068
 20
2.5
 30
0.0
 11
-8.230432392111068
 21
3.5
 31
0.0
  0
LINE
  5
1D5
330
15A
100
AcDbEntity
  8
AM_4
100
AcDbLine
 10
-8.230432392111068
 20
-0.7500000000000002
 30
0.0
 11
-8.230432392111068
 21
0.7499999999999997
 31
0.0
  0
LINE
  5
1D6
330
15A
100
AcDbEntity
  8
AM_4
100
AcDbLine
 10
-8.230432392111068
 20
-3.5
 30
0.0
 11
-8.230432392111068
 21
-2.5
 31
0.0
  0
LINE
  5
1D7
330
15A
100
AcDbEntity
  8
AM_4
100
AcDbLine
 10
8.230432392111068
 20
2.5
 30
0.0
 11
8.230432392111068
 21
3.5
 31
0.0
  0
LINE
  5
1D8
330
15A
100
AcDbEntity
  8
AM_4
100
AcDbLine
 10
8.230432392111068
 20
-0.7500000000000002
 30
0.0
 11
8.230432392111068
 21
0.7499999999999997
 31
0.0
  0
LINE
  5
1D9
330
15A
100
AcDbEntity
  8
AM_4
100
AcDbLine
 10
8.230432392111068
 20
-3.5
 30
0.0
 11
8.230432392111068
 21
-2.5
 31
0.0
  0
LINE
  5
1DA
330
15A
100
AcDbEntity
  8
AM_4
100
AcDbLine
 10
3.378378378378378
 20
3.783783783783784
 30
0.0
 11
-3.378378378378378
 21
3.783783783783784
 31
0.0
  0
LINE
  5
1DB
330
15A
100
AcDbEntity
  8
AM_4
100
AcDbLine
 10
3.378378378378378
 20
3.499999999999999
 30
0.0
 11
3.378378378378378
 21
3.783783783783784
 31
0.0
  0
LINE
  5
1DC
330
15A
100
AcDbEntity
  8
AM_4
100
AcDbLine
 10
-3.378378378378378
 20
3.783783783783784
 30
0.0
 11
-3.378378378378378
 21
3.499999999999999
 31
0.0
  0
LINE
  5
1DD
330
15A
100
AcDbEntity
  8
AM_4
100
AcDbLine
 10
3.378378378378378
 20
-3.783783783783784
 30
0.0
 11
-3.378378378378378
 21
-3.783783783783784
 31
0.0
  0
LINE
  5
1DE
330
15A
100
AcDbEntity
  8
AM_4
100
AcDbLine
 10
3.378378378378378
 20
-3.783783783783784
 30
0.0
 11
3.378378378378378
 21
-3.5
 31
0.0
  0
LINE
  5
1DF
330
15A
100
AcDbEntity
  8
AM_4
100
AcDbLine
 10
-3.378378378378378
 20
-3.5
 30
0.0
 11
-3.378378378378378
 21
-3.783783783783784
 31
0.0
  0
LINE
  5
1E0
330
15A
100
AcDbEntity
  8
AM_4
100
AcDbLine
 10
-9.5
 20
0.7500000000000001
 30
0.0
 11
-4.361199574474329
 21
0.7500000000000002
 31
0.0
  0
LINE
  5
1E1
330
15A
100
AcDbEntity
  8
AM_4
100
AcDbLine
 10
-4.36119957447433
 20
2.5
 30
0.0
 11
-9.5
 21
2.5
 31
0.0
  0
ARC
  5
1E2
330
15A
100
AcDbEntity
  8
AM_4
100
AcDbCircle
 10
-5.950000000000003
 20
1.625
 30
0.0
 40
0.9249999999999987
100
AcDbArc
 50
108.924644416051
 51
251.075355583949
  0
LINE
  5
1E3
330
15A
100
AcDbEntity
  8
AM_4
100
AcDbLine
 10
-9.5
 20
-2.5
 30
0.0
 11
-4.361199574474329
 21
-2.5
 31
0.0
  0
LINE
  5
1E4
330
15A
100
AcDbEntity
  8
AM_4
100
AcDbLine
 10
-4.361199574474329
 20
-0.7499999999999997
 30
0.0
 11
-9.5
 21
-0.7500000000000002
 31
0.0
  0
ARC
  5
1E5
330
15A
100
AcDbEntity
  8
AM_4
100
AcDbCircle
 10
-5.95
 20
-1.625
 30
0.0
 40
0.9249999999999998
100
AcDbArc
 50
108.9246444160511
 51
251.0753555839488
  0
ARC
  5
1E6
330
15A
100
AcDbEntity
  8
AM_4
100
AcDbCircle
 10
5.95
 20
1.625
 30
0.0
 40
0.9249999999999994
100
AcDbArc
 50
288.924644416051
 51
71.07535558394883
  0
LINE
  5
1E7
330
15A
100
AcDbEntity
  8
AM_4
100
AcDbLine
 10
9.5
 20
2.5
 30
0.0
 11
4.361199574474329
 21
2.5
 31
0.0
  0
LINE
  5
1E8
330
15A
100
AcDbEntity
  8
AM_4
100
AcDbLine
 10
4.361199574474329
 20
0.7500000000000002
 30
0.0
 11
9.5
 21
0.7500000000000001
 31
0.0
  0
LINE
  5
1E9
330
15A
100
AcDbEntity
  8
AM_4
100
AcDbLine
 10
4.361199574474329
 20
-2.5
 30
0.0
 11
9.5
 21
-2.5
 31
0.0
  0
ARC
  5
1EA
330
15A
100
AcDbEntity
  8
AM_4
100
AcDbCircle
 10
5.950000000000003
 20
-1.624999999999999
 30
0.0
 40
0.924999999999999
100
AcDbArc
 50
288.924644416051
 51
71.07535558394898
  0
LINE
  5
1EB
330
15A
100
AcDbEntity
  8
AM_4
100
AcDbLine
 10
9.5
 20
-0.7500000000000002
 30
0.0
 11
4.361199574474329
 21
-0.7499999999999997
 31
0.0
  0
LINE
  5
1EC
330
15A
100
AcDbEntity
  8
AM_4
100
AcDbLine
 10
6.424094202898551
 20
-1.367598004986292
 30
0.0
 11
5.978260869565218
 21
-1.110196009972584
 31
0.0
  0
LINE
  5
1ED
330
15A
100
AcDbEntity
  8
AM_4
100
AcDbLine
 10
5.978260869565218
 20
-1.110196009972584
 30
0.0
 11
5.532427536231884
 21
-1.367598004986292
 31
0.0
  0
LINE
  5
1EE
330
15A
100
AcDbEntity
  8
AM_4
100
AcDbLine
 10
5.978260869565218
 20
-2.139803990027416
 30
0.0
 11
6.424094202898551
 21
-1.882401995013708
 31
0.0
  0
LINE
  5
1EF
330
15A
100
AcDbEntity
  8
AM_4
100
AcDbLine
 10
5.532427536231884
 20
-1.882401995013708
 30
0.0
 11
5.978260869565218
 21
-2.139803990027416
 31
0.0
  0
LINE
  5
1F0
330
15A
100
AcDbEntity
  8
AM_4
100
AcDbLine
 10
6.424094202898551
 20
-1.882401995013708
 30
0.0
 11
6.424094202898551
 21
-1.367598004986292
 31
0.0
  0
LINE
  5
1F1
330
15A
100
AcDbEntity
  8
AM_4
100
AcDbLine
 10
5.978260869565218
 20
1.110196009972584
 30
0.0
 11
6.424094202898551
 21
1.367598004986292
 31
0.0
  0
LINE
  5
1F2
330
15A
100
AcDbEntity
  8
AM_4
100
AcDbLine
 10
5.532427536231884
 20
1.367598004986292
 30
0.0
 11
5.978260869565218
 21
1.110196009972584
 31
0.0
  0
LINE
  5
1F3
330
15A
100
AcDbEntity
  8
AM_4
100
AcDbLine
 10
5.532427536231884
 20
-1.367598004986292
 30
0.0
 11
5.532427536231884
 21
-1.882401995013708
 31
0.0
  0
LINE
  5
1F4
330
15A
100
AcDbEntity
  8
AM_4
100
AcDbLine
 10
-6.424094202898551
 20
1.367598004986292
 30
0.0
 11
-5.978260869565218
 21
1.110196009972584
 31
0.0
  0
LINE
  5
1F5
330
15A
100
AcDbEntity
  8
AM_4
100
AcDbLine
 10
-6.424094202898551
 20
1.882401995013709
 30
0.0
 11
-6.424094202898551
 21
1.367598004986292
 31
0.0
  0
LINE
  5
1F6
330
15A
100
AcDbEntity
  8
AM_4
100
AcDbLine
 10
-5.532427536231884
 20
1.367598004986292
 30
0.0
 11
-5.532427536231884
 21
1.882401995013709
 31
0.0
  0
LINE
  5
1F7
330
15A
100
AcDbEntity
  8
AM_4
100
AcDbLine
 10
-5.978260869565218
 20
1.110196009972584
 30
0.0
 11
-5.532427536231884
 21
1.367598004986292
 31
0.0
  0
LINE
  5
1F8
330
15A
100
AcDbEntity
  8
AM_4
100
AcDbLine
 10
-5.532427536231884
 20
1.882401995013709
 30
0.0
 11
-5.978260869565218
 21
2.139803990027416
 31
0.0
  0
LINE
  5
1F9
330
15A
100
AcDbEntity
  8
AM_4
100
AcDbLine
 10
-5.978260869565218
 20
2.139803990027416
 30
0.0
 11
-6.424094202898551
 21
1.882401995013709
 31
0.0
  0
LINE
  5
1FA
330
15A
100
AcDbEntity
  8
AM_4
100
AcDbLine
 10
-5.532427536231884
 20
-1.882401995013708
 30
0.0
 11
-5.532427536231884
 21
-1.367598004986292
 31
0.0
  0
LINE
  5
1FB
330
15A
100
AcDbEntity
  8
AM_4
100
AcDbLine
 10
-5.532427536231884
 20
-1.367598004986292
 30
0.0
 11
-5.978260869565218
 21
-1.110196009972584
 31
0.0
  0
LINE
  5
1FC
330
15A
100
AcDbEntity
  8
AM_4
100
AcDbLine
 10
-5.978260869565218
 20
-1.110196009972584
 30
0.0
 11
-6.424094202898551
 21
-1.367598004986292
 31
0.0
  0
LINE
  5
1FD
330
15A
100
AcDbEntity
  8
AM_4
100
AcDbLine
 10
6.424094202898551
 20
1.367598004986292
 30
0.0
 11
6.424094202898551
 21
1.882401995013709
 31
0.0
  0
LINE
  5
1FE
330
15A
100
AcDbEntity
  8
AM_4
100
AcDbLine
 10
6.424094202898551
 20
1.882401995013709
 30
0.0
 11
5.978260869565218
 21
2.139803990027416
 31
0.0
  0
LINE
  5
1FF
330
15A
100
AcDbEntity
  8
AM_4
100
AcDbLine
 10
-5.978260869565218
 20
-2.139803990027416
 30
0.0
 11
-5.532427536231884
 21
-1.882401995013708
 31
0.0
  0
LINE
  5
200
330
15A
100
AcDbEntity
  8
AM_4
100
AcDbLine
 10
5.978260869565218
 20
2.139803990027416
 30
0.0
 11
5.532427536231884
 21
1.882401995013709
 31
0.0
  0
LINE
  5
201
330
15A
100
AcDbEntity
  8
AM_4
100
AcDbLine
 10
-6.424094202898551
 20
-1.882401995013708
 30
0.0
 11
-5.978260869565218
 21
-2.139803990027416
 31
0.0
  0
LINE
  5
202
330
15A
100
AcDbEntity
  8
AM_4
100
AcDbLine
 10
-6.424094202898551
 20
-1.367598004986292
 30
0.0
 11
-6.424094202898551
 21
-1.882401995013708
 31
0.0
  0
LINE
  5
203
330
15A
100
AcDbEntity
  8
AM_4
100
AcDbLine
 10
5.532427536231884
 20
1.882401995013709
 30
0.0
 11
5.532427536231884
 21
1.367598004986292
 31
0.0
  0
CIRCLE
  5
204
330
15A
100
AcDbEntity
  8
AM_4
100
AcDbCircle
 10
-5.978260869565218
 20
1.625
 30
0.0
 40
0.219
  0
CIRCLE
  5
205
330
15A
100
AcDbEntity
  8
AM_4
100
AcDbCircle
 10
-5.978260869565218
 20
-1.625
 30
0.0
 40
0.219
  0
CIRCLE
  5
206
330
15A
100
AcDbEntity
  8
AM_4
100
AcDbCircle
 10
5.978260869565218
 20
-1.625
 30
0.0
 40
0.2190000000000011
  0
CIRCLE
  5
207
330
15A
100
AcDbEntity
  8
AM_4
100
AcDbCircle
 10
5.978260869565218
 20
1.625
 30
0.0
 40
0.2190000000000011
  0
LINE
  5
208
330
15A
100
AcDbEntity
  8
AM_4
100
AcDbLine
 10
4.361199574474329
 20
0.7500000000000002
 30
0.0
 11
4.361199574474329
 21
2.5
 31
0.0
  0
LINE
  5
209
330
15A
100
AcDbEntity
  8
AM_4
100
AcDbLine
 10
-4.36119957447433
 20
2.5
 30
0.0
 11
-4.361199574474329
 21
0.7500000000000002
 31
0.0
  0
LINE
  5
20A
330
15A
100
AcDbEntity
  8
AM_4
100
AcDbLine
 10
-4.361199574474329
 20
-0.7499999999999997
 30
0.0
 11
-4.361199574474329
 21
-2.5
 31
0.0
  0
LINE
  5
20B
330
15A
100
AcDbEntity
  8
AM_4
100
AcDbLine
 10
4.361199574474329
 20
-2.5
 30
0.0
 11
4.361199574474329
 21
-0.7499999999999997
 31
0.0
  0
LINE
  5
20C
330
15A
100
AcDbEntity
  8
AM_4
100
AcDbLine
 10
5.729166666666666
 20
-3.5
 30
0.0
 11
5.729166666666666
 21
-2.5
 31
0.0
  0
LINE
  5
20D
330
15A
100
AcDbEntity
  8
AM_4
100
AcDbLine
 10
5.729166666666666
 20
-0.7499999999999999
 30
0.0
 11
5.729166666666666
 21
0.7499999999999999
 31
0.0
  0
LINE
  5
20E
330
15A
100
AcDbEntity
  8
AM_4
100
AcDbLine
 10
5.729166666666666
 20
2.5
 30
0.0
 11
5.729166666666666
 21
3.5
 31
0.0
  0
LINE
  5
20F
330
15A
100
AcDbEntity
  8
AM_4
100
AcDbLine
 10
-5.729166666666669
 20
3.5
 30
0.0
 11
-5.729166666666669
 21
2.5
 31
0.0
  0
LINE
  5
210
330
15A
100
AcDbEntity
  8
AM_4
100
AcDbLine
 10
-5.729166666666669
 20
0.7499999999999999
 30
0.0
 11
-5.729166666666669
 21
-0.7499999999999999
 31
0.0
  0
LINE
  5
211
330
15A
100
AcDbEntity
  8
AM_4
100
AcDbLine
 10
-5.729166666666669
 20
-2.5
 30
0.0
 11
-5.729166666666669
 21
-3.5
 31
0.0
  0
CIRCLE
  5
212
330
15A
100
AcDbEntity
  8
AM_4
100
AcDbCircle
 10
0.0
 20
0.0000000000000004
 30
0.0
 40
1.527777777777778
  0
CIRCLE
  5
213
330
15A
100
AcDbEntity
  8
AM_4
100
AcDbCircle
 10
0.0
 20
0.0000000000000004
 30
0.0
 40
1.375
  0
CIRCLE
  5
214
330
15A
100
AcDbEntity
  8
AM_4
100
AcDbCircle
 10
5.978260869565212
 20
-1.624999999999997
 30
0.0
 40
0.4458333333333275
  0
CIRCLE
  5
215
330
15A
100
AcDbEntity
  8
AM_4
100
AcDbCircle
 10
-5.978260869565218
 20
1.625000000000001
 30
0.0
 40
0.445833333333332
  0
CIRCLE
  5
216
330
15A
100
AcDbEntity
  8
AM_4
100
AcDbCircle
 10
5.978260869565212
 20
1.625000000000003
 30
0.0
 40
0.4458333333333275
  0
CIRCLE
  5
217
330
15A
100
AcDbEntity
  8
AM_4
100
AcDbCircle
 10
-5.978260869565217
 20
-1.625000000000002
 30
0.0
 40
0.4458333333333304
  0
CIRCLE
  5
219
330
15A
100
AcDbEntity
  8
AM_5
100
AcDbCircle
 10
5.978260869565219
 20
-1.624999999999999
 30
0.0
 40
0.1889999999999995
  0
CIRCLE
  5
21A
330
15A
100
AcDbEntity
  8
AM_5
100
AcDbCircle
 10
-5.978260869565218
 20
-1.625
 30
0.0
 40
0.1890000000000002
  0
CIRCLE
  5
21B
330
15A
100
AcDbEntity
  8
AM_5
100
AcDbCircle
 10
5.978260869565219
 20
1.625000000000001
 30
0.0
 40
0.1889999999999995
  0
CIRCLE
  5
21C
330
15A
100
AcDbEntity
  8
AM_5
100
AcDbCircle
 10
-5.978260869565218
 20
1.625
 30
0.0
 40
0.1890000000000002
  0
ENDBLK
  5
15D
330
15A
100
AcDbEntity
  8
0
100
AcDbBlockEnd
  0
ENDSEC
  0
SECTION
  2
ENTITIES
  0
INSERT
  5
6F
330
1F
100
AcDbEntity
  8
0
100
AcDbBlockReference
  2
1_066238_4
 10
0.0
 20
0.0
 30
0.0
  0
POINT
  5
21E
330
1F
100
AcDbEntity
  8
ConnectionPoints
100
AcDbPoint
 10
0.0
 20
4.25
 30
-0.0000000000000003
  0
POINT
  5
21F
330
1F
100
AcDbEntity
  8
ConnectionPoints
100
AcDbPoint
 10
0.0
 20
4.25
 30
-0.0000000000000003
  0
ENDSEC
  0
SECTION
  2
OBJECTS
  0
DICTIONARY
  5
C
330
0
100
AcDbDictionary
281
     1
  3
ACAD_DETAILVIEWSTYLE
350
227
  3
ACAD_GROUP
350
D
  3
ACAD_LAYOUT
350
1A
  3
ACAD_MATERIAL
350
43
  3
ACAD_MLEADERSTYLE
350
6B
  3
ACAD_MLINESTYLE
350
17
  3
ACAD_PLOTSETTINGS
350
19
  3
ACAD_PLOTSTYLENAME
350
E
  3
ACAD_SCALELIST
350
47
  3
ACAD_SECTIONVIEWSTYLE
350
228
  3
ACAD_TABLESTYLE
350
69
  3
ACAD_VISUALSTYLE
350
2A
  3
ACDB_RECOMPOSE_DATA
350
224
  3
AcDbVariableDictionary
350
220
  0
SUN
  5
6D
330
29
100
AcDbSun
 90
        1
290
     0
 63
     7
421
 16777215
 40
1.0
291
     1
 91
  2455826
 92
 54000000
292
     0
 70
     2
 71
   256
280
     1
  0
DICTIONARY
  5
227
102
{ACAD_REACTORS
330
C
102
}
330
C
100
AcDbDictionary
281
     1
  0
DICTIONARY
  5
D
102
{ACAD_REACTORS
330
C
102
}
330
C
100
AcDbDictionary
281
     1
  0
DICTIONARY
  5
1A
102
{ACAD_REACTORS
330
C
102
}
330
C
100
AcDbDictionary
281
     1
  3
Layout1
350
1E
  3
Layout2
350
26
  3
Model
350
22
  0
DICTIONARY
  5
43
102
{ACAD_REACTORS
330
C
102
}
330
C
100
AcDbDictionary
281
     1
  3
ByBlock
350
45
  3
ByLayer
350
44
  3
Global
350
46
  0
DICTIONARY
  5
6B
102
{ACAD_REACTORS
330
C
102
}
330
C
100
AcDbDictionary
281
     1
  3
Standard
350
6C
  0
DICTIONARY
  5
17
102
{ACAD_REACTORS
330
C
102
}
330
C
100
AcDbDictionary
281
     1
  3
Standard
350
18
  0
DICTIONARY
  5
19
102
{ACAD_REACTORS
330
C
102
}
330
C
100
AcDbDictionary
281
     1
  0
ACDBDICTIONARYWDFLT
  5
E
102
{ACAD_REACTORS
330
C
102
}
330
C
100
AcDbDictionary
281
     1
  3
Normal
350
F
100
AcDbDictionaryWithDefault
340
F
  0
DICTIONARY
  5
47
102
{ACAD_REACTORS
330
C
102
}
330
C
100
AcDbDictionary
281
     1
  3
A0
350
48
  3
A1
350
49
  3
A2
350
4A
  3
A3
350
4B
  3
A4
350
4C
  3
A5
350
4D
  3
A6
350
4E
  3
A7
350
4F
  3
A8
350
50
  3
A9
350
51
  3
B0
350
52
  3
B1
350
53
  3
B2
350
54
  3
B3
350
55
  3
B4
350
56
  3
B5
350
57
  3
B6
350
58
  3
B7
350
59
  3
B8
350
5A
  3
B9
350
5B
  3
C0
350
5C
  3
C1
350
5D
  3
C2
350
5E
  3
C3
350
5F
  3
C4
350
60
  3
C5
350
61
  3
C6
350
62
  3
C7
350
63
  3
C8
350
64
  3
C9
350
65
  3
D0
350
66
  3
D1
350
67
  3
D2
350
68
  0
DICTIONARY
  5
228
102
{ACAD_REACTORS
330
C
102
}
330
C
100
AcDbDictionary
281
     1
  0
DICTIONARY
  5
69
102
{ACAD_REACTORS
330
C
102
}
330
C
100
AcDbDictionary
281
     1
  3
Standard
350
6A
  0
DICTIONARY
  5
2A
102
{ACAD_REACTORS
330
C
102
}
330
C
100
AcDbDictionary
281
     1
  3
2dWireframe
350
2F
  3
Basic
350
32
  3
Brighten
350
36
  3
ColorChange
350
3A
  3
Conceptual
350
34
  3
Dim
350
35
  3
EdgeColorOff
350
3D
  3
Facepattern
350
39
  3
Flat
350
2B
  3
FlatWithEdges
350
2C
  3
Gouraud
350
2D
  3
GouraudWithEdges
350
2E
  3
Hidden
350
31
  3
JitterOff
350
3B
  3
Linepattern
350
38
  3
OverhangOff
350
3C
  3
Realistic
350
33
  3
Shaded
350
42
  3
Shaded with edges
350
41
  3
Shades of Gray
350
3E
  3
Sketchy
350
3F
  3
Thicken
350
37
  3
Wireframe
350
30
  3
X-Ray
350
40
  0
XRECORD
  5
224
102
{ACAD_REACTORS
330
C
102
}
330
C
100
AcDbXrecord
280
     1
 90
        1
330
6A
  0
DICTIONARY
  5
220
102
{ACAD_REACTORS
330
C
102
}
330
C
100
AcDbDictionary
281
     1
  3
CANNOSCALE
350
221
  3
CMLEADERSTYLE
350
226
  3
CTABLESTYLE
350
225
  0
LAYOUT
  5
1E
102
{ACAD_REACTORS
330
1A
102
}
330
1A
100
AcDbPlotSettings
  1

  2
none_device
  4

  6

 40
0.0
 41
0.0
 42
0.0
 43
0.0
 44
0.0
 45
0.0
 46
0.0
 47
0.0
 48
0.0
 49
0.0
140
0.0
141
0.0
142
1.0
143
1.0
 70
   688
 72
     0
 73
     0
 74
     5
  7

 75
    16
 76
     0
 77
     2
 78
   300
147
1.0
148
0.0
149
0.0
100
AcDbLayout
  1
Layout1
 70
     1
 71
     1
 10
0.0
 20
0.0
 11
12.0
 21
9.0
 12
0.0
 22
0.0
 32
0.0
 14
1.000000000000000E+20
 24
1.000000000000000E+20
 34
1.000000000000000E+20
 15
-1.000000000000000E+20
 25
-1.000000000000000E+20
 35
-1.000000000000000E+20
146
0.0
 13
0.0
 23
0.0
 33
0.0
 16
1.0
 26
0.0
 36
0.0
 17
0.0
 27
1.0
 37
0.0
 76
     0
330
1B
  0
LAYOUT
  5
26
102
{ACAD_REACTORS
330
1A
102
}
330
1A
100
AcDbPlotSettings
  1

  2
none_device
  4

  6

 40
0.0
 41
0.0
 42
0.0
 43
0.0
 44
0.0
 45
0.0
 46
0.0
 47
0.0
 48
0.0
 49
0.0
140
0.0
141
0.0
142
1.0
143
1.0
 70
   688
 72
     0
 73
     0
 74
     5
  7

 75
    16
 76
     0
 77
     2
 78
   300
147
1.0
148
0.0
149
0.0
100
AcDbLayout
  1
Layout2
 70
     1
 71
     2
 10
0.0
 20
0.0
 11
0.0
 21
0.0
 12
0.0
 22
0.0
 32
0.0
 14
0.0
 24
0.0
 34
0.0
 15
0.0
 25
0.0
 35
0.0
146
0.0
 13
0.0
 23
0.0
 33
0.0
 16
1.0
 26
0.0
 36
0.0
 17
0.0
 27
1.0
 37
0.0
 76
     0
330
23
  0
LAYOUT
  5
22
102
{ACAD_REACTORS
330
1A
102
}
330
1A
100
AcDbPlotSettings
  1

  2
none_device
  4
Letter_(8.50_x_11.00_Inches)
  6

 40
6.35
 41
6.35
 42
6.35000508
 43
6.35000508
 44
215.9
 45
279.4
 46
0.0
 47
0.0
 48
0.0
 49
0.0
140
0.0
141
0.0
142
1.0
143
1.0
 70
  1712
 72
     0
 73
     0
 74
     0
  7

 75
     0
 76
     0
 77
     2
 78
   300
147
1.0
148
0.0
149
0.0
100
AcDbLayout
  1
Model
 70
     1
 71
     0
 10
0.0
 20
0.0
 11
12.0
 21
9.0
 12
0.0
 22
0.0
 32
0.0
 14
1.000000000000000E+20
 24
1.000000000000000E+20
 34
1.000000000000000E+20
 15
-1.000000000000000E+20
 25
-1.000000000000000E+20
 35
-1.000000000000000E+20
146
0.0
 13
0.0
 23
0.0
 33
0.0
 16
1.0
 26
0.0
 36
0.0
 17
0.0
 27
1.0
 37
0.0
 76
     0
330
1F
331
29
  0
MATERIAL
  5
45
102
{ACAD_REACTORS
330
43
102
}
330
43
100
AcDbMaterial
  1
ByBlock
 72
     1
 94
      127
  0
MATERIAL
  5
44
102
{ACAD_REACTORS
330
43
102
}
330
43
100
AcDbMaterial
  1
ByLayer
 72
     1
 94
      127
  0
MATERIAL
  5
46
102
{ACAD_REACTORS
330
43
102
}
330
43
100
AcDbMaterial
  1
Global
 72
     1
 94
      127
  0
MLEADERSTYLE
  5
6C
102
{ACAD_REACTORS
330
6B
102
}
330
6B
100
AcDbMLeaderStyle
179
     2
170
     2
171
     1
172
     0
 90
        2
 40
0.0
 41
0.0
173
     1
 91
-1056964608
340
14
 92
       -2
290
     1
 42
0.09
291
     1
 43
0.36
  3
Standard
341
0
 44
0.18
300

342
11
174
     1
178
     6
175
     1
176
     0
 93
-1056964608
 45
0.18
292
     0
297
     0
 46
0.18
343
0
 94
-1056964608
 47
1.0
 49
1.0
140
1.0
293
     1
141
0.0
294
     1
177
     0
142
1.0
295
     0
296
     0
143
0.125
271
     0
272
     9
273
     9
298
     0
  0
MLINESTYLE
  5
18
102
{ACAD_REACTORS
330
17
102
}
330
17
100
AcDbMlineStyle
  2
Standard
 70
     0
  3

 62
   256
 51
90.0
 52
90.0
 71
     2
 49
0.5
 62
   256
  6
BYLAYER
 49
-0.5
 62
   256
  6
BYLAYER
  0
ACDBPLACEHOLDER
  5
F
102
{ACAD_REACTORS
330
E
102
}
330
E
  0
SCALE
  5
48
102
{ACAD_REACTORS
330
47
102
}
330
47
100
AcDbScale
 70
     0
300
1:1
140
1.0
141
1.0
290
     1
  0
SCALE
  5
49
102
{ACAD_REACTORS
330
47
102
}
330
47
100
AcDbScale
 70
     0
300
1:2
140
1.0
141
2.0
290
     0
  0
SCALE
  5
4A
102
{ACAD_REACTORS
330
47
102
}
330
47
100
AcDbScale
 70
     0
300
1:4
140
1.0
141
4.0
290
     0
  0
SCALE
  5
4B
102
{ACAD_REACTORS
330
47
102
}
330
47
100
AcDbScale
 70
     0
300
1:5
140
1.0
141
5.0
290
     0
  0
SCALE
  5
4C
102
{ACAD_REACTORS
330
47
102
}
330
47
100
AcDbScale
 70
     0
300
1:8
140
1.0
141
8.0
290
     0
  0
SCALE
  5
4D
102
{ACAD_REACTORS
330
47
102
}
330
47
100
AcDbScale
 70
     0
300
1:10
140
1.0
141
10.0
290
     0
  0
SCALE
  5
4E
102
{ACAD_REACTORS
330
47
102
}
330
47
100
AcDbScale
 70
     0
300
1:16
140
1.0
141
16.0
290
     0
  0
SCALE
  5
4F
102
{ACAD_REACTORS
330
47
102
}
330
47
100
AcDbScale
 70
     0
300
1:20
140
1.0
141
20.0
290
     0
  0
SCALE
  5
50
102
{ACAD_REACTORS
330
47
102
}
330
47
100
AcDbScale
 70
     0
300
1:30
140
1.0
141
30.0
290
     0
  0
SCALE
  5
51
102
{ACAD_REACTORS
330
47
102
}
330
47
100
AcDbScale
 70
     0
300
1:40
140
1.0
141
40.0
290
     0
  0
SCALE
  5
52
102
{ACAD_REACTORS
330
47
102
}
330
47
100
AcDbScale
 70
     0
300
1:50
140
1.0
141
50.0
290
     0
  0
SCALE
  5
53
102
{ACAD_REACTORS
330
47
102
}
330
47
100
AcDbScale
 70
     0
300
1:100
140
1.0
141
100.0
290
     0
  0
SCALE
  5
54
102
{ACAD_REACTORS
330
47
102
}
330
47
100
AcDbScale
 70
     0
300
2:1
140
2.0
141
1.0
290
     0
  0
SCALE
  5
55
102
{ACAD_REACTORS
330
47
102
}
330
47
100
AcDbScale
 70
     0
300
4:1
140
4.0
141
1.0
290
     0
  0
SCALE
  5
56
102
{ACAD_REACTORS
330
47
102
}
330
47
100
AcDbScale
 70
     0
300
8:1
140
8.0
141
1.0
290
     0
  0
SCALE
  5
57
102
{ACAD_REACTORS
330
47
102
}
330
47
100
AcDbScale
 70
     0
300
10:1
140
10.0
141
1.0
290
     0
  0
SCALE
  5
58
102
{ACAD_REACTORS
330
47
102
}
330
47
100
AcDbScale
 70
     0
300
100:1
140
100.0
141
1.0
290
     0
  0
SCALE
  5
59
102
{ACAD_REACTORS
330
47
102
}
330
47
100
AcDbScale
 70
     0
300
1/128" = 1'-0"
140
0.0078125
141
12.0
290
     0
  0
SCALE
  5
5A
102
{ACAD_REACTORS
330
47
102
}
330
47
100
AcDbScale
 70
     0
300
1/64" = 1'-0"
140
0.015625
141
12.0
290
     0
  0
SCALE
  5
5B
102
{ACAD_REACTORS
330
47
102
}
330
47
100
AcDbScale
 70
     0
300
1/32" = 1'-0"
140
0.03125
141
12.0
290
     0
  0
SCALE
  5
5C
102
{ACAD_REACTORS
330
47
102
}
330
47
100
AcDbScale
 70
     0
300
1/16" = 1'-0"
140
0.0625
141
12.0
290
     0
  0
SCALE
  5
5D
102
{ACAD_REACTORS
330
47
102
}
330
47
100
AcDbScale
 70
     0
300
3/32" = 1'-0"
140
0.09375
141
12.0
290
     0
  0
SCALE
  5
5E
102
{ACAD_REACTORS
330
47
102
}
330
47
100
AcDbScale
 70
     0
300
1/8" = 1'-0"
140
0.125
141
12.0
290
     0
  0
SCALE
  5
5F
102
{ACAD_REACTORS
330
47
102
}
330
47
100
AcDbScale
 70
     0
300
3/16" = 1'-0"
140
0.1875
141
12.0
290
     0
  0
SCALE
  5
60
102
{ACAD_REACTORS
330
47
102
}
330
47
100
AcDbScale
 70
     0
300
1/4" = 1'-0"
140
0.25
141
12.0
290
     0
  0
SCALE
  5
61
102
{ACAD_REACTORS
330
47
102
}
330
47
100
AcDbScale
 70
     0
300
3/8" = 1'-0"
140
0.375
141
12.0
290
     0
  0
SCALE
  5
62
102
{ACAD_REACTORS
330
47
102
}
330
47
100
AcDbScale
 70
     0
300
1/2" = 1'-0"
140
0.5
141
12.0
290
     0
  0
SCALE
  5
63
102
{ACAD_REACTORS
330
47
102
}
330
47
100
AcDbScale
 70
     0
300
3/4" = 1'-0"
140
0.75
141
12.0
290
     0
  0
SCALE
  5
64
102
{ACAD_REACTORS
330
47
102
}
330
47
100
AcDbScale
 70
     0
300
1" = 1'-0"
140
1.0
141
12.0
290
     0
  0
SCALE
  5
65
102
{ACAD_REACTORS
330
47
102
}
330
47
100
AcDbScale
 70
     0
300
1-1/2" = 1'-0"
140
1.5
141
12.0
290
     0
  0
SCALE
  5
66
102
{ACAD_REACTORS
330
47
102
}
330
47
100
AcDbScale
 70
     0
300
3" = 1'-0"
140
3.0
141
12.0
290
     0
  0
SCALE
  5
67
102
{ACAD_REACTORS
330
47
102
}
330
47
100
AcDbScale
 70
     0
300
6" = 1'-0"
140
6.0
141
12.0
290
     0
  0
SCALE
  5
68
102
{ACAD_REACTORS
330
47
102
}
330
47
100
AcDbScale
 70
     0
300
1'-0" = 1'-0"
140
12.0
141
12.0
290
     0
  0
TABLESTYLE
  5
6A
102
{ACAD_REACTORS
330
69
102
}
102
{ACAD_XDICTIONARY
360
222
102
}
330
69
100
AcDbTableStyle
  3
Standard
 70
     0
 71
     0
 40
0.06
 41
0.06
280
     0
281
     0
  7
Standard
140
0.18
170
     2
 62
     0
 63
   257
283
     0
 90
        4
 91
        0
  1

274
    -2
284
     1
 64
     0
275
    -2
285
     1
 65
     0
276
    -2
286
     1
 66
     0
277
    -2
287
     1
 67
     0
278
    -2
288
     1
 68
     0
279
    -2
289
     1
 69
     0
  7
Standard
140
0.25
170
     5
 62
     0
 63
   257
283
     0
 90
        4
 91
        0
  1

274
    -2
284
     1
 64
     0
275
    -2
285
     1
 65
     0
276
    -2
286
     1
 66
     0
277
    -2
287
     1
 67
     0
278
    -2
288
     1
 68
     0
279
    -2
289
     1
 69
     0
  7
Standard
140
0.18
170
     5
 62
     0
 63
   257
283
     0
 90
        4
 91
        0
  1

274
    -2
284
     1
 64
     0
275
    -2
285
     1
 65
     0
276
    -2
286
     1
 66
     0
277
    -2
287
     1
 67
     0
278
    -2
288
     1
 68
     0
279
    -2
289
     1
 69
     0
  0
VISUALSTYLE
  5
2F
102
{ACAD_REACTORS
330
2A
102
}
330
2A
100
AcDbVisualStyle
  2
2dWireframe
 70
     4
177
     3
291
     0
 70
    58
 90
        0
176
     1
 90
        2
176
     1
 90
        0
176
     1
 90
        0
176
     1
 40
0.6
176
     1
 40
30.0
176
     1
 62
     7
420
 16777215
176
     1
 90
        1
176
     1
 90
        4
176
     1
 62
     7
176
     1
 62
   257
176
     1
 90
        1
176
     1
 90
        1
176
     1
 40
1.0
176
     1
 90
        0
176
     1
 62
   257
176
     1
 40
1.0
176
     1
 90
        1
176
     1
 90
        6
176
     1
 90
        2
176
     1
 62
     7
176
     1
 90
        5
176
     1
 90
        0
176
     1
 90
        0
176
     1
290
     0
176
     1
 90
        1
176
     1
 40
0.0
176
     1
 90
        0
176
     1
290
     1
176
     1
290
     1
176
     1
290
     0
176
     1
290
     0
176
     1
290
     0
176
     1
290
     0
176
     1
290
     0
176
     1
290
     0
176
     1
290
     0
176
     1
 90
       50
176
     1
 40
0.0
176
     1
 40
1.0
176
     1
 90
        0
176
     1
 62
    18
420
        0
176
     1
 90
       50
176
     1
 90
        3
176
     1
 62
     5
420
      255
176
     1
290
     0
176
     1
 90
       50
176
     1
 90
       50
176
     1
 90
       50
176
     1
290
     0
176
     1
 90
       50
176
     1
 62
   256
176
     0
 40
1.0
176
     0
 90
        2
176
     1
  1
strokes_ogs.tif
176
     1
290
     0
176
     1
 40
1.0
176
     1
 40
1.0
176
     1
  0
VISUALSTYLE
  5
32
102
{ACAD_REACTORS
330
2A
102
}
330
2A
100
AcDbVisualStyle
  2
Basic
 70
     7
177
     3
291
     1
 70
    58
 90
        1
176
     1
 90
        0
176
     1
 90
        1
176
     1
 90
        0
176
     1
 40
0.6
176
     1
 40
30.0
176
     1
 62
     7
420
 16777215
176
     1
 90
        0
176
     1
 90
        4
176
     1
 62
     7
176
     1
 62
   257
176
     1
 90
        1
176
     1
 90
        1
176
     1
 40
1.0
176
     1
 90
        8
176
     1
 62
     7
176
     1
 40
1.0
176
     1
 90
        1
176
     1
 90
        6
176
     1
 90
        2
176
     1
 62
     7
176
     1
 90
        5
176
     1
 90
        0
176
     1
 90
        0
176
     1
290
     0
176
     1
 90
        1
176
     1
 40
0.0
176
     1
 90
        0
176
     1
290
     0
176
     1
290
     1
176
     1
290
     1
176
     1
290
     0
176
     1
290
     0
176
     1
290
     0
176
     1
290
     0
176
     1
290
     0
176
     1
290
     0
176
     1
 90
       50
176
     1
 40
0.0
176
     1
 40
1.0
176
     1
 90
        0
176
     1
 62
    18
420
        0
176
     1
 90
       50
176
     1
 90
        3
176
     1
 62
     5
420
      255
176
     1
290
     0
176
     1
 90
       50
176
     1
 90
       50
176
     1
 90
       50
176
     1
290
     0
176
     1
 90
       50
176
     1
 62
   256
176
     0
 40
1.0
176
     0
 90
        2
176
     1
  1
strokes_ogs.tif
176
     1
290
     0
176
     1
 40
1.0
176
     1
 40
1.0
176
     1
  0
VISUALSTYLE
  5
36
102
{ACAD_REACTORS
330
2A
102
}
330
2A
100
AcDbVisualStyle
  2
Brighten
 70
    12
177
     3
291
     1
 70
    58
 90
        2
176
     1
 90
        2
176
     1
 90
        0
176
     1
 90
        0
176
     1
 40
0.6
176
     1
 40
30.0
176
     1
 62
     7
420
 16777215
176
     1
 90
        1
176
     1
 90
        4
176
     1
 62
     7
176
     1
 62
   257
176
     1
 90
        1
176
     1
 90
        1
176
     1
 40
1.0
176
     1
 90
        8
176
     1
 62
     7
176
     1
 40
1.0
176
     1
 90
        1
176
     1
 90
        6
176
     1
 90
        2
176
     1
 62
     7
176
     1
 90
        5
176
     1
 90
        0
176
     1
 90
        0
176
     1
290
     0
176
     1
 90
        1
176
     1
 40
50.0
176
     1
 90
        0
176
     1
290
     0
176
     1
290
     1
176
     1
290
     1
176
     1
290
     0
176
     1
290
     0
176
     1
290
     0
176
     1
290
     0
176
     1
290
     0
176
     1
290
     0
176
     1
 90
       50
176
     1
 40
0.0
176
     1
 40
1.0
176
     1
 90
        0
176
     1
 62
    18
420
        0
176
     1
 90
       50
176
     1
 90
        3
176
     1
 62
     5
420
      255
176
     1
290
     0
176
     1
 90
       50
176
     1
 90
       50
176
     1
 90
       50
176
     1
290
     0
176
     1
 90
       50
176
     1
 62
   256
176
     0
 40
1.0
176
     0
 90
        2
176
     1
  1
strokes_ogs.tif
176
     1
290
     0
176
     1
 40
1.0
176
     1
 40
1.0
176
     1
  0
VISUALSTYLE
  5
3A
102
{ACAD_REACTORS
330
2A
102
}
330
2A
100
AcDbVisualStyle
  2
ColorChange
 70
    16
177
     3
291
     1
 70
    58
 90
        2
176
     1
 90
        2
176
     1
 90
        3
176
     1
 90
        0
176
     1
 40
0.6
176
     1
 40
30.0
176
     1
 62
     8
420
  8421504
176
     1
 90
        1
176
     1
 90
        4
176
     1
 62
     7
176
     1
 62
   257
176
     1
 90
        1
176
     1
 90
        1
176
     1
 40
1.0
176
     1
 90
        8
176
     1
 62
     8
420
  8421504
176
     1
 40
1.0
176
     1
 90
        1
176
     1
 90
        6
176
     1
 90
        2
176
     1
 62
     7
176
     1
 90
        5
176
     1
 90
        0
176
     1
 90
        0
176
     1
290
     0
176
     1
 90
        1
176
     1
 40
0.0
176
     1
 90
        0
176
     1
290
     0
176
     1
290
     1
176
     1
290
     1
176
     1
290
     0
176
     1
290
     0
176
     1
290
     0
176
     1
290
     0
176
     1
290
     0
176
     1
290
     0
176
     1
 90
       50
176
     1
 40
0.0
176
     1
 40
1.0
176
     1
 90
        0
176
     1
 62
    18
420
        0
176
     1
 90
       50
176
     1
 90
        3
176
     1
 62
     5
420
      255
176
     1
290
     0
176
     1
 90
       50
176
     1
 90
       50
176
     1
 90
       50
176
     1
290
     0
176
     1
 90
       50
176
     1
 62
   256
176
     0
 40
1.0
176
     0
 90
        2
176
     1
  1
strokes_ogs.tif
176
     1
290
     0
176
     1
 40
1.0
176
     1
 40
1.0
176
     1
  0
VISUALSTYLE
  5
34
102
{ACAD_REACTORS
330
2A
102
}
330
2A
100
AcDbVisualStyle
  2
Conceptual
 70
     9
177
     3
291
     0
 70
    58
 90
        3
176
     1
 90
        2
176
     1
 90
        0
176
     1
 90
        0
176
     1
 40
0.6
176
     1
 40
30.0
176
     1
 62
     7
420
 16777215
176
     1
 90
        2
176
     1
 90
        2
176
     1
 62
     7
176
     1
 62
   257
176
     1
 90
        1
176
     1
 90
        1
176
     1
 40
179.0
176
     1
 90
        8
176
     1
 62
     7
176
     1
 40
1.0
176
     1
 90
        1
176
     1
 90
        6
176
     1
 90
        2
176
     1
 62
     7
176
     1
 90
        3
176
     1
 90
        0
176
     1
 90
        0
176
     1
290
     0
176
     1
 90
        1
176
     1
 40
0.0
176
     1
 90
        0
176
     1
290
     0
176
     1
290
     1
176
     1
290
     1
176
     1
290
     0
176
     1
290
     0
176
     1
290
     0
176
     1
290
     0
176
     1
290
     0
176
     1
290
     0
176
     1
 90
       50
176
     1
 40
0.0
176
     1
 40
1.0
176
     1
 90
        0
176
     1
 62
    18
420
        0
176
     1
 90
       50
176
     1
 90
        3
176
     1
 62
     5
420
      255
176
     1
290
     0
176
     1
 90
       50
176
     1
 90
       50
176
     1
 90
       50
176
     1
290
     0
176
     1
 90
       50
176
     1
 62
   256
176
     0
 40
1.0
176
     0
 90
        2
176
     1
  1
strokes_ogs.tif
176
     1
290
     0
176
     1
 40
1.0
176
     1
 40
1.0
176
     1
  0
VISUALSTYLE
  5
35
102
{ACAD_REACTORS
330
2A
102
}
330
2A
100
AcDbVisualStyle
  2
Dim
 70
    11
177
     3
291
     1
 70
    58
 90
        2
176
     1
 90
        2
176
     1
 90
        0
176
     1
 90
        0
176
     1
 40
0.6
176
     1
 40
30.0
176
     1
 62
     7
420
 16777215
176
     1
 90
        1
176
     1
 90
        4
176
     1
 62
     7
176
     1
 62
   257
176
     1
 90
        1
176
     1
 90
        1
176
     1
 40
1.0
176
     1
 90
        8
176
     1
 62
     7
176
     1
 40
1.0
176
     1
 90
        1
176
     1
 90
        6
176
     1
 90
        2
176
     1
 62
     7
176
     1
 90
        5
176
     1
 90
        0
176
     1
 90
        0
176
     1
290
     0
176
     1
 90
        1
176
     1
 40
-50.0
176
     1
 90
        0
176
     1
290
     0
176
     1
290
     1
176
     1
290
     1
176
     1
290
     0
176
     1
290
     0
176
     1
290
     0
176
     1
290
     0
176
     1
290
     0
176
     1
290
     0
176
     1
 90
       50
176
     1
 40
0.0
176
     1
 40
1.0
176
     1
 90
        0
176
     1
 62
    18
420
        0
176
     1
 90
       50
176
     1
 90
        3
176
     1
 62
     5
420
      255
176
     1
290
     0
176
     1
 90
       50
176
     1
 90
       50
176
     1
 90
       50
176
     1
290
     0
176
     1
 90
       50
176
     1
 62
   256
176
     0
 40
1.0
176
     0
 90
        2
176
     1
  1
strokes_ogs.tif
176
     1
290
     0
176
     1
 40
1.0
176
     1
 40
1.0
176
     1
  0
VISUALSTYLE
  5
3D
102
{ACAD_REACTORS
330
2A
102
}
330
2A
100
AcDbVisualStyle
  2
EdgeColorOff
 70
    22
177
     3
291
     1
 70
    58
 90
        2
176
     0
 90
        2
176
     0
 90
        0
176
     0
 90
        0
176
     0
 40
0.6
176
     0
 40
30.0
176
     0
 62
     7
420
 16777215
176
     0
 90
        1
176
     0
 90
        4
176
     0
 62
     7
176
     0
 62
   257
176
     0
 90
        1
176
     0
 90
        1
176
     0
 40
1.0
176
     0
 90
        8
176
     2
 62
     7
176
     0
 40
1.0
176
     0
 90
        1
176
     0
 90
        6
176
     0
 90
        2
176
     0
 62
     7
176
     0
 90
        5
176
     0
 90
        0
176
     0
 90
        0
176
     0
290
     0
176
     0
 90
        1
176
     0
 40
0.0
176
     0
 90
        0
176
     0
290
     0
176
     0
290
     1
176
     0
290
     1
176
     0
290
     0
176
     0
290
     0
176
     0
290
     0
176
     0
290
     0
176
     0
290
     0
176
     0
290
     0
176
     0
 90
       50
176
     0
 40
0.0
176
     0
 40
1.0
176
     0
 90
        0
176
     0
 62
    18
420
        0
176
     0
 90
       50
176
     0
 90
        3
176
     0
 62
     5
420
      255
176
     0
290
     0
176
     0
 90
       50
176
     0
 90
       50
176
     0
 90
       50
176
     0
290
     0
176
     0
 90
       50
176
     0
 62
   256
176
     0
 40
1.0
176
     0
 90
        2
176
     0
  1
strokes_ogs.tif
176
     0
290
     0
176
     0
 40
1.0
176
     0
 40
1.0
176
     0
  0
VISUALSTYLE
  5
39
102
{ACAD_REACTORS
330
2A
102
}
330
2A
100
AcDbVisualStyle
  2
Facepattern
 70
    15
177
     3
291
     1
 70
    58
 90
        2
176
     1
 90
        2
176
     1
 90
        0
176
     1
 90
        0
176
     1
 40
0.6
176
     1
 40
30.0
176
     1
 62
     7
420
 16777215
176
     1
 90
        1
176
     1
 90
        4
176
     1
 62
     7
176
     1
 62
   257
176
     1
 90
        1
176
     1
 90
        1
176
     1
 40
1.0
176
     1
 90
        8
176
     1
 62
     7
176
     1
 40
1.0
176
     1
 90
        1
176
     1
 90
        6
176
     1
 90
        2
176
     1
 62
     7
176
     1
 90
        5
176
     1
 90
        0
176
     1
 90
        0
176
     1
290
     0
176
     1
 90
        1
176
     1
 40
0.0
176
     1
 90
        0
176
     1
290
     0
176
     1
290
     1
176
     1
290
     1
176
     1
290
     0
176
     1
290
     0
176
     1
290
     0
176
     1
290
     0
176
     1
290
     0
176
     1
290
     0
176
     1
 90
       50
176
     1
 40
0.0
176
     1
 40
1.0
176
     1
 90
        0
176
     1
 62
    18
420
        0
176
     1
 90
       50
176
     1
 90
        3
176
     1
 62
     5
420
      255
176
     1
290
     0
176
     1
 90
       50
176
     1
 90
       50
176
     1
 90
       50
176
     1
290
     0
176
     1
 90
       50
176
     1
 62
   256
176
     0
 40
1.0
176
     0
 90
        2
176
     1
  1
strokes_ogs.tif
176
     1
290
     0
176
     1
 40
1.0
176
     1
 40
1.0
176
     1
  0
VISUALSTYLE
  5
2B
102
{ACAD_REACTORS
330
2A
102
}
330
2A
100
AcDbVisualStyle
  2
Flat
 70
     0
177
     3
291
     1
 70
    58
 90
        2
176
     1
 90
        1
176
     1
 90
        1
176
     1
 90
        2
176
     1
 40
0.6
176
     1
 40
30.0
176
     1
 62
     7
420
 16777215
176
     1
 90
        0
176
     1
 90
        0
176
     1
 62
     7
176
     1
 62
   257
176
     1
 90
        1
176
     1
 90
        1
176
     1
 40
1.0
176
     1
 90
        8
176
     1
 62
     7
176
     1
 40
1.0
176
     1
 90
        1
176
     1
 90
        6
176
     1
 90
        2
176
     1
 62
     7
176
     1
 90
        5
176
     1
 90
        0
176
     1
 90
        0
176
     1
290
     0
176
     1
 90
       13
176
     1
 40
0.0
176
     1
 90
        0
176
     1
290
     0
176
     1
290
     1
176
     1
290
     1
176
     1
290
     0
176
     1
290
     0
176
     1
290
     0
176
     1
290
     0
176
     1
290
     0
176
     1
290
     0
176
     1
 90
       50
176
     1
 40
0.0
176
     1
 40
1.0
176
     1
 90
        0
176
     1
 62
    18
420
        0
176
     1
 90
       50
176
     1
 90
        3
176
     1
 62
     5
420
      255
176
     1
290
     0
176
     1
 90
       50
176
     1
 90
       50
176
     1
 90
       50
176
     1
290
     0
176
     1
 90
       50
176
     1
 62
   256
176
     0
 40
1.0
176
     0
 90
        2
176
     1
  1
strokes_ogs.tif
176
     1
290
     0
176
     1
 40
1.0
176
     1
 40
1.0
176
     1
  0
VISUALSTYLE
  5
2C
102
{ACAD_REACTORS
330
2A
102
}
330
2A
100
AcDbVisualStyle
  2
FlatWithEdges
 70
     1
177
     3
291
     1
 70
    58
 90
        2
176
     1
 90
        1
176
     1
 90
        1
176
     1
 90
        2
176
     1
 40
0.6
176
     1
 40
30.0
176
     1
 62
     7
420
 16777215
176
     1
 90
        1
176
     1
 90
        0
176
     1
 62
     7
176
     1
 62
   257
176
     1
 90
        1
176
     1
 90
        1
176
     1
 40
1.0
176
     1
 90
        0
176
     1
 62
   257
176
     1
 40
1.0
176
     1
 90
        1
176
     1
 90
        6
176
     1
 90
        2
176
     1
 62
     7
176
     1
 90
        5
176
     1
 90
        0
176
     1
 90
        0
176
     1
290
     0
176
     1
 90
       13
176
     1
 40
0.0
176
     1
 90
        0
176
     1
290
     0
176
     1
290
     1
176
     1
290
     1
176
     1
290
     0
176
     1
290
     0
176
     1
290
     0
176
     1
290
     0
176
     1
290
     0
176
     1
290
     0
176
     1
 90
       50
176
     1
 40
0.0
176
     1
 40
1.0
176
     1
 90
        0
176
     1
 62
    18
420
        0
176
     1
 90
       50
176
     1
 90
        3
176
     1
 62
     5
420
      255
176
     1
290
     0
176
     1
 90
       50
176
     1
 90
       50
176
     1
 90
       50
176
     1
290
     0
176
     1
 90
       50
176
     1
 62
   256
176
     0
 40
1.0
176
     0
 90
        2
176
     1
  1
strokes_ogs.tif
176
     1
290
     0
176
     1
 40
1.0
176
     1
 40
1.0
176
     1
  0
VISUALSTYLE
  5
2D
102
{ACAD_REACTORS
330
2A
102
}
330
2A
100
AcDbVisualStyle
  2
Gouraud
 70
     2
177
     3
291
     1
 70
    58
 90
        2
176
     1
 90
        2
176
     1
 90
        1
176
     1
 90
        2
176
     1
 40
0.6
176
     1
 40
30.0
176
     1
 62
     7
420
 16777215
176
     1
 90
        0
176
     1
 90
        0
176
     1
 62
     7
176
     1
 62
   257
176
     1
 90
        1
176
     1
 90
        1
176
     1
 40
1.0
176
     1
 90
        0
176
     1
 62
     7
176
     1
 40
1.0
176
     1
 90
        1
176
     1
 90
        6
176
     1
 90
        2
176
     1
 62
     7
176
     1
 90
        5
176
     1
 90
        0
176
     1
 90
        0
176
     1
290
     0
176
     1
 90
       13
176
     1
 40
0.0
176
     1
 90
        0
176
     1
290
     0
176
     1
290
     1
176
     1
290
     1
176
     1
290
     0
176
     1
290
     0
176
     1
290
     0
176
     1
290
     0
176
     1
290
     0
176
     1
290
     0
176
     1
 90
       50
176
     1
 40
0.0
176
     1
 40
1.0
176
     1
 90
        0
176
     1
 62
    18
420
        0
176
     1
 90
       50
176
     1
 90
        3
176
     1
 62
     5
420
      255
176
     1
290
     0
176
     1
 90
       50
176
     1
 90
       50
176
     1
 90
       50
176
     1
290
     0
176
     1
 90
       50
176
     1
 62
   256
176
     0
 40
1.0
176
     0
 90
        2
176
     1
  1
strokes_ogs.tif
176
     1
290
     0
176
     1
 40
1.0
176
     1
 40
1.0
176
     1
  0
VISUALSTYLE
  5
2E
102
{ACAD_REACTORS
330
2A
102
}
330
2A
100
AcDbVisualStyle
  2
GouraudWithEdges
 70
     3
177
     3
291
     1
 70
    58
 90
        2
176
     1
 90
        2
176
     1
 90
        1
176
     1
 90
        2
176
     1
 40
0.6
176
     1
 40
30.0
176
     1
 62
     7
420
 16777215
176
     1
 90
        1
176
     1
 90
        0
176
     1
 62
     7
176
     1
 62
   257
176
     1
 90
        1
176
     1
 90
        1
176
     1
 40
1.0
176
     1
 90
        0
176
     1
 62
   257
176
     1
 40
1.0
176
     1
 90
        1
176
     1
 90
        6
176
     1
 90
        2
176
     1
 62
     7
176
     1
 90
        5
176
     1
 90
        0
176
     1
 90
        0
176
     1
290
     0
176
     1
 90
       13
176
     1
 40
0.0
176
     1
 90
        0
176
     1
290
     0
176
     1
290
     1
176
     1
290
     1
176
     1
290
     0
176
     1
290
     0
176
     1
290
     0
176
     1
290
     0
176
     1
290
     0
176
     1
290
     0
176
     1
 90
       50
176
     1
 40
0.0
176
     1
 40
1.0
176
     1
 90
        0
176
     1
 62
    18
420
        0
176
     1
 90
       50
176
     1
 90
        3
176
     1
 62
     5
420
      255
176
     1
290
     0
176
     1
 90
       50
176
     1
 90
       50
176
     1
 90
       50
176
     1
290
     0
176
     1
 90
       50
176
     1
 62
   256
176
     0
 40
1.0
176
     0
 90
        2
176
     1
  1
strokes_ogs.tif
176
     1
290
     0
176
     1
 40
1.0
176
     1
 40
1.0
176
     1
  0
VISUALSTYLE
  5
31
102
{ACAD_REACTORS
330
2A
102
}
330
2A
100
AcDbVisualStyle
  2
Hidden
 70
     6
177
     3
291
     0
 70
    58
 90
        1
176
     1
 90
        2
176
     1
 90
        2
176
     1
 90
        0
176
     1
 40
0.6
176
     1
 40
30.0
176
     1
 62
     7
420
 16777215
176
     1
 90
        2
176
     1
 90
        2
176
     1
 62
     7
176
     1
 62
   257
176
     1
 90
        2
176
     1
 90
        1
176
     1
 40
40.0
176
     1
 90
        0
176
     1
 62
   257
176
     1
 40
1.0
176
     1
 90
        1
176
     1
 90
        6
176
     1
 90
        2
176
     1
 62
     7
176
     1
 90
        3
176
     1
 90
        0
176
     1
 90
        0
176
     1
290
     0
176
     1
 90
        1
176
     1
 40
0.0
176
     1
 90
        0
176
     1
290
     0
176
     1
290
     1
176
     1
290
     1
176
     1
290
     0
176
     1
290
     0
176
     1
290
     0
176
     1
290
     0
176
     1
290
     0
176
     1
290
     0
176
     1
 90
       50
176
     1
 40
0.0
176
     1
 40
1.0
176
     1
 90
        0
176
     1
 62
    18
420
        0
176
     1
 90
       50
176
     1
 90
        3
176
     1
 62
     5
420
      255
176
     1
290
     0
176
     1
 90
       50
176
     1
 90
       50
176
     1
 90
       50
176
     1
290
     0
176
     1
 90
       50
176
     1
 62
   256
176
     0
 40
1.0
176
     0
 90
        2
176
     1
  1
strokes_ogs.tif
176
     1
290
     0
176
     1
 40
1.0
176
     1
 40
1.0
176
     1
  0
VISUALSTYLE
  5
3B
102
{ACAD_REACTORS
330
2A
102
}
330
2A
100
AcDbVisualStyle
  2
JitterOff
 70
    20
177
     3
291
     1
 70
    58
 90
        2
176
     0
 90
        2
176
     0
 90
        0
176
     0
 90
        0
176
     0
 40
0.6
176
     0
 40
30.0
176
     0
 62
     7
420
 16777215
176
     0
 90
        1
176
     0
 90
        4
176
     0
 62
     7
176
     0
 62
   257
176
     0
 90
        1
176
     0
 90
        1
176
     0
 40
1.0
176
     0
 90
       10
176
     2
 62
     7
176
     0
 40
1.0
176
     0
 90
        1
176
     0
 90
        6
176
     0
 90
        2
176
     0
 62
     7
176
     0
 90
        5
176
     0
 90
        0
176
     0
 90
        0
176
     0
290
     0
176
     0
 90
        1
176
     0
 40
0.0
176
     0
 90
        0
176
     0
290
     0
176
     0
290
     1
176
     0
290
     1
176
     0
290
     0
176
     0
290
     0
176
     0
290
     0
176
     0
290
     0
176
     0
290
     0
176
     0
290
     0
176
     0
 90
       50
176
     0
 40
0.0
176
     0
 40
1.0
176
     0
 90
        0
176
     0
 62
    18
420
        0
176
     0
 90
       50
176
     0
 90
        3
176
     0
 62
     5
420
      255
176
     0
290
     0
176
     0
 90
       50
176
     0
 90
       50
176
     0
 90
       50
176
     0
290
     0
176
     0
 90
       50
176
     0
 62
   256
176
     0
 40
1.0
176
     0
 90
        2
176
     0
  1
strokes_ogs.tif
176
     0
290
     0
176
     0
 40
1.0
176
     0
 40
1.0
176
     0
  0
VISUALSTYLE
  5
38
102
{ACAD_REACTORS
330
2A
102
}
330
2A
100
AcDbVisualStyle
  2
Linepattern
 70
    14
177
     3
291
     1
 70
    58
 90
        2
176
     1
 90
        2
176
     1
 90
        0
176
     1
 90
        0
176
     1
 40
0.6
176
     1
 40
30.0
176
     1
 62
     7
420
 16777215
176
     1
 90
        1
176
     1
 90
        4
176
     1
 62
     7
176
     1
 62
   257
176
     1
 90
        7
176
     1
 90
        7
176
     1
 40
1.0
176
     1
 90
        8
176
     1
 62
     7
176
     1
 40
1.0
176
     1
 90
        1
176
     1
 90
        6
176
     1
 90
        2
176
     1
 62
     7
176
     1
 90
        5
176
     1
 90
        0
176
     1
 90
        0
176
     1
290
     0
176
     1
 90
        1
176
     1
 40
0.0
176
     1
 90
        0
176
     1
290
     0
176
     1
290
     1
176
     1
290
     1
176
     1
290
     0
176
     1
290
     0
176
     1
290
     0
176
     1
290
     0
176
     1
290
     0
176
     1
290
     0
176
     1
 90
       50
176
     1
 40
0.0
176
     1
 40
1.0
176
     1
 90
        0
176
     1
 62
    18
420
        0
176
     1
 90
       50
176
     1
 90
        3
176
     1
 62
     5
420
      255
176
     1
290
     0
176
     1
 90
       50
176
     1
 90
       50
176
     1
 90
       50
176
     1
290
     0
176
     1
 90
       50
176
     1
 62
   256
176
     0
 40
1.0
176
     0
 90
        2
176
     1
  1
strokes_ogs.tif
176
     1
290
     0
176
     1
 40
1.0
176
     1
 40
1.0
176
     1
  0
VISUALSTYLE
  5
3C
102
{ACAD_REACTORS
330
2A
102
}
330
2A
100
AcDbVisualStyle
  2
OverhangOff
 70
    21
177
     3
291
     1
 70
    58
 90
        2
176
     0
 90
        2
176
     0
 90
        0
176
     0
 90
        0
176
     0
 40
0.6
176
     0
 40
30.0
176
     0
 62
     7
420
 16777215
176
     0
 90
        1
176
     0
 90
        4
176
     0
 62
     7
176
     0
 62
   257
176
     0
 90
        1
176
     0
 90
        1
176
     0
 40
1.0
176
     0
 90
        9
176
     2
 62
     7
176
     0
 40
1.0
176
     0
 90
        1
176
     0
 90
        6
176
     0
 90
        2
176
     0
 62
     7
176
     0
 90
        5
176
     0
 90
        0
176
     0
 90
        0
176
     0
290
     0
176
     0
 90
        1
176
     0
 40
0.0
176
     0
 90
        0
176
     0
290
     0
176
     0
290
     1
176
     0
290
     1
176
     0
290
     0
176
     0
290
     0
176
     0
290
     0
176
     0
290
     0
176
     0
290
     0
176
     0
290
     0
176
     0
 90
       50
176
     0
 40
0.0
176
     0
 40
1.0
176
     0
 90
        0
176
     0
 62
    18
420
        0
176
     0
 90
       50
176
     0
 90
        3
176
     0
 62
     5
420
      255
176
     0
290
     0
176
     0
 90
       50
176
     0
 90
       50
176
     0
 90
       50
176
     0
290
     0
176
     0
 90
       50
176
     0
 62
   256
176
     0
 40
1.0
176
     0
 90
        2
176
     0
  1
strokes_ogs.tif
176
     0
290
     0
176
     0
 40
1.0
176
     0
 40
1.0
176
     0
  0
VISUALSTYLE
  5
33
102
{ACAD_REACTORS
330
2A
102
}
330
2A
100
AcDbVisualStyle
  2
Realistic
 70
     8
177
     3
291
     0
 70
    58
 90
        2
176
     1
 90
        3
176
     1
 90
        0
176
     1
 90
        2
176
     1
 40
0.6
176
     1
 40
30.0
176
     1
 62
     7
420
 16777215
176
     1
 90
        0
176
     1
 90
        0
176
     1
 62
     7
176
     1
 62
   257
176
     1
 90
        1
176
     1
 90
        1
176
     1
 40
1.0
176
     1
 90
        8
176
     1
 62
   257
176
     1
 40
1.0
176
     1
 90
        1
176
     1
 90
        6
176
     1
 90
        2
176
     1
 62
     7
176
     1
 90
        3
176
     1
 90
        0
176
     1
 90
        0
176
     1
290
     0
176
     1
 90
       13
176
     1
 40
0.0
176
     1
 90
        0
176
     1
290
     0
176
     1
290
     1
176
     1
290
     1
176
     1
290
     0
176
     1
290
     0
176
     1
290
     0
176
     1
290
     0
176
     1
290
     0
176
     1
290
     0
176
     1
 90
       50
176
     1
 40
0.0
176
     1
 40
1.0
176
     1
 90
        0
176
     1
 62
    18
420
        0
176
     1
 90
       50
176
     1
 90
        3
176
     1
 62
     5
420
      255
176
     1
290
     0
176
     1
 90
       50
176
     1
 90
       50
176
     1
 90
       50
176
     1
290
     0
176
     1
 90
       50
176
     1
 62
   256
176
     0
 40
1.0
176
     0
 90
        2
176
     1
  1
strokes_ogs.tif
176
     1
290
     0
176
     1
 40
1.0
176
     1
 40
1.0
176
     1
  0
VISUALSTYLE
  5
42
102
{ACAD_REACTORS
330
2A
102
}
330
2A
100
AcDbVisualStyle
  2
Shaded
 70
    27
177
     3
291
     0
 70
    58
 90
        2
176
     1
 90
        2
176
     1
 90
        1
176
     1
 90
        2
176
     1
 40
0.6
176
     1
 40
30.0
176
     1
 62
     7
420
 16777215
176
     1
 90
        0
176
     1
 90
        4
176
     1
 62
     7
176
     1
 62
   257
176
     1
 90
        1
176
     1
 90
        1
176
     1
 40
1.0
176
     1
 90
        8
176
     1
 62
   257
176
     1
 40
1.0
176
     1
 90
        1
176
     1
 90
        6
176
     1
 90
        2
176
     1
 62
     8
420
  7895160
176
     1
 90
        3
176
     1
 90
        0
176
     1
 90
        0
176
     1
290
     0
176
     1
 90
        5
176
     1
 40
0.0
176
     1
 90
        0
176
     1
290
     0
176
     1
290
     1
176
     1
290
     1
176
     1
290
     0
176
     1
290
     0
176
     1
290
     0
176
     1
290
     0
176
     1
290
     0
176
     1
290
     0
176
     1
 90
       50
176
     1
 40
0.0
176
     1
 40
1.0
176
     1
 90
        0
176
     1
 62
    18
420
        0
176
     1
 90
       50
176
     1
 90
        3
176
     1
 62
     5
420
      255
176
     1
290
     0
176
     1
 90
       50
176
     1
 90
       50
176
     1
 90
       50
176
     1
290
     0
176
     1
 90
       50
176
     1
 62
   256
176
     0
 40
1.0
176
     0
 90
        2
176
     1
  1
strokes_ogs.tif
176
     1
290
     0
176
     1
 40
1.0
176
     1
 40
1.0
176
     1
  0
VISUALSTYLE
  5
41
102
{ACAD_REACTORS
330
2A
102
}
330
2A
100
AcDbVisualStyle
  2
Shaded with edges
 70
    26
177
     3
291
     0
 70
    58
 90
        2
176
     1
 90
        2
176
     1
 90
        1
176
     1
 90
        2
176
     1
 40
0.6
176
     1
 40
30.0
176
     1
 62
     7
420
 16777215
176
     1
 90
        1
176
     1
 90
       10
176
     1
 62
     7
176
     1
 62
   257
176
     1
 90
        2
176
     1
 90
        1
176
     1
 40
1.0
176
     1
 90
        8
176
     1
 62
   257
176
     1
 40
1.0
176
     1
 90
        1
176
     1
 90
        6
176
     1
 90
        2
176
     1
 62
     7
176
     1
 90
        3
176
     1
 90
        0
176
     1
 90
        0
176
     1
290
     0
176
     1
 90
        5
176
     1
 40
0.0
176
     1
 90
        0
176
     1
290
     0
176
     1
290
     1
176
     1
290
     1
176
     1
290
     0
176
     1
290
     0
176
     1
290
     0
176
     1
290
     0
176
     1
290
     0
176
     1
290
     0
176
     1
 90
       50
176
     1
 40
0.0
176
     1
 40
1.0
176
     1
 90
        0
176
     1
 62
    18
420
        0
176
     1
 90
       50
176
     1
 90
        3
176
     1
 62
     5
420
      255
176
     1
290
     0
176
     1
 90
       50
176
     1
 90
       50
176
     1
 90
       50
176
     1
290
     0
176
     1
 90
       50
176
     1
 62
   256
176
     0
 40
1.0
176
     0
 90
        2
176
     1
  1
strokes_ogs.tif
176
     1
290
     0
176
     1
 40
1.0
176
     1
 40
1.0
176
     1
  0
VISUALSTYLE
  5
3E
102
{ACAD_REACTORS
330
2A
102
}
330
2A
100
AcDbVisualStyle
  2
Shades of Gray
 70
    23
177
     3
291
     0
 70
    58
 90
        2
176
     1
 90
        2
176
     1
 90
        3
176
     1
 90
        0
176
     1
 40
0.6
176
     1
 40
30.0
176
     1
 62
     7
420
 16777215
176
     1
 90
        2
176
     1
 90
        2
176
     1
 62
     7
176
     1
 62
     7
176
     1
 90
        1
176
     1
 90
        1
176
     1
 40
40.0
176
     1
 90
        8
176
     1
 62
     7
176
     1
 40
1.0
176
     1
 90
        1
176
     1
 90
        6
176
     1
 90
        2
176
     1
 62
     7
176
     1
 90
        3
176
     1
 90
        0
176
     1
 90
        0
176
     1
290
     0
176
     1
 90
        1
176
     1
 40
0.0
176
     1
 90
        0
176
     1
290
     0
176
     1
290
     1
176
     1
290
     1
176
     1
290
     0
176
     1
290
     0
176
     1
290
     0
176
     1
290
     0
176
     1
290
     0
176
     1
290
     0
176
     1
 90
       50
176
     1
 40
0.0
176
     1
 40
1.0
176
     1
 90
        0
176
     1
 62
    18
420
        0
176
     1
 90
       50
176
     1
 90
        3
176
     1
 62
     5
420
      255
176
     1
290
     0
176
     1
 90
       50
176
     1
 90
       50
176
     1
 90
       50
176
     1
290
     0
176
     1
 90
       50
176
     1
 62
   256
176
     0
 40
1.0
176
     0
 90
        2
176
     1
  1
strokes_ogs.tif
176
     1
290
     0
176
     1
 40
1.0
176
     1
 40
1.0
176
     1
  0
VISUALSTYLE
  5
3F
102
{ACAD_REACTORS
330
2A
102
}
330
2A
100
AcDbVisualStyle
  2
Sketchy
 70
    24
177
     3
291
     0
 70
    58
 90
        1
176
     1
 90
        2
176
     1
 90
        2
176
     1
 90
        0
176
     1
 40
0.6
176
     1
 40
30.0
176
     1
 62
     7
420
 16777215
176
     1
 90
        2
176
     1
 90
        2
176
     1
 62
     7
176
     1
 62
     7
176
     1
 90
        1
176
     1
 90
        1
176
     1
 40
40.0
176
     1
 90
       11
176
     1
 62
     7
176
     1
 40
1.0
176
     1
 90
        1
176
     1
 90
        6
176
     1
 90
        2
176
     1
 62
     7
176
     1
 90
        6
176
     1
 90
        0
176
     1
 90
        0
176
     1
290
     0
176
     1
 90
        1
176
     1
 40
0.0
176
     1
 90
        0
176
     1
290
     0
176
     1
290
     1
176
     1
290
     1
176
     1
290
     0
176
     1
290
     0
176
     1
290
     0
176
     1
290
     0
176
     1
290
     0
176
     1
290
     0
176
     1
 90
       50
176
     1
 40
0.0
176
     1
 40
1.0
176
     1
 90
        0
176
     1
 62
    18
420
        0
176
     1
 90
       50
176
     1
 90
        3
176
     1
 62
     5
420
      255
176
     1
290
     0
176
     1
 90
       50
176
     1
 90
       50
176
     1
 90
       50
176
     1
290
     0
176
     1
 90
       50
176
     1
 62
   256
176
     0
 40
1.0
176
     0
 90
        2
176
     1
  1
strokes_ogs.tif
176
     1
290
     0
176
     1
 40
1.0
176
     1
 40
1.0
176
     1
  0
VISUALSTYLE
  5
37
102
{ACAD_REACTORS
330
2A
102
}
330
2A
100
AcDbVisualStyle
  2
Thicken
 70
    13
177
     3
291
     1
 70
    58
 90
        2
176
     1
 90
        2
176
     1
 90
        0
176
     1
 90
        0
176
     1
 40
0.6
176
     1
 40
30.0
176
     1
 62
     7
420
 16777215
176
     1
 90
        1
176
     1
 90
        4
176
     1
 62
     7
176
     1
 62
   257
176
     1
 90
        1
176
     1
 90
        1
176
     1
 40
1.0
176
     1
 90
       12
176
     1
 62
     7
176
     1
 40
1.0
176
     1
 90
        1
176
     1
 90
        6
176
     1
 90
        2
176
     1
 62
     7
176
     1
 90
        5
176
     1
 90
        0
176
     1
 90
        0
176
     1
290
     0
176
     1
 90
        1
176
     1
 40
0.0
176
     1
 90
        0
176
     1
290
     0
176
     1
290
     1
176
     1
290
     1
176
     1
290
     0
176
     1
290
     0
176
     1
290
     0
176
     1
290
     0
176
     1
290
     0
176
     1
290
     0
176
     1
 90
       50
176
     1
 40
0.0
176
     1
 40
1.0
176
     1
 90
        0
176
     1
 62
    18
420
        0
176
     1
 90
       50
176
     1
 90
        3
176
     1
 62
     5
420
      255
176
     1
290
     0
176
     1
 90
       50
176
     1
 90
       50
176
     1
 90
       50
176
     1
290
     0
176
     1
 90
       50
176
     1
 62
   256
176
     0
 40
1.0
176
     0
 90
        2
176
     1
  1
strokes_ogs.tif
176
     1
290
     0
176
     1
 40
1.0
176
     1
 40
1.0
176
     1
  0
VISUALSTYLE
  5
30
102
{ACAD_REACTORS
330
2A
102
}
330
2A
100
AcDbVisualStyle
  2
Wireframe
 70
     5
177
     3
291
     0
 70
    58
 90
        0
176
     1
 90
        2
176
     1
 90
        0
176
     1
 90
        0
176
     1
 40
0.6
176
     1
 40
30.0
176
     1
 62
     7
420
 16777215
176
     1
 90
        1
176
     1
 90
        4
176
     1
 62
     7
176
     1
 62
   257
176
     1
 90
        1
176
     1
 90
        1
176
     1
 40
1.0
176
     1
 90
        0
176
     1
 62
   257
176
     1
 40
1.0
176
     1
 90
        1
176
     1
 90
        6
176
     1
 90
        2
176
     1
 62
     7
176
     1
 90
        3
176
     1
 90
        0
176
     1
 90
        0
176
     1
290
     0
176
     1
 90
        1
176
     1
 40
0.0
176
     1
 90
        0
176
     1
290
     0
176
     1
290
     1
176
     1
290
     1
176
     1
290
     0
176
     1
290
     0
176
     1
290
     0
176
     1
290
     0
176
     1
290
     0
176
     1
290
     0
176
     1
 90
       50
176
     1
 40
0.0
176
     1
 40
1.0
176
     1
 90
        0
176
     1
 62
    18
420
        0
176
     1
 90
       50
176
     1
 90
        3
176
     1
 62
     5
420
      255
176
     1
290
     0
176
     1
 90
       50
176
     1
 90
       50
176
     1
 90
       50
176
     1
290
     0
176
     1
 90
       50
176
     1
 62
   256
176
     0
 40
1.0
176
     0
 90
        2
176
     1
  1
strokes_ogs.tif
176
     1
290
     0
176
     1
 40
1.0
176
     1
 40
1.0
176
     1
  0
VISUALSTYLE
  5
40
102
{ACAD_REACTORS
330
2A
102
}
330
2A
100
AcDbVisualStyle
  2
X-Ray
 70
    25
177
     3
291
     0
 70
    58
 90
        2
176
     1
 90
        2
176
     1
 90
        1
176
     1
 90
        1
176
     1
 40
0.5
176
     1
 40
30.0
176
     1
 62
     7
420
 16777215
176
     1
 90
        1
176
     1
 90
        0
176
     1
 62
     7
176
     1
 62
   257
176
     1
 90
        1
176
     1
 90
        1
176
     1
 40
1.0
176
     1
 90
        8
176
     1
 62
     7
176
     1
 40
1.0
176
     1
 90
        1
176
     1
 90
        6
176
     1
 90
        2
176
     1
 62
     7
176
     1
 90
        3
176
     1
 90
        0
176
     1
 90
        0
176
     1
290
     0
176
     1
 90
       13
176
     1
 40
0.0
176
     1
 90
        0
176
     1
290
     0
176
     1
290
     1
176
     1
290
     1
176
     1
290
     0
176
     1
290
     0
176
     1
290
     0
176
     1
290
     0
176
     1
290
     0
176
     1
290
     0
176
     1
 90
       50
176
     1
 40
0.0
176
     1
 40
1.0
176
     1
 90
        0
176
     1
 62
    18
420
        0
176
     1
 90
       50
176
     1
 90
        3
176
     1
 62
     5
420
      255
176
     1
290
     0
176
     1
 90
       50
176
     1
 90
       50
176
     1
 90
       50
176
     1
290
     0
176
     1
 90
       50
176
     1
 62
   256
176
     0
 40
1.0
176
     0
 90
        2
176
     1
  1
strokes_ogs.tif
176
     1
290
     0
176
     1
 40
1.0
176
     1
 40
1.0
176
     1
  0
DICTIONARYVAR
  5
221
102
{ACAD_REACTORS
330
220
102
}
330
220
100
DictionaryVariables
280
     0
  1
1:1
  0
DICTIONARYVAR
  5
226
102
{ACAD_REACTORS
330
220
102
}
330
220
100
DictionaryVariables
280
     0
  1
Standard
  0
DICTIONARYVAR
  5
225
102
{ACAD_REACTORS
330
220
102
}
330
220
100
DictionaryVariables
280
     0
  1
Standard
  0
DICTIONARY
  5
222
330
6A
100
AcDbDictionary
280
     1
281
     1
  3
ACAD_ROUNDTRIP_2008_TABLESTYLE_CELLSTYLEMAP
360
223
  0
CELLSTYLEMAP
  5
223
102
{ACAD_REACTORS
330
222
102
}
330
222
100
AcDbCellStyleMap
 90
        3
300
CELLSTYLE
  1
TABLEFORMAT_BEGIN
 90
        5
170
     1
 91
        0
 92
    32768
 62
   257
 93
        1
300
CONTENTFORMAT
  1
CONTENTFORMAT_BEGIN
 90
        0
 91
        0
 92
        4
 93
        0
300

 40
0.0
140
1.0
 94
        5
 62
     0
340
11
144
0.25
309
CONTENTFORMAT_END
171
     1
301
MARGIN
  1
CELLMARGIN_BEGIN
 40
0.06
 40
0.06
 40
0.06
 40
0.06
 40
0.06
 40
0.06
309
CELLMARGIN_END
 94
        6
 95
        1
302
GRIDFORMAT
  1
GRIDFORMAT_BEGIN
 90
        0
 91
        1
 62
     0
 92
       -2
340
14
 93
        0
 40
0.045
309
GRIDFORMAT_END
 95
        2
302
GRIDFORMAT
  1
GRIDFORMAT_BEGIN
 90
        0
 91
        1
 62
     0
 92
       -2
340
14
 93
        0
 40
0.045
309
GRIDFORMAT_END
 95
        4
302
GRIDFORMAT
  1
GRIDFORMAT_BEGIN
 90
        0
 91
        1
 62
     0
 92
       -2
340
14
 93
        0
 40
0.045
309
GRIDFORMAT_END
 95
        8
302
GRIDFORMAT
  1
GRIDFORMAT_BEGIN
 90
        0
 91
        1
 62
     0
 92
       -2
340
14
 93
        0
 40
0.045
309
GRIDFORMAT_END
 95
       16
302
GRIDFORMAT
  1
GRIDFORMAT_BEGIN
 90
        0
 91
        1
 62
     0
 92
       -2
340
14
 93
        0
 40
0.045
309
GRIDFORMAT_END
 95
       32
302
GRIDFORMAT
  1
GRIDFORMAT_BEGIN
 90
        0
 91
        1
 62
     0
 92
       -2
340
14
 93
        0
 40
0.045
309
GRIDFORMAT_END
309
TABLEFORMAT_END
  1
CELLSTYLE_BEGIN
 90
        1
 91
        1
300
_TITLE
309
CELLSTYLE_END
300
CELLSTYLE
  1
TABLEFORMAT_BEGIN
 90
        5
170
     1
 91
        0
 92
        0
 62
   257
 93
        1
300
CONTENTFORMAT
  1
CONTENTFORMAT_BEGIN
 90
        0
 91
        0
 92
        4
 93
        0
300

 40
0.0
140
1.0
 94
        5
 62
     0
340
11
144
0.18
309
CONTENTFORMAT_END
171
     1
301
MARGIN
  1
CELLMARGIN_BEGIN
 40
0.06
 40
0.06
 40
0.06
 40
0.06
 40
0.06
 40
0.06
309
CELLMARGIN_END
 94
        6
 95
        1
302
GRIDFORMAT
  1
GRIDFORMAT_BEGIN
 90
        0
 91
        1
 62
     0
 92
       -2
340
14
 93
        0
 40
0.045
309
GRIDFORMAT_END
 95
        2
302
GRIDFORMAT
  1
GRIDFORMAT_BEGIN
 90
        0
 91
        1
 62
     0
 92
       -2
340
14
 93
        0
 40
0.045
309
GRIDFORMAT_END
 95
        4
302
GRIDFORMAT
  1
GRIDFORMAT_BEGIN
 90
        0
 91
        1
 62
     0
 92
       -2
340
14
 93
        0
 40
0.045
309
GRIDFORMAT_END
 95
        8
302
GRIDFORMAT
  1
GRIDFORMAT_BEGIN
 90
        0
 91
        1
 62
     0
 92
       -2
340
14
 93
        0
 40
0.045
309
GRIDFORMAT_END
 95
       16
302
GRIDFORMAT
  1
GRIDFORMAT_BEGIN
 90
        0
 91
        1
 62
     0
 92
       -2
340
14
 93
        0
 40
0.045
309
GRIDFORMAT_END
 95
       32
302
GRIDFORMAT
  1
GRIDFORMAT_BEGIN
 90
        0
 91
        1
 62
     0
 92
       -2
340
14
 93
        0
 40
0.045
309
GRIDFORMAT_END
309
TABLEFORMAT_END
  1
CELLSTYLE_BEGIN
 90
        2
 91
        1
300
_HEADER
309
CELLSTYLE_END
300
CELLSTYLE
  1
TABLEFORMAT_BEGIN
 90
        5
170
     1
 91
        0
 92
        0
 62
   257
 93
        1
300
CONTENTFORMAT
  1
CONTENTFORMAT_BEGIN
 90
        0
 91
        0
 92
        4
 93
        0
300

 40
0.0
140
1.0
 94
        2
 62
     0
340
11
144
0.18
309
CONTENTFORMAT_END
171
     1
301
MARGIN
  1
CELLMARGIN_BEGIN
 40
0.06
 40
0.06
 40
0.06
 40
0.06
 40
0.06
 40
0.06
309
CELLMARGIN_END
 94
        6
 95
        1
302
GRIDFORMAT
  1
GRIDFORMAT_BEGIN
 90
        0
 91
        1
 62
     0
 92
       -2
340
14
 93
        0
 40
0.045
309
GRIDFORMAT_END
 95
        2
302
GRIDFORMAT
  1
GRIDFORMAT_BEGIN
 90
        0
 91
        1
 62
     0
 92
       -2
340
14
 93
        0
 40
0.045
309
GRIDFORMAT_END
 95
        4
302
GRIDFORMAT
  1
GRIDFORMAT_BEGIN
 90
        0
 91
        1
 62
     0
 92
       -2
340
14
 93
        0
 40
0.045
309
GRIDFORMAT_END
 95
        8
302
GRIDFORMAT
  1
GRIDFORMAT_BEGIN
 90
        0
 91
        1
 62
     0
 92
       -2
340
14
 93
        0
 40
0.045
309
GRIDFORMAT_END
 95
       16
302
GRIDFORMAT
  1
GRIDFORMAT_BEGIN
 90
        0
 91
        1
 62
     0
 92
       -2
340
14
 93
        0
 40
0.045
309
GRIDFORMAT_END
 95
       32
302
GRIDFORMAT
  1
GRIDFORMAT_BEGIN
 90
        0
 91
        1
 62
     0
 92
       -2
340
14
 93
        0
 40
0.045
309
GRIDFORMAT_END
309
TABLEFORMAT_END
  1
CELLSTYLE_BEGIN
 90
        3
 91
        2
300
_DATA
309
CELLSTYLE_END
  0
ENDSEC
  0
EOF