0
SECTION
  2
HEADER
  9
$ACADVER
  1
AC1027
  9
$ACADMAINTVER
 70
     8
  9
$DWGCODEPAGE
  3
ANSI_1252
  9
$REQUIREDVERSIONS
160
                 0
  9
$COMMENTS
  1
File was created by Cadenas
  9
$CUSTOMPROPERTYTAG
  1
NN
  9
$CUSTOMPROPERTY
  1
Set Screw LF  Normal Duty 3-Bolt Flange Metric Bore
  9
$CUSTOMPROPERTYTAG
  1
NT
  9
$CUSTOMPROPERTY
  1
SC 3 Bolt Flange Bearings -(Normal Duty) -Re-Lube and No-Lube
  9
$CUSTOMPROPERTYTAG
  1
NB
  9
$CUSTOMPROPERTY
  1
065699
  9
$CUSTOMPROPERTYTAG
  1
NBSYN
  9
$CUSTOMPROPERTY
  1
$PN.
  9
$CUSTOMPROPERTYTAG
  1
LINA
  9
$CUSTOMPROPERTY
  1
065699
  9
$CUSTOMPROPERTYTAG
  1
SERIES
  9
$CUSTOMPROPERTY
  1
207
  9
$CUSTOMPROPERTYTAG
  1
SS
  9
$CUSTOMPROPERTY
  1
35
  9
$CUSTOMPROPERTYTAG
  1
PN
  9
$CUSTOMPROPERTY
  1
065699
  9
$CUSTOMPROPERTYTAG
  1
DESCRIPTION
  9
$CUSTOMPROPERTY
  1
LF-SC-35M
  9
$CUSTOMPROPERTYTAG
  1
W
  9
$CUSTOMPROPERTY
  1
0.90
  9
$CUSTOMPROPERTYTAG
  1
LF
  9
$CUSTOMPROPERTY
  1
RE-LUBE
  9
$CUSTOMPROPERTYTAG
  1
A
  9
$CUSTOMPROPERTY
  1
35.6
  9
$CUSTOMPROPERTYTAG
  1
B
  9
$CUSTOMPROPERTY
  1
122.2
  9
$CUSTOMPROPERTYTAG
  1
C
  9
$CUSTOMPROPERTY
  1
40.4
  9
$CUSTOMPROPERTYTAG
  1
D
  9
$CUSTOMPROPERTY
  1
100.1
  9
$CUSTOMPROPERTYTAG
  1
G
  9
$CUSTOMPROPERTY
  1
10.4
  9
$CUSTOMPROPERTYTAG
  1
H
  9
$CUSTOMPROPERTY
  1
12.7
  9
$CUSTOMPROPERTYTAG
  1
J
  9
$CUSTOMPROPERTY
  1
13.2
  9
$CUSTOMPROPERTYTAG
  1
L
  9
$CUSTOMPROPERTY
  1
46.7
  9
$CUSTOMPROPERTYTAG
  1
M
  9
$CUSTOMPROPERTY
  1
61.2
  9
$CUSTOMPROPERTYTAG
  1
N
  9
$CUSTOMPROPERTY
  1
54.4
  9
$CUSTOMPROPERTYTAG
  1
COMPANY
  9
$CUSTOMPROPERTY
  1
baldor
  9
$INSBASE
 10
0.0
 20
0.0
 30
0.0
  9
$EXTMIN
 10
1.000000000000000E+20
 20
1.000000000000000E+20
 30
1.000000000000000E+20
  9
$EXTMAX
 10
-1.000000000000000E+20
 20
-1.000000000000000E+20
 30
-1.000000000000000E+20
  9
$LIMMIN
 10
0.0
 20
0.0
  9
$LIMMAX
 10
420.0
 20
297.0
  9
$ORTHOMODE
 70
     0
  9
$REGENMODE
 70
     1
  9
$FILLMODE
 70
     1
  9
$QTEXTMODE
 70
     0
  9
$MIRRTEXT
 70
     1
  9
$LTSCALE
 40
1.0
  9
$ATTMODE
 70
     1
  9
$TEXTSIZE
 40
2.5
  9
$TRACEWID
 40
1.0
  9
$TEXTSTYLE
  7
Standard
  9
$CLAYER
  8
0
  9
$CELTYPE
  6
ByLayer
  9
$CECOLOR
 62
   256
  9
$CELTSCALE
 40
1.0
  9
$DISPSILH
 70
     0
  9
$DIMSCALE
 40
1.0
  9
$DIMASZ
 40
2.5
  9
$DIMEXO
 40
0.625
  9
$DIMDLI
 40
3.75
  9
$DIMRND
 40
0.0
  9
$DIMDLE
 40
0.0
  9
$DIMEXE
 40
1.25
  9
$DIMTP
 40
0.0
  9
$DIMTM
 40
0.0
  9
$DIMTXT
 40
2.5
  9
$DIMCEN
 40
2.5
  9
$DIMTSZ
 40
0.0
  9
$DIMTOL
 70
     0
  9
$DIMLIM
 70
     0
  9
$DIMTIH
 70
     0
  9
$DIMTOH
 70
     0
  9
$DIMSE1
 70
     0
  9
$DIMSE2
 70
     0
  9
$DIMTAD
 70
     1
  9
$DIMZIN
 70
     8
  9
$DIMBLK
  1

  9
$DIMASO
 70
     1
  9
$DIMSHO
 70
     1
  9
$DIMPOST
  1

  9
$DIMAPOST
  1

  9
$DIMALT
 70
     0
  9
$DIMALTD
 70
     3
  9
$DIMALTF
 40
0.03937007874016
  9
$DIMLFAC
 40
1.0
  9
$DIMTOFL
 70
     1
  9
$DIMTVP
 40
0.0
  9
$DIMTIX
 70
     0
  9
$DIMSOXD
 70
     0
  9
$DIMSAH
 70
     0
  9
$DIMBLK1
  1

  9
$DIMBLK2
  1

  9
$DIMSTYLE
  2
ISO-25
  9
$DIMCLRD
 70
     0
  9
$DIMCLRE
 70
     0
  9
$DIMCLRT
 70
     0
  9
$DIMTFAC
 40
1.0
  9
$DIMGAP
 40
0.625
  9
$DIMJUST
 70
     0
  9
$DIMSD1
 70
     0
  9
$DIMSD2
 70
     0
  9
$DIMTOLJ
 70
     0
  9
$DIMTZIN
 70
     8
  9
$DIMALTZ
 70
     0
  9
$DIMALTTZ
 70
     0
  9
$DIMUPT
 70
     0
  9
$DIMDEC
 70
     2
  9
$DIMTDEC
 70
     2
  9
$DIMALTU
 70
     2
  9
$DIMALTTD
 70
     3
  9
$DIMTXSTY
  7
Standard
  9
$DIMAUNIT
 70
     0
  9
$DIMADEC
 70
     0
  9
$DIMALTRND
 40
0.0
  9
$DIMAZIN
 70
     0
  9
$DIMDSEP
 70
    44
  9
$DIMATFIT
 70
     3
  9
$DIMFRAC
 70
     0
  9
$DIMLDRBLK
  1

  9
$DIMLUNIT
 70
     2
  9
$DIMLWD
 70
    -2
  9
$DIMLWE
 70
    -2
  9
$DIMTMOVE
 70
     0
  9
$DIMFXL
 40
1.0
  9
$DIMFXLON
 70
     0
  9
$DIMJOGANG
 40
0.7853981633974483
  9
$DIMTFILL
 70
     0
  9
$DIMTFILLCLR
 70
     0
  9
$DIMARCSYM
 70
     0
  9
$DIMLTYPE
  6

  9
$DIMLTEX1
  6

  9
$DIMLTEX2
  6

  9
$DIMTXTDIRECTION
 70
     0
  9
$LUNITS
 70
     2
  9
$LUPREC
 70
     4
  9
$SKETCHINC
 40
1.0
  9
$FILLETRAD
 40
10.0
  9
$AUNITS
 70
     0
  9
$AUPREC
 70
     0
  9
$MENU
  1
.
  9
$ELEVATION
 40
0.0
  9
$PELEVATION
 40
0.0
  9
$THICKNESS
 40
0.0
  9
$LIMCHECK
 70
     0
  9
$CHAMFERA
 40
0.0
  9
$CHAMFERB
 40
0.0
  9
$CHAMFERC
 40
0.0
  9
$CHAMFERD
 40
0.0
  9
$SKPOLY
 70
     0
  9
$TDCREATE
 40
2458169.004632141
  9
$TDUCREATE
 40
2458168.962965474
  9
$TDUPDATE
 40
2458169.004632141
  9
$TDUUPDATE
 40
2458168.962965474
  9
$TDINDWG
 40
0.0000000116
  9
$TDUSRTIMER
 40
0.0000000116
  9
$USRTIMER
 70
     1
  9
$ANGBASE
 50
0.0
  9
$ANGDIR
 70
     0
  9
$PDMODE
 70
     0
  9
$PDSIZE
 40
0.0
  9
$PLINEWID
 40
0.0
  9
$SPLFRAME
 70
     0
  9
$SPLINETYPE
 70
     6
  9
$SPLINESEGS
 70
     8
  9
$HANDSEED
  5
1A0
  9
$SURFTAB1
 70
     6
  9
$SURFTAB2
 70
     6
  9
$SURFTYPE
 70
     6
  9
$SURFU
 70
     6
  9
$SURFV
 70
     6
  9
$UCSBASE
  2

  9
$UCSNAME
  2

  9
$UCSORG
 10
0.0
 20
0.0
 30
0.0
  9
$UCSXDIR
 10
1.0
 20
0.0
 30
0.0
  9
$UCSYDIR
 10
0.0
 20
1.0
 30
0.0
  9
$UCSORTHOREF
  2

  9
$UCSORTHOVIEW
 70
     0
  9
$UCSORGTOP
 10
0.0
 20
0.0
 30
0.0
  9
$UCSORGBOTTOM
 10
0.0
 20
0.0
 30
0.0
  9
$UCSORGLEFT
 10
0.0
 20
0.0
 30
0.0
  9
$UCSORGRIGHT
 10
0.0
 20
0.0
 30
0.0
  9
$UCSORGFRONT
 10
0.0
 20
0.0
 30
0.0
  9
$UCSORGBACK
 10
0.0
 20
0.0
 30
0.0
  9
$PUCSBASE
  2

  9
$PUCSNAME
  2

  9
$PUCSORG
 10
0.0
 20
0.0
 30
0.0
  9
$PUCSXDIR
 10
1.0
 20
0.0
 30
0.0
  9
$PUCSYDIR
 10
0.0
 20
1.0
 30
0.0
  9
$PUCSORTHOREF
  2

  9
$PUCSORTHOVIEW
 70
     0
  9
$PUCSORGTOP
 10
0.0
 20
0.0
 30
0.0
  9
$PUCSORGBOTTOM
 10
0.0
 20
0.0
 30
0.0
  9
$PUCSORGLEFT
 10
0.0
 20
0.0
 30
0.0
  9
$PUCSORGRIGHT
 10
0.0
 20
0.0
 30
0.0
  9
$PUCSORGFRONT
 10
0.0
 20
0.0
 30
0.0
  9
$PUCSORGBACK
 10
0.0
 20
0.0
 30
0.0
  9
$USERI1
 70
     0
  9
$USERI2
 70
     0
  9
$USERI3
 70
     0
  9
$USERI4
 70
     0
  9
$USERI5
 70
     0
  9
$USERR1
 40
0.0
  9
$USERR2
 40
0.0
  9
$USERR3
 40
0.0
  9
$USERR4
 40
0.0
  9
$USERR5
 40
0.0
  9
$WORLDVIEW
 70
     1
  9
$SHADEDGE
 70
     3
  9
$SHADEDIF
 70
    70
  9
$TILEMODE
 70
     1
  9
$MAXACTVP
 70
    64
  9
$PINSBASE
 10
0.0
 20
0.0
 30
0.0
  9
$PLIMCHECK
 70
     0
  9
$PEXTMIN
 10
1.000000000000000E+20
 20
1.000000000000000E+20
 30
1.000000000000000E+20
  9
$PEXTMAX
 10
-1.000000000000000E+20
 20
-1.000000000000000E+20
 30
-1.000000000000000E+20
  9
$PLIMMIN
 10
0.0
 20
0.0
  9
$PLIMMAX
 10
420.0
 20
297.0
  9
$UNITMODE
 70
     0
  9
$VISRETAIN
 70
     1
  9
$PLINEGEN
 70
     0
  9
$PSLTSCALE
 70
     1
  9
$TREEDEPTH
 70
  3020
  9
$CMLSTYLE
  2
Standard
  9
$CMLJUST
 70
     0
  9
$CMLSCALE
 40
20.0
  9
$PROXYGRAPHICS
 70
     1
  9
$MEASUREMENT
 70
     1
  9
$CELWEIGHT
370
    -1
  9
$ENDCAPS
280
     0
  9
$JOINSTYLE
280
     0
  9
$LWDISPLAY
290
     0
  9
$INSUNITS
 70
     4
  9
$HYPERLINKBASE
  1

  9
$STYLESHEET
  1

  9
$XEDIT
290
     1
  9
$CEPSNTYPE
380
     0
  9
$PSTYLEMODE
290
     1
  9
$FINGERPRINTGUID
  2
{5796BE31-C234-456B-AA25-EC705D48F6BF}
  9
$VERSIONGUID
  2
{FAEB1C32-E019-11D5-929B-00C0DF256EC4}
  9
$EXTNAMES
290
     1
  9
$PSVPSCALE
 40
0.0
  9
$OLESTARTUP
290
     0
  9
$SORTENTS
280
   127
  9
$INDEXCTL
280
     0
  9
$HIDETEXT
280
     1
  9
$XCLIPFRAME
280
     2
  9
$HALOGAP
280
     0
  9
$OBSCOLOR
 70
   257
  9
$OBSLTYPE
280
     0
  9
$INTERSECTIONDISPLAY
280
     0
  9
$INTERSECTIONCOLOR
 70
   257
  9
$DIMASSOC
280
     2
  9
$PROJECTNAME
  1

  9
$CAMERADISPLAY
290
     0
  9
$LENSLENGTH
 40
50.0
  9
$CAMERAHEIGHT
 40
0.0
  9
$STEPSPERSEC
 40
2.0
  9
$STEPSIZE
 40
6.0
  9
$3DDWFPREC
 40
2.0
  9
$PSOLWIDTH
 40
5.0
  9
$PSOLHEIGHT
 40
80.0
  9
$LOFTANG1
 40
1.570796326794897
  9
$LOFTANG2
 40
1.570796326794897
  9
$LOFTMAG1
 40
0.0
  9
$LOFTMAG2
 40
0.0
  9
$LOFTPARAM
 70
     7
  9
$LOFTNORMALS
280
     1
  9
$LATITUDE
 40
37.795
  9
$LONGITUDE
 40
-122.394
  9
$NORTHDIRECTION
 40
0.0
  9
$TIMEZONE
 70
 -8000
  9
$LIGHTGLYPHDISPLAY
280
     1
  9
$TILEMODELIGHTSYNCH
280
     1
  9
$CMATERIAL
347
44
  9
$SOLIDHIST
280
     0
  9
$SHOWHIST
280
     1
  9
$DWFFRAME
280
     2
  9
$DGNFRAME
280
     2
  9
$REALWORLDSCALE
290
     1
  9
$INTERFERECOLOR
 62
   256
  9
$CSHADOW
280
     0
  9
$SHADOWPLANELOCATION
 40
0.0
  0
ENDSEC
  0
SECTION
  2
CLASSES
  0
CLASS
  1
ACDBDICTIONARYWDFLT
  2
AcDbDictionaryWithDefault
  3
ObjectDBX Classes
 90
        0
 91
        4
280
     0
281
     0
  0
CLASS
  1
VISUALSTYLE
  2
AcDbVisualStyle
  3
ObjectDBX Classes
 90
     4095
 91
        4
280
     0
281
     0
  0
CLASS
  1
MATERIAL
  2
AcDbMaterial
  3
ObjectDBX Classes
 90
     1153
 91
        4
280
     0
281
     0
  0
CLASS
  1
SCALE
  2
AcDbScale
  3
ObjectDBX Classes
 90
     1153
 91
        4
280
     0
281
     0
  0
CLASS
  1
TABLESTYLE
  2
AcDbTableStyle
  3
ObjectDBX Classes
 90
     4095
 91
        4
280
     0
281
     0
  0
CLASS
  1
MLEADERSTYLE
  2
AcDbMLeaderStyle
  3
ACDB_MLEADERSTYLE_CLASS
 90
     4095
 91
        4
280
     0
281
     0
  0
CLASS
  1
SUN
  2
AcDbSun
  3
SCENEOE
 90
     1153
 91
        4
280
     0
281
     0
  0
CLASS
  1
DICTIONARYVAR
  2
AcDbDictionaryVar
  3
ObjectDBX Classes
 90
        0
 91
        4
280
     0
281
     0
  0
CLASS
  1
CELLSTYLEMAP
  2
AcDbCellStyleMap
  3
ObjectDBX Classes
 90
     1152
 91
        4
280
     0
281
     0
  0
ENDSEC
  0
SECTION
  2
TABLES
  0
TABLE
  2
VPORT
  5
8
330
0
100
AcDbSymbolTable
 70
     1
  0
VPORT
  5
29
330
8
100
AcDbSymbolTableRecord
100
AcDbViewportTableRecord
  2
*Active
 70
     0
 10
0.0
 20
0.0
 11
1.0
 21
1.0
 12
-20.77625
 22
3.003925000000038
 13
0.0
 23
0.0
 14
10.0
 24
10.0
 15
10.0
 25
10.0
 16
0.0
 26
0.0
 36
1.0
 17
0.0
 27
0.0
 37
0.0
 40
118.5159930000001
 41
0.3685489940585484
 42
50.0
 43
0.0
 44
0.0
 50
0.0
 51
0.0
 71
     0
 72
   100
 73
     1
 74
     3
 75
     0
 76
     0
 77
     0
 78
     0
281
     0
 65
     1
110
0.0
120
0.0
130
0.0
111
1.0
121
0.0
131
0.0
112
0.0
122
1.0
132
0.0
 79
     0
146
0.0
348
2F
 60
     3
 61
     5
292
     1
282
     1
141
0.0
142
0.0
 63
   250
361
6D
  0
ENDTAB
  0
TABLE
  2
LTYPE
  5
5
330
0
100
AcDbSymbolTable
 70
     3
  0
LTYPE
  5
14
330
5
100
AcDbSymbolTableRecord
100
AcDbLinetypeTableRecord
  2
ByBlock
 70
     0
  3

 72
    65
 73
     0
 40
0.0
  0
LTYPE
  5
15
330
5
100
AcDbSymbolTableRecord
100
AcDbLinetypeTableRecord
  2
ByLayer
 70
     0
  3

 72
    65
 73
     0
 40
0.0
  0
LTYPE
  5
16
330
5
100
AcDbSymbolTableRecord
100
AcDbLinetypeTableRecord
  2
Continuous
 70
     0
  3
Solid line
 72
    65
 73
     0
 40
0.0
  0
LTYPE
  5
A0
330
5
100
AcDbSymbolTableRecord
100
AcDbLinetypeTableRecord
  2
Dashed
 70
     0
  3

 72
    65
 73
     2
 40
2.0
 49
1.0
 74
     0
 49
-1.0
 74
     0
  0
LTYPE
  5
D7
330
5
100
AcDbSymbolTableRecord
100
AcDbLinetypeTableRecord
  2
Center
 70
     0
  3

 72
    65
 73
     4
 40
1.5
 49
0.45
 74
     0
 49
-0.5
 74
     0
 49
0.05
 74
     0
 49
-0.5
 74
     0
  0
ENDTAB
  0
TABLE
  2
LAYER
  5
2
330
0
100
AcDbSymbolTable
 70
     7
  0
LAYER
  5
10
330
2
100
AcDbSymbolTableRecord
100
AcDbLayerTableRecord
  2
0
 70
     0
 62
     7
  6
Continuous
370
    -3
390
F
347
46
348
0
  0
LAYER
  5
72
330
2
100
AcDbSymbolTableRecord
100
AcDbLayerTableRecord
  2
AM_6
 70
     0
 62
    -2
  6
Continuous
370
    35
390
F
347
46
348
0
  0
LAYER
  5
A1
330
2
100
AcDbSymbolTableRecord
100
AcDbLayerTableRecord
  2
AM_9
 70
     0
 62
     6
  6
Dashed
370
    25
390
F
347
46
348
0
  0
LAYER
  5
D4
330
2
100
AcDbSymbolTableRecord
100
AcDbLayerTableRecord
  2
AM_5
 70
     0
 62
     3
  6
Continuous
370
    25
390
F
347
46
348
0
  0
LAYER
  5
D8
330
2
100
AcDbSymbolTableRecord
100
AcDbLayerTableRecord
  2
AM_7
 70
     0
 62
     7
  6
Center
370
    25
390
F
347
46
348
0
  0
LAYER
  5
DB
330
2
100
AcDbSymbolTableRecord
100
AcDbLayerTableRecord
  2
AM_4
 70
     0
 62
     7
  6
Continuous
370
    50
390
F
347
46
348
0
  0
LAYER
  5
193
330
2
100
AcDbSymbolTableRecord
100
AcDbLayerTableRecord
  2
ConnectionPoints
 70
     0
 62
     7
  6
Continuous
370
    50
390
F
347
46
348
0
  0
ENDTAB
  0
TABLE
  2
STYLE
  5
3
330
0
100
AcDbSymbolTable
 70
     1
  0
STYLE
  5
11
330
3
100
AcDbSymbolTableRecord
100
AcDbTextStyleTableRecord
  2
Standard
 70
     0
 40
0.0
 41
1.0
 50
0.0
 71
     0
 42
2.5
  3
txt
  4

  0
ENDTAB
  0
TABLE
  2
VIEW
  5
6
330
0
100
AcDbSymbolTable
 70
     0
  0
ENDTAB
  0
TABLE
  2
UCS
  5
7
330
0
100
AcDbSymbolTable
 70
     0
  0
ENDTAB
  0
TABLE
  2
APPID
  5
9
330
0
100
AcDbSymbolTable
 70
     1
  0
APPID
  5
12
330
9
100
AcDbSymbolTableRecord
100
AcDbRegAppTableRecord
  2
ACAD
 70
     0
  0
ENDTAB
  0
TABLE
  2
DIMSTYLE
  5
A
330
0
100
AcDbSymbolTable
 70
     1
100
AcDbDimStyleTable
  0
DIMSTYLE
105
27
330
A
100
AcDbSymbolTableRecord
100
AcDbDimStyleTableRecord
  2
ISO-25
 70
     0
 41
2.5
 42
0.625
 43
3.75
 44
1.25
 73
     0
 74
     0
 77
     1
 78
     8
140
2.5
141
2.5
143
0.03937007874016
147
0.625
171
     3
172
     1
178
     0
271
     2
272
     2
274
     3
278
    44
283
     0
284
     8
340
11
  0
ENDTAB
  0
TABLE
  2
BLOCK_RECORD
  5
1
330
0
100
AcDbSymbolTable
 70
     5
  0
BLOCK_RECORD
  5
1F
330
1
100
AcDbSymbolTableRecord
100
AcDbBlockTableRecord
  2
*Model_Space
340
22
 70
     0
280
     1
281
     0
  0
BLOCK_RECORD
  5
1B
330
1
100
AcDbSymbolTableRecord
100
AcDbBlockTableRecord
  2
*Paper_Space
340
1E
 70
     0
280
     1
281
     0
  0
BLOCK_RECORD
  5
23
330
1
100
AcDbSymbolTableRecord
100
AcDbBlockTableRecord
  2
*Paper_Space0
340
26
 70
     0
280
     1
281
     0
  0
BLOCK_RECORD
  5
6E
330
1
100
AcDbSymbolTableRecord
100
AcDbBlockTableRecord
  2
1_065699_2
340
0
102
{BLKREFS
331
6F
102
}
 70
     0
280
     1
281
     0
  0
BLOCK_RECORD
  5
89
330
1
100
AcDbSymbolTableRecord
100
AcDbBlockTableRecord
  2
2_077996_0_in_065699_2
340
0
102
{BLKREFS
331
8A
102
}
 70
     0
280
     1
281
     0
  0
BLOCK_RECORD
  5
EB
330
1
100
AcDbSymbolTableRecord
100
AcDbBlockTableRecord
  2
3_405020c_M_0_in_065699_2
340
0
102
{BLKREFS
331
EC
102
}
 70
     0
280
     1
281
     0
  0
BLOCK_RECORD
  5
12F
330
1
100
AcDbSymbolTableRecord
100
AcDbBlockTableRecord
  2
4_065699H_0_in_065699_2
340
0
102
{BLKREFS
331
130
102
}
 70
     0
280
     1
281
     0
  0
ENDTAB
  0
ENDSEC
  0
SECTION
  2
BLOCKS
  0
BLOCK
  5
20
330
1F
100
AcDbEntity
  8
0
100
AcDbBlockBegin
  2
*Model_Space
 70
     0
 10
0.0
 20
0.0
 30
0.0
  3
*Model_Space
  1

  0
ENDBLK
  5
21
330
1F
100
AcDbEntity
  8
0
100
AcDbBlockEnd
  0
BLOCK
  5
1C
330
1B
100
AcDbEntity
 67
     1
  8
0
100
AcDbBlockBegin
  2
*Paper_Space
 70
     0
 10
0.0
 20
0.0
 30
0.0
  3
*Paper_Space
  1

  0
ENDBLK
  5
1D
330
1B
100
AcDbEntity
 67
     1
  8
0
100
AcDbBlockEnd
  0
BLOCK
  5
24
330
23
100
AcDbEntity
  8
0
100
AcDbBlockBegin
  2
*Paper_Space0
 70
     0
 10
0.0
 20
0.0
 30
0.0
  3
*Paper_Space0
  1

  0
ENDBLK
  5
25
330
23
100
AcDbEntity
  8
0
100
AcDbBlockEnd
  0
BLOCK
  5
70
330
6E
100
AcDbEntity
  8
0
100
AcDbBlockBegin
  2
1_065699_2
 70
     2
 10
0.0
 20
0.0
 30
0.0
  3
1_065699_2
  1

  0
ATTDEF
  5
73
330
6E
100
AcDbEntity
  8
AM_6
100
AcDbText
 10
5.635
 20
61.10000000000007
 30
0.0
 40
0.5
  1
Set Screw LF  Normal Duty 3-Bolt Flange Metric Bore
100
AcDbAttributeDefinition
  3

  2
NN
 70
     8
280
     0
  0
ATTDEF
  5
74
330
6E
100
AcDbEntity
  8
AM_6
100
AcDbText
 10
5.635
 20
60.60000000000007
 30
0.0
 40
0.5
  1
SC 3 Bolt Flange Bearings -(Normal Duty) -Re-Lube and No-Lube
100
AcDbAttributeDefinition
  3

  2
NT
 70
     8
280
     0
  0
ATTDEF
  5
75
330
6E
100
AcDbEntity
  8
AM_6
100
AcDbText
 10
5.635
 20
60.10000000000007
 30
0.0
 40
0.5
  1
065699
100
AcDbAttributeDefinition
  3

  2
NB
 70
     8
280
     0
  0
ATTDEF
  5
76
330
6E
100
AcDbEntity
  8
AM_6
100
AcDbText
 10
5.635
 20
59.60000000000007
 30
0.0
 40
0.5
  1
$PN.
100
AcDbAttributeDefinition
  3

  2
NBSYN
 70
     8
280
     0
  0
ATTDEF
  5
77
330
6E
100
AcDbEntity
  8
AM_6
100
AcDbText
 10
5.635
 20
59.10000000000007
 30
0.0
 40
0.5
  1
065699
100
AcDbAttributeDefinition
  3

  2
LINA
 70
     8
280
     0
  0
ATTDEF
  5
78
330
6E
100
AcDbEntity
  8
AM_6
100
AcDbText
 10
5.635
 20
58.60000000000007
 30
0.0
 40
0.5
  1
207
100
AcDbAttributeDefinition
  3

  2
SERIES
 70
     8
280
     0
  0
ATTDEF
  5
79
330
6E
100
AcDbEntity
  8
AM_6
100
AcDbText
 10
5.635
 20
58.10000000000007
 30
0.0
 40
0.5
  1
35
100
AcDbAttributeDefinition
  3

  2
SS
 70
     8
280
     0
  0
ATTDEF
  5
7A
330
6E
100
AcDbEntity
  8
AM_6
100
AcDbText
 10
5.635
 20
57.60000000000007
 30
0.0
 40
0.5
  1
065699
100
AcDbAttributeDefinition
  3

  2
PN
 70
     8
280
     0
  0
ATTDEF
  5
7B
330
6E
100
AcDbEntity
  8
AM_6
100
AcDbText
 10
5.635
 20
57.10000000000007
 30
0.0
 40
0.5
  1
LF-SC-35M
100
AcDbAttributeDefinition
  3

  2
DESCRIPTION
 70
     8
280
     0
  0
ATTDEF
  5
7C
330
6E
100
AcDbEntity
  8
AM_6
100
AcDbText
 10
5.635
 20
56.60000000000007
 30
0.0
 40
0.5
  1
0.90
100
AcDbAttributeDefinition
  3

  2
W
 70
     8
280
     0
  0
ATTDEF
  5
7D
330
6E
100
AcDbEntity
  8
AM_6
100
AcDbText
 10
5.635
 20
56.10000000000007
 30
0.0
 40
0.5
  1
RE-LUBE
100
AcDbAttributeDefinition
  3

  2
LF
 70
     8
280
     0
  0
ATTDEF
  5
7E
330
6E
100
AcDbEntity
  8
AM_6
100
AcDbText
 10
5.635
 20
55.60000000000007
 30
0.0
 40
0.5
  1
35.6
100
AcDbAttributeDefinition
  3

  2
A
 70
     8
280
     0
  0
ATTDEF
  5
7F
330
6E
100
AcDbEntity
  8
AM_6
100
AcDbText
 10
5.635
 20
55.10000000000007
 30
0.0
 40
0.5
  1
122.2
100
AcDbAttributeDefinition
  3

  2
B
 70
     8
280
     0
  0
ATTDEF
  5
80
330
6E
100
AcDbEntity
  8
AM_6
100
AcDbText
 10
5.635
 20
54.60000000000007
 30
0.0
 40
0.5
  1
40.4
100
AcDbAttributeDefinition
  3

  2
C
 70
     8
280
     0
  0
ATTDEF
  5
81
330
6E
100
AcDbEntity
  8
AM_6
100
AcDbText
 10
5.635
 20
54.10000000000007
 30
0.0
 40
0.5
  1
100.1
100
AcDbAttributeDefinition
  3

  2
D
 70
     8
280
     0
  0
ATTDEF
  5
82
330
6E
100
AcDbEntity
  8
AM_6
100
AcDbText
 10
5.635
 20
53.60000000000007
 30
0.0
 40
0.5
  1
10.4
100
AcDbAttributeDefinition
  3

  2
G
 70
     8
280
     0
  0
ATTDEF
  5
83
330
6E
100
AcDbEntity
  8
AM_6
100
AcDbText
 10
5.635
 20
53.10000000000007
 30
0.0
 40
0.5
  1
12.7
100
AcDbAttributeDefinition
  3

  2
H
 70
     8
280
     0
  0
ATTDEF
  5
84
330
6E
100
AcDbEntity
  8
AM_6
100
AcDbText
 10
5.635
 20
52.60000000000007
 30
0.0
 40
0.5
  1
13.2
100
AcDbAttributeDefinition
  3

  2
J
 70
     8
280
     0
  0
ATTDEF
  5
85
330
6E
100
AcDbEntity
  8
AM_6
100
AcDbText
 10
5.635
 20
52.10000000000007
 30
0.0
 40
0.5
  1
46.7
100
AcDbAttributeDefinition
  3

  2
L
 70
     8
280
     0
  0
ATTDEF
  5
86
330
6E
100
AcDbEntity
  8
AM_6
100
AcDbText
 10
5.635
 20
51.60000000000007
 30
0.0
 40
0.5
  1
61.2
100
AcDbAttributeDefinition
  3

  2
M
 70
     8
280
     0
  0
ATTDEF
  5
87
330
6E
100
AcDbEntity
  8
AM_6
100
AcDbText
 10
5.635
 20
51.10000000000007
 30
0.0
 40
0.5
  1
54.4
100
AcDbAttributeDefinition
  3

  2
N
 70
     8
280
     0
  0
ATTDEF
  5
88
330
6E
100
AcDbEntity
  8
AM_6
100
AcDbText
 10
5.635
 20
50.60000000000007
 30
0.0
 40
0.5
  1
baldor
100
AcDbAttributeDefinition
  3

  2
COMPANY
 70
     8
280
     0
  0
INSERT
  5
8A
330
6E
100
AcDbEntity
  8
0
100
AcDbBlockReference
  2
2_077996_0_in_065699_2
 10
0.0
 20
0.0
 30
0.0
  0
INSERT
  5
EC
330
6E
100
AcDbEntity
  8
0
100
AcDbBlockReference
  2
3_405020c_M_0_in_065699_2
 10
0.0
 20
0.0
 30
0.0
  0
INSERT
  5
130
330
6E
100
AcDbEntity
  8
0
100
AcDbBlockReference
  2
4_065699H_0_in_065699_2
 10
0.0
 20
0.0
 30
0.0
  0
ENDBLK
  5
71
330
6E
100
AcDbEntity
  8
0
100
AcDbBlockEnd
  0
BLOCK
  5
8B
330
89
100
AcDbEntity
  8
0
100
AcDbBlockBegin
  2
2_077996_0_in_065699_2
 70
     2
 10
0.0
 20
0.0
 30
0.0
  3
2_077996_0_in_065699_2
  1

  0
ATTDEF
  5
8D
330
89
100
AcDbEntity
  8
AM_6
100
AcDbText
 10
0.3500000000000023
 20
35.98337890894131
 30
0.0
 40
0.5
  1
Set Screw Light Duty Insert with Pin Metric Bore
100
AcDbAttributeDefinition
  3

  2
NN
 70
     8
280
     0
  0
ATTDEF
  5
8E
330
89
100
AcDbEntity
  8
AM_6
100
AcDbText
 10
0.3500000000000023
 20
35.48337890894131
 30
0.0
 40
0.5
  1
SCP Bearing Inserts
100
AcDbAttributeDefinition
  3

  2
NT
 70
     8
280
     0
  0
ATTDEF
  5
8F
330
89
100
AcDbEntity
  8
AM_6
100
AcDbText
 10
0.3500000000000023
 20
34.98337890894131
 30
0.0
 40
0.5
  1
077996
100
AcDbAttributeDefinition
  3

  2
NB
 70
     8
280
     0
  0
ATTDEF
  5
90
330
89
100
AcDbEntity
  8
AM_6
100
AcDbText
 10
0.3500000000000023
 20
34.48337890894131
 30
0.0
 40
0.5
  1
$PN.
100
AcDbAttributeDefinition
  3

  2
NBSYN
 70
     8
280
     0
  0
ATTDEF
  5
91
330
89
100
AcDbEntity
  8
AM_6
100
AcDbText
 10
0.3500000000000023
 20
33.98337890894131
 30
0.0
 40
0.5
  1
077996
100
AcDbAttributeDefinition
  3

  2
LINA
 70
     8
280
     0
  0
ATTDEF
  5
92
330
89
100
AcDbEntity
  8
AM_6
100
AcDbText
 10
0.3500000000000023
 20
33.48337890894131
 30
0.0
 40
0.5
  1
207
100
AcDbAttributeDefinition
  3

  2
SERIES
 70
     8
280
     0
  0
ATTDEF
  5
93
330
89
100
AcDbEntity
  8
AM_6
100
AcDbText
 10
0.3500000000000023
 20
32.98337890894131
 30
0.0
 40
0.5
  1
35
100
AcDbAttributeDefinition
  3

  2
SS
 70
     8
280
     0
  0
ATTDEF
  5
94
330
89
100
AcDbEntity
  8
AM_6
100
AcDbText
 10
0.3500000000000023
 20
32.48337890894131
 30
0.0
 40
0.5
  1
077996
100
AcDbAttributeDefinition
  3

  2
PN
 70
     8
280
     0
  0
ATTDEF
  5
95
330
89
100
AcDbEntity
  8
AM_6
100
AcDbText
 10
0.3500000000000023
 20
31.98337890894131
 30
0.0
 40
0.5
  1
INS-SCP-35M
100
AcDbAttributeDefinition
  3

  2
DESCRIPTION
 70
     8
280
     0
  0
ATTDEF
  5
96
330
89
100
AcDbEntity
  8
AM_6
100
AcDbText
 10
0.3500000000000023
 20
31.48337890894131
 30
0.0
 40
0.5
  1
0.38
100
AcDbAttributeDefinition
  3

  2
WEIGHT
 70
     8
280
     0
  0
ATTDEF
  5
97
330
89
100
AcDbEntity
  8
AM_6
100
AcDbText
 10
0.3500000000000023
 20
30.98337890894131
 30
0.0
 40
0.5
  1
35.6
100
AcDbAttributeDefinition
  3

  2
A
 70
     8
280
     0
  0
ATTDEF
  5
98
330
89
100
AcDbEntity
  8
AM_6
100
AcDbText
 10
0.3500000000000023
 20
30.48337890894131
 30
0.0
 40
0.5
  1
19.1
100
AcDbAttributeDefinition
  3

  2
C
 70
     8
280
     0
  0
ATTDEF
  5
99
330
89
100
AcDbEntity
  8
AM_6
100
AcDbText
 10
0.3500000000000023
 20
29.98337890894131
 30
0.0
 40
0.5
  1
72.000
100
AcDbAttributeDefinition
  3

  2
D
 70
     8
280
     0
  0
ATTDEF
  5
9A
330
89
100
AcDbEntity
  8
AM_6
100
AcDbText
 10
0.3500000000000023
 20
29.48337890894131
 30
0.0
 40
0.5
  1
5.1
100
AcDbAttributeDefinition
  3

  2
J
 70
     8
280
     0
  0
ATTDEF
  5
9B
330
89
100
AcDbEntity
  8
AM_6
100
AcDbText
 10
0.3500000000000023
 20
28.98337890894131
 30
0.0
 40
0.5
  1
46.7
100
AcDbAttributeDefinition
  3

  2
L
 70
     8
280
     0
  0
ATTDEF
  5
9C
330
89
100
AcDbEntity
  8
AM_6
100
AcDbText
 10
0.3500000000000023
 20
28.48337890894131
 30
0.0
 40
0.5
  1
M8x1.25
100
AcDbAttributeDefinition
  3

  2
N
 70
     8
280
     0
  0
ATTDEF
  5
9D
330
89
100
AcDbEntity
  8
AM_6
100
AcDbText
 10
0.3500000000000023
 20
27.98337890894131
 30
0.0
 40
0.5
  1
9.4
100
AcDbAttributeDefinition
  3

  2
W
 70
     8
280
     0
  0
ATTDEF
  5
9E
330
89
100
AcDbEntity
  8
AM_6
100
AcDbText
 10
0.3500000000000023
 20
27.48337890894131
 30
0.0
 40
0.5
  1
26.2
100
AcDbAttributeDefinition
  3

  2
Y
 70
     8
280
     0
  0
ATTDEF
  5
9F
330
89
100
AcDbEntity
  8
AM_6
100
AcDbText
 10
0.3500000000000023
 20
26.98337890894131
 30
0.0
 40
0.5
  1
baldor
100
AcDbAttributeDefinition
  3

  2
COMPANY
 70
     8
280
     0
  0
CIRCLE
  5
A2
330
89
100
AcDbEntity
  8
AM_9
100
AcDbCircle
 10
-9.100000000000001
 20
-0.0000000000000023
 30
0.0
 40
0.9303030210002
  0
LINE
  5
A3
330
89
100
AcDbEntity
  8
AM_9
100
AcDbLine
 10
-33.5676253014977
 20
17.24622503740083
 30
0.0
 11
-30.5823746985023
 21
17.24622503740083
 31
0.0
  0
LINE
  5
A4
330
89
100
AcDbEntity
  8
AM_9
100
AcDbLine
 10
-28.7515
 20
17.49788539016939
 30
0.0
 11
-28.7515
 21
22.79533644801674
 31
0.0
  0
LINE
  5
A5
330
89
100
AcDbEntity
  8
AM_9
100
AcDbLine
 10
-35.3985
 20
22.79533644801674
 30
0.0
 11
-35.3985
 21
17.49788539016939
 31
0.0
  0
LINE
  5
A6
330
89
100
AcDbEntity
  8
AM_9
100
AcDbLine
 10
-28.7515
 20
22.79533644801674
 30
0.0
 11
-28.19683644801693
 21
23.34999999999982
 31
0.0
  0
LINE
  5
A7
330
89
100
AcDbEntity
  8
AM_9
100
AcDbLine
 10
-35.95316355198307
 20
23.34999999999982
 30
0.0
 11
-35.3985
 21
22.79533644801674
 31
0.0
  0
LINE
  5
A8
330
89
100
AcDbEntity
  8
AM_9
100
AcDbLine
 10
-35.3985
 20
22.79533644801674
 30
0.0
 11
-28.7515
 21
22.79533644801674
 31
0.0
  0
LWPOLYLINE
  5
A9
330
89
100
AcDbEntity
  8
AM_9
100
AcDbPolyline
 90
        8
 70
     0
 43
0.0
 10
-33.5676253014977
 20
17.24622503740083
 10
-33.32631321589859
 20
17.22240497648563
 10
-32.8387703370108
 20
17.18706040750115
 10
-32.3240131624223
 20
17.16800182783554
 10
-31.85407119359031
 20
17.16764581696923
 10
-31.39074194377565
 20
17.18273954827881
 10
-30.97310087572203
 20
17.20977878966005
 10
-30.5823746985023
 20
17.24622503740083
  0
LWPOLYLINE
  5
AA
330
89
100
AcDbEntity
  8
AM_9
100
AcDbPolyline
 90
        8
 70
     0
 43
0.0
 10
-30.5823746985023
 20
17.24622503740083
 10
-30.10995679913172
 20
17.29351735568212
 10
-29.68120149145902
 20
17.34746722289721
 10
-29.33179612935808
 20
17.39912397869229
 10
-29.05147738465185
 20
17.4455162364294
 10
-28.86435636573257
 20
17.47891816721681
 10
-28.76475296410499
 20
17.49748791080171
 10
-28.75150000000122
 20
17.49999999999977
  0
LWPOLYLINE
  5
AB
330
89
100
AcDbEntity
  8
AM_9
100
AcDbPolyline
 90
        8
 70
     0
 43
0.0
 10
-30.58237469850236
 20
9.979818834581785
 10
-30.85288117703068
 20
10.10416865097108
 10
-31.13788742543772
 20
10.20382951402572
 10
-31.63059600999216
 20
10.30927869440472
 10
-32.13870018739738
 20
10.33899728417482
 10
-32.59483466919705
 20
10.29831053712656
 10
-33.03636077737119
 20
10.19651204721267
 10
-33.56762530149765
 20
9.979818834581785
  0
LWPOLYLINE
  5
AC
330
89
100
AcDbEntity
  8
AM_9
100
AcDbPolyline
 90
        9
 70
     0
 43
0.0
 10
-33.56762530149764
 20
4.597320459208744
 10
-33.37168437076627
 20
4.487526186471143
 10
-32.87849330785939
 20
4.289003523524291
 10
-32.35577709818592
 20
4.183836873958161
 10
-31.88410389450395
 20
4.176536441854099
 10
-31.41819229199329
 20
4.248562326516599
 10
-30.98917226315486
 20
4.389854010871041
 10
-30.58803056381258
 20
4.593880861266319
 10
-30.58237469850236
 20
4.597320459208744
  0
LINE
  5
AD
330
89
100
AcDbEntity
  8
AM_9
100
AcDbLine
 10
-17.68
 20
17.5
 30
0.0
 11
-28.76265366696036
 21
17.5
 31
0.0
  0
LINE
  5
AE
330
89
100
AcDbEntity
  8
AM_9
100
AcDbLine
 10
-35.38734633303965
 20
17.5
 30
0.0
 11
-39.46599999999999
 21
17.5
 31
0.0
  0
LINE
  5
AF
330
89
100
AcDbEntity
  8
AM_9
100
AcDbLine
 10
-39.46599999999999
 20
-17.5
 30
0.0
 11
-17.68
 21
-17.5
 31
0.0
  0
LWPOLYLINE
  5
B0
330
89
100
AcDbEntity
  8
AM_9
100
AcDbPolyline
 90
        8
 70
     0
 43
0.0
 10
-35.39849999999878
 20
17.49999999999977
 10
-35.38911353387675
 20
17.49821980275208
 10
-35.29969146855644
 20
17.48150402046062
 10
-35.12600642096742
 20
17.45030051118847
 10
-34.86321882707192
 20
17.40627794727058
 10
-34.52836930862917
 20
17.35578775839701
 10
-34.11479260459868
 20
17.3021704308961
 10
-33.5676253014977
 20
17.24622503740083
  0
LINE
  5
B1
330
89
100
AcDbEntity
  8
AM_9
100
AcDbLine
 10
-5.734000000000001
 20
-17.5
 30
0.0
 11
-5.734000000000001
 21
17.5
 31
0.0
  0
LINE
  5
B2
330
89
100
AcDbEntity
  8
AM_9
100
AcDbLine
 10
-5.734000000000001
 20
-17.5
 30
0.0
 11
-4.799999999999997
 21
-18.43399999999994
 31
0.0
  0
LINE
  5
B3
330
89
100
AcDbEntity
  8
AM_9
100
AcDbLine
 10
-4.799999999999997
 20
18.43399999999994
 30
0.0
 11
-5.734000000000001
 21
17.5
 31
0.0
  0
LINE
  5
B4
330
89
100
AcDbEntity
  8
AM_9
100
AcDbLine
 10
-39.46599999999999
 20
17.5
 30
0.0
 11
-40.40000000000001
 21
18.43399999999994
 31
0.0
  0
LINE
  5
B5
330
89
100
AcDbEntity
  8
AM_9
100
AcDbLine
 10
-40.40000000000001
 20
-18.43399999999994
 30
0.0
 11
-39.46599999999999
 21
-17.5
 31
0.0
  0
LWPOLYLINE
  5
B6
330
89
100
AcDbEntity
  8
AM_9
100
AcDbPolyline
 90
        8
 70
     0
 43
0.0
 10
-30.58237469850236
 20
4.597320459208742
 10
-30.10995679913178
 20
4.879337320964035
 10
-29.68120149145907
 20
5.241853874997616
 10
-29.33179612935811
 20
5.652686316312281
 10
-29.05147738465188
 20
6.122232427575184
 10
-28.86435636573259
 20
6.608635012554919
 10
-28.764752964105
 20
7.126030695618196
 10
-28.75150000094462
 20
7.395891395975426
  0
ELLIPSE
  5
B7
330
89
100
AcDbEntity
  8
AM_9
100
AcDbEllipse
 10
-32.07500000000001
 20
7.288569646895279
 30
0.0
 11
3.323500000000009
 21
4.952400922775284E-8
 31
0.0
210
0.0
220
0.0
230
1.0
 40
0.9063077870366504
 41
4.246617218960212
 42
5.178160713614472
  0
LWPOLYLINE
  5
B8
330
89
100
AcDbEntity
  8
AM_9
100
AcDbPolyline
 90
        4
 70
     0
 43
0.0
 10
-35.15732061643895
 20
8.503646164804003
 10
-35.28564363426742
 20
8.165185013319274
 10
-35.38524703589501
 20
7.66348515576563
 10
-35.39849999905537
 20
7.395747764797423
  0
LINE
  5
B9
330
89
100
AcDbEntity
  8
AM_9
100
AcDbLine
 10
-28.7515
 20
7.394925907731368
 30
0.0
 11
-28.7515
 21
9.633725465455244
 31
0.0
  0
LINE
  5
BA
330
89
100
AcDbEntity
  8
AM_9
100
AcDbLine
 10
-35.3985
 20
9.633725465455244
 30
0.0
 11
-35.3985
 21
7.394925907731368
 31
0.0
  0
LWPOLYLINE
  5
BB
330
89
100
AcDbEntity
  8
AM_9
100
AcDbPolyline
 90
        4
 70
     0
 43
0.0
 10
-28.75150000094462
 20
7.395891395975426
 10
-28.76088646612325
 20
7.621288149860806
 10
-28.85030853144355
 20
8.117013064871843
 10
-28.99368382065389
 20
8.505826049091818
  0
LWPOLYLINE
  5
BC
330
89
100
AcDbEntity
  8
AM_9
100
AcDbPolyline
 90
        8
 70
     0
 43
0.0
 10
-35.39849999905537
 20
7.395747764797423
 10
-35.38911353387675
 20
7.168846323330721
 10
-35.29969146855645
 20
6.65899261860838
 10
-35.12600642096744
 20
6.180340490165714
 10
-34.86321882707195
 20
5.716948902139068
 10
-34.5283693086292
 20
5.302917195337523
 10
-34.11479260459873
 20
4.934144043042988
 10
-33.56762530149764
 20
4.597320459208744
  0
LINE
  5
BD
330
89
100
AcDbEntity
  8
AM_9
100
AcDbLine
 10
-23.75
 20
23.34999999999982
 30
0.0
 11
-27.2
 21
23.34999999999982
 31
0.0
  0
LINE
  5
BE
330
89
100
AcDbEntity
  8
AM_9
100
AcDbLine
 10
-27.2
 20
-23.34999999999982
 30
0.0
 11
-23.75
 21
-23.34999999999982
 31
0.0
  0
LINE
  5
BF
330
89
100
AcDbEntity
  8
AM_9
100
AcDbLine
 10
-29.42907216404128
 20
23.20156389705235
 30
0.0
 11
-29.34912414472557
 21
23.20953488489797
 31
0.0
  0
LINE
  5
C0
330
89
100
AcDbEntity
  8
AM_9
100
AcDbLine
 10
-4.799999999999997
 20
-23.34999999999983
 30
0.0
 11
-4.799999999999997
 21
23.34999999999983
 31
0.0
  0
LINE
  5
C1
330
89
100
AcDbEntity
  8
AM_9
100
AcDbLine
 10
-4.649999999999999
 20
23.34999999999983
 30
0.0
 11
-4.799999999999997
 21
23.34999999999983
 31
0.0
  0
LINE
  5
C2
330
89
100
AcDbEntity
  8
AM_9
100
AcDbLine
 10
-4.799999999999997
 20
-23.34999999999983
 30
0.0
 11
-4.649999999999999
 21
-23.34999999999983
 31
0.0
  0
LINE
  5
C3
330
89
100
AcDbEntity
  8
AM_9
100
AcDbLine
 10
-18.28
 20
34.30000001699955
 30
0.0
 11
-20.32
 21
34.30000001699955
 31
0.0
  0
LINE
  5
C4
330
89
100
AcDbEntity
  8
AM_9
100
AcDbLine
 10
-20.32
 20
-34.30000001699955
 30
0.0
 11
-18.28
 21
-34.30000001699955
 31
0.0
  0
LINE
  5
C5
330
89
100
AcDbEntity
  8
AM_9
100
AcDbLine
 10
-23.75
 20
-33.92402540972989
 30
0.0
 11
-23.75
 21
33.92402540972989
 31
0.0
  0
ARC
  5
C6
330
89
100
AcDbEntity
  8
AM_9
100
AcDbCircle
 10
-22.73
 20
33.92402540972991
 30
0.0
 40
1.019999999999994
100
AcDbArc
 50
104.1140969901128
 51
180.0
  0
ARC
  5
C7
330
89
100
AcDbEntity
  8
AM_9
100
AcDbCircle
 10
-22.73
 20
-33.92402540972991
 30
0.0
 40
1.02
100
AcDbArc
 50
180.0
 51
255.8859030098872
  0
LINE
  5
C8
330
89
100
AcDbEntity
  8
AM_9
100
AcDbLine
 10
-4.649999999999999
 20
-33.92402540972989
 30
0.0
 11
-4.649999999999999
 21
33.92402540972989
 31
0.0
  0
ARC
  5
C9
330
89
100
AcDbEntity
  8
AM_9
100
AcDbCircle
 10
-5.669999999999979
 20
33.92402540972992
 30
0.0
 40
1.019999999999981
100
AcDbArc
 50
0.0
 51
75.88590300988834
  0
ARC
  5
CA
330
89
100
AcDbEntity
  8
AM_9
100
AcDbCircle
 10
-5.66999999999998
 20
-33.92402540972992
 30
0.0
 40
1.019999999999982
100
AcDbArc
 50
284.1140969901117
 51
0.0
  0
LINE
  5
CB
330
89
100
AcDbEntity
  8
AM_9
100
AcDbLine
 10
-20.31999999999999
 20
-35.47598624420203
 30
0.0
 11
-20.31999999999999
 21
35.47598624421877
 31
0.0
  0
LINE
  5
CC
330
89
100
AcDbEntity
  8
AM_9
100
AcDbLine
 10
-22.97873070325901
 20
-34.9132336978185
 30
0.0
 11
-22.97873070325901
 21
34.91323369783524
 31
0.0
  0
ARC
  5
CD
330
89
100
AcDbEntity
  8
AM_9
100
AcDbCircle
 10
-14.20000000000275
 20
0.0000000000122213
 30
0.0
 40
35.99999999998748
100
AcDbArc
 50
99.78781905671296
 51
104.1140969901129
  0
ARC
  5
CE
330
89
100
AcDbEntity
  8
AM_9
100
AcDbCircle
 10
-14.1999999952464
 20
0.000000022475966
 30
0.0
 40
36.00000002294041
100
AcDbArc
 50
255.8859030112669
 51
260.2121809419072
  0
LINE
  5
CF
330
89
100
AcDbEntity
  8
AM_9
100
AcDbLine
 10
-5.421269296740991
 20
-34.9132336978353
 30
0.0
 11
-5.421269296740991
 21
34.91323369783524
 31
0.0
  0
LINE
  5
D0
330
89
100
AcDbEntity
  8
AM_9
100
AcDbLine
 10
-18.28
 20
-35.76805278457305
 30
0.0
 11
-18.28
 21
35.76805278457299
 31
0.0
  0
LWPOLYLINE
  5
D1
330
89
100
AcDbEntity
  8
AM_9
100
AcDbPolyline
 90
       38
 70
     0
 43
0.0
 10
-7.210378252799592
 20
-1.881605862394298
 10
-6.923194358618954
 20
-1.539873427255113
 10
-6.696277717871531
 20
-1.154655861842374
 10
-6.53720045268317
 20
-0.7360048401402524
 10
-6.449850320395495
 20
-0.2963404200914614
 10
-6.43779052880496
 20
0.1493504645006371
 10
-6.499605713040773
 20
0.590813440298759
 10
-6.634044099434231
 20
1.014281163483282
 10
-6.836183823161502
 20
1.409342856217806
 10
-7.10223503434522
 20
1.765974921400431
 10
-7.422957380384155
 20
2.073315948156446
 10
-7.793384930526813
 20
2.324326451963927
 10
-8.199769761423202
 20
2.510118819187609
 10
-8.635480183665873
 20
2.625630813019364
 10
-9.08413427649073
 20
2.666619441859931
 10
-9.536100401530735
 20
2.630493354917898
 10
-9.975787181612608
 20
2.518751234522951
 10
-10.39045097818302
 20
2.33331897712214
 10
-10.76843513187591
 20
2.080248826369108
 10
-11.09619360042556
 20
1.767719196864805
 10
-11.36717658000139
 20
1.403930669221621
 10
-11.57069931345152
 20
1.002631681942769
 10
-11.70449032465153
 20
0.5724867838513167
 10
-11.76324309419042
 20
0.1295768349360285
 10
-11.74775612346252
 20
-0.3170149516262821
 10
-11.65798133563862
 20
-0.7526110225876694
 10
-11.49772083684349
 20
-1.16706716064433
 10
-11.27022727026228
 20
-1.549140583546956
 10
-10.98328318826194
 20
-1.88795005275505
 10
-10.64166948862049
 20
-2.17554373225903
 10
-10.2577369717707
 20
-2.40223980340912
 10
-9.837597229574946
 20
-2.562357265329153
 10
-9.397030936280549
 20
-2.650072374819255
 10
-8.94459091022191
 20
-2.661868083550228
 10
-8.496527952464497
 20
-2.597485795289585
 10
-8.06456875341832
 20
-2.457139968184503
 10
-7.661991464572552
 20
-2.245716460492211
 10
-7.210378252799741
 20
-1.88160586239406
  0
ARC
  5
D2
330
89
100
AcDbEntity
  8
AM_9
100
AcDbCircle
 10
-14.19999999999998
 20
-0.0000000000002913
 30
0.0
 40
36.00000000000028
100
AcDbArc
 50
75.88590300988774
 51
96.50750359174472
  0
ARC
  5
D3
330
89
100
AcDbEntity
  8
AM_9
100
AcDbCircle
 10
-14.20000000000177
 20
0.0000000000271712
 30
0.0
 40
36.00000000002685
100
AcDbArc
 50
263.4924964082629
 51
284.1140969901045
  0
LINE
  5
D5
330
89
100
AcDbEntity
  8
AM_5
100
AcDbLine
 10
-28.075
 20
17.5
 30
0.0
 11
-28.075
 21
23.34999999999982
 31
0.0
  0
LINE
  5
D6
330
89
100
AcDbEntity
  8
AM_5
100
AcDbLine
 10
-36.075
 20
17.5
 30
0.0
 11
-36.075
 21
23.34999999999982
 31
0.0
  0
LINE
  5
D9
330
89
100
AcDbEntity
  8
AM_7
100
AcDbLine
 10
-9.100000000000001
 20
-0.9768181720502124
 30
0.0
 11
-9.100000000000001
 21
0.9768181720502077
 31
0.0
  0
LINE
  5
DA
330
89
100
AcDbEntity
  8
AM_7
100
AcDbLine
 10
-32.075
 20
23.81694201854755
 30
0.0
 11
-32.075
 21
16.22461946687002
 31
0.0
  0
ELLIPSE
  5
DC
330
89
100
AcDbEntity
  8
AM_4
100
AcDbEllipse
 10
-32.075
 20
7.288569646895285
 30
0.0
 11
3.323499999999974
 21
4.952400922775231E-8
 31
0.0
210
0.0
220
0.0
230
1.0
 40
0.9063077870366518
 41
1.105024565370408
 42
2.036568060024687
  0
LWPOLYLINE
  5
DD
330
89
100
AcDbEntity
  8
AM_4
100
AcDbPolyline
 90
        6
 70
     0
 43
0.0
 10
-33.56762530149765
 20
9.979818834581781
 10
-34.04004320086824
 20
9.737775167517949
 10
-34.46879850854094
 20
9.420859011691531
 10
-34.81820387064189
 20
9.05368874705942
 10
-35.09852261534812
 20
8.623355066442688
 10
-35.15732061643895
 20
8.503646164804003
  0
LWPOLYLINE
  5
DE
330
89
100
AcDbEntity
  8
AM_4
100
AcDbPolyline
 90
        6
 70
     0
 43
0.0
 10
-28.99368382065389
 20
8.505826049091818
 10
-29.02399357903255
 20
8.5692908476169
 10
-29.28678117292804
 20
8.995472956762859
 10
-29.62163069137079
 20
9.366828511850986
 10
-30.03520739540126
 20
9.69028234065029
 10
-30.58237469850236
 20
9.979818834581783
  0
LWPOLYLINE
  5
DF
330
89
100
AcDbEntity
  8
AM_4
100
AcDbPolyline
 90
       16
 70
     0
 43
0.0
 10
-29.41405376756634
 20
23.20304352086994
 10
-29.84960325576226
 20
23.16347726018652
 10
-30.3373476299962
 20
23.12744032625303
 10
-30.94583559832833
 20
23.09483481400243
 10
-31.60038592615781
 20
23.0751751596462
 10
-32.27503214211378
 20
23.07170289399899
 10
-32.96304293908436
 20
23.08572932627668
 10
-33.61395971841689
 20
23.115280871118
 10
-34.23877165225751
 20
23.1584403497854
 10
-34.77143630773115
 20
23.20657265192103
 10
-35.01672194775255
 20
23.23221656851987
 10
-35.23853833556284
 20
23.257276651907
 10
-35.57501708557394
 20
23.29866890869885
 10
-35.81710513937372
 20
23.33094752785619
 10
-35.93204259086876
 20
23.34699955905685
 10
-35.95316355197803
 20
23.34999999999909
  0
LWPOLYLINE
  5
E0
330
89
100
AcDbEntity
  8
AM_4
100
AcDbPolyline
 90
       40
 70
     0
 43
0.0
 10
-29.08088010175071
 20
7.750312152256325
 10
-29.48105022092091
 20
7.381007809606976
 10
-29.93357784794086
 20
7.068685299619677
 10
-30.50582531864154
 20
6.788096048842334
 10
-31.11749075711668
 20
6.596964017643485
 10
-31.78644982155383
 20
6.498392324736757
 10
-32.46321969271884
 20
6.505948786362755
 10
-33.14363247704935
 20
6.624538685913329
 10
-33.79351155346343
 20
6.850643163732378
 10
-34.38870030190625
 20
7.177168132638013
 10
-34.91504249738173
 20
7.595097127171143
 10
-35.33584005642563
 20
8.071615833883255
 10
-35.65879396831723
 20
8.606786473952424
 10
-35.85568711758889
 20
9.139009710169807
 10
-35.94731681766567
 20
9.689122090168063
 10
-35.93229620376957
 20
10.2007589487385
 10
-35.82284359327981
 20
10.6972245498873
 10
-35.62580933449144
 20
11.15785661958573
 10
-35.34884148584992
 20
11.58041180428641
 10
-34.98270758650524
 20
11.97225238740155
 10
-34.55077784226054
 20
12.30707015849053
 10
-34.02617629784749
 20
12.5974749957885
 10
-33.45419498117271
 20
12.81307774240276
 10
-32.80962495793205
 20
12.95683151878364
 10
-32.14563608711789
 20
13.01160916121933
 10
-31.45833417233108
 20
12.97316789783431
 10
-30.7883749425637
 20
12.83972860023734
 10
-30.15396663750548
 20
12.61108709754726
 10
-29.57602155850588
 20
12.29163651713759
 10
-29.24215188855946
 20
12.03811932293158
 10
-28.94454821834099
 20
11.74950051049421
 10
-28.69069163927042
 20
11.43050832063674
 10
-28.41740647018229
 20
10.93617446620606
 10
-28.24959718287957
 20
10.40008271678465
 10
-28.19732143835966
 20
9.882456411531253
 10
-28.24413065106413
 20
9.358506752737355
 10
-28.38252036804237
 20
8.862843899213948
 10
-28.60559108499899
 20
8.38966590034906
 10
-28.82368800364134
 20
8.058076558402274
 10
-29.08088008436942
 20
7.750312127446177
  0
LINE
  5
E1
330
89
100
AcDbEntity
  8
AM_4
100
AcDbLine
 10
-27.2
 20
23.34999999999982
 30
0.0
 11
-28.20640638216899
 21
23.34999999999982
 31
0.0
  0
LINE
  5
E2
330
89
100
AcDbEntity
  8
AM_4
100
AcDbLine
 10
-35.94048719967093
 20
23.34999999999982
 30
0.0
 11
-39.466
 21
23.34999999999982
 31
0.0
  0
LINE
  5
E3
330
89
100
AcDbEntity
  8
AM_4
100
AcDbLine
 10
-39.466
 20
-23.34999999999982
 30
0.0
 11
-27.2
 21
-23.34999999999982
 31
0.0
  0
LINE
  5
E4
330
89
100
AcDbEntity
  8
AM_4
100
AcDbLine
 10
-28.2254301040778
 20
23.34594175548004
 30
0.0
 11
-28.19683644802395
 21
23.34999999999881
 31
0.0
  0
LWPOLYLINE
  5
E5
330
89
100
AcDbEntity
  8
AM_4
100
AcDbPolyline
 90
        7
 70
     0
 43
0.0
 10
-28.19683644802395
 20
23.34999999999881
 10
-28.22046467986788
 20
23.34664442074344
 10
-28.33698898394729
 20
23.33038435966383
 10
-28.53603479289829
 20
23.30372142511486
 10
-28.821433962821
 20
23.26795400265453
 10
-29.09569759528431
 20
23.23633554143933
 10
-29.41405376756634
 20
23.20304352086994
  0
LINE
  5
E6
330
89
100
AcDbEntity
  8
AM_4
100
AcDbLine
 10
-39.466
 20
-23.34999999999982
 30
0.0
 11
-39.466
 21
23.34999999999982
 31
0.0
  0
LINE
  5
E7
330
89
100
AcDbEntity
  8
AM_4
100
AcDbLine
 10
-40.40000000000001
 20
-22.41599999999988
 30
0.0
 11
-40.40000000000001
 21
22.41599999999988
 31
0.0
  0
LINE
  5
E8
330
89
100
AcDbEntity
  8
AM_4
100
AcDbLine
 10
-40.40000000000001
 20
-22.41599999999988
 30
0.0
 11
-39.466
 21
-23.34999999999982
 31
0.0
  0
LINE
  5
E9
330
89
100
AcDbEntity
  8
AM_4
100
AcDbLine
 10
-39.466
 20
23.34999999999982
 30
0.0
 11
-40.40000000000001
 21
22.41599999999988
 31
0.0
  0
ELLIPSE
  5
EA
330
89
100
AcDbEntity
  8
AM_4
100
AcDbEllipse
 10
-32.07500000000001
 20
9.633725465455239
 30
0.0
 11
3.323500000000009
 21
4.952400922775284E-8
 31
0.0
210
0.0
220
0.0
230
1.0
 40
0.9063077870366507
 41
0.0
 42
6.283185307179586
  0
ENDBLK
  5
8C
330
89
100
AcDbEntity
  8
0
100
AcDbBlockEnd
  0
BLOCK
  5
ED
330
EB
100
AcDbEntity
  8
0
100
AcDbBlockBegin
  2
3_405020c_M_0_in_065699_2
 70
     2
 10
0.0
 20
0.0
 30
0.0
  3
3_405020c_M_0_in_065699_2
  1

  0
ATTDEF
  5
EF
330
EB
100
AcDbEntity
  8
AM_6
100
AcDbText
 10
-8.491881449005952
 20
-40.557
 30
0.0
 40
0.5
  1
405020C -Metric
100
AcDbAttributeDefinition
  3

  2
NN
 70
     8
280
     0
  0
ATTDEF
  5
F0
330
EB
100
AcDbEntity
  8
AM_6
100
AcDbText
 10
-8.491881449005952
 20
-41.057
 30
0.0
 40
0.5
  1
Grease fitting
100
AcDbAttributeDefinition
  3

  2
NT
 70
     8
280
     0
  0
ATTDEF
  5
F1
330
EB
100
AcDbEntity
  8
AM_6
100
AcDbText
 10
-8.491881449005952
 20
-41.557
 30
0.0
 40
0.5
  1
405020c-M
100
AcDbAttributeDefinition
  3

  2
NB
 70
     8
280
     0
  0
ATTDEF
  5
F2
330
EB
100
AcDbEntity
  8
AM_6
100
AcDbText
 10
-8.491881449005952
 20
-42.057
 30
0.0
 40
0.5
  1
$MN.-M
100
AcDbAttributeDefinition
  3

  2
NBSYN
 70
     8
280
     0
  0
ATTDEF
  5
F3
330
EB
100
AcDbEntity
  8
AM_6
100
AcDbText
 10
-8.491881449005952
 20
-42.557
 30
0.0
 40
0.5
  1
405020c
100
AcDbAttributeDefinition
  3

  2
LINA
 70
     8
280
     0
  0
ATTDEF
  5
F4
330
EB
100
AcDbEntity
  8
AM_6
100
AcDbText
 10
-8.491881449005952
 20
-43.057
 30
0.0
 40
0.5
  1
405020c
100
AcDbAttributeDefinition
  3

  2
MN
 70
     8
280
     0
  0
ATTDEF
  5
F5
330
EB
100
AcDbEntity
  8
AM_6
100
AcDbText
 10
-8.491881449005952
 20
-43.557
 30
0.0
 40
0.5
  1
5.842
100
AcDbAttributeDefinition
  3

  2
NDR
 70
     8
280
     0
  0
ATTDEF
  5
F6
330
EB
100
AcDbEntity
  8
AM_6
100
AcDbText
 10
-8.491881449005952
 20
-44.057
 30
0.0
 40
0.5
  1
5.359
100
AcDbAttributeDefinition
  3

  2
KDR
 70
     8
280
     0
  0
ATTDEF
  5
F7
330
EB
100
AcDbEntity
  8
AM_6
100
AcDbText
 10
-8.491881449005952
 20
-44.557
 30
0.0
 40
0.5
  1
4.000
100
AcDbAttributeDefinition
  3

  2
BZE
 70
     8
280
     0
  0
ATTDEF
  5
F8
330
EB
100
AcDbEntity
  8
AM_6
100
AcDbText
 10
-8.491881449005952
 20
-45.057
 30
0.0
 40
0.5
  1
7
100
AcDbAttributeDefinition
  3

  2
WAF
 70
     8
280
     0
  0
ATTDEF
  5
F9
330
EB
100
AcDbEntity
  8
AM_6
100
AcDbText
 10
-8.491881449005952
 20
-45.557
 30
0.0
 40
0.5
  1
7.0000
100
AcDbAttributeDefinition
  3

  2
WAF1
 70
     8
280
     0
  0
ATTDEF
  5
FA
330
EB
100
AcDbEntity
  8
AM_6
100
AcDbText
 10
-8.491881449005952
 20
-46.057
 30
0.0
 40
0.5
  1
13.843
100
AcDbAttributeDefinition
  3

  2
BL
 70
     8
280
     0
  0
ATTDEF
  5
FB
330
EB
100
AcDbEntity
  8
AM_6
100
AcDbText
 10
-8.491881449005952
 20
-46.557
 30
0.0
 40
0.5
  1
5.080
100
AcDbAttributeDefinition
  3

  2
TL
 70
     8
280
     0
  0
ATTDEF
  5
FC
330
EB
100
AcDbEntity
  8
AM_6
100
AcDbText
 10
-8.491881449005952
 20
-47.057
 30
0.0
 40
0.5
  1
baldor
100
AcDbAttributeDefinition
  3

  2
COMPANY
 70
     8
280
     0
  0
LINE
  5
FD
330
EB
100
AcDbEntity
  8
AM_9
100
AcDbLine
 10
-20.08770918358944
 20
-40.557
 30
0.0
 11
-14.97895748307722
 21
-40.557
 31
0.0
  0
LINE
  5
FE
330
EB
100
AcDbEntity
  8
AM_9
100
AcDbLine
 10
-20.08770918358944
 20
-40.557
 30
0.0
 11
-20.33712161449094
 21
-40.80641243090151
 31
0.0
  0
LINE
  5
FF
330
EB
100
AcDbEntity
  8
AM_9
100
AcDbLine
 10
-14.72954505217572
 20
-40.80641243090151
 30
0.0
 11
-14.97895748307722
 21
-40.557
 31
0.0
  0
LINE
  5
100
330
EB
100
AcDbEntity
  8
AM_9
100
AcDbLine
 10
-20.33712161449094
 20
-40.80641243090151
 30
0.0
 11
-14.72954505217572
 21
-40.80641243090151
 31
0.0
  0
LINE
  5
101
330
EB
100
AcDbEntity
  8
AM_9
100
AcDbLine
 10
-20.33712161449094
 20
-40.80641243090151
 30
0.0
 11
-20.48808501997378
 21
-45.637
 31
0.0
  0
LINE
  5
102
330
EB
100
AcDbEntity
  8
AM_9
100
AcDbLine
 10
-14.57858164669288
 20
-45.637
 30
0.0
 11
-14.72954505217572
 21
-40.80641243090151
 31
0.0
  0
LINE
  5
103
330
EB
100
AcDbEntity
  8
AM_5
100
AcDbLine
 10
-14.83402660450735
 20
-45.19455635452805
 30
0.0
 11
-14.97895748307722
 21
-40.557
 31
0.0
  0
LINE
  5
104
330
EB
100
AcDbEntity
  8
AM_5
100
AcDbLine
 10
-14.57858164669288
 20
-45.637
 30
0.0
 11
-14.83402660450735
 21
-45.19455635452805
 31
0.0
  0
LINE
  5
105
330
EB
100
AcDbEntity
  8
AM_5
100
AcDbLine
 10
-20.47425796508672
 20
-45.19455635452805
 30
0.0
 11
-14.59240870157995
 21
-45.19455635452805
 31
0.0
  0
LINE
  5
106
330
EB
100
AcDbEntity
  8
AM_5
100
AcDbLine
 10
-20.23264006215931
 20
-45.19455635452805
 30
0.0
 11
-20.08770918358944
 21
-40.557
 31
0.0
  0
LINE
  5
107
330
EB
100
AcDbEntity
  8
AM_5
100
AcDbLine
 10
-20.48808501997378
 20
-45.637
 30
0.0
 11
-20.23264006215931
 21
-45.19455635452805
 31
0.0
  0
LINE
  5
108
330
EB
100
AcDbEntity
  8
AM_4
100
AcDbLine
 10
-13.49188144900595
 20
-45.78208159514584
 30
0.0
 11
-14.03333333333333
 21
-45.637
 31
0.0
  0
LINE
  5
109
330
EB
100
AcDbEntity
  8
AM_4
100
AcDbLine
 10
-21.03333333333333
 20
-45.637
 30
0.0
 11
-21.57478521766071
 21
-45.78208159514584
 31
0.0
  0
LINE
  5
10A
330
EB
100
AcDbEntity
  8
AM_4
100
AcDbLine
 10
-14.03333333333333
 20
-47.157
 30
0.0
 11
-13.49188144900595
 21
-47.01191840485417
 31
0.0
  0
LINE
  5
10B
330
EB
100
AcDbEntity
  8
AM_4
100
AcDbLine
 10
-21.57478521766071
 20
-47.01191840485417
 30
0.0
 11
-21.03333333333333
 21
-47.157
 31
0.0
  0
ARC
  5
10C
330
EB
100
AcDbEntity
  8
AM_4
100
AcDbCircle
 10
-14.33944964307846
 20
-48.87732987211822
 30
0.0
 40
0.9999999999999992
100
AcDbArc
 50
135.0000000000001
 51
205.0000000000001
  0
ARC
  5
10D
330
EB
100
AcDbEntity
  8
AM_4
100
AcDbCircle
 10
-20.7272170235882
 20
-48.87732987211822
 30
0.0
 40
1.0
100
AcDbArc
 50
334.9999999999998
 51
44.99999999999986
  0
LINE
  5
10E
330
EB
100
AcDbEntity
  8
AM_4
100
AcDbLine
 10
-19.64120351221147
 20
-54.40000000000001
 30
0.0
 11
-15.42546316467482
 21
-54.40000000000001
 31
0.0
  0
ARC
  5
10F
330
EB
100
AcDbEntity
  8
AM_4
100
AcDbCircle
 10
-15.42546315445521
 20
-53.89999999999997
 30
0.0
 40
0.5000000000000355
100
AcDbArc
 50
270.0
 51
336.9999999999968
  0
ARC
  5
110
330
EB
100
AcDbEntity
  8
AM_4
100
AcDbCircle
 10
-19.64120351221145
 20
-53.89999999999997
 30
0.0
 40
0.5000000000000353
100
AcDbArc
 50
203.000000000003
 51
270.0
  0
LINE
  5
111
330
EB
100
AcDbEntity
  8
AM_4
100
AcDbLine
 10
-19.82090923655155
 20
-49.29994813385893
 30
0.0
 11
-15.24575743011511
 21
-49.29994813385893
 31
0.0
  0
LINE
  5
112
330
EB
100
AcDbEntity
  8
AM_4
100
AcDbLine
 10
-19.82090923655155
 20
-49.29994813385893
 30
0.0
 11
-20.84517156027114
 21
-51.49648577549279
 31
0.0
  0
LINE
  5
113
330
EB
100
AcDbEntity
  8
AM_4
100
AcDbLine
 10
-14.22149510639552
 20
-51.49648577549279
 30
0.0
 11
-15.24575743011511
 21
-49.29994813385893
 31
0.0
  0
LINE
  5
114
330
EB
100
AcDbEntity
  8
AM_4
100
AcDbLine
 10
-20.1014559389377
 20
-54.09536556424464
 30
0.0
 11
-14.96521072772897
 21
-54.09536556424464
 31
0.0
  0
LINE
  5
115
330
EB
100
AcDbEntity
  8
AM_4
100
AcDbLine
 10
-14.96521072772897
 20
-54.09536556424464
 30
0.0
 11
-14.20729803997973
 21
-52.30983516572276
 31
0.0
  0
LINE
  5
116
330
EB
100
AcDbEntity
  8
AM_4
100
AcDbLine
 10
-20.85936862668693
 20
-52.30983516572276
 30
0.0
 11
-20.1014559389377
 21
-54.09536556424464
 31
0.0
  0
LINE
  5
117
330
EB
100
AcDbEntity
  8
AM_4
100
AcDbLine
 10
-20.85936862668693
 20
-52.30983516572276
 30
0.0
 11
-14.20729803997973
 21
-52.30983516572276
 31
0.0
  0
LINE
  5
118
330
EB
100
AcDbEntity
  8
AM_4
100
AcDbLine
 10
-20.84517156027114
 20
-51.49648577549279
 30
0.0
 11
-14.22149510639552
 21
-51.49648577549279
 31
0.0
  0
ARC
  5
119
330
EB
100
AcDbEntity
  8
AM_4
100
AcDbCircle
 10
-15.12780289343213
 20
-51.91910403723348
 30
0.0
 40
0.9999999999999644
100
AcDbArc
 50
336.9999999999989
 51
25.00000000000071
  0
ARC
  5
11A
330
EB
100
AcDbEntity
  8
AM_4
100
AcDbCircle
 10
-19.93886377323453
 20
-51.91910403723348
 30
0.0
 40
0.9999999999999587
100
AcDbArc
 50
154.9999999999992
 51
203.0000000000013
  0
LINE
  5
11B
330
EB
100
AcDbEntity
  8
AM_4
100
AcDbLine
 10
-21.03333333333333
 20
-47.157
 30
0.0
 11
-14.03333333333333
 21
-47.157
 31
0.0
  0
LINE
  5
11C
330
EB
100
AcDbEntity
  8
AM_4
100
AcDbLine
 10
-20.02011024240165
 20
-48.17022309093168
 30
0.0
 11
-15.04655642426501
 21
-48.17022309093168
 31
0.0
  0
LINE
  5
11D
330
EB
100
AcDbEntity
  8
AM_4
100
AcDbLine
 10
-15.04655642426501
 20
-48.17022309093168
 30
0.0
 11
-14.03333333333333
 21
-47.157
 31
0.0
  0
LINE
  5
11E
330
EB
100
AcDbEntity
  8
AM_4
100
AcDbLine
 10
-21.03333333333333
 20
-47.157
 30
0.0
 11
-20.02011024240165
 21
-48.17022309093168
 31
0.0
  0
LINE
  5
11F
330
EB
100
AcDbEntity
  8
AM_4
100
AcDbLine
 10
-13.49188144900595
 20
-47.01191840485417
 30
0.0
 11
-13.49188144900595
 21
-45.78208159514584
 31
0.0
  0
LWPOLYLINE
  5
120
330
EB
100
AcDbEntity
  8
AM_4
100
AcDbPolyline
 90
        3
 70
     0
 43
0.0
 10
-14.50224442008779
 20
-45.637
 10
-13.99706293454687
 20
-45.67529409256056
 10
-13.49188144900595
 20
-45.78208159514584
  0
LINE
  5
121
330
EB
100
AcDbEntity
  8
AM_4
100
AcDbLine
 10
-15.51260739116964
 20
-47.01191840485417
 30
0.0
 11
-15.51260739116964
 21
-45.78208159514584
 31
0.0
  0
LWPOLYLINE
  5
122
330
EB
100
AcDbEntity
  8
AM_4
100
AcDbPolyline
 90
        3
 70
     0
 43
0.0
 10
-13.49188144900595
 20
-47.01191840485417
 10
-13.9947915025563
 20
-47.11836760080609
 10
-14.50224442008779
 20
-47.157
  0
LWPOLYLINE
  5
123
330
EB
100
AcDbEntity
  8
AM_4
100
AcDbPolyline
 90
        3
 70
     0
 43
0.0
 10
-14.50224442008779
 20
-47.157
 10
-15.00742590562872
 20
-47.11870590743945
 10
-15.51260739116964
 20
-47.01191840485417
  0
LWPOLYLINE
  5
124
330
EB
100
AcDbEntity
  8
AM_4
100
AcDbPolyline
 90
        3
 70
     0
 43
0.0
 10
-15.51260739116964
 20
-47.01191840485417
 10
-16.51842749827034
 20
-47.11836760080609
 10
-17.53333333333333
 20
-47.157
  0
LWPOLYLINE
  5
125
330
EB
100
AcDbEntity
  8
AM_4
100
AcDbPolyline
 90
        4
 70
     0
 43
0.0
 10
-17.53333333333333
 20
-47.157
 10
-18.30667778073206
 20
-47.13437991987496
 10
-19.08002222813079
 20
-47.06950953685267
 10
-19.55405927549702
 20
-47.01191840485417
  0
LWPOLYLINE
  5
126
330
EB
100
AcDbEntity
  8
AM_4
100
AcDbPolyline
 90
        3
 70
     0
 43
0.0
 10
-17.53333333333333
 20
-45.637
 10
-16.52297036225149
 20
-45.67529409256056
 10
-15.51260739116964
 20
-45.78208159514584
  0
LWPOLYLINE
  5
127
330
EB
100
AcDbEntity
  8
AM_4
100
AcDbPolyline
 90
        3
 70
     0
 43
0.0
 10
-15.51260739116964
 20
-45.78208159514584
 10
-15.00969733761929
 20
-45.67563239919392
 10
-14.50224442008779
 20
-45.637
  0
LWPOLYLINE
  5
128
330
EB
100
AcDbEntity
  8
AM_4
100
AcDbPolyline
 90
        4
 70
     0
 43
0.0
 10
-19.55405927549702
 20
-45.78208159514584
 10
-19.08002222813079
 20
-45.72449046314734
 10
-18.30895150017423
 20
-45.6597517091618
 10
-17.53333333333333
 20
-45.637
  0
LINE
  5
129
330
EB
100
AcDbEntity
  8
AM_4
100
AcDbLine
 10
-19.55405927549702
 20
-47.01191840485417
 30
0.0
 11
-19.55405927549702
 21
-45.78208159514584
 31
0.0
  0
LWPOLYLINE
  5
12A
330
EB
100
AcDbEntity
  8
AM_4
100
AcDbPolyline
 90
        3
 70
     0
 43
0.0
 10
-20.56442224657887
 20
-45.637
 10
-20.05924076103794
 20
-45.67529409256056
 10
-19.55405927549702
 20
-45.78208159514584
  0
LWPOLYLINE
  5
12B
330
EB
100
AcDbEntity
  8
AM_4
100
AcDbPolyline
 90
        3
 70
     0
 43
0.0
 10
-21.57478521766071
 20
-45.78208159514584
 10
-21.07187516411036
 20
-45.67563239919392
 10
-20.56442224657887
 20
-45.637
  0
LINE
  5
12C
330
EB
100
AcDbEntity
  8
AM_4
100
AcDbLine
 10
-21.57478521766071
 20
-47.01191840485417
 30
0.0
 11
-21.57478521766071
 21
-45.78208159514584
 31
0.0
  0
LWPOLYLINE
  5
12D
330
EB
100
AcDbEntity
  8
AM_4
100
AcDbPolyline
 90
        3
 70
     0
 43
0.0
 10
-20.56442224657887
 20
-47.157
 10
-21.06960373211979
 20
-47.11870590743945
 10
-21.57478521766071
 20
-47.01191840485417
  0
LWPOLYLINE
  5
12E
330
EB
100
AcDbEntity
  8
AM_4
100
AcDbPolyline
 90
        3
 70
     0
 43
0.0
 10
-19.55405927549702
 20
-47.01191840485417
 10
-20.05696932904737
 20
-47.11836760080609
 10
-20.56442224657887
 20
-47.157
  0
ENDBLK
  5
EE
330
EB
100
AcDbEntity
  8
0
100
AcDbBlockEnd
  0
BLOCK
  5
131
330
12F
100
AcDbEntity
  8
0
100
AcDbBlockBegin
  2
4_065699H_0_in_065699_2
 70
     2
 10
0.0
 20
0.0
 30
0.0
  3
4_065699H_0_in_065699_2
  1

  0
ATTDEF
  5
133
330
12F
100
AcDbEntity
  8
AM_6
100
AcDbText
 10
5.635
 20
61.10000000000007
 30
0.0
 40
0.5
  1
LF-SC & LF-SC-NL - housing -Metric
100
AcDbAttributeDefinition
  3

  2
NN
 70
     8
280
     0
  0
ATTDEF
  5
134
330
12F
100
AcDbEntity
  8
AM_6
100
AcDbText
 10
5.635
 20
60.60000000000007
 30
0.0
 40
0.5
  1
SC 3 Bolt Flange Bearings -(Normal Duty) -Re-Lube and No-Lube
100
AcDbAttributeDefinition
  3

  2
NT
 70
     8
280
     0
  0
ATTDEF
  5
135
330
12F
100
AcDbEntity
  8
AM_6
100
AcDbText
 10
5.635
 20
60.10000000000007
 30
0.0
 40
0.5
  1
065699H
100
AcDbAttributeDefinition
  3

  2
NB
 70
     8
280
     0
  0
ATTDEF
  5
136
330
12F
100
AcDbEntity
  8
AM_6
100
AcDbText
 10
5.635
 20
59.60000000000007
 30
0.0
 40
0.5
  1
$PN.H
100
AcDbAttributeDefinition
  3

  2
NBSYN
 70
     8
280
     0
  0
ATTDEF
  5
137
330
12F
100
AcDbEntity
  8
AM_6
100
AcDbText
 10
5.635
 20
59.10000000000007
 30
0.0
 40
0.5
  1
065699
100
AcDbAttributeDefinition
  3

  2
LINA
 70
     8
280
     0
  0
ATTDEF
  5
138
330
12F
100
AcDbEntity
  8
AM_6
100
AcDbText
 10
5.635
 20
58.60000000000007
 30
0.0
 40
0.5
  1
207
100
AcDbAttributeDefinition
  3

  2
SERIES
 70
     8
280
     0
  0
ATTDEF
  5
139
330
12F
100
AcDbEntity
  8
AM_6
100
AcDbText
 10
5.635
 20
58.10000000000007
 30
0.0
 40
0.5
  1
35
100
AcDbAttributeDefinition
  3

  2
SS
 70
     8
280
     0
  0
ATTDEF
  5
13A
330
12F
100
AcDbEntity
  8
AM_6
100
AcDbText
 10
5.635
 20
57.60000000000007
 30
0.0
 40
0.5
  1
065699
100
AcDbAttributeDefinition
  3

  2
PN
 70
     8
280
     0
  0
ATTDEF
  5
13B
330
12F
100
AcDbEntity
  8
AM_6
100
AcDbText
 10
5.635
 20
57.10000000000007
 30
0.0
 40
0.5
  1
LF-SC-35M
100
AcDbAttributeDefinition
  3

  2
DESCRIPTION
 70
     8
280
     0
  0
ATTDEF
  5
13C
330
12F
100
AcDbEntity
  8
AM_6
100
AcDbText
 10
5.635
 20
56.60000000000007
 30
0.0
 40
0.5
  1
0.90
100
AcDbAttributeDefinition
  3

  2
W
 70
     8
280
     0
  0
ATTDEF
  5
13D
330
12F
100
AcDbEntity
  8
AM_6
100
AcDbText
 10
5.635
 20
56.10000000000007
 30
0.0
 40
0.5
  1
RE-LUBE
100
AcDbAttributeDefinition
  3

  2
LF
 70
     8
280
     0
  0
ATTDEF
  5
13E
330
12F
100
AcDbEntity
  8
AM_6
100
AcDbText
 10
5.635
 20
55.60000000000007
 30
0.0
 40
0.5
  1
35.6
100
AcDbAttributeDefinition
  3

  2
A
 70
     8
280
     0
  0
ATTDEF
  5
13F
330
12F
100
AcDbEntity
  8
AM_6
100
AcDbText
 10
5.635
 20
55.10000000000007
 30
0.0
 40
0.5
  1
122.2
100
AcDbAttributeDefinition
  3

  2
B
 70
     8
280
     0
  0
ATTDEF
  5
140
330
12F
100
AcDbEntity
  8
AM_6
100
AcDbText
 10
5.635
 20
54.60000000000007
 30
0.0
 40
0.5
  1
40.4
100
AcDbAttributeDefinition
  3

  2
C
 70
     8
280
     0
  0
ATTDEF
  5
141
330
12F
100
AcDbEntity
  8
AM_6
100
AcDbText
 10
5.635
 20
54.10000000000007
 30
0.0
 40
0.5
  1
100.1
100
AcDbAttributeDefinition
  3

  2
D
 70
     8
280
     0
  0
ATTDEF
  5
142
330
12F
100
AcDbEntity
  8
AM_6
100
AcDbText
 10
5.635
 20
53.60000000000007
 30
0.0
 40
0.5
  1
10.4
100
AcDbAttributeDefinition
  3

  2
G
 70
     8
280
     0
  0
ATTDEF
  5
143
330
12F
100
AcDbEntity
  8
AM_6
100
AcDbText
 10
5.635
 20
53.10000000000007
 30
0.0
 40
0.5
  1
12.7
100
AcDbAttributeDefinition
  3

  2
H
 70
     8
280
     0
  0
ATTDEF
  5
144
330
12F
100
AcDbEntity
  8
AM_6
100
AcDbText
 10
5.635
 20
52.60000000000007
 30
0.0
 40
0.5
  1
13.2
100
AcDbAttributeDefinition
  3

  2
J
 70
     8
280
     0
  0
ATTDEF
  5
145
330
12F
100
AcDbEntity
  8
AM_6
100
AcDbText
 10
5.635
 20
52.10000000000007
 30
0.0
 40
0.5
  1
46.7
100
AcDbAttributeDefinition
  3

  2
L
 70
     8
280
     0
  0
ATTDEF
  5
146
330
12F
100
AcDbEntity
  8
AM_6
100
AcDbText
 10
5.635
 20
51.60000000000007
 30
0.0
 40
0.5
  1
61.2
100
AcDbAttributeDefinition
  3

  2
M
 70
     8
280
     0
  0
ATTDEF
  5
147
330
12F
100
AcDbEntity
  8
AM_6
100
AcDbText
 10
5.635
 20
51.10000000000007
 30
0.0
 40
0.5
  1
54.4
100
AcDbAttributeDefinition
  3

  2
N
 70
     8
280
     0
  0
ATTDEF
  5
148
330
12F
100
AcDbEntity
  8
AM_6
100
AcDbText
 10
5.635
 20
50.60000000000007
 30
0.0
 40
0.5
  1
3065
100
AcDbAttributeDefinition
  3

  2
CAPS
 70
     8
280
     0
  0
ATTDEF
  5
149
330
12F
100
AcDbEntity
  8
AM_6
100
AcDbText
 10
5.635
 20
50.10000000000007
 30
0.0
 40
0.5
  1
5759
100
AcDbAttributeDefinition
  3

  2
CAPD
 70
     8
280
     0
  0
ATTDEF
  5
14A
330
12F
100
AcDbEntity
  8
AM_6
100
AcDbText
 10
5.635
 20
49.60000000000007
 30
0.0
 40
0.5
  1
baldor
100
AcDbAttributeDefinition
  3

  2
COMPANY
 70
     8
280
     0
  0
LINE
  5
14B
330
12F
100
AcDbEntity
  8
AM_9
100
AcDbLine
 10
-14.03333333333333
 20
-39.78
 30
0.0
 11
-21.03333333333333
 21
-39.78
 31
0.0
  0
LINE
  5
14C
330
12F
100
AcDbEntity
  8
AM_9
100
AcDbLine
 10
-21.03333333333333
 20
-39.78
 30
0.0
 11
-21.03333333333333
 21
-45.637
 31
0.0
  0
LINE
  5
14D
330
12F
100
AcDbEntity
  8
AM_9
100
AcDbLine
 10
-14.03333333333333
 20
-45.637
 30
0.0
 11
-14.03333333333333
 21
-39.78
 31
0.0
  0
LINE
  5
14E
330
12F
100
AcDbEntity
  8
AM_9
100
AcDbLine
 10
-6.35
 20
44.85
 30
0.0
 11
-6.35
 21
55.25
 31
0.0
  0
LINE
  5
14F
330
12F
100
AcDbEntity
  8
AM_9
100
AcDbLine
 10
-12.7
 20
44.85
 30
0.0
 11
0.0
 21
44.84999999999999
 31
0.0
  0
LINE
  5
150
330
12F
100
AcDbEntity
  8
AM_9
100
AcDbLine
 10
0.0
 20
55.25
 30
0.0
 11
-12.7
 21
55.25
 31
0.0
  0
LINE
  5
151
330
12F
100
AcDbEntity
  8
AM_9
100
AcDbLine
 10
-27.2
 20
40.28333333333332
 30
0.0
 11
-12.7
 21
40.28333333333332
 31
0.0
  0
LINE
  5
152
330
12F
100
AcDbEntity
  8
AM_9
100
AcDbLine
 10
0.0
 20
37.75000000000001
 30
0.0
 11
-3.175000000000001
 21
37.75000000000001
 31
0.0
  0
LINE
  5
153
330
12F
100
AcDbEntity
  8
AM_9
100
AcDbLine
 10
-3.175
 20
35.15335100297956
 30
0.0
 11
0.0000000000000008
 21
35.15335100297956
 31
0.0
  0
LINE
  5
154
330
12F
100
AcDbEntity
  8
AM_9
100
AcDbLine
 10
-3.174999999999999
 20
-29.49214066009721
 30
0.0
 11
0.0000000000000014
 21
-29.49214066009721
 31
0.0
  0
LINE
  5
155
330
12F
100
AcDbEntity
  8
AM_9
100
AcDbLine
 10
-3.174999999999999
 20
-34.12338743403768
 30
0.0
 11
0.0000000000000015
 21
-34.12338743403768
 31
0.0
  0
LINE
  5
156
330
12F
100
AcDbEntity
  8
AM_9
100
AcDbLine
 10
-3.174999999999998
 20
-17.5
 30
0.0
 11
-3.174999999999998
 21
-36.07500000000003
 31
0.0
  0
LINE
  5
157
330
12F
100
AcDbEntity
  8
AM_9
100
AcDbLine
 10
-17.68
 20
-17.5
 30
0.0
 11
-3.174999999999998
 21
-17.5
 31
0.0
  0
LINE
  5
158
330
12F
100
AcDbEntity
  8
AM_9
100
AcDbLine
 10
-17.68
 20
17.5
 30
0.0
 11
-3.174999999999998
 21
17.5
 31
0.0
  0
LINE
  5
159
330
12F
100
AcDbEntity
  8
AM_9
100
AcDbLine
 10
-27.2
 20
-36.00000000000001
 30
0.0
 11
-3.175000000000001
 21
-36.00000000000001
 31
0.0
  0
LINE
  5
15A
330
12F
100
AcDbEntity
  8
AM_9
100
AcDbLine
 10
-3.175000000000001
 20
36.00000000000001
 30
0.0
 11
-27.2
 21
36.00000000000001
 31
0.0
  0
LINE
  5
15B
330
12F
100
AcDbEntity
  8
AM_9
100
AcDbLine
 10
-17.68
 20
-17.5
 30
0.0
 11
-17.68
 21
17.5
 31
0.0
  0
LINE
  5
15C
330
12F
100
AcDbEntity
  8
AM_9
100
AcDbLine
 10
-12.7
 20
-34.15744880870944
 30
0.0
 11
-3.174999999999998
 21
-34.15744880870943
 31
0.0
  0
LINE
  5
15D
330
12F
100
AcDbEntity
  8
AM_9
100
AcDbLine
 10
-3.174999999999999
 20
-34.12275038256234
 30
0.0
 11
0.0000000000000015
 21
-34.12275038256234
 31
0.0
  0
LINE
  5
15E
330
12F
100
AcDbEntity
  8
AM_9
100
AcDbLine
 10
0.0000000000000016
 20
-34.10775508078218
 30
0.0
 11
-3.174999999999999
 21
-34.10775508078218
 31
0.0
  0
LINE
  5
15F
330
12F
100
AcDbEntity
  8
AM_9
100
AcDbLine
 10
-6.349999999999997
 20
-17.92166790032091
 30
0.0
 11
-12.7
 21
-17.92166790032091
 31
0.0
  0
LINE
  5
160
330
12F
100
AcDbEntity
  8
AM_9
100
AcDbLine
 10
-3.174999999999998
 20
-5.661210342882319
 30
0.0
 11
0.0000000000000023
 21
-5.661210342882333
 31
0.0
  0
LINE
  5
161
330
12F
100
AcDbEntity
  8
AM_9
100
AcDbLine
 10
-6.349999999999997
 20
-32.12833209967907
 30
0.0
 11
-12.7
 21
-32.12833209967907
 31
0.0
  0
LINE
  5
162
330
12F
100
AcDbEntity
  8
AM_9
100
AcDbLine
 10
-6.349999999999997
 20
-26.92833209967907
 30
0.0
 11
-12.7
 21
-26.92833209967907
 31
0.0
  0
LINE
  5
163
330
12F
100
AcDbEntity
  8
AM_9
100
AcDbLine
 10
-6.349999999999997
 20
-32.12833209967907
 30
0.0
 11
-6.349999999999997
 21
-17.92166790032091
 31
0.0
  0
LINE
  5
164
330
12F
100
AcDbEntity
  8
AM_9
100
AcDbLine
 10
-6.349999999999997
 20
-30.22499999999999
 30
0.0
 11
0.0000000000000027
 21
-30.22499999999999
 31
0.0
  0
LINE
  5
165
330
12F
100
AcDbEntity
  8
AM_9
100
AcDbLine
 10
0.0000000000000027
 20
-19.82499999999999
 30
0.0
 11
-6.349999999999997
 21
-19.82499999999999
 31
0.0
  0
LINE
  5
166
330
12F
100
AcDbEntity
  8
AM_9
100
AcDbLine
 10
-6.349999999999996
 20
-23.12166790032091
 30
0.0
 11
-12.7
 21
-23.12166790032091
 31
0.0
  0
LINE
  5
167
330
12F
100
AcDbEntity
  8
AM_9
100
AcDbLine
 10
-12.7
 20
-35.77412702662026
 30
0.0
 11
0.0000000000000025
 21
-35.77412702662026
 31
0.0
  0
LINE
  5
168
330
12F
100
AcDbEntity
  8
AM_7
100
AcDbLine
 10
0.635
 20
50.05
 30
0.0
 11
-41.26
 21
50.05
 31
0.0
  0
LINE
  5
169
330
12F
100
AcDbEntity
  8
AM_7
100
AcDbLine
 10
-42.18750000000001
 20
0.0
 30
0.0
 11
-1.97375
 21
0.0
 31
0.0
  0
LINE
  5
16A
330
12F
100
AcDbEntity
  8
AM_7
100
AcDbLine
 10
0.6349999999999975
 20
-25.02499999999999
 30
0.0
 11
-41.26
 21
-25.02500000000002
 31
0.0
  0
LINE
  5
16B
330
12F
100
AcDbEntity
  8
AM_7
100
AcDbLine
 10
-17.53333333333333
 20
-39.43
 30
0.0
 11
-17.53333333333333
 21
-55.09215
 31
0.0
  0
LINE
  5
16C
330
12F
100
AcDbEntity
  8
AM_4
100
AcDbLine
 10
0.0
 20
61.10000000000007
 30
0.0
 11
-12.7
 21
61.10000000000007
 31
0.0
  0
LINE
  5
16D
330
12F
100
AcDbEntity
  8
AM_4
100
AcDbLine
 10
-27.1746
 20
-45.637
 30
0.0
 11
-27.1746
 21
-39.38919410993277
 31
0.0
  0
LINE
  5
16E
330
12F
100
AcDbEntity
  8
AM_4
100
AcDbLine
 10
-3.2004
 20
-45.637
 30
0.0
 11
-3.200399999999999
 21
-43.36908559185817
 31
0.0
  0
LINE
  5
16F
330
12F
100
AcDbEntity
  8
AM_4
100
AcDbLine
 10
-27.1746
 20
-45.637
 30
0.0
 11
-3.2004
 21
-45.637
 31
0.0
  0
LINE
  5
170
330
12F
100
AcDbEntity
  8
AM_4
100
AcDbLine
 10
-27.1746
 20
-43.55700000000001
 30
0.0
 11
-3.200399999999999
 21
-43.55700000000001
 31
0.0
  0
LINE
  5
171
330
12F
100
AcDbEntity
  8
AM_4
100
AcDbLine
 10
-12.7
 20
53.20666447949764
 30
0.0
 11
0.0000000000000006
 21
53.20666447949764
 31
0.0
  0
LINE
  5
172
330
12F
100
AcDbEntity
  8
AM_4
100
AcDbLine
 10
-3.175
 20
38.92403228217798
 30
0.0
 11
0.000000000000001
 21
38.92403228217798
 31
0.0
  0
LINE
  5
173
330
12F
100
AcDbEntity
  8
AM_4
100
AcDbLine
 10
-3.175
 20
34.97450895285365
 30
0.0
 11
0.0000000000000009
 21
34.97450895285365
 31
0.0
  0
LINE
  5
174
330
12F
100
AcDbEntity
  8
AM_4
100
AcDbLine
 10
0.0000000000000009
 20
34.97450895285365
 30
0.0
 11
0.0
 21
61.10000000000007
 31
0.0
  0
LINE
  5
175
330
12F
100
AcDbEntity
  8
AM_4
100
AcDbLine
 10
-12.7
 20
61.10000000000007
 30
0.0
 11
-12.70000000000002
 21
-43.36908559185817
 31
0.0
  0
LINE
  5
176
330
12F
100
AcDbEntity
  8
AM_4
100
AcDbLine
 10
-3.174999999999998
 20
-36.07500000000003
 30
0.0
 11
-3.175
 21
-44.8499998336
 31
0.0
  0
LINE
  5
177
330
12F
100
AcDbEntity
  8
AM_4
100
AcDbLine
 10
-12.70000000000002
 20
-43.36908559185817
 30
0.0
 11
-3.200399999999999
 21
-43.36908559185817
 31
0.0
  0
LINE
  5
178
330
12F
100
AcDbEntity
  8
AM_4
100
AcDbLine
 10
-3.2004
 20
-44.8499998336
 30
0.0
 11
-3.175
 21
-44.8499998336
 31
0.0
  0
LINE
  5
179
330
12F
100
AcDbEntity
  8
AM_4
100
AcDbLine
 10
-25.12
 20
-41.21441361571966
 30
0.0
 11
-13.97000000000001
 21
-41.21441361571966
 31
0.0
  0
LINE
  5
17A
330
12F
100
AcDbEntity
  8
AM_4
100
AcDbLine
 10
-13.97000000000001
 20
-26.3726132463907
 30
0.0
 11
-13.97000000000001
 21
-41.21441361571966
 31
0.0
  0
LWPOLYLINE
  5
17B
330
12F
100
AcDbEntity
  8
AM_4
100
AcDbPolyline
 90
       10
 70
     0
 43
0.0
 10
-12.70000000000002
 20
-42.53088979097465
 10
-12.71837473052188
 20
-42.30795869848387
 10
-12.77516541961479
 20
-42.08502760599309
 10
-12.86684163872238
 20
-41.87898237524879
 10
-12.99627034657219
 20
-41.68606175925866
 10
-13.14915996275093
 20
-41.52660460776742
 10
-13.33301174127543
 20
-41.3921498368582
 10
-13.52444401469405
 20
-41.29817729846393
 10
-13.73563105687827
 20
-41.2370493045967
 10
-13.97000000000001
 20
-41.21441361571966
  0
LINE
  5
17C
330
12F
100
AcDbEntity
  8
AM_4
100
AcDbLine
 10
-25.12
 20
-26.37261324639071
 30
0.0
 11
-25.12
 21
-41.21441361571966
 31
0.0
  0
LWPOLYLINE
  5
17D
330
12F
100
AcDbEntity
  8
AM_4
100
AcDbPolyline
 90
       10
 70
     0
 43
0.0
 10
-27.1746
 20
-39.38919410993277
 10
-27.10637452260502
 20
-39.6941439908146
 10
-26.96981884821857
 20
-40.04166933587116
 10
-26.76952653447229
 20
-40.37016939018677
 10
-26.52899050975745
 20
-40.6434517747661
 10
-26.23553806249842
 20
-40.87762426314252
 10
-25.82564552662341
 20
-41.08638975328732
 10
-25.50427810854568
 20
-41.17725527803113
 10
-25.16263640479238
 20
-41.21396008810783
 10
-25.12
 20
-41.21441361571966
  0
ARC
  5
17E
330
12F
100
AcDbEntity
  8
AM_4
100
AcDbCircle
 10
-25.12000000000079
 20
-40.68999871040011
 30
0.0
 40
2.07999999999921
100
AcDbArc
 50
180.0
 51
188.9632552498128
  0
LWPOLYLINE
  5
17F
330
12F
100
AcDbEntity
  8
AM_4
100
AcDbPolyline
 90
       13
 70
     0
 43
0.0
 10
-25.12
 20
-26.37261324639071
 10
-25.39139280619681
 20
-26.34784019223342
 10
-25.65419926882706
 20
-26.27594430526034
 10
-25.89967108087058
 20
-26.16069955064079
 10
-26.12399949054485
 20
-26.00825400749101
 10
-26.37847257063208
 20
-25.76461706337555
 10
-26.59056278254746
 20
-25.48243210867772
 10
-26.82232041822332
 20
-25.03766908862465
 10
-26.98476395833702
 20
-24.56215078667237
 10
-27.10269220877171
 20
-24.00643225781031
 10
-27.16766354605657
 20
-23.44324242133202
 10
-27.19524393694041
 20
-22.8831195179995
 10
-27.2
 20
-22.48287086052314
  0
LINE
  5
180
330
12F
100
AcDbEntity
  8
AM_4
100
AcDbLine
 10
-13.97000000000001
 20
-26.3726132463907
 30
0.0
 11
-25.12
 21
-26.37261324639071
 31
0.0
  0
LWPOLYLINE
  5
181
330
12F
100
AcDbEntity
  8
AM_4
100
AcDbPolyline
 90
       10
 70
     0
 43
0.0
 10
-13.97000000000001
 20
-26.3726132463907
 10
-13.79662933068111
 20
-26.38917025991819
 10
-13.62904109044368
 20
-26.43654310538198
 10
-13.32999258216805
 20
-26.6073020885347
 10
-13.15043444555328
 20
-26.77496844974362
 10
-13.00051620353977
 20
-26.96858250638356
 10
-12.87815583862325
 20
-27.18512514527956
 10
-12.78689595862581
 20
-27.41473328983224
 10
-12.72220290014625
 20
-27.68382040710863
 10
-12.7
 20
-27.95694837236277
  0
LINE
  5
182
330
12F
100
AcDbEntity
  8
AM_4
100
AcDbLine
 10
0.0000000000000024
 20
-3.451121518815937
 30
0.0
 11
-3.174999999999998
 21
-3.451121518815937
 31
0.0
  0
LINE
  5
183
330
12F
100
AcDbEntity
  8
AM_4
100
AcDbLine
 10
-25.12
 20
-15.97391534411722
 30
0.0
 11
-13.97000000000001
 21
-15.97391534411721
 31
0.0
  0
LINE
  5
184
330
12F
100
AcDbEntity
  8
AM_4
100
AcDbLine
 10
-13.97000000000001
 20
42.34652859050789
 30
0.0
 11
-25.12
 21
42.34652859050789
 31
0.0
  0
LINE
  5
185
330
12F
100
AcDbEntity
  8
AM_4
100
AcDbLine
 10
-27.2
 20
40.61229487786789
 30
0.0
 11
-27.2
 21
-40.6899987104
 31
0.0
  0
LWPOLYLINE
  5
186
330
12F
100
AcDbEntity
  8
AM_4
100
AcDbPolyline
 90
       13
 70
     0
 43
0.0
 10
-27.2
 20
-18.12942401734478
 10
-27.1714271381453
 20
-17.50529555591593
 10
-27.11917810470202
 20
-17.19047344799747
 10
-27.02629243598063
 20
-16.89781452549831
 10
-26.88074703663737
 20
-16.6354844148697
 10
-26.66164200832915
 20
-16.40192201252733
 10
-26.47109002686589
 20
-16.27060298258307
 10
-26.23441736652848
 20
-16.15779421579438
 10
-26.00754197177409
 20
-16.08323960574347
 10
-25.74699375315189
 20
-16.02571746900506
 10
-25.50594849337457
 20
-15.99295642644334
 10
-25.2469394428804
 20
-15.97594239614559
 10
-25.12
 20
-15.97391534411722
  0
LINE
  5
187
330
12F
100
AcDbEntity
  8
AM_4
100
AcDbLine
 10
-25.12
 20
42.34652859050789
 30
0.0
 11
-25.12
 21
-15.97391534411722
 31
0.0
  0
LWPOLYLINE
  5
188
330
12F
100
AcDbEntity
  8
AM_4
100
AcDbPolyline
 90
       13
 70
     0
 43
0.0
 10
-25.12
 20
42.34652859050789
 10
-25.38709963441353
 20
42.33181554694261
 10
-25.65419926882706
 20
42.28695696267037
 10
-25.89674934996474
 20
42.21816568279669
 10
-26.12399949054486
 20
42.12641803421311
 10
-26.37544752927461
 20
41.98801796364787
 10
-26.59056278254747
 20
41.82981670396209
 10
-26.81993106101704
 20
41.60109050459204
 10
-26.98476395833704
 20
41.3698973140373
 10
-27.077745304232
 20
41.188538828814
 10
-27.13920913544318
 20
41.02062241074348
 10
-27.19524393694041
 20
40.72678162905569
 10
-27.2
 20
40.61229487786789
  0
LWPOLYLINE
  5
189
330
12F
100
AcDbEntity
  8
AM_4
100
AcDbPolyline
 90
       10
 70
     0
 43
0.0
 10
-12.7
 20
-15.49096579980765
 10
-12.72056281939307
 20
-15.55431633077658
 10
-12.78255219831493
 20
-15.62521514940641
 10
-12.89569240199203
 20
-15.70714446623665
 10
-13.06054923832344
 20
-15.79204809531227
 10
-13.20786795508134
 20
-15.8494592226277
 10
-13.38462102984967
 20
-15.90190946337784
 10
-13.5357162870174
 20
-15.93469823255815
 10
-13.70382070341621
 20
-15.95928775742657
 10
-13.97000000000001
 20
-15.97391534411721
  0
LWPOLYLINE
  5
18A
330
12F
100
AcDbEntity
  8
AM_4
100
AcDbPolyline
 90
       10
 70
     0
 43
0.0
 10
-13.97000000000001
 20
42.34652859050789
 10
-13.79952054522185
 20
42.35635225805046
 10
-13.62904109044368
 20
42.3863932675631
 10
-13.32999258216805
 20
42.49471028135542
 10
-13.15263047063097
 20
42.60206007716769
 10
-13.00051620353977
 20
42.73278053936147
 10
-12.87916793172028
 20
42.87986331183364
 10
-12.78689595862581
 20
43.04378656751567
 10
-12.72267032504111
 20
43.23827972695717
 10
-12.7
 20
43.44791417217038
  0
LINE
  5
18B
330
12F
100
AcDbEntity
  8
AM_4
100
AcDbLine
 10
-13.97000000000001
 20
42.34652859050789
 30
0.0
 11
-13.97000000000001
 21
-15.97391534411721
 31
0.0
  0
LINE
  5
18C
330
12F
100
AcDbEntity
  8
AM_4
100
AcDbLine
 10
-3.174999999999999
 20
42.25000530075995
 30
0.0
 11
-3.174999999999997
 21
-8.092556492050498
 31
0.0
  0
LINE
  5
18D
330
12F
100
AcDbEntity
  8
AM_4
100
AcDbLine
 10
-3.174999999999999
 20
42.25000530075995
 30
0.0
 11
-12.70000000000002
 21
42.25000530075995
 31
0.0
  0
LINE
  5
18E
330
12F
100
AcDbEntity
  8
AM_4
100
AcDbLine
 10
-3.174999999999998
 20
-4.801281903288568
 30
0.0
 11
0.0000000000000026
 21
-4.80128190328857
 31
0.0
  0
LINE
  5
18F
330
12F
100
AcDbEntity
  8
AM_4
100
AcDbLine
 10
-3.174999999999997
 20
-8.092556492050498
 30
0.0
 11
-12.70000000000001
 21
-8.092556492050505
 31
0.0
  0
LINE
  5
190
330
12F
100
AcDbEntity
  8
AM_4
100
AcDbLine
 10
-12.7
 20
-17.43253772146588
 30
0.0
 11
0.0000000000000031
 21
-17.43253772146588
 31
0.0
  0
LINE
  5
191
330
12F
100
AcDbEntity
  8
AM_4
100
AcDbLine
 10
-12.7
 20
-36.07500000000003
 30
0.0
 11
0.0000000000000027
 21
-36.07500000000003
 31
0.0
  0
LINE
  5
192
330
12F
100
AcDbEntity
  8
AM_4
100
AcDbLine
 10
0.0000000000000027
 20
-36.07500000000003
 30
0.0
 11
0.0000000000000024
 21
-3.451121518815937
 31
0.0
  0
ENDBLK
  5
132
330
12F
100
AcDbEntity
  8
0
100
AcDbBlockEnd
  0
ENDSEC
  0
SECTION
  2
ENTITIES
  0
INSERT
  5
6F
330
1F
100
AcDbEntity
  8
0
100
AcDbBlockReference
  2
1_065699_2
 10
0.0
 20
0.0
 30
0.0
  0
POINT
  5
194
330
1F
100
AcDbEntity
  8
ConnectionPoints
100
AcDbPoint
 10
-17.53333333333333
 20
-45.637
 30
0.0000000000000011
  0
POINT
  5
195
330
1F
100
AcDbEntity
  8
ConnectionPoints
100
AcDbPoint
 10
-17.53333333333333
 20
-45.637
 30
0.0000000000000011
  0
POINT
  5
196
330
1F
100
AcDbEntity
  8
ConnectionPoints
100
AcDbPoint
 10
-40.4
 20
0.0
 30
0.0000000000000025
  0
ENDSEC
  0
SECTION
  2
OBJECTS
  0
DICTIONARY
  5
C
330
0
100
AcDbDictionary
281
     1
  3
ACAD_DETAILVIEWSTYLE
350
19E
  3
ACAD_GROUP
350
D
  3
ACAD_LAYOUT
350
1A
  3
ACAD_MATERIAL
350
43
  3
ACAD_MLEADERSTYLE
350
6B
  3
ACAD_MLINESTYLE
350
17
  3
ACAD_PLOTSETTINGS
350
19
  3
ACAD_PLOTSTYLENAME
350
E
  3
ACAD_SCALELIST
350
47
  3
ACAD_SECTIONVIEWSTYLE
350
19F
  3
ACAD_TABLESTYLE
350
69
  3
ACAD_VISUALSTYLE
350
2A
  3
ACDB_RECOMPOSE_DATA
350
19B
  3
AcDbVariableDictionary
350
197
  0
SUN
  5
6D
330
29
100
AcDbSun
 90
        1
290
     0
 63
     7
421
 16777215
 40
1.0
291
     1
 91
  2455826
 92
 54000000
292
     0
 70
     2
 71
   256
280
     1
  0
DICTIONARY
  5
19E
102
{ACAD_REACTORS
330
C
102
}
330
C
100
AcDbDictionary
281
     1
  0
DICTIONARY
  5
D
102
{ACAD_REACTORS
330
C
102
}
330
C
100
AcDbDictionary
281
     1
  0
DICTIONARY
  5
1A
102
{ACAD_REACTORS
330
C
102
}
330
C
100
AcDbDictionary
281
     1
  3
Layout1
350
1E
  3
Layout2
350
26
  3
Model
350
22
  0
DICTIONARY
  5
43
102
{ACAD_REACTORS
330
C
102
}
330
C
100
AcDbDictionary
281
     1
  3
ByBlock
350
45
  3
ByLayer
350
44
  3
Global
350
46
  0
DICTIONARY
  5
6B
102
{ACAD_REACTORS
330
C
102
}
330
C
100
AcDbDictionary
281
     1
  3
Standard
350
6C
  0
DICTIONARY
  5
17
102
{ACAD_REACTORS
330
C
102
}
330
C
100
AcDbDictionary
281
     1
  3
Standard
350
18
  0
DICTIONARY
  5
19
102
{ACAD_REACTORS
330
C
102
}
330
C
100
AcDbDictionary
281
     1
  0
ACDBDICTIONARYWDFLT
  5
E
102
{ACAD_REACTORS
330
C
102
}
330
C
100
AcDbDictionary
281
     1
  3
Normal
350
F
100
AcDbDictionaryWithDefault
340
F
  0
DICTIONARY
  5
47
102
{ACAD_REACTORS
330
C
102
}
330
C
100
AcDbDictionary
281
     1
  3
A0
350
48
  3
A1
350
49
  3
A2
350
4A
  3
A3
350
4B
  3
A4
350
4C
  3
A5
350
4D
  3
A6
350
4E
  3
A7
350
4F
  3
A8
350
50
  3
A9
350
51
  3
B0
350
52
  3
B1
350
53
  3
B2
350
54
  3
B3
350
55
  3
B4
350
56
  3
B5
350
57
  3
B6
350
58
  3
B7
350
59
  3
B8
350
5A
  3
B9
350
5B
  3
C0
350
5C
  3
C1
350
5D
  3
C2
350
5E
  3
C3
350
5F
  3
C4
350
60
  3
C5
350
61
  3
C6
350
62
  3
C7
350
63
  3
C8
350
64
  3
C9
350
65
  3
D0
350
66
  3
D1
350
67
  3
D2
350
68
  0
DICTIONARY
  5
19F
102
{ACAD_REACTORS
330
C
102
}
330
C
100
AcDbDictionary
281
     1
  0
DICTIONARY
  5
69
102
{ACAD_REACTORS
330
C
102
}
330
C
100
AcDbDictionary
281
     1
  3
Standard
350
6A
  0
DICTIONARY
  5
2A
102
{ACAD_REACTORS
330
C
102
}
330
C
100
AcDbDictionary
281
     1
  3
2dWireframe
350
2F
  3
Basic
350
32
  3
Brighten
350
36
  3
ColorChange
350
3A
  3
Conceptual
350
34
  3
Dim
350
35
  3
EdgeColorOff
350
3D
  3
Facepattern
350
39
  3
Flat
350
2B
  3
FlatWithEdges
350
2C
  3
Gouraud
350
2D
  3
GouraudWithEdges
350
2E
  3
Hidden
350
31
  3
JitterOff
350
3B
  3
Linepattern
350
38
  3
OverhangOff
350
3C
  3
Realistic
350
33
  3
Shaded
350
42
  3
Shaded with edges
350
41
  3
Shades of Gray
350
3E
  3
Sketchy
350
3F
  3
Thicken
350
37
  3
Wireframe
350
30
  3
X-Ray
350
40
  0
XRECORD
  5
19B
102
{ACAD_REACTORS
330
C
102
}
330
C
100
AcDbXrecord
280
     1
 90
        1
330
6A
  0
DICTIONARY
  5
197
102
{ACAD_REACTORS
330
C
102
}
330
C
100
AcDbDictionary
281
     1
  3
CANNOSCALE
350
198
  3
CMLEADERSTYLE
350
19D
  3
CTABLESTYLE
350
19C
  0
LAYOUT
  5
1E
102
{ACAD_REACTORS
330
1A
102
}
330
1A
100
AcDbPlotSettings
  1

  2
none_device
  4

  6

 40
0.0
 41
0.0
 42
0.0
 43
0.0
 44
0.0
 45
0.0
 46
0.0
 47
0.0
 48
0.0
 49
0.0
140
0.0
141
0.0
142
1.0
143
1.0
 70
   688
 72
     1
 73
     0
 74
     5
  7

 75
    16
 76
     0
 77
     2
 78
   300
147
1.0
148
0.0
149
0.0
100
AcDbLayout
  1
Layout1
 70
     1
 71
     1
 10
0.0
 20
0.0
 11
420.0
 21
297.0
 12
0.0
 22
0.0
 32
0.0
 14
1.000000000000000E+20
 24
1.000000000000000E+20
 34
1.000000000000000E+20
 15
-1.000000000000000E+20
 25
-1.000000000000000E+20
 35
-1.000000000000000E+20
146
0.0
 13
0.0
 23
0.0
 33
0.0
 16
1.0
 26
0.0
 36
0.0
 17
0.0
 27
1.0
 37
0.0
 76
     0
330
1B
  0
LAYOUT
  5
26
102
{ACAD_REACTORS
330
1A
102
}
330
1A
100
AcDbPlotSettings
  1

  2
none_device
  4

  6

 40
0.0
 41
0.0
 42
0.0
 43
0.0
 44
0.0
 45
0.0
 46
0.0
 47
0.0
 48
0.0
 49
0.0
140
0.0
141
0.0
142
1.0
143
1.0
 70
   688
 72
     1
 73
     0
 74
     5
  7

 75
    16
 76
     0
 77
     2
 78
   300
147
1.0
148
0.0
149
0.0
100
AcDbLayout
  1
Layout2
 70
     1
 71
     2
 10
0.0
 20
0.0
 11
0.0
 21
0.0
 12
0.0
 22
0.0
 32
0.0
 14
0.0
 24
0.0
 34
0.0
 15
0.0
 25
0.0
 35
0.0
146
0.0
 13
0.0
 23
0.0
 33
0.0
 16
1.0
 26
0.0
 36
0.0
 17
0.0
 27
1.0
 37
0.0
 76
     0
330
23
  0
LAYOUT
  5
22
102
{ACAD_REACTORS
330
1A
102
}
330
1A
100
AcDbPlotSettings
  1

  2
none_device
  4
Letter_(8.50_x_11.00_Inches)
  6

 40
6.35
 41
6.35
 42
6.35000508
 43
6.35000508
 44
215.9
 45
279.4
 46
0.0
 47
0.0
 48
0.0
 49
0.0
140
0.0
141
0.0
142
1.0
143
1.0
 70
  1712
 72
     1
 73
     0
 74
     0
  7

 75
     0
 76
     0
 77
     2
 78
   300
147
1.0
148
0.0
149
0.0
100
AcDbLayout
  1
Model
 70
     1
 71
     0
 10
0.0
 20
0.0
 11
420.0
 21
297.0
 12
0.0
 22
0.0
 32
0.0
 14
1.000000000000000E+20
 24
1.000000000000000E+20
 34
1.000000000000000E+20
 15
-1.000000000000000E+20
 25
-1.000000000000000E+20
 35
-1.000000000000000E+20
146
0.0
 13
0.0
 23
0.0
 33
0.0
 16
1.0
 26
0.0
 36
0.0
 17
0.0
 27
1.0
 37
0.0
 76
     0
330
1F
331
29
  0
MATERIAL
  5
45
102
{ACAD_REACTORS
330
43
102
}
330
43
100
AcDbMaterial
  1
ByBlock
 72
     1
 94
      127
  0
MATERIAL
  5
44
102
{ACAD_REACTORS
330
43
102
}
330
43
100
AcDbMaterial
  1
ByLayer
 72
     1
 94
      127
  0
MATERIAL
  5
46
102
{ACAD_REACTORS
330
43
102
}
330
43
100
AcDbMaterial
  1
Global
 72
     1
 94
      127
  0
MLEADERSTYLE
  5
6C
102
{ACAD_REACTORS
330
6B
102
}
330
6B
100
AcDbMLeaderStyle
179
     2
170
     2
171
     1
172
     0
 90
        2
 40
0.0
 41
0.0
173
     1
 91
-1056964608
340
14
 92
       -2
290
     1
 42
2.0
291
     1
 43
8.0
  3
Standard
341
0
 44
4.0
300

342
11
174
     1
178
     6
175
     1
176
     0
 93
-1056964608
 45
4.0
292
     0
297
     0
 46
4.0
343
0
 94
-1056964608
 47
1.0
 49
1.0
140
1.0
293
     1
141
0.0
294
     1
177
     0
142
1.0
295
     0
296
     0
143
3.75
271
     0
272
     9
273
     9
298
     0
  0
MLINESTYLE
  5
18
102
{ACAD_REACTORS
330
17
102
}
330
17
100
AcDbMlineStyle
  2
Standard
 70
     0
  3

 62
   256
 51
90.0
 52
90.0
 71
     2
 49
0.5
 62
   256
  6
BYLAYER
 49
-0.5
 62
   256
  6
BYLAYER
  0
ACDBPLACEHOLDER
  5
F
102
{ACAD_REACTORS
330
E
102
}
330
E
  0
SCALE
  5
48
102
{ACAD_REACTORS
330
47
102
}
330
47
100
AcDbScale
 70
     0
300
1:1
140
1.0
141
1.0
290
     1
  0
SCALE
  5
49
102
{ACAD_REACTORS
330
47
102
}
330
47
100
AcDbScale
 70
     0
300
1:2
140
1.0
141
2.0
290
     0
  0
SCALE
  5
4A
102
{ACAD_REACTORS
330
47
102
}
330
47
100
AcDbScale
 70
     0
300
1:4
140
1.0
141
4.0
290
     0
  0
SCALE
  5
4B
102
{ACAD_REACTORS
330
47
102
}
330
47
100
AcDbScale
 70
     0
300
1:5
140
1.0
141
5.0
290
     0
  0
SCALE
  5
4C
102
{ACAD_REACTORS
330
47
102
}
330
47
100
AcDbScale
 70
     0
300
1:8
140
1.0
141
8.0
290
     0
  0
SCALE
  5
4D
102
{ACAD_REACTORS
330
47
102
}
330
47
100
AcDbScale
 70
     0
300
1:10
140
1.0
141
10.0
290
     0
  0
SCALE
  5
4E
102
{ACAD_REACTORS
330
47
102
}
330
47
100
AcDbScale
 70
     0
300
1:16
140
1.0
141
16.0
290
     0
  0
SCALE
  5
4F
102
{ACAD_REACTORS
330
47
102
}
330
47
100
AcDbScale
 70
     0
300
1:20
140
1.0
141
20.0
290
     0
  0
SCALE
  5
50
102
{ACAD_REACTORS
330
47
102
}
330
47
100
AcDbScale
 70
     0
300
1:30
140
1.0
141
30.0
290
     0
  0
SCALE
  5
51
102
{ACAD_REACTORS
330
47
102
}
330
47
100
AcDbScale
 70
     0
300
1:40
140
1.0
141
40.0
290
     0
  0
SCALE
  5
52
102
{ACAD_REACTORS
330
47
102
}
330
47
100
AcDbScale
 70
     0
300
1:50
140
1.0
141
50.0
290
     0
  0
SCALE
  5
53
102
{ACAD_REACTORS
330
47
102
}
330
47
100
AcDbScale
 70
     0
300
1:100
140
1.0
141
100.0
290
     0
  0
SCALE
  5
54
102
{ACAD_REACTORS
330
47
102
}
330
47
100
AcDbScale
 70
     0
300
2:1
140
2.0
141
1.0
290
     0
  0
SCALE
  5
55
102
{ACAD_REACTORS
330
47
102
}
330
47
100
AcDbScale
 70
     0
300
4:1
140
4.0
141
1.0
290
     0
  0
SCALE
  5
56
102
{ACAD_REACTORS
330
47
102
}
330
47
100
AcDbScale
 70
     0
300
8:1
140
8.0
141
1.0
290
     0
  0
SCALE
  5
57
102
{ACAD_REACTORS
330
47
102
}
330
47
100
AcDbScale
 70
     0
300
10:1
140
10.0
141
1.0
290
     0
  0
SCALE
  5
58
102
{ACAD_REACTORS
330
47
102
}
330
47
100
AcDbScale
 70
     0
300
100:1
140
100.0
141
1.0
290
     0
  0
SCALE
  5
59
102
{ACAD_REACTORS
330
47
102
}
330
47
100
AcDbScale
 70
     0
300
1/128" = 1'-0"
140
0.0078125
141
12.0
290
     0
  0
SCALE
  5
5A
102
{ACAD_REACTORS
330
47
102
}
330
47
100
AcDbScale
 70
     0
300
1/64" = 1'-0"
140
0.015625
141
12.0
290
     0
  0
SCALE
  5
5B
102
{ACAD_REACTORS
330
47
102
}
330
47
100
AcDbScale
 70
     0
300
1/32" = 1'-0"
140
0.03125
141
12.0
290
     0
  0
SCALE
  5
5C
102
{ACAD_REACTORS
330
47
102
}
330
47
100
AcDbScale
 70
     0
300
1/16" = 1'-0"
140
0.0625
141
12.0
290
     0
  0
SCALE
  5
5D
102
{ACAD_REACTORS
330
47
102
}
330
47
100
AcDbScale
 70
     0
300
3/32" = 1'-0"
140
0.09375
141
12.0
290
     0
  0
SCALE
  5
5E
102
{ACAD_REACTORS
330
47
102
}
330
47
100
AcDbScale
 70
     0
300
1/8" = 1'-0"
140
0.125
141
12.0
290
     0
  0
SCALE
  5
5F
102
{ACAD_REACTORS
330
47
102
}
330
47
100
AcDbScale
 70
     0
300
3/16" = 1'-0"
140
0.1875
141
12.0
290
     0
  0
SCALE
  5
60
102
{ACAD_REACTORS
330
47
102
}
330
47
100
AcDbScale
 70
     0
300
1/4" = 1'-0"
140
0.25
141
12.0
290
     0
  0
SCALE
  5
61
102
{ACAD_REACTORS
330
47
102
}
330
47
100
AcDbScale
 70
     0
300
3/8" = 1'-0"
140
0.375
141
12.0
290
     0
  0
SCALE
  5
62
102
{ACAD_REACTORS
330
47
102
}
330
47
100
AcDbScale
 70
     0
300
1/2" = 1'-0"
140
0.5
141
12.0
290
     0
  0
SCALE
  5
63
102
{ACAD_REACTORS
330
47
102
}
330
47
100
AcDbScale
 70
     0
300
3/4" = 1'-0"
140
0.75
141
12.0
290
     0
  0
SCALE
  5
64
102
{ACAD_REACTORS
330
47
102
}
330
47
100
AcDbScale
 70
     0
300
1" = 1'-0"
140
1.0
141
12.0
290
     0
  0
SCALE
  5
65
102
{ACAD_REACTORS
330
47
102
}
330
47
100
AcDbScale
 70
     0
300
1-1/2" = 1'-0"
140
1.5
141
12.0
290
     0
  0
SCALE
  5
66
102
{ACAD_REACTORS
330
47
102
}
330
47
100
AcDbScale
 70
     0
300
3" = 1'-0"
140
3.0
141
12.0
290
     0
  0
SCALE
  5
67
102
{ACAD_REACTORS
330
47
102
}
330
47
100
AcDbScale
 70
     0
300
6" = 1'-0"
140
6.0
141
12.0
290
     0
  0
SCALE
  5
68
102
{ACAD_REACTORS
330
47
102
}
330
47
100
AcDbScale
 70
     0
300
1'-0" = 1'-0"
140
12.0
141
12.0
290
     0
  0
TABLESTYLE
  5
6A
102
{ACAD_REACTORS
330
69
102
}
102
{ACAD_XDICTIONARY
360
199
102
}
330
69
100
AcDbTableStyle
  3
Standard
 70
     0
 71
     0
 40
0.06
 41
0.06
280
     0
281
     0
  7
Standard
140
4.5
170
     2
 62
     0
 63
   257
283
     0
 90
        4
 91
        0
  1

274
    -2
284
     1
 64
     0
275
    -2
285
     1
 65
     0
276
    -2
286
     1
 66
     0
277
    -2
287
     1
 67
     0
278
    -2
288
     1
 68
     0
279
    -2
289
     1
 69
     0
  7
Standard
140
6.0
170
     5
 62
     0
 63
   257
283
     0
 90
        4
 91
        0
  1

274
    -2
284
     1
 64
     0
275
    -2
285
     1
 65
     0
276
    -2
286
     1
 66
     0
277
    -2
287
     1
 67
     0
278
    -2
288
     1
 68
     0
279
    -2
289
     1
 69
     0
  7
Standard
140
4.5
170
     5
 62
     0
 63
   257
283
     0
 90
        4
 91
        0
  1

274
    -2
284
     1
 64
     0
275
    -2
285
     1
 65
     0
276
    -2
286
     1
 66
     0
277
    -2
287
     1
 67
     0
278
    -2
288
     1
 68
     0
279
    -2
289
     1
 69
     0
  0
VISUALSTYLE
  5
2F
102
{ACAD_REACTORS
330
2A
102
}
330
2A
100
AcDbVisualStyle
  2
2dWireframe
 70
     4
177
     3
291
     0
 70
    58
 90
        0
176
     1
 90
        2
176
     1
 90
        0
176
     1
 90
        0
176
     1
 40
0.6
176
     1
 40
30.0
176
     1
 62
     7
420
 16777215
176
     1
 90
        1
176
     1
 90
        4
176
     1
 62
     7
176
     1
 62
   257
176
     1
 90
        1
176
     1
 90
        1
176
     1
 40
1.0
176
     1
 90
        0
176
     1
 62
   257
176
     1
 40
1.0
176
     1
 90
        1
176
     1
 90
        6
176
     1
 90
        2
176
     1
 62
     7
176
     1
 90
        5
176
     1
 90
        0
176
     1
 90
        0
176
     1
290
     0
176
     1
 90
        1
176
     1
 40
0.0
176
     1
 90
        0
176
     1
290
     1
176
     1
290
     1
176
     1
290
     0
176
     1
290
     0
176
     1
290
     0
176
     1
290
     0
176
     1
290
     0
176
     1
290
     0
176
     1
290
     0
176
     1
 90
       50
176
     1
 40
0.0
176
     1
 40
1.0
176
     1
 90
        0
176
     1
 62
    18
420
        0
176
     1
 90
       50
176
     1
 90
        3
176
     1
 62
     5
420
      255
176
     1
290
     0
176
     1
 90
       50
176
     1
 90
       50
176
     1
 90
       50
176
     1
290
     0
176
     1
 90
       50
176
     1
 62
   256
176
     0
 40
1.0
176
     0
 90
        2
176
     1
  1
strokes_ogs.tif
176
     1
290
     0
176
     1
 40
1.0
176
     1
 40
1.0
176
     1
  0
VISUALSTYLE
  5
32
102
{ACAD_REACTORS
330
2A
102
}
330
2A
100
AcDbVisualStyle
  2
Basic
 70
     7
177
     3
291
     1
 70
    58
 90
        1
176
     1
 90
        0
176
     1
 90
        1
176
     1
 90
        0
176
     1
 40
0.6
176
     1
 40
30.0
176
     1
 62
     7
420
 16777215
176
     1
 90
        0
176
     1
 90
        4
176
     1
 62
     7
176
     1
 62
   257
176
     1
 90
        1
176
     1
 90
        1
176
     1
 40
1.0
176
     1
 90
        8
176
     1
 62
     7
176
     1
 40
1.0
176
     1
 90
        1
176
     1
 90
        6
176
     1
 90
        2
176
     1
 62
     7
176
     1
 90
        5
176
     1
 90
        0
176
     1
 90
        0
176
     1
290
     0
176
     1
 90
        1
176
     1
 40
0.0
176
     1
 90
        0
176
     1
290
     0
176
     1
290
     1
176
     1
290
     1
176
     1
290
     0
176
     1
290
     0
176
     1
290
     0
176
     1
290
     0
176
     1
290
     0
176
     1
290
     0
176
     1
 90
       50
176
     1
 40
0.0
176
     1
 40
1.0
176
     1
 90
        0
176
     1
 62
    18
420
        0
176
     1
 90
       50
176
     1
 90
        3
176
     1
 62
     5
420
      255
176
     1
290
     0
176
     1
 90
       50
176
     1
 90
       50
176
     1
 90
       50
176
     1
290
     0
176
     1
 90
       50
176
     1
 62
   256
176
     0
 40
1.0
176
     0
 90
        2
176
     1
  1
strokes_ogs.tif
176
     1
290
     0
176
     1
 40
1.0
176
     1
 40
1.0
176
     1
  0
VISUALSTYLE
  5
36
102
{ACAD_REACTORS
330
2A
102
}
330
2A
100
AcDbVisualStyle
  2
Brighten
 70
    12
177
     3
291
     1
 70
    58
 90
        2
176
     1
 90
        2
176
     1
 90
        0
176
     1
 90
        0
176
     1
 40
0.6
176
     1
 40
30.0
176
     1
 62
     7
420
 16777215
176
     1
 90
        1
176
     1
 90
        4
176
     1
 62
     7
176
     1
 62
   257
176
     1
 90
        1
176
     1
 90
        1
176
     1
 40
1.0
176
     1
 90
        8
176
     1
 62
     7
176
     1
 40
1.0
176
     1
 90
        1
176
     1
 90
        6
176
     1
 90
        2
176
     1
 62
     7
176
     1
 90
        5
176
     1
 90
        0
176
     1
 90
        0
176
     1
290
     0
176
     1
 90
        1
176
     1
 40
50.0
176
     1
 90
        0
176
     1
290
     0
176
     1
290
     1
176
     1
290
     1
176
     1
290
     0
176
     1
290
     0
176
     1
290
     0
176
     1
290
     0
176
     1
290
     0
176
     1
290
     0
176
     1
 90
       50
176
     1
 40
0.0
176
     1
 40
1.0
176
     1
 90
        0
176
     1
 62
    18
420
        0
176
     1
 90
       50
176
     1
 90
        3
176
     1
 62
     5
420
      255
176
     1
290
     0
176
     1
 90
       50
176
     1
 90
       50
176
     1
 90
       50
176
     1
290
     0
176
     1
 90
       50
176
     1
 62
   256
176
     0
 40
1.0
176
     0
 90
        2
176
     1
  1
strokes_ogs.tif
176
     1
290
     0
176
     1
 40
1.0
176
     1
 40
1.0
176
     1
  0
VISUALSTYLE
  5
3A
102
{ACAD_REACTORS
330
2A
102
}
330
2A
100
AcDbVisualStyle
  2
ColorChange
 70
    16
177
     3
291
     1
 70
    58
 90
        2
176
     1
 90
        2
176
     1
 90
        3
176
     1
 90
        0
176
     1
 40
0.6
176
     1
 40
30.0
176
     1
 62
     8
420
  8421504
176
     1
 90
        1
176
     1
 90
        4
176
     1
 62
     7
176
     1
 62
   257
176
     1
 90
        1
176
     1
 90
        1
176
     1
 40
1.0
176
     1
 90
        8
176
     1
 62
     8
420
  8421504
176
     1
 40
1.0
176
     1
 90
        1
176
     1
 90
        6
176
     1
 90
        2
176
     1
 62
     7
176
     1
 90
        5
176
     1
 90
        0
176
     1
 90
        0
176
     1
290
     0
176
     1
 90
        1
176
     1
 40
0.0
176
     1
 90
        0
176
     1
290
     0
176
     1
290
     1
176
     1
290
     1
176
     1
290
     0
176
     1
290
     0
176
     1
290
     0
176
     1
290
     0
176
     1
290
     0
176
     1
290
     0
176
     1
 90
       50
176
     1
 40
0.0
176
     1
 40
1.0
176
     1
 90
        0
176
     1
 62
    18
420
        0
176
     1
 90
       50
176
     1
 90
        3
176
     1
 62
     5
420
      255
176
     1
290
     0
176
     1
 90
       50
176
     1
 90
       50
176
     1
 90
       50
176
     1
290
     0
176
     1
 90
       50
176
     1
 62
   256
176
     0
 40
1.0
176
     0
 90
        2
176
     1
  1
strokes_ogs.tif
176
     1
290
     0
176
     1
 40
1.0
176
     1
 40
1.0
176
     1
  0
VISUALSTYLE
  5
34
102
{ACAD_REACTORS
330
2A
102
}
330
2A
100
AcDbVisualStyle
  2
Conceptual
 70
     9
177
     3
291
     0
 70
    58
 90
        3
176
     1
 90
        2
176
     1
 90
        0
176
     1
 90
        0
176
     1
 40
0.6
176
     1
 40
30.0
176
     1
 62
     7
420
 16777215
176
     1
 90
        2
176
     1
 90
        2
176
     1
 62
     7
176
     1
 62
   257
176
     1
 90
        1
176
     1
 90
        1
176
     1
 40
179.0
176
     1
 90
        8
176
     1
 62
     7
176
     1
 40
1.0
176
     1
 90
        1
176
     1
 90
        6
176
     1
 90
        2
176
     1
 62
     7
176
     1
 90
        3
176
     1
 90
        0
176
     1
 90
        0
176
     1
290
     0
176
     1
 90
        1
176
     1
 40
0.0
176
     1
 90
        0
176
     1
290
     0
176
     1
290
     1
176
     1
290
     1
176
     1
290
     0
176
     1
290
     0
176
     1
290
     0
176
     1
290
     0
176
     1
290
     0
176
     1
290
     0
176
     1
 90
       50
176
     1
 40
0.0
176
     1
 40
1.0
176
     1
 90
        0
176
     1
 62
    18
420
        0
176
     1
 90
       50
176
     1
 90
        3
176
     1
 62
     5
420
      255
176
     1
290
     0
176
     1
 90
       50
176
     1
 90
       50
176
     1
 90
       50
176
     1
290
     0
176
     1
 90
       50
176
     1
 62
   256
176
     0
 40
1.0
176
     0
 90
        2
176
     1
  1
strokes_ogs.tif
176
     1
290
     0
176
     1
 40
1.0
176
     1
 40
1.0
176
     1
  0
VISUALSTYLE
  5
35
102
{ACAD_REACTORS
330
2A
102
}
330
2A
100
AcDbVisualStyle
  2
Dim
 70
    11
177
     3
291
     1
 70
    58
 90
        2
176
     1
 90
        2
176
     1
 90
        0
176
     1
 90
        0
176
     1
 40
0.6
176
     1
 40
30.0
176
     1
 62
     7
420
 16777215
176
     1
 90
        1
176
     1
 90
        4
176
     1
 62
     7
176
     1
 62
   257
176
     1
 90
        1
176
     1
 90
        1
176
     1
 40
1.0
176
     1
 90
        8
176
     1
 62
     7
176
     1
 40
1.0
176
     1
 90
        1
176
     1
 90
        6
176
     1
 90
        2
176
     1
 62
     7
176
     1
 90
        5
176
     1
 90
        0
176
     1
 90
        0
176
     1
290
     0
176
     1
 90
        1
176
     1
 40
-50.0
176
     1
 90
        0
176
     1
290
     0
176
     1
290
     1
176
     1
290
     1
176
     1
290
     0
176
     1
290
     0
176
     1
290
     0
176
     1
290
     0
176
     1
290
     0
176
     1
290
     0
176
     1
 90
       50
176
     1
 40
0.0
176
     1
 40
1.0
176
     1
 90
        0
176
     1
 62
    18
420
        0
176
     1
 90
       50
176
     1
 90
        3
176
     1
 62
     5
420
      255
176
     1
290
     0
176
     1
 90
       50
176
     1
 90
       50
176
     1
 90
       50
176
     1
290
     0
176
     1
 90
       50
176
     1
 62
   256
176
     0
 40
1.0
176
     0
 90
        2
176
     1
  1
strokes_ogs.tif
176
     1
290
     0
176
     1
 40
1.0
176
     1
 40
1.0
176
     1
  0
VISUALSTYLE
  5
3D
102
{ACAD_REACTORS
330
2A
102
}
330
2A
100
AcDbVisualStyle
  2
EdgeColorOff
 70
    22
177
     3
291
     1
 70
    58
 90
        2
176
     0
 90
        2
176
     0
 90
        0
176
     0
 90
        0
176
     0
 40
0.6
176
     0
 40
30.0
176
     0
 62
     7
420
 16777215
176
     0
 90
        1
176
     0
 90
        4
176
     0
 62
     7
176
     0
 62
   257
176
     0
 90
        1
176
     0
 90
        1
176
     0
 40
1.0
176
     0
 90
        8
176
     2
 62
     7
176
     0
 40
1.0
176
     0
 90
        1
176
     0
 90
        6
176
     0
 90
        2
176
     0
 62
     7
176
     0
 90
        5
176
     0
 90
        0
176
     0
 90
        0
176
     0
290
     0
176
     0
 90
        1
176
     0
 40
0.0
176
     0
 90
        0
176
     0
290
     0
176
     0
290
     1
176
     0
290
     1
176
     0
290
     0
176
     0
290
     0
176
     0
290
     0
176
     0
290
     0
176
     0
290
     0
176
     0
290
     0
176
     0
 90
       50
176
     0
 40
0.0
176
     0
 40
1.0
176
     0
 90
        0
176
     0
 62
    18
420
        0
176
     0
 90
       50
176
     0
 90
        3
176
     0
 62
     5
420
      255
176
     0
290
     0
176
     0
 90
       50
176
     0
 90
       50
176
     0
 90
       50
176
     0
290
     0
176
     0
 90
       50
176
     0
 62
   256
176
     0
 40
1.0
176
     0
 90
        2
176
     0
  1
strokes_ogs.tif
176
     0
290
     0
176
     0
 40
1.0
176
     0
 40
1.0
176
     0
  0
VISUALSTYLE
  5
39
102
{ACAD_REACTORS
330
2A
102
}
330
2A
100
AcDbVisualStyle
  2
Facepattern
 70
    15
177
     3
291
     1
 70
    58
 90
        2
176
     1
 90
        2
176
     1
 90
        0
176
     1
 90
        0
176
     1
 40
0.6
176
     1
 40
30.0
176
     1
 62
     7
420
 16777215
176
     1
 90
        1
176
     1
 90
        4
176
     1
 62
     7
176
     1
 62
   257
176
     1
 90
        1
176
     1
 90
        1
176
     1
 40
1.0
176
     1
 90
        8
176
     1
 62
     7
176
     1
 40
1.0
176
     1
 90
        1
176
     1
 90
        6
176
     1
 90
        2
176
     1
 62
     7
176
     1
 90
        5
176
     1
 90
        0
176
     1
 90
        0
176
     1
290
     0
176
     1
 90
        1
176
     1
 40
0.0
176
     1
 90
        0
176
     1
290
     0
176
     1
290
     1
176
     1
290
     1
176
     1
290
     0
176
     1
290
     0
176
     1
290
     0
176
     1
290
     0
176
     1
290
     0
176
     1
290
     0
176
     1
 90
       50
176
     1
 40
0.0
176
     1
 40
1.0
176
     1
 90
        0
176
     1
 62
    18
420
        0
176
     1
 90
       50
176
     1
 90
        3
176
     1
 62
     5
420
      255
176
     1
290
     0
176
     1
 90
       50
176
     1
 90
       50
176
     1
 90
       50
176
     1
290
     0
176
     1
 90
       50
176
     1
 62
   256
176
     0
 40
1.0
176
     0
 90
        2
176
     1
  1
strokes_ogs.tif
176
     1
290
     0
176
     1
 40
1.0
176
     1
 40
1.0
176
     1
  0
VISUALSTYLE
  5
2B
102
{ACAD_REACTORS
330
2A
102
}
330
2A
100
AcDbVisualStyle
  2
Flat
 70
     0
177
     3
291
     1
 70
    58
 90
        2
176
     1
 90
        1
176
     1
 90
        1
176
     1
 90
        2
176
     1
 40
0.6
176
     1
 40
30.0
176
     1
 62
     7
420
 16777215
176
     1
 90
        0
176
     1
 90
        0
176
     1
 62
     7
176
     1
 62
   257
176
     1
 90
        1
176
     1
 90
        1
176
     1
 40
1.0
176
     1
 90
        8
176
     1
 62
     7
176
     1
 40
1.0
176
     1
 90
        1
176
     1
 90
        6
176
     1
 90
        2
176
     1
 62
     7
176
     1
 90
        5
176
     1
 90
        0
176
     1
 90
        0
176
     1
290
     0
176
     1
 90
       13
176
     1
 40
0.0
176
     1
 90
        0
176
     1
290
     0
176
     1
290
     1
176
     1
290
     1
176
     1
290
     0
176
     1
290
     0
176
     1
290
     0
176
     1
290
     0
176
     1
290
     0
176
     1
290
     0
176
     1
 90
       50
176
     1
 40
0.0
176
     1
 40
1.0
176
     1
 90
        0
176
     1
 62
    18
420
        0
176
     1
 90
       50
176
     1
 90
        3
176
     1
 62
     5
420
      255
176
     1
290
     0
176
     1
 90
       50
176
     1
 90
       50
176
     1
 90
       50
176
     1
290
     0
176
     1
 90
       50
176
     1
 62
   256
176
     0
 40
1.0
176
     0
 90
        2
176
     1
  1
strokes_ogs.tif
176
     1
290
     0
176
     1
 40
1.0
176
     1
 40
1.0
176
     1
  0
VISUALSTYLE
  5
2C
102
{ACAD_REACTORS
330
2A
102
}
330
2A
100
AcDbVisualStyle
  2
FlatWithEdges
 70
     1
177
     3
291
     1
 70
    58
 90
        2
176
     1
 90
        1
176
     1
 90
        1
176
     1
 90
        2
176
     1
 40
0.6
176
     1
 40
30.0
176
     1
 62
     7
420
 16777215
176
     1
 90
        1
176
     1
 90
        0
176
     1
 62
     7
176
     1
 62
   257
176
     1
 90
        1
176
     1
 90
        1
176
     1
 40
1.0
176
     1
 90
        0
176
     1
 62
   257
176
     1
 40
1.0
176
     1
 90
        1
176
     1
 90
        6
176
     1
 90
        2
176
     1
 62
     7
176
     1
 90
        5
176
     1
 90
        0
176
     1
 90
        0
176
     1
290
     0
176
     1
 90
       13
176
     1
 40
0.0
176
     1
 90
        0
176
     1
290
     0
176
     1
290
     1
176
     1
290
     1
176
     1
290
     0
176
     1
290
     0
176
     1
290
     0
176
     1
290
     0
176
     1
290
     0
176
     1
290
     0
176
     1
 90
       50
176
     1
 40
0.0
176
     1
 40
1.0
176
     1
 90
        0
176
     1
 62
    18
420
        0
176
     1
 90
       50
176
     1
 90
        3
176
     1
 62
     5
420
      255
176
     1
290
     0
176
     1
 90
       50
176
     1
 90
       50
176
     1
 90
       50
176
     1
290
     0
176
     1
 90
       50
176
     1
 62
   256
176
     0
 40
1.0
176
     0
 90
        2
176
     1
  1
strokes_ogs.tif
176
     1
290
     0
176
     1
 40
1.0
176
     1
 40
1.0
176
     1
  0
VISUALSTYLE
  5
2D
102
{ACAD_REACTORS
330
2A
102
}
330
2A
100
AcDbVisualStyle
  2
Gouraud
 70
     2
177
     3
291
     1
 70
    58
 90
        2
176
     1
 90
        2
176
     1
 90
        1
176
     1
 90
        2
176
     1
 40
0.6
176
     1
 40
30.0
176
     1
 62
     7
420
 16777215
176
     1
 90
        0
176
     1
 90
        0
176
     1
 62
     7
176
     1
 62
   257
176
     1
 90
        1
176
     1
 90
        1
176
     1
 40
1.0
176
     1
 90
        0
176
     1
 62
     7
176
     1
 40
1.0
176
     1
 90
        1
176
     1
 90
        6
176
     1
 90
        2
176
     1
 62
     7
176
     1
 90
        5
176
     1
 90
        0
176
     1
 90
        0
176
     1
290
     0
176
     1
 90
       13
176
     1
 40
0.0
176
     1
 90
        0
176
     1
290
     0
176
     1
290
     1
176
     1
290
     1
176
     1
290
     0
176
     1
290
     0
176
     1
290
     0
176
     1
290
     0
176
     1
290
     0
176
     1
290
     0
176
     1
 90
       50
176
     1
 40
0.0
176
     1
 40
1.0
176
     1
 90
        0
176
     1
 62
    18
420
        0
176
     1
 90
       50
176
     1
 90
        3
176
     1
 62
     5
420
      255
176
     1
290
     0
176
     1
 90
       50
176
     1
 90
       50
176
     1
 90
       50
176
     1
290
     0
176
     1
 90
       50
176
     1
 62
   256
176
     0
 40
1.0
176
     0
 90
        2
176
     1
  1
strokes_ogs.tif
176
     1
290
     0
176
     1
 40
1.0
176
     1
 40
1.0
176
     1
  0
VISUALSTYLE
  5
2E
102
{ACAD_REACTORS
330
2A
102
}
330
2A
100
AcDbVisualStyle
  2
GouraudWithEdges
 70
     3
177
     3
291
     1
 70
    58
 90
        2
176
     1
 90
        2
176
     1
 90
        1
176
     1
 90
        2
176
     1
 40
0.6
176
     1
 40
30.0
176
     1
 62
     7
420
 16777215
176
     1
 90
        1
176
     1
 90
        0
176
     1
 62
     7
176
     1
 62
   257
176
     1
 90
        1
176
     1
 90
        1
176
     1
 40
1.0
176
     1
 90
        0
176
     1
 62
   257
176
     1
 40
1.0
176
     1
 90
        1
176
     1
 90
        6
176
     1
 90
        2
176
     1
 62
     7
176
     1
 90
        5
176
     1
 90
        0
176
     1
 90
        0
176
     1
290
     0
176
     1
 90
       13
176
     1
 40
0.0
176
     1
 90
        0
176
     1
290
     0
176
     1
290
     1
176
     1
290
     1
176
     1
290
     0
176
     1
290
     0
176
     1
290
     0
176
     1
290
     0
176
     1
290
     0
176
     1
290
     0
176
     1
 90
       50
176
     1
 40
0.0
176
     1
 40
1.0
176
     1
 90
        0
176
     1
 62
    18
420
        0
176
     1
 90
       50
176
     1
 90
        3
176
     1
 62
     5
420
      255
176
     1
290
     0
176
     1
 90
       50
176
     1
 90
       50
176
     1
 90
       50
176
     1
290
     0
176
     1
 90
       50
176
     1
 62
   256
176
     0
 40
1.0
176
     0
 90
        2
176
     1
  1
strokes_ogs.tif
176
     1
290
     0
176
     1
 40
1.0
176
     1
 40
1.0
176
     1
  0
VISUALSTYLE
  5
31
102
{ACAD_REACTORS
330
2A
102
}
330
2A
100
AcDbVisualStyle
  2
Hidden
 70
     6
177
     3
291
     0
 70
    58
 90
        1
176
     1
 90
        2
176
     1
 90
        2
176
     1
 90
        0
176
     1
 40
0.6
176
     1
 40
30.0
176
     1
 62
     7
420
 16777215
176
     1
 90
        2
176
     1
 90
        2
176
     1
 62
     7
176
     1
 62
   257
176
     1
 90
        2
176
     1
 90
        1
176
     1
 40
40.0
176
     1
 90
        0
176
     1
 62
   257
176
     1
 40
1.0
176
     1
 90
        1
176
     1
 90
        6
176
     1
 90
        2
176
     1
 62
     7
176
     1
 90
        3
176
     1
 90
        0
176
     1
 90
        0
176
     1
290
     0
176
     1
 90
        1
176
     1
 40
0.0
176
     1
 90
        0
176
     1
290
     0
176
     1
290
     1
176
     1
290
     1
176
     1
290
     0
176
     1
290
     0
176
     1
290
     0
176
     1
290
     0
176
     1
290
     0
176
     1
290
     0
176
     1
 90
       50
176
     1
 40
0.0
176
     1
 40
1.0
176
     1
 90
        0
176
     1
 62
    18
420
        0
176
     1
 90
       50
176
     1
 90
        3
176
     1
 62
     5
420
      255
176
     1
290
     0
176
     1
 90
       50
176
     1
 90
       50
176
     1
 90
       50
176
     1
290
     0
176
     1
 90
       50
176
     1
 62
   256
176
     0
 40
1.0
176
     0
 90
        2
176
     1
  1
strokes_ogs.tif
176
     1
290
     0
176
     1
 40
1.0
176
     1
 40
1.0
176
     1
  0
VISUALSTYLE
  5
3B
102
{ACAD_REACTORS
330
2A
102
}
330
2A
100
AcDbVisualStyle
  2
JitterOff
 70
    20
177
     3
291
     1
 70
    58
 90
        2
176
     0
 90
        2
176
     0
 90
        0
176
     0
 90
        0
176
     0
 40
0.6
176
     0
 40
30.0
176
     0
 62
     7
420
 16777215
176
     0
 90
        1
176
     0
 90
        4
176
     0
 62
     7
176
     0
 62
   257
176
     0
 90
        1
176
     0
 90
        1
176
     0
 40
1.0
176
     0
 90
       10
176
     2
 62
     7
176
     0
 40
1.0
176
     0
 90
        1
176
     0
 90
        6
176
     0
 90
        2
176
     0
 62
     7
176
     0
 90
        5
176
     0
 90
        0
176
     0
 90
        0
176
     0
290
     0
176
     0
 90
        1
176
     0
 40
0.0
176
     0
 90
        0
176
     0
290
     0
176
     0
290
     1
176
     0
290
     1
176
     0
290
     0
176
     0
290
     0
176
     0
290
     0
176
     0
290
     0
176
     0
290
     0
176
     0
290
     0
176
     0
 90
       50
176
     0
 40
0.0
176
     0
 40
1.0
176
     0
 90
        0
176
     0
 62
    18
420
        0
176
     0
 90
       50
176
     0
 90
        3
176
     0
 62
     5
420
      255
176
     0
290
     0
176
     0
 90
       50
176
     0
 90
       50
176
     0
 90
       50
176
     0
290
     0
176
     0
 90
       50
176
     0
 62
   256
176
     0
 40
1.0
176
     0
 90
        2
176
     0
  1
strokes_ogs.tif
176
     0
290
     0
176
     0
 40
1.0
176
     0
 40
1.0
176
     0
  0
VISUALSTYLE
  5
38
102
{ACAD_REACTORS
330
2A
102
}
330
2A
100
AcDbVisualStyle
  2
Linepattern
 70
    14
177
     3
291
     1
 70
    58
 90
        2
176
     1
 90
        2
176
     1
 90
        0
176
     1
 90
        0
176
     1
 40
0.6
176
     1
 40
30.0
176
     1
 62
     7
420
 16777215
176
     1
 90
        1
176
     1
 90
        4
176
     1
 62
     7
176
     1
 62
   257
176
     1
 90
        7
176
     1
 90
        7
176
     1
 40
1.0
176
     1
 90
        8
176
     1
 62
     7
176
     1
 40
1.0
176
     1
 90
        1
176
     1
 90
        6
176
     1
 90
        2
176
     1
 62
     7
176
     1
 90
        5
176
     1
 90
        0
176
     1
 90
        0
176
     1
290
     0
176
     1
 90
        1
176
     1
 40
0.0
176
     1
 90
        0
176
     1
290
     0
176
     1
290
     1
176
     1
290
     1
176
     1
290
     0
176
     1
290
     0
176
     1
290
     0
176
     1
290
     0
176
     1
290
     0
176
     1
290
     0
176
     1
 90
       50
176
     1
 40
0.0
176
     1
 40
1.0
176
     1
 90
        0
176
     1
 62
    18
420
        0
176
     1
 90
       50
176
     1
 90
        3
176
     1
 62
     5
420
      255
176
     1
290
     0
176
     1
 90
       50
176
     1
 90
       50
176
     1
 90
       50
176
     1
290
     0
176
     1
 90
       50
176
     1
 62
   256
176
     0
 40
1.0
176
     0
 90
        2
176
     1
  1
strokes_ogs.tif
176
     1
290
     0
176
     1
 40
1.0
176
     1
 40
1.0
176
     1
  0
VISUALSTYLE
  5
3C
102
{ACAD_REACTORS
330
2A
102
}
330
2A
100
AcDbVisualStyle
  2
OverhangOff
 70
    21
177
     3
291
     1
 70
    58
 90
        2
176
     0
 90
        2
176
     0
 90
        0
176
     0
 90
        0
176
     0
 40
0.6
176
     0
 40
30.0
176
     0
 62
     7
420
 16777215
176
     0
 90
        1
176
     0
 90
        4
176
     0
 62
     7
176
     0
 62
   257
176
     0
 90
        1
176
     0
 90
        1
176
     0
 40
1.0
176
     0
 90
        9
176
     2
 62
     7
176
     0
 40
1.0
176
     0
 90
        1
176
     0
 90
        6
176
     0
 90
        2
176
     0
 62
     7
176
     0
 90
        5
176
     0
 90
        0
176
     0
 90
        0
176
     0
290
     0
176
     0
 90
        1
176
     0
 40
0.0
176
     0
 90
        0
176
     0
290
     0
176
     0
290
     1
176
     0
290
     1
176
     0
290
     0
176
     0
290
     0
176
     0
290
     0
176
     0
290
     0
176
     0
290
     0
176
     0
290
     0
176
     0
 90
       50
176
     0
 40
0.0
176
     0
 40
1.0
176
     0
 90
        0
176
     0
 62
    18
420
        0
176
     0
 90
       50
176
     0
 90
        3
176
     0
 62
     5
420
      255
176
     0
290
     0
176
     0
 90
       50
176
     0
 90
       50
176
     0
 90
       50
176
     0
290
     0
176
     0
 90
       50
176
     0
 62
   256
176
     0
 40
1.0
176
     0
 90
        2
176
     0
  1
strokes_ogs.tif
176
     0
290
     0
176
     0
 40
1.0
176
     0
 40
1.0
176
     0
  0
VISUALSTYLE
  5
33
102
{ACAD_REACTORS
330
2A
102
}
330
2A
100
AcDbVisualStyle
  2
Realistic
 70
     8
177
     3
291
     0
 70
    58
 90
        2
176
     1
 90
        3
176
     1
 90
        0
176
     1
 90
        2
176
     1
 40
0.6
176
     1
 40
30.0
176
     1
 62
     7
420
 16777215
176
     1
 90
        0
176
     1
 90
        0
176
     1
 62
     7
176
     1
 62
   257
176
     1
 90
        1
176
     1
 90
        1
176
     1
 40
1.0
176
     1
 90
        8
176
     1
 62
   257
176
     1
 40
1.0
176
     1
 90
        1
176
     1
 90
        6
176
     1
 90
        2
176
     1
 62
     7
176
     1
 90
        3
176
     1
 90
        0
176
     1
 90
        0
176
     1
290
     0
176
     1
 90
       13
176
     1
 40
0.0
176
     1
 90
        0
176
     1
290
     0
176
     1
290
     1
176
     1
290
     1
176
     1
290
     0
176
     1
290
     0
176
     1
290
     0
176
     1
290
     0
176
     1
290
     0
176
     1
290
     0
176
     1
 90
       50
176
     1
 40
0.0
176
     1
 40
1.0
176
     1
 90
        0
176
     1
 62
    18
420
        0
176
     1
 90
       50
176
     1
 90
        3
176
     1
 62
     5
420
      255
176
     1
290
     0
176
     1
 90
       50
176
     1
 90
       50
176
     1
 90
       50
176
     1
290
     0
176
     1
 90
       50
176
     1
 62
   256
176
     0
 40
1.0
176
     0
 90
        2
176
     1
  1
strokes_ogs.tif
176
     1
290
     0
176
     1
 40
1.0
176
     1
 40
1.0
176
     1
  0
VISUALSTYLE
  5
42
102
{ACAD_REACTORS
330
2A
102
}
330
2A
100
AcDbVisualStyle
  2
Shaded
 70
    27
177
     3
291
     0
 70
    58
 90
        2
176
     1
 90
        2
176
     1
 90
        1
176
     1
 90
        2
176
     1
 40
0.6
176
     1
 40
30.0
176
     1
 62
     7
420
 16777215
176
     1
 90
        0
176
     1
 90
        4
176
     1
 62
     7
176
     1
 62
   257
176
     1
 90
        1
176
     1
 90
        1
176
     1
 40
1.0
176
     1
 90
        8
176
     1
 62
   257
176
     1
 40
1.0
176
     1
 90
        1
176
     1
 90
        6
176
     1
 90
        2
176
     1
 62
     8
420
  7895160
176
     1
 90
        3
176
     1
 90
        0
176
     1
 90
        0
176
     1
290
     0
176
     1
 90
        5
176
     1
 40
0.0
176
     1
 90
        0
176
     1
290
     0
176
     1
290
     1
176
     1
290
     1
176
     1
290
     0
176
     1
290
     0
176
     1
290
     0
176
     1
290
     0
176
     1
290
     0
176
     1
290
     0
176
     1
 90
       50
176
     1
 40
0.0
176
     1
 40
1.0
176
     1
 90
        0
176
     1
 62
    18
420
        0
176
     1
 90
       50
176
     1
 90
        3
176
     1
 62
     5
420
      255
176
     1
290
     0
176
     1
 90
       50
176
     1
 90
       50
176
     1
 90
       50
176
     1
290
     0
176
     1
 90
       50
176
     1
 62
   256
176
     0
 40
1.0
176
     0
 90
        2
176
     1
  1
strokes_ogs.tif
176
     1
290
     0
176
     1
 40
1.0
176
     1
 40
1.0
176
     1
  0
VISUALSTYLE
  5
41
102
{ACAD_REACTORS
330
2A
102
}
330
2A
100
AcDbVisualStyle
  2
Shaded with edges
 70
    26
177
     3
291
     0
 70
    58
 90
        2
176
     1
 90
        2
176
     1
 90
        1
176
     1
 90
        2
176
     1
 40
0.6
176
     1
 40
30.0
176
     1
 62
     7
420
 16777215
176
     1
 90
        1
176
     1
 90
       10
176
     1
 62
     7
176
     1
 62
   257
176
     1
 90
        2
176
     1
 90
        1
176
     1
 40
1.0
176
     1
 90
        8
176
     1
 62
   257
176
     1
 40
1.0
176
     1
 90
        1
176
     1
 90
        6
176
     1
 90
        2
176
     1
 62
     7
176
     1
 90
        3
176
     1
 90
        0
176
     1
 90
        0
176
     1
290
     0
176
     1
 90
        5
176
     1
 40
0.0
176
     1
 90
        0
176
     1
290
     0
176
     1
290
     1
176
     1
290
     1
176
     1
290
     0
176
     1
290
     0
176
     1
290
     0
176
     1
290
     0
176
     1
290
     0
176
     1
290
     0
176
     1
 90
       50
176
     1
 40
0.0
176
     1
 40
1.0
176
     1
 90
        0
176
     1
 62
    18
420
        0
176
     1
 90
       50
176
     1
 90
        3
176
     1
 62
     5
420
      255
176
     1
290
     0
176
     1
 90
       50
176
     1
 90
       50
176
     1
 90
       50
176
     1
290
     0
176
     1
 90
       50
176
     1
 62
   256
176
     0
 40
1.0
176
     0
 90
        2
176
     1
  1
strokes_ogs.tif
176
     1
290
     0
176
     1
 40
1.0
176
     1
 40
1.0
176
     1
  0
VISUALSTYLE
  5
3E
102
{ACAD_REACTORS
330
2A
102
}
330
2A
100
AcDbVisualStyle
  2
Shades of Gray
 70
    23
177
     3
291
     0
 70
    58
 90
        2
176
     1
 90
        2
176
     1
 90
        3
176
     1
 90
        0
176
     1
 40
0.6
176
     1
 40
30.0
176
     1
 62
     7
420
 16777215
176
     1
 90
        2
176
     1
 90
        2
176
     1
 62
     7
176
     1
 62
     7
176
     1
 90
        1
176
     1
 90
        1
176
     1
 40
40.0
176
     1
 90
        8
176
     1
 62
     7
176
     1
 40
1.0
176
     1
 90
        1
176
     1
 90
        6
176
     1
 90
        2
176
     1
 62
     7
176
     1
 90
        3
176
     1
 90
        0
176
     1
 90
        0
176
     1
290
     0
176
     1
 90
        1
176
     1
 40
0.0
176
     1
 90
        0
176
     1
290
     0
176
     1
290
     1
176
     1
290
     1
176
     1
290
     0
176
     1
290
     0
176
     1
290
     0
176
     1
290
     0
176
     1
290
     0
176
     1
290
     0
176
     1
 90
       50
176
     1
 40
0.0
176
     1
 40
1.0
176
     1
 90
        0
176
     1
 62
    18
420
        0
176
     1
 90
       50
176
     1
 90
        3
176
     1
 62
     5
420
      255
176
     1
290
     0
176
     1
 90
       50
176
     1
 90
       50
176
     1
 90
       50
176
     1
290
     0
176
     1
 90
       50
176
     1
 62
   256
176
     0
 40
1.0
176
     0
 90
        2
176
     1
  1
strokes_ogs.tif
176
     1
290
     0
176
     1
 40
1.0
176
     1
 40
1.0
176
     1
  0
VISUALSTYLE
  5
3F
102
{ACAD_REACTORS
330
2A
102
}
330
2A
100
AcDbVisualStyle
  2
Sketchy
 70
    24
177
     3
291
     0
 70
    58
 90
        1
176
     1
 90
        2
176
     1
 90
        2
176
     1
 90
        0
176
     1
 40
0.6
176
     1
 40
30.0
176
     1
 62
     7
420
 16777215
176
     1
 90
        2
176
     1
 90
        2
176
     1
 62
     7
176
     1
 62
     7
176
     1
 90
        1
176
     1
 90
        1
176
     1
 40
40.0
176
     1
 90
       11
176
     1
 62
     7
176
     1
 40
1.0
176
     1
 90
        1
176
     1
 90
        6
176
     1
 90
        2
176
     1
 62
     7
176
     1
 90
        6
176
     1
 90
        0
176
     1
 90
        0
176
     1
290
     0
176
     1
 90
        1
176
     1
 40
0.0
176
     1
 90
        0
176
     1
290
     0
176
     1
290
     1
176
     1
290
     1
176
     1
290
     0
176
     1
290
     0
176
     1
290
     0
176
     1
290
     0
176
     1
290
     0
176
     1
290
     0
176
     1
 90
       50
176
     1
 40
0.0
176
     1
 40
1.0
176
     1
 90
        0
176
     1
 62
    18
420
        0
176
     1
 90
       50
176
     1
 90
        3
176
     1
 62
     5
420
      255
176
     1
290
     0
176
     1
 90
       50
176
     1
 90
       50
176
     1
 90
       50
176
     1
290
     0
176
     1
 90
       50
176
     1
 62
   256
176
     0
 40
1.0
176
     0
 90
        2
176
     1
  1
strokes_ogs.tif
176
     1
290
     0
176
     1
 40
1.0
176
     1
 40
1.0
176
     1
  0
VISUALSTYLE
  5
37
102
{ACAD_REACTORS
330
2A
102
}
330
2A
100
AcDbVisualStyle
  2
Thicken
 70
    13
177
     3
291
     1
 70
    58
 90
        2
176
     1
 90
        2
176
     1
 90
        0
176
     1
 90
        0
176
     1
 40
0.6
176
     1
 40
30.0
176
     1
 62
     7
420
 16777215
176
     1
 90
        1
176
     1
 90
        4
176
     1
 62
     7
176
     1
 62
   257
176
     1
 90
        1
176
     1
 90
        1
176
     1
 40
1.0
176
     1
 90
       12
176
     1
 62
     7
176
     1
 40
1.0
176
     1
 90
        1
176
     1
 90
        6
176
     1
 90
        2
176
     1
 62
     7
176
     1
 90
        5
176
     1
 90
        0
176
     1
 90
        0
176
     1
290
     0
176
     1
 90
        1
176
     1
 40
0.0
176
     1
 90
        0
176
     1
290
     0
176
     1
290
     1
176
     1
290
     1
176
     1
290
     0
176
     1
290
     0
176
     1
290
     0
176
     1
290
     0
176
     1
290
     0
176
     1
290
     0
176
     1
 90
       50
176
     1
 40
0.0
176
     1
 40
1.0
176
     1
 90
        0
176
     1
 62
    18
420
        0
176
     1
 90
       50
176
     1
 90
        3
176
     1
 62
     5
420
      255
176
     1
290
     0
176
     1
 90
       50
176
     1
 90
       50
176
     1
 90
       50
176
     1
290
     0
176
     1
 90
       50
176
     1
 62
   256
176
     0
 40
1.0
176
     0
 90
        2
176
     1
  1
strokes_ogs.tif
176
     1
290
     0
176
     1
 40
1.0
176
     1
 40
1.0
176
     1
  0
VISUALSTYLE
  5
30
102
{ACAD_REACTORS
330
2A
102
}
330
2A
100
AcDbVisualStyle
  2
Wireframe
 70
     5
177
     3
291
     0
 70
    58
 90
        0
176
     1
 90
        2
176
     1
 90
        0
176
     1
 90
        0
176
     1
 40
0.6
176
     1
 40
30.0
176
     1
 62
     7
420
 16777215
176
     1
 90
        1
176
     1
 90
        4
176
     1
 62
     7
176
     1
 62
   257
176
     1
 90
        1
176
     1
 90
        1
176
     1
 40
1.0
176
     1
 90
        0
176
     1
 62
   257
176
     1
 40
1.0
176
     1
 90
        1
176
     1
 90
        6
176
     1
 90
        2
176
     1
 62
     7
176
     1
 90
        3
176
     1
 90
        0
176
     1
 90
        0
176
     1
290
     0
176
     1
 90
        1
176
     1
 40
0.0
176
     1
 90
        0
176
     1
290
     0
176
     1
290
     1
176
     1
290
     1
176
     1
290
     0
176
     1
290
     0
176
     1
290
     0
176
     1
290
     0
176
     1
290
     0
176
     1
290
     0
176
     1
 90
       50
176
     1
 40
0.0
176
     1
 40
1.0
176
     1
 90
        0
176
     1
 62
    18
420
        0
176
     1
 90
       50
176
     1
 90
        3
176
     1
 62
     5
420
      255
176
     1
290
     0
176
     1
 90
       50
176
     1
 90
       50
176
     1
 90
       50
176
     1
290
     0
176
     1
 90
       50
176
     1
 62
   256
176
     0
 40
1.0
176
     0
 90
        2
176
     1
  1
strokes_ogs.tif
176
     1
290
     0
176
     1
 40
1.0
176
     1
 40
1.0
176
     1
  0
VISUALSTYLE
  5
40
102
{ACAD_REACTORS
330
2A
102
}
330
2A
100
AcDbVisualStyle
  2
X-Ray
 70
    25
177
     3
291
     0
 70
    58
 90
        2
176
     1
 90
        2
176
     1
 90
        1
176
     1
 90
        1
176
     1
 40
0.5
176
     1
 40
30.0
176
     1
 62
     7
420
 16777215
176
     1
 90
        1
176
     1
 90
        0
176
     1
 62
     7
176
     1
 62
   257
176
     1
 90
        1
176
     1
 90
        1
176
     1
 40
1.0
176
     1
 90
        8
176
     1
 62
     7
176
     1
 40
1.0
176
     1
 90
        1
176
     1
 90
        6
176
     1
 90
        2
176
     1
 62
     7
176
     1
 90
        3
176
     1
 90
        0
176
     1
 90
        0
176
     1
290
     0
176
     1
 90
       13
176
     1
 40
0.0
176
     1
 90
        0
176
     1
290
     0
176
     1
290
     1
176
     1
290
     1
176
     1
290
     0
176
     1
290
     0
176
     1
290
     0
176
     1
290
     0
176
     1
290
     0
176
     1
290
     0
176
     1
 90
       50
176
     1
 40
0.0
176
     1
 40
1.0
176
     1
 90
        0
176
     1
 62
    18
420
        0
176
     1
 90
       50
176
     1
 90
        3
176
     1
 62
     5
420
      255
176
     1
290
     0
176
     1
 90
       50
176
     1
 90
       50
176
     1
 90
       50
176
     1
290
     0
176
     1
 90
       50
176
     1
 62
   256
176
     0
 40
1.0
176
     0
 90
        2
176
     1
  1
strokes_ogs.tif
176
     1
290
     0
176
     1
 40
1.0
176
     1
 40
1.0
176
     1
  0
DICTIONARYVAR
  5
198
102
{ACAD_REACTORS
330
197
102
}
330
197
100
DictionaryVariables
280
     0
  1
1:1
  0
DICTIONARYVAR
  5
19D
102
{ACAD_REACTORS
330
197
102
}
330
197
100
DictionaryVariables
280
     0
  1
Standard
  0
DICTIONARYVAR
  5
19C
102
{ACAD_REACTORS
330
197
102
}
330
197
100
DictionaryVariables
280
     0
  1
Standard
  0
DICTIONARY
  5
199
330
6A
100
AcDbDictionary
280
     1
281
     1
  3
ACAD_ROUNDTRIP_2008_TABLESTYLE_CELLSTYLEMAP
360
19A
  0
CELLSTYLEMAP
  5
19A
102
{ACAD_REACTORS
330
199
102
}
330
199
100
AcDbCellStyleMap
 90
        3
300
CELLSTYLE
  1
TABLEFORMAT_BEGIN
 90
        5
170
     1
 91
        0
 92
    32768
 62
   257
 93
        1
300
CONTENTFORMAT
  1
CONTENTFORMAT_BEGIN
 90
        0
 91
        0
 92
        4
 93
        0
300

 40
0.0
140
1.0
 94
        5
 62
     0
340
11
144
6.0
309
CONTENTFORMAT_END
171
     1
301
MARGIN
  1
CELLMARGIN_BEGIN
 40
1.5
 40
1.5
 40
1.5
 40
1.5
 40
1.5
 40
1.5
309
CELLMARGIN_END
 94
        6
 95
        1
302
GRIDFORMAT
  1
GRIDFORMAT_BEGIN
 90
        0
 91
        1
 62
     0
 92
       -2
340
14
 93
        0
 40
0.045
309
GRIDFORMAT_END
 95
        2
302
GRIDFORMAT
  1
GRIDFORMAT_BEGIN
 90
        0
 91
        1
 62
     0
 92
       -2
340
14
 93
        0
 40
0.045
309
GRIDFORMAT_END
 95
        4
302
GRIDFORMAT
  1
GRIDFORMAT_BEGIN
 90
        0
 91
        1
 62
     0
 92
       -2
340
14
 93
        0
 40
0.045
309
GRIDFORMAT_END
 95
        8
302
GRIDFORMAT
  1
GRIDFORMAT_BEGIN
 90
        0
 91
        1
 62
     0
 92
       -2
340
14
 93
        0
 40
0.045
309
GRIDFORMAT_END
 95
       16
302
GRIDFORMAT
  1
GRIDFORMAT_BEGIN
 90
        0
 91
        1
 62
     0
 92
       -2
340
14
 93
        0
 40
0.045
309
GRIDFORMAT_END
 95
       32
302
GRIDFORMAT
  1
GRIDFORMAT_BEGIN
 90
        0
 91
        1
 62
     0
 92
       -2
340
14
 93
        0
 40
0.045
309
GRIDFORMAT_END
309
TABLEFORMAT_END
  1
CELLSTYLE_BEGIN
 90
        1
 91
        1
300
_TITLE
309
CELLSTYLE_END
300
CELLSTYLE
  1
TABLEFORMAT_BEGIN
 90
        5
170
     1
 91
        0
 92
        0
 62
   257
 93
        1
300
CONTENTFORMAT
  1
CONTENTFORMAT_BEGIN
 90
        0
 91
        0
 92
        4
 93
        0
300

 40
0.0
140
1.0
 94
        5
 62
     0
340
11
144
4.5
309
CONTENTFORMAT_END
171
     1
301
MARGIN
  1
CELLMARGIN_BEGIN
 40
1.5
 40
1.5
 40
1.5
 40
1.5
 40
1.5
 40
1.5
309
CELLMARGIN_END
 94
        6
 95
        1
302
GRIDFORMAT
  1
GRIDFORMAT_BEGIN
 90
        0
 91
        1
 62
     0
 92
       -2
340
14
 93
        0
 40
0.045
309
GRIDFORMAT_END
 95
        2
302
GRIDFORMAT
  1
GRIDFORMAT_BEGIN
 90
        0
 91
        1
 62
     0
 92
       -2
340
14
 93
        0
 40
0.045
309
GRIDFORMAT_END
 95
        4
302
GRIDFORMAT
  1
GRIDFORMAT_BEGIN
 90
        0
 91
        1
 62
     0
 92
       -2
340
14
 93
        0
 40
0.045
309
GRIDFORMAT_END
 95
        8
302
GRIDFORMAT
  1
GRIDFORMAT_BEGIN
 90
        0
 91
        1
 62
     0
 92
       -2
340
14
 93
        0
 40
0.045
309
GRIDFORMAT_END
 95
       16
302
GRIDFORMAT
  1
GRIDFORMAT_BEGIN
 90
        0
 91
        1
 62
     0
 92
       -2
340
14
 93
        0
 40
0.045
309
GRIDFORMAT_END
 95
       32
302
GRIDFORMAT
  1
GRIDFORMAT_BEGIN
 90
        0
 91
        1
 62
     0
 92
       -2
340
14
 93
        0
 40
0.045
309
GRIDFORMAT_END
309
TABLEFORMAT_END
  1
CELLSTYLE_BEGIN
 90
        2
 91
        1
300
_HEADER
309
CELLSTYLE_END
300
CELLSTYLE
  1
TABLEFORMAT_BEGIN
 90
        5
170
     1
 91
        0
 92
        0
 62
   257
 93
        1
300
CONTENTFORMAT
  1
CONTENTFORMAT_BEGIN
 90
        0
 91
        0
 92
        4
 93
        0
300

 40
0.0
140
1.0
 94
        2
 62
     0
340
11
144
4.5
309
CONTENTFORMAT_END
171
     1
301
MARGIN
  1
CELLMARGIN_BEGIN
 40
1.5
 40
1.5
 40
1.5
 40
1.5
 40
1.5
 40
1.5
309
CELLMARGIN_END
 94
        6
 95
        1
302
GRIDFORMAT
  1
GRIDFORMAT_BEGIN
 90
        0
 91
        1
 62
     0
 92
       -2
340
14
 93
        0
 40
0.045
309
GRIDFORMAT_END
 95
        2
302
GRIDFORMAT
  1
GRIDFORMAT_BEGIN
 90
        0
 91
        1
 62
     0
 92
       -2
340
14
 93
        0
 40
0.045
309
GRIDFORMAT_END
 95
        4
302
GRIDFORMAT
  1
GRIDFORMAT_BEGIN
 90
        0
 91
        1
 62
     0
 92
       -2
340
14
 93
        0
 40
0.045
309
GRIDFORMAT_END
 95
        8
302
GRIDFORMAT
  1
GRIDFORMAT_BEGIN
 90
        0
 91
        1
 62
     0
 92
       -2
340
14
 93
        0
 40
0.045
309
GRIDFORMAT_END
 95
       16
302
GRIDFORMAT
  1
GRIDFORMAT_BEGIN
 90
        0
 91
        1
 62
     0
 92
       -2
340
14
 93
        0
 40
0.045
309
GRIDFORMAT_END
 95
       32
302
GRIDFORMAT
  1
GRIDFORMAT_BEGIN
 90
        0
 91
        1
 62
     0
 92
       -2
340
14
 93
        0
 40
0.045
309
GRIDFORMAT_END
309
TABLEFORMAT_END
  1
CELLSTYLE_BEGIN
 90
        3
 91
        2
300
_DATA
309
CELLSTYLE_END
  0
ENDSEC
  0
EOF