0
SECTION
  2
HEADER
  9
$ACADVER
  1
AC1027
  9
$ACADMAINTVER
 70
     8
  9
$DWGCODEPAGE
  3
ANSI_1252
  9
$REQUIREDVERSIONS
160
                 0
  9
$COMMENTS
  1
File was created by Cadenas
  9
$CUSTOMPROPERTYTAG
  1
NN
  9
$CUSTOMPROPERTY
  1
Set Screw Narrow Slot Take Up Inch Bore
  9
$CUSTOMPROPERTYTAG
  1
NT
  9
$CUSTOMPROPERTY
  1
SC Take-Up Bearings -Narrow Slot -(Normal Duty)
  9
$CUSTOMPROPERTYTAG
  1
NB
  9
$CUSTOMPROPERTY
  1
065681
  9
$CUSTOMPROPERTYTAG
  1
NBSYN
  9
$CUSTOMPROPERTY
  1
$PN.
  9
$CUSTOMPROPERTYTAG
  1
LINA
  9
$CUSTOMPROPERTY
  1
065681
  9
$CUSTOMPROPERTYTAG
  1
SERIES
  9
$CUSTOMPROPERTY
  1
207
  9
$CUSTOMPROPERTYTAG
  1
SS
  9
$CUSTOMPROPERTY
  1
1-5/16
  9
$CUSTOMPROPERTYTAG
  1
PN
  9
$CUSTOMPROPERTY
  1
065681
  9
$CUSTOMPROPERTYTAG
  1
DESCRIPTION
  9
$CUSTOMPROPERTY
  1
NSTU-SC-105-NL
  9
$CUSTOMPROPERTYTAG
  1
W
  9
$CUSTOMPROPERTY
  1
2.7
  9
$CUSTOMPROPERTYTAG
  1
FS
  9
$CUSTOMPROPERTY
  1
NS308
  9
$CUSTOMPROPERTYTAG
  1
LF
  9
$CUSTOMPROPERTY
  1
NO-LUBE
  9
$CUSTOMPROPERTYTAG
  1
A
  9
$CUSTOMPROPERTY
  1
1.71
  9
$CUSTOMPROPERTYTAG
  1
B
  9
$CUSTOMPROPERTY
  1
4.50
  9
$CUSTOMPROPERTYTAG
  1
C
  9
$CUSTOMPROPERTY
  1
0.250
  9
$CUSTOMPROPERTYTAG
  1
D
  9
$CUSTOMPROPERTY
  1
2.50
  9
$CUSTOMPROPERTYTAG
  1
E
  9
$CUSTOMPROPERTY
  1
2.69
  9
$CUSTOMPROPERTYTAG
  1
F
  9
$CUSTOMPROPERTY
  1
3/4
  9
$CUSTOMPROPERTYTAG
  1
G
  9
$CUSTOMPROPERTY
  1
0.50
  9
$CUSTOMPROPERTYTAG
  1
H
  9
$CUSTOMPROPERTY
  1
0.94
  9
$CUSTOMPROPERTYTAG
  1
J
  9
$CUSTOMPROPERTY
  1
1.38
  9
$CUSTOMPROPERTYTAG
  1
L
  9
$CUSTOMPROPERTY
  1
1.84
  9
$CUSTOMPROPERTYTAG
  1
M
  9
$CUSTOMPROPERTY
  1
3.510 / 3.480
  9
$CUSTOMPROPERTYTAG
  1
N
  9
$CUSTOMPROPERTY
  1
4.13
  9
$CUSTOMPROPERTYTAG
  1
P
  9
$CUSTOMPROPERTY
  1
0.32
  9
$CUSTOMPROPERTYTAG
  1
R
  9
$CUSTOMPROPERTY
  1
0.67
  9
$CUSTOMPROPERTYTAG
  1
S
  9
$CUSTOMPROPERTY
  1
1.04
  9
$CUSTOMPROPERTYTAG
  1
COMPANY
  9
$CUSTOMPROPERTY
  1
baldor
  9
$INSBASE
 10
0.0
 20
0.0
 30
0.0
  9
$EXTMIN
 10
1.000000000000000E+20
 20
1.000000000000000E+20
 30
1.000000000000000E+20
  9
$EXTMAX
 10
-1.000000000000000E+20
 20
-1.000000000000000E+20
 30
-1.000000000000000E+20
  9
$LIMMIN
 10
0.0
 20
0.0
  9
$LIMMAX
 10
12.0
 20
9.0
  9
$ORTHOMODE
 70
     0
  9
$REGENMODE
 70
     1
  9
$FILLMODE
 70
     1
  9
$QTEXTMODE
 70
     0
  9
$MIRRTEXT
 70
     1
  9
$LTSCALE
 40
1.0
  9
$ATTMODE
 70
     1
  9
$TEXTSIZE
 40
0.2
  9
$TRACEWID
 40
0.05
  9
$TEXTSTYLE
  7
Standard
  9
$CLAYER
  8
0
  9
$CELTYPE
  6
ByLayer
  9
$CECOLOR
 62
   256
  9
$CELTSCALE
 40
1.0
  9
$DISPSILH
 70
     0
  9
$DIMSCALE
 40
1.0
  9
$DIMASZ
 40
0.18
  9
$DIMEXO
 40
0.0625
  9
$DIMDLI
 40
0.38
  9
$DIMRND
 40
0.0
  9
$DIMDLE
 40
0.0
  9
$DIMEXE
 40
0.18
  9
$DIMTP
 40
0.0
  9
$DIMTM
 40
0.0
  9
$DIMTXT
 40
0.18
  9
$DIMCEN
 40
0.09
  9
$DIMTSZ
 40
0.0
  9
$DIMTOL
 70
     0
  9
$DIMLIM
 70
     0
  9
$DIMTIH
 70
     1
  9
$DIMTOH
 70
     1
  9
$DIMSE1
 70
     0
  9
$DIMSE2
 70
     0
  9
$DIMTAD
 70
     0
  9
$DIMZIN
 70
     0
  9
$DIMBLK
  1

  9
$DIMASO
 70
     1
  9
$DIMSHO
 70
     1
  9
$DIMPOST
  1

  9
$DIMAPOST
  1

  9
$DIMALT
 70
     0
  9
$DIMALTD
 70
     2
  9
$DIMALTF
 40
25.4
  9
$DIMLFAC
 40
1.0
  9
$DIMTOFL
 70
     0
  9
$DIMTVP
 40
0.0
  9
$DIMTIX
 70
     0
  9
$DIMSOXD
 70
     0
  9
$DIMSAH
 70
     0
  9
$DIMBLK1
  1

  9
$DIMBLK2
  1

  9
$DIMSTYLE
  2
Standard
  9
$DIMCLRD
 70
     0
  9
$DIMCLRE
 70
     0
  9
$DIMCLRT
 70
     0
  9
$DIMTFAC
 40
1.0
  9
$DIMGAP
 40
0.09
  9
$DIMJUST
 70
     0
  9
$DIMSD1
 70
     0
  9
$DIMSD2
 70
     0
  9
$DIMTOLJ
 70
     1
  9
$DIMTZIN
 70
     0
  9
$DIMALTZ
 70
     0
  9
$DIMALTTZ
 70
     0
  9
$DIMUPT
 70
     0
  9
$DIMDEC
 70
     4
  9
$DIMTDEC
 70
     4
  9
$DIMALTU
 70
     2
  9
$DIMALTTD
 70
     2
  9
$DIMTXSTY
  7
Standard
  9
$DIMAUNIT
 70
     0
  9
$DIMADEC
 70
     0
  9
$DIMALTRND
 40
0.0
  9
$DIMAZIN
 70
     0
  9
$DIMDSEP
 70
    46
  9
$DIMATFIT
 70
     3
  9
$DIMFRAC
 70
     0
  9
$DIMLDRBLK
  1

  9
$DIMLUNIT
 70
     2
  9
$DIMLWD
 70
    -2
  9
$DIMLWE
 70
    -2
  9
$DIMTMOVE
 70
     0
  9
$DIMFXL
 40
1.0
  9
$DIMFXLON
 70
     0
  9
$DIMJOGANG
 40
0.7853981633974483
  9
$DIMTFILL
 70
     0
  9
$DIMTFILLCLR
 70
     0
  9
$DIMARCSYM
 70
     0
  9
$DIMLTYPE
  6

  9
$DIMLTEX1
  6

  9
$DIMLTEX2
  6

  9
$DIMTXTDIRECTION
 70
     0
  9
$LUNITS
 70
     2
  9
$LUPREC
 70
     4
  9
$SKETCHINC
 40
0.1
  9
$FILLETRAD
 40
0.5
  9
$AUNITS
 70
     0
  9
$AUPREC
 70
     0
  9
$MENU
  1
.
  9
$ELEVATION
 40
0.0
  9
$PELEVATION
 40
0.0
  9
$THICKNESS
 40
0.0
  9
$LIMCHECK
 70
     0
  9
$CHAMFERA
 40
0.0
  9
$CHAMFERB
 40
0.0
  9
$CHAMFERC
 40
0.0
  9
$CHAMFERD
 40
0.0
  9
$SKPOLY
 70
     0
  9
$TDCREATE
 40
2458169.011592338
  9
$TDUCREATE
 40
2458168.969925671
  9
$TDUPDATE
 40
2458169.011592523
  9
$TDUUPDATE
 40
2458168.969925857
  9
$TDINDWG
 40
0.0000000116
  9
$TDUSRTIMER
 40
0.0000000116
  9
$USRTIMER
 70
     1
  9
$ANGBASE
 50
0.0
  9
$ANGDIR
 70
     0
  9
$PDMODE
 70
     0
  9
$PDSIZE
 40
0.0
  9
$PLINEWID
 40
0.0
  9
$SPLFRAME
 70
     0
  9
$SPLINETYPE
 70
     6
  9
$SPLINESEGS
 70
     8
  9
$HANDSEED
  5
194
  9
$SURFTAB1
 70
     6
  9
$SURFTAB2
 70
     6
  9
$SURFTYPE
 70
     6
  9
$SURFU
 70
     6
  9
$SURFV
 70
     6
  9
$UCSBASE
  2

  9
$UCSNAME
  2

  9
$UCSORG
 10
0.0
 20
0.0
 30
0.0
  9
$UCSXDIR
 10
1.0
 20
0.0
 30
0.0
  9
$UCSYDIR
 10
0.0
 20
1.0
 30
0.0
  9
$UCSORTHOREF
  2

  9
$UCSORTHOVIEW
 70
     0
  9
$UCSORGTOP
 10
0.0
 20
0.0
 30
0.0
  9
$UCSORGBOTTOM
 10
0.0
 20
0.0
 30
0.0
  9
$UCSORGLEFT
 10
0.0
 20
0.0
 30
0.0
  9
$UCSORGRIGHT
 10
0.0
 20
0.0
 30
0.0
  9
$UCSORGFRONT
 10
0.0
 20
0.0
 30
0.0
  9
$UCSORGBACK
 10
0.0
 20
0.0
 30
0.0
  9
$PUCSBASE
  2

  9
$PUCSNAME
  2

  9
$PUCSORG
 10
0.0
 20
0.0
 30
0.0
  9
$PUCSXDIR
 10
1.0
 20
0.0
 30
0.0
  9
$PUCSYDIR
 10
0.0
 20
1.0
 30
0.0
  9
$PUCSORTHOREF
  2

  9
$PUCSORTHOVIEW
 70
     0
  9
$PUCSORGTOP
 10
0.0
 20
0.0
 30
0.0
  9
$PUCSORGBOTTOM
 10
0.0
 20
0.0
 30
0.0
  9
$PUCSORGLEFT
 10
0.0
 20
0.0
 30
0.0
  9
$PUCSORGRIGHT
 10
0.0
 20
0.0
 30
0.0
  9
$PUCSORGFRONT
 10
0.0
 20
0.0
 30
0.0
  9
$PUCSORGBACK
 10
0.0
 20
0.0
 30
0.0
  9
$USERI1
 70
     0
  9
$USERI2
 70
     0
  9
$USERI3
 70
     0
  9
$USERI4
 70
     0
  9
$USERI5
 70
     0
  9
$USERR1
 40
0.0
  9
$USERR2
 40
0.0
  9
$USERR3
 40
0.0
  9
$USERR4
 40
0.0
  9
$USERR5
 40
0.0
  9
$WORLDVIEW
 70
     1
  9
$SHADEDGE
 70
     3
  9
$SHADEDIF
 70
    70
  9
$TILEMODE
 70
     1
  9
$MAXACTVP
 70
    64
  9
$PINSBASE
 10
0.0
 20
0.0
 30
0.0
  9
$PLIMCHECK
 70
     0
  9
$PEXTMIN
 10
1.000000000000000E+20
 20
1.000000000000000E+20
 30
1.000000000000000E+20
  9
$PEXTMAX
 10
-1.000000000000000E+20
 20
-1.000000000000000E+20
 30
-1.000000000000000E+20
  9
$PLIMMIN
 10
0.0
 20
0.0
  9
$PLIMMAX
 10
12.0
 20
9.0
  9
$UNITMODE
 70
     0
  9
$VISRETAIN
 70
     1
  9
$PLINEGEN
 70
     0
  9
$PSLTSCALE
 70
     1
  9
$TREEDEPTH
 70
  3020
  9
$CMLSTYLE
  2
Standard
  9
$CMLJUST
 70
     0
  9
$CMLSCALE
 40
1.0
  9
$PROXYGRAPHICS
 70
     1
  9
$MEASUREMENT
 70
     0
  9
$CELWEIGHT
370
    -1
  9
$ENDCAPS
280
     0
  9
$JOINSTYLE
280
     0
  9
$LWDISPLAY
290
     0
  9
$INSUNITS
 70
     1
  9
$HYPERLINKBASE
  1

  9
$STYLESHEET
  1

  9
$XEDIT
290
     1
  9
$CEPSNTYPE
380
     0
  9
$PSTYLEMODE
290
     1
  9
$FINGERPRINTGUID
  2
{8DBDF3C0-4D51-4696-98E5-418E5422FE41}
  9
$VERSIONGUID
  2
{FAEB1C32-E019-11D5-929B-00C0DF256EC4}
  9
$EXTNAMES
290
     1
  9
$PSVPSCALE
 40
0.0
  9
$OLESTARTUP
290
     0
  9
$SORTENTS
280
   127
  9
$INDEXCTL
280
     0
  9
$HIDETEXT
280
     1
  9
$XCLIPFRAME
280
     2
  9
$HALOGAP
280
     0
  9
$OBSCOLOR
 70
   257
  9
$OBSLTYPE
280
     0
  9
$INTERSECTIONDISPLAY
280
     0
  9
$INTERSECTIONCOLOR
 70
   257
  9
$DIMASSOC
280
     2
  9
$PROJECTNAME
  1

  9
$CAMERADISPLAY
290
     0
  9
$LENSLENGTH
 40
50.0
  9
$CAMERAHEIGHT
 40
0.0
  9
$STEPSPERSEC
 40
2.0
  9
$STEPSIZE
 40
6.0
  9
$3DDWFPREC
 40
2.0
  9
$PSOLWIDTH
 40
0.25
  9
$PSOLHEIGHT
 40
4.0
  9
$LOFTANG1
 40
1.570796326794897
  9
$LOFTANG2
 40
1.570796326794897
  9
$LOFTMAG1
 40
0.0
  9
$LOFTMAG2
 40
0.0
  9
$LOFTPARAM
 70
     7
  9
$LOFTNORMALS
280
     1
  9
$LATITUDE
 40
37.795
  9
$LONGITUDE
 40
-122.394
  9
$NORTHDIRECTION
 40
0.0
  9
$TIMEZONE
 70
 -8000
  9
$LIGHTGLYPHDISPLAY
280
     1
  9
$TILEMODELIGHTSYNCH
280
     1
  9
$CMATERIAL
347
44
  9
$SOLIDHIST
280
     0
  9
$SHOWHIST
280
     1
  9
$DWFFRAME
280
     2
  9
$DGNFRAME
280
     2
  9
$REALWORLDSCALE
290
     1
  9
$INTERFERECOLOR
 62
   256
  9
$CSHADOW
280
     0
  9
$SHADOWPLANELOCATION
 40
0.0
  0
ENDSEC
  0
SECTION
  2
CLASSES
  0
CLASS
  1
ACDBDICTIONARYWDFLT
  2
AcDbDictionaryWithDefault
  3
ObjectDBX Classes
 90
        0
 91
        4
280
     0
281
     0
  0
CLASS
  1
VISUALSTYLE
  2
AcDbVisualStyle
  3
ObjectDBX Classes
 90
     4095
 91
        4
280
     0
281
     0
  0
CLASS
  1
MATERIAL
  2
AcDbMaterial
  3
ObjectDBX Classes
 90
     1153
 91
        4
280
     0
281
     0
  0
CLASS
  1
SCALE
  2
AcDbScale
  3
ObjectDBX Classes
 90
     1153
 91
        4
280
     0
281
     0
  0
CLASS
  1
TABLESTYLE
  2
AcDbTableStyle
  3
ObjectDBX Classes
 90
     4095
 91
        4
280
     0
281
     0
  0
CLASS
  1
MLEADERSTYLE
  2
AcDbMLeaderStyle
  3
ACDB_MLEADERSTYLE_CLASS
 90
     4095
 91
        4
280
     0
281
     0
  0
CLASS
  1
SUN
  2
AcDbSun
  3
SCENEOE
 90
     1153
 91
        4
280
     0
281
     0
  0
CLASS
  1
DICTIONARYVAR
  2
AcDbDictionaryVar
  3
ObjectDBX Classes
 90
        0
 91
        4
280
     0
281
     0
  0
CLASS
  1
CELLSTYLEMAP
  2
AcDbCellStyleMap
  3
ObjectDBX Classes
 90
     1152
 91
        4
280
     0
281
     0
  0
ENDSEC
  0
SECTION
  2
TABLES
  0
TABLE
  2
VPORT
  5
8
330
0
100
AcDbSymbolTable
 70
     1
  0
VPORT
  5
29
330
8
100
AcDbSymbolTableRecord
100
AcDbViewportTableRecord
  2
*Active
 70
     0
 10
0.0
 20
0.0
 11
1.0
 21
1.0
 12
0.4693175000000007
 22
-0.1832500000000001
 13
0.0
 23
0.0
 14
0.5
 24
0.5
 15
0.5
 25
0.5
 16
0.0
 26
0.0
 36
1.0
 17
0.0
 27
0.0
 37
0.0
 40
1.922189999999999
 41
2.419015654019635
 42
50.0
 43
0.0
 44
0.0
 50
0.0
 51
0.0
 71
     0
 72
   100
 73
     1
 74
     3
 75
     0
 76
     0
 77
     0
 78
     0
281
     0
 65
     1
110
0.0
120
0.0
130
0.0
111
1.0
121
0.0
131
0.0
112
0.0
122
1.0
132
0.0
 79
     0
146
0.0
348
2F
 60
     3
 61
     5
292
     1
282
     1
141
0.0
142
0.0
 63
   250
361
6D
  0
ENDTAB
  0
TABLE
  2
LTYPE
  5
5
330
0
100
AcDbSymbolTable
 70
     3
  0
LTYPE
  5
14
330
5
100
AcDbSymbolTableRecord
100
AcDbLinetypeTableRecord
  2
ByBlock
 70
     0
  3

 72
    65
 73
     0
 40
0.0
  0
LTYPE
  5
15
330
5
100
AcDbSymbolTableRecord
100
AcDbLinetypeTableRecord
  2
ByLayer
 70
     0
  3

 72
    65
 73
     0
 40
0.0
  0
LTYPE
  5
16
330
5
100
AcDbSymbolTableRecord
100
AcDbLinetypeTableRecord
  2
Continuous
 70
     0
  3
Solid line
 72
    65
 73
     0
 40
0.0
  0
LTYPE
  5
9A
330
5
100
AcDbSymbolTableRecord
100
AcDbLinetypeTableRecord
  2
Dashed
 70
     0
  3

 72
    65
 73
     2
 40
2.0
 49
1.0
 74
     0
 49
-1.0
 74
     0
  0
LTYPE
  5
10A
330
5
100
AcDbSymbolTableRecord
100
AcDbLinetypeTableRecord
  2
Center
 70
     0
  3

 72
    65
 73
     4
 40
1.5
 49
0.45
 74
     0
 49
-0.5
 74
     0
 49
0.05
 74
     0
 49
-0.5
 74
     0
  0
ENDTAB
  0
TABLE
  2
LAYER
  5
2
330
0
100
AcDbSymbolTable
 70
     7
  0
LAYER
  5
10
330
2
100
AcDbSymbolTableRecord
100
AcDbLayerTableRecord
  2
0
 70
     0
 62
     7
  6
Continuous
370
    -3
390
F
347
46
348
0
  0
LAYER
  5
72
330
2
100
AcDbSymbolTableRecord
100
AcDbLayerTableRecord
  2
AM_6
 70
     0
 62
    -2
  6
Continuous
370
    35
390
F
347
46
348
0
  0
LAYER
  5
9B
330
2
100
AcDbSymbolTableRecord
100
AcDbLayerTableRecord
  2
AM_9
 70
     0
 62
     6
  6
Dashed
370
    25
390
F
347
46
348
0
  0
LAYER
  5
105
330
2
100
AcDbSymbolTableRecord
100
AcDbLayerTableRecord
  2
AM_5
 70
     0
 62
     3
  6
Continuous
370
    25
390
F
347
46
348
0
  0
LAYER
  5
10B
330
2
100
AcDbSymbolTableRecord
100
AcDbLayerTableRecord
  2
AM_7
 70
     0
 62
     7
  6
Center
370
    25
390
F
347
46
348
0
  0
LAYER
  5
10F
330
2
100
AcDbSymbolTableRecord
100
AcDbLayerTableRecord
  2
AM_4
 70
     0
 62
     7
  6
Continuous
370
    50
390
F
347
46
348
0
  0
LAYER
  5
186
330
2
100
AcDbSymbolTableRecord
100
AcDbLayerTableRecord
  2
ConnectionPoints
 70
     0
 62
     7
  6
Continuous
370
    50
390
F
347
46
348
0
  0
ENDTAB
  0
TABLE
  2
STYLE
  5
3
330
0
100
AcDbSymbolTable
 70
     1
  0
STYLE
  5
11
330
3
100
AcDbSymbolTableRecord
100
AcDbTextStyleTableRecord
  2
Standard
 70
     0
 40
0.0
 41
1.0
 50
0.0
 71
     0
 42
0.2
  3
txt
  4

  0
ENDTAB
  0
TABLE
  2
VIEW
  5
6
330
0
100
AcDbSymbolTable
 70
     0
  0
ENDTAB
  0
TABLE
  2
UCS
  5
7
330
0
100
AcDbSymbolTable
 70
     0
  0
ENDTAB
  0
TABLE
  2
APPID
  5
9
330
0
100
AcDbSymbolTable
 70
     1
  0
APPID
  5
12
330
9
100
AcDbSymbolTableRecord
100
AcDbRegAppTableRecord
  2
ACAD
 70
     0
  0
ENDTAB
  0
TABLE
  2
DIMSTYLE
  5
A
330
0
100
AcDbSymbolTable
 70
     1
100
AcDbDimStyleTable
  0
DIMSTYLE
105
27
330
A
100
AcDbSymbolTableRecord
100
AcDbDimStyleTableRecord
  2
Standard
 70
     0
178
     0
340
11
  0
ENDTAB
  0
TABLE
  2
BLOCK_RECORD
  5
1
330
0
100
AcDbSymbolTable
 70
     5
  0
BLOCK_RECORD
  5
1F
330
1
100
AcDbSymbolTableRecord
100
AcDbBlockTableRecord
  2
*Model_Space
340
22
 70
     0
280
     1
281
     0
  0
BLOCK_RECORD
  5
1B
330
1
100
AcDbSymbolTableRecord
100
AcDbBlockTableRecord
  2
*Paper_Space
340
1E
 70
     0
280
     1
281
     0
  0
BLOCK_RECORD
  5
23
330
1
100
AcDbSymbolTableRecord
100
AcDbBlockTableRecord
  2
*Paper_Space0
340
26
 70
     0
280
     1
281
     0
  0
BLOCK_RECORD
  5
6E
330
1
100
AcDbSymbolTableRecord
100
AcDbBlockTableRecord
  2
1_065681_4
340
0
102
{BLKREFS
331
6F
102
}
 70
     0
280
     1
281
     0
  0
BLOCK_RECORD
  5
8F
330
1
100
AcDbSymbolTableRecord
100
AcDbBlockTableRecord
  2
2_430026_0_in_065681_4
340
0
102
{BLKREFS
331
90
102
}
 70
     0
280
     1
281
     0
  0
BLOCK_RECORD
  5
BC
330
1
100
AcDbSymbolTableRecord
100
AcDbBlockTableRecord
  2
3_123340_0_in_065681_4
340
0
102
{BLKREFS
331
BD
102
}
 70
     0
280
     1
281
     0
  0
BLOCK_RECORD
  5
11F
330
1
100
AcDbSymbolTableRecord
100
AcDbBlockTableRecord
  2
4_065681H_0_in_065681_4
340
0
102
{BLKREFS
331
120
102
}
 70
     0
280
     1
281
     0
  0
ENDTAB
  0
ENDSEC
  0
SECTION
  2
BLOCKS
  0
BLOCK
  5
20
330
1F
100
AcDbEntity
  8
0
100
AcDbBlockBegin
  2
*Model_Space
 70
     0
 10
0.0
 20
0.0
 30
0.0
  3
*Model_Space
  1

  0
ENDBLK
  5
21
330
1F
100
AcDbEntity
  8
0
100
AcDbBlockEnd
  0
BLOCK
  5
1C
330
1B
100
AcDbEntity
 67
     1
  8
0
100
AcDbBlockBegin
  2
*Paper_Space
 70
     0
 10
0.0
 20
0.0
 30
0.0
  3
*Paper_Space
  1

  0
ENDBLK
  5
1D
330
1B
100
AcDbEntity
 67
     1
  8
0
100
AcDbBlockEnd
  0
BLOCK
  5
24
330
23
100
AcDbEntity
  8
0
100
AcDbBlockBegin
  2
*Paper_Space0
 70
     0
 10
0.0
 20
0.0
 30
0.0
  3
*Paper_Space0
  1

  0
ENDBLK
  5
25
330
23
100
AcDbEntity
  8
0
100
AcDbBlockEnd
  0
BLOCK
  5
70
330
6E
100
AcDbEntity
  8
0
100
AcDbBlockBegin
  2
1_065681_4
 70
     2
 10
0.0
 20
0.0
 30
0.0
  3
1_065681_4
  1

  0
ATTDEF
  5
73
330
6E
100
AcDbEntity
  8
AM_6
100
AcDbText
 10
7.748635
 20
0.7589999999999998
 30
0.0
 40
0.5
  1
Set Screw Narrow Slot Take Up Inch Bore
100
AcDbAttributeDefinition
  3

  2
NN
 70
     8
280
     0
  0
ATTDEF
  5
74
330
6E
100
AcDbEntity
  8
AM_6
100
AcDbText
 10
7.748635
 20
0.2589999999999998
 30
0.0
 40
0.5
  1
SC Take-Up Bearings -Narrow Slot -(Normal Duty)
100
AcDbAttributeDefinition
  3

  2
NT
 70
     8
280
     0
  0
ATTDEF
  5
75
330
6E
100
AcDbEntity
  8
AM_6
100
AcDbText
 10
7.748635
 20
-0.2410000000000002
 30
0.0
 40
0.5
  1
065681
100
AcDbAttributeDefinition
  3

  2
NB
 70
     8
280
     0
  0
ATTDEF
  5
76
330
6E
100
AcDbEntity
  8
AM_6
100
AcDbText
 10
7.748635
 20
-0.7410000000000002
 30
0.0
 40
0.5
  1
$PN.
100
AcDbAttributeDefinition
  3

  2
NBSYN
 70
     8
280
     0
  0
ATTDEF
  5
77
330
6E
100
AcDbEntity
  8
AM_6
100
AcDbText
 10
7.748635
 20
-1.241
 30
0.0
 40
0.5
  1
065681
100
AcDbAttributeDefinition
  3

  2
LINA
 70
     8
280
     0
  0
ATTDEF
  5
78
330
6E
100
AcDbEntity
  8
AM_6
100
AcDbText
 10
7.748635
 20
-1.741
 30
0.0
 40
0.5
  1
207
100
AcDbAttributeDefinition
  3

  2
SERIES
 70
     8
280
     0
  0
ATTDEF
  5
79
330
6E
100
AcDbEntity
  8
AM_6
100
AcDbText
 10
7.748635
 20
-2.241
 30
0.0
 40
0.5
  1
1-5/16
100
AcDbAttributeDefinition
  3

  2
SS
 70
     8
280
     0
  0
ATTDEF
  5
7A
330
6E
100
AcDbEntity
  8
AM_6
100
AcDbText
 10
7.748635
 20
-2.741
 30
0.0
 40
0.5
  1
065681
100
AcDbAttributeDefinition
  3

  2
PN
 70
     8
280
     0
  0
ATTDEF
  5
7B
330
6E
100
AcDbEntity
  8
AM_6
100
AcDbText
 10
7.748635
 20
-3.241
 30
0.0
 40
0.5
  1
NSTU-SC-105-NL
100
AcDbAttributeDefinition
  3

  2
DESCRIPTION
 70
     8
280
     0
  0
ATTDEF
  5
7C
330
6E
100
AcDbEntity
  8
AM_6
100
AcDbText
 10
7.748635
 20
-3.741
 30
0.0
 40
0.5
  1
2.7
100
AcDbAttributeDefinition
  3

  2
W
 70
     8
280
     0
  0
ATTDEF
  5
7D
330
6E
100
AcDbEntity
  8
AM_6
100
AcDbText
 10
7.748635
 20
-4.241
 30
0.0
 40
0.5
  1
NS308
100
AcDbAttributeDefinition
  3

  2
FS
 70
     8
280
     0
  0
ATTDEF
  5
7E
330
6E
100
AcDbEntity
  8
AM_6
100
AcDbText
 10
7.748635
 20
-4.741
 30
0.0
 40
0.5
  1
NO-LUBE
100
AcDbAttributeDefinition
  3

  2
LF
 70
     8
280
     0
  0
ATTDEF
  5
7F
330
6E
100
AcDbEntity
  8
AM_6
100
AcDbText
 10
7.748635
 20
-5.241
 30
0.0
 40
0.5
  1
1.71
100
AcDbAttributeDefinition
  3

  2
A
 70
     8
280
     0
  0
ATTDEF
  5
80
330
6E
100
AcDbEntity
  8
AM_6
100
AcDbText
 10
7.748635
 20
-5.741
 30
0.0
 40
0.5
  1
4.50
100
AcDbAttributeDefinition
  3

  2
B
 70
     8
280
     0
  0
ATTDEF
  5
81
330
6E
100
AcDbEntity
  8
AM_6
100
AcDbText
 10
7.748635
 20
-6.241
 30
0.0
 40
0.5
  1
0.250
100
AcDbAttributeDefinition
  3

  2
C
 70
     8
280
     0
  0
ATTDEF
  5
82
330
6E
100
AcDbEntity
  8
AM_6
100
AcDbText
 10
7.748635
 20
-6.741
 30
0.0
 40
0.5
  1
2.50
100
AcDbAttributeDefinition
  3

  2
D
 70
     8
280
     0
  0
ATTDEF
  5
83
330
6E
100
AcDbEntity
  8
AM_6
100
AcDbText
 10
7.748635
 20
-7.241
 30
0.0
 40
0.5
  1
2.69
100
AcDbAttributeDefinition
  3

  2
E
 70
     8
280
     0
  0
ATTDEF
  5
84
330
6E
100
AcDbEntity
  8
AM_6
100
AcDbText
 10
7.748635
 20
-7.741
 30
0.0
 40
0.5
  1
3/4
100
AcDbAttributeDefinition
  3

  2
F
 70
     8
280
     0
  0
ATTDEF
  5
85
330
6E
100
AcDbEntity
  8
AM_6
100
AcDbText
 10
7.748635
 20
-8.241
 30
0.0
 40
0.5
  1
0.50
100
AcDbAttributeDefinition
  3

  2
G
 70
     8
280
     0
  0
ATTDEF
  5
86
330
6E
100
AcDbEntity
  8
AM_6
100
AcDbText
 10
7.748635
 20
-8.741
 30
0.0
 40
0.5
  1
0.94
100
AcDbAttributeDefinition
  3

  2
H
 70
     8
280
     0
  0
ATTDEF
  5
87
330
6E
100
AcDbEntity
  8
AM_6
100
AcDbText
 10
7.748635
 20
-9.241
 30
0.0
 40
0.5
  1
1.38
100
AcDbAttributeDefinition
  3

  2
J
 70
     8
280
     0
  0
ATTDEF
  5
88
330
6E
100
AcDbEntity
  8
AM_6
100
AcDbText
 10
7.748635
 20
-9.741
 30
0.0
 40
0.5
  1
1.84
100
AcDbAttributeDefinition
  3

  2
L
 70
     8
280
     0
  0
ATTDEF
  5
89
330
6E
100
AcDbEntity
  8
AM_6
100
AcDbText
 10
7.748635
 20
-10.241
 30
0.0
 40
0.5
  1
3.510 / 3.480
100
AcDbAttributeDefinition
  3

  2
M
 70
     8
280
     0
  0
ATTDEF
  5
8A
330
6E
100
AcDbEntity
  8
AM_6
100
AcDbText
 10
7.748635
 20
-10.741
 30
0.0
 40
0.5
  1
4.13
100
AcDbAttributeDefinition
  3

  2
N
 70
     8
280
     0
  0
ATTDEF
  5
8B
330
6E
100
AcDbEntity
  8
AM_6
100
AcDbText
 10
7.748635
 20
-11.241
 30
0.0
 40
0.5
  1
0.32
100
AcDbAttributeDefinition
  3

  2
P
 70
     8
280
     0
  0
ATTDEF
  5
8C
330
6E
100
AcDbEntity
  8
AM_6
100
AcDbText
 10
7.748635
 20
-11.741
 30
0.0
 40
0.5
  1
0.67
100
AcDbAttributeDefinition
  3

  2
R
 70
     8
280
     0
  0
ATTDEF
  5
8D
330
6E
100
AcDbEntity
  8
AM_6
100
AcDbText
 10
7.748635
 20
-12.241
 30
0.0
 40
0.5
  1
1.04
100
AcDbAttributeDefinition
  3

  2
S
 70
     8
280
     0
  0
ATTDEF
  5
8E
330
6E
100
AcDbEntity
  8
AM_6
100
AcDbText
 10
7.748635
 20
-12.741
 30
0.0
 40
0.5
  1
baldor
100
AcDbAttributeDefinition
  3

  2
COMPANY
 70
     8
280
     0
  0
INSERT
  5
90
330
6E
100
AcDbEntity
  8
0
100
AcDbBlockReference
  2
2_430026_0_in_065681_4
 10
0.0
 20
0.0
 30
0.0
  0
INSERT
  5
BD
330
6E
100
AcDbEntity
  8
0
100
AcDbBlockReference
  2
3_123340_0_in_065681_4
 10
0.0
 20
0.0
 30
0.0
  0
INSERT
  5
120
330
6E
100
AcDbEntity
  8
0
100
AcDbBlockReference
  2
4_065681H_0_in_065681_4
 10
0.0
 20
0.0
 30
0.0
  0
ENDBLK
  5
71
330
6E
100
AcDbEntity
  8
0
100
AcDbBlockEnd
  0
BLOCK
  5
91
330
8F
100
AcDbEntity
  8
0
100
AcDbBlockBegin
  2
2_430026_0_in_065681_4
 70
     2
 10
0.0
 20
0.0
 30
0.0
  3
2_430026_0_in_065681_4
  1

  0
ATTDEF
  5
93
330
8F
100
AcDbEntity
  8
AM_6
100
AcDbText
 10
3.743218362718884
 20
0.1993814718281234
 30
0.0
 40
0.5
  1
430026 Plug
100
AcDbAttributeDefinition
  3

  2
NN
 70
     8
280
     0
  0
ATTDEF
  5
94
330
8F
100
AcDbEntity
  8
AM_6
100
AcDbText
 10
3.743218362718884
 20
-0.3006185281718766
 30
0.0
 40
0.5
  1
Plug
100
AcDbAttributeDefinition
  3

  2
NT
 70
     8
280
     0
  0
ATTDEF
  5
95
330
8F
100
AcDbEntity
  8
AM_6
100
AcDbText
 10
3.743218362718884
 20
-0.8006185281718766
 30
0.0
 40
0.5
  1
430026
100
AcDbAttributeDefinition
  3

  2
NB
 70
     8
280
     0
  0
ATTDEF
  5
96
330
8F
100
AcDbEntity
  8
AM_6
100
AcDbText
 10
3.743218362718884
 20
-1.300618528171877
 30
0.0
 40
0.5
  1
$PN.
100
AcDbAttributeDefinition
  3

  2
NBSYN
 70
     8
280
     0
  0
ATTDEF
  5
97
330
8F
100
AcDbEntity
  8
AM_6
100
AcDbText
 10
3.743218362718884
 20
-1.800618528171877
 30
0.0
 40
0.5
  1
430026
100
AcDbAttributeDefinition
  3

  2
LINA
 70
     8
280
     0
  0
ATTDEF
  5
98
330
8F
100
AcDbEntity
  8
AM_6
100
AcDbText
 10
3.743218362718884
 20
-2.300618528171877
 30
0.0
 40
0.5
  1
430026
100
AcDbAttributeDefinition
  3

  2
PN
 70
     8
280
     0
  0
ATTDEF
  5
99
330
8F
100
AcDbEntity
  8
AM_6
100
AcDbText
 10
3.743218362718884
 20
-2.800618528171877
 30
0.0
 40
0.5
  1
baldor
100
AcDbAttributeDefinition
  3

  2
COMPANY
 70
     8
280
     0
  0
LINE
  5
9C
330
8F
100
AcDbEntity
  8
AM_9
100
AcDbLine
 10
-1.477222832505306
 20
0.0937499999999999
 30
0.0
 11
-1.450159538637043
 21
-0.0000000000000001
 31
0.0
  0
LINE
  5
9D
330
8F
100
AcDbEntity
  8
AM_9
100
AcDbLine
 10
-1.450159538637043
 20
-0.0000000000000001
 30
0.0
 11
-1.477222832505306
 21
-0.0937500000000001
 31
0.0
  0
LINE
  5
9E
330
8F
100
AcDbEntity
  8
AM_9
100
AcDbLine
 10
-1.477222832505306
 20
0.0937499999999999
 30
0.0
 11
-1.638955826702385
 21
0.0937499999999999
 31
0.0
  0
LINE
  5
9F
330
8F
100
AcDbEntity
  8
AM_9
100
AcDbLine
 10
-1.477222832505306
 20
-0.0937500000000001
 30
0.0
 11
-1.638955826702385
 21
-0.09375
 31
0.0
  0
LWPOLYLINE
  5
A0
330
8F
100
AcDbEntity
  8
AM_9
100
AcDbPolyline
 90
        9
 70
     0
 43
0.0
 10
-1.666019120570648
 20
0.0
 10
-1.658844828126154
 20
-0.009586825516189
 10
-1.652296657997988
 20
-0.0195395209668286
 10
-1.64650218910215
 20
-0.030064495580839
 10
-1.641840129064404
 20
-0.0409874660471013
 10
-1.637801968871363
 20
-0.056013565699607
 10
-1.636470938711187
 20
-0.071239635526069
 10
-1.637132316041229
 20
-0.0826490379892536
 10
-1.638955826702385
 20
-0.09375
  0
LWPOLYLINE
  5
A1
330
8F
100
AcDbEntity
  8
AM_9
100
AcDbPolyline
 90
        9
 70
     0
 43
0.0
 10
-1.638955826702385
 20
0.0937499999999999
 10
-1.637316490550335
 20
0.084163174483811
 10
-1.636514511819759
 20
0.0742104790331714
 10
-1.636796639850533
 20
0.063685504419161
 10
-1.638440959751835
 20
0.0527625339528987
 10
-1.643078122238038
 20
0.037736434300393
 10
-1.65053786759087
 20
0.0225103644739311
 10
-1.657786466504324
 20
0.0111009620107464
 10
-1.666019120570648
 20
0.0
  0
LINE
  5
A2
330
8F
100
AcDbEntity
  8
AM_9
100
AcDbLine
 10
-1.584829238965857
 20
-0.09375
 30
0.0
 11
-1.577738151267141
 21
-0.0842809318291787
 31
0.0
  0
LWPOLYLINE
  5
A3
330
8F
100
AcDbEntity
  8
AM_9
100
AcDbPolyline
 90
        9
 70
     0
 43
0.0
 10
-1.556734927142823
 20
0.0054595440498441
 10
-1.556126608945544
 20
0.0095868255161888
 10
-1.555324630214968
 20
0.0195395209668285
 10
-1.555606758245742
 20
0.0300644955808389
 10
-1.557251078147043
 20
0.0409874660471012
 10
-1.561888240633247
 20
0.0560135656996069
 10
-1.569347985986079
 20
0.0712396355260689
 10
-1.576596584899533
 20
0.0826490379892535
 10
-1.57775327617789
 20
0.0843023182509726
  0
LINE
  5
A4
330
8F
100
AcDbEntity
  8
AM_9
100
AcDbLine
 10
-1.557765945097594
 20
-0.0000000000000001
 30
0.0
 11
-1.556734927142823
 21
0.0054595440498441
 31
0.0
  0
LINE
  5
A5
330
8F
100
AcDbEntity
  8
AM_9
100
AcDbLine
 10
-1.577759472151675
 20
0.0843110841300586
 30
0.0
 11
-1.58107371217579
 21
0.0889981273211221
 31
0.0
  0
LINE
  5
A6
330
8F
100
AcDbEntity
  8
AM_9
100
AcDbLine
 10
-1.58107371217579
 20
-0.0889981273211222
 30
0.0
 11
-1.577738598396698
 21
-0.0842815641826731
 31
0.0
  0
LINE
  5
A7
330
8F
100
AcDbEntity
  8
AM_9
100
AcDbLine
 10
-1.556786940142348
 20
-0.0051482363005766
 30
0.0
 11
-1.557765945097594
 21
-0.0000000000000001
 31
0.0
  0
LWPOLYLINE
  5
A8
330
8F
100
AcDbEntity
  8
AM_9
100
AcDbPolyline
 90
        9
 70
     0
 43
0.0
 10
-1.577738151267141
 20
-0.0842809318291787
 10
-1.577654946521362
 20
-0.0841631744838112
 10
-1.571106776393197
 20
-0.0742104790331715
 10
-1.565312307497359
 20
-0.0636855044191611
 10
-1.560650247459613
 20
-0.0527625339528988
 10
-1.556612087266572
 20
-0.0377364343003931
 10
-1.555281057106396
 20
-0.0225103644739312
 10
-1.555942434436438
 20
-0.0111009620107465
 10
-1.556786940142348
 20
-0.0051482363005766
  0
LINE
  5
A9
330
8F
100
AcDbEntity
  8
AM_9
100
AcDbLine
 10
-1.57775327617789
 20
0.0843023182509726
 30
0.0
 11
-1.584829238965857
 21
0.0937499999999999
 31
0.0
  0
LINE
  5
AA
330
8F
100
AcDbEntity
  8
AM_9
100
AcDbLine
 10
-1.558412714110097
 20
0.0
 30
0.0
 11
-1.531349420241834
 21
0.09375
 31
0.0
  0
LINE
  5
AB
330
8F
100
AcDbEntity
  8
AM_9
100
AcDbLine
 10
-1.531349420241834
 20
-0.09375
 30
0.0
 11
-1.558412714110097
 21
0.0
 31
0.0
  0
LINE
  5
AC
330
8F
100
AcDbEntity
  8
AM_9
100
AcDbLine
 10
-1.450159538637043
 20
-0.0000000000000001
 30
0.0
 11
-1.666019120570648
 21
0.0
 31
0.0
  0
LINE
  5
AD
330
8F
100
AcDbEntity
  8
AM_9
100
AcDbLine
 10
-1.442699433068822
 20
0.0694165072154486
 30
0.0
 11
-1.494435892964323
 21
0.0916567188324642
 31
0.0
  0
LINE
  5
AE
330
8F
100
AcDbEntity
  8
AM_9
100
AcDbLine
 10
-1.494435892964323
 20
-0.0916567188324643
 30
0.0
 11
-1.442699433068822
 21
-0.0694165072154487
 31
0.0
  0
LINE
  5
AF
330
8F
100
AcDbEntity
  8
AM_9
100
AcDbLine
 10
-1.662905482645593
 20
-0.1491810727107304
 30
0.0
 11
-1.651014857055754
 21
-0.1652390185985956
 31
0.0
  0
LINE
  5
B0
330
8F
100
AcDbEntity
  8
AM_9
100
AcDbLine
 10
-1.651014857055754
 20
0.1652390185985955
 30
0.0
 11
-1.662905482645593
 21
0.1491810727107303
 31
0.0
  0
LINE
  5
B1
330
8F
100
AcDbEntity
  8
AM_9
100
AcDbLine
 10
-1.357498225970889
 20
0.190842529895183
 30
0.0
 11
-1.593430341681086
 21
0.1993490810129865
 31
0.0
  0
LINE
  5
B2
330
8F
100
AcDbEntity
  8
AM_9
100
AcDbLine
 10
-1.593430341681086
 20
-0.1993490810129867
 30
0.0
 11
-1.357498225970889
 21
-0.1908425298951832
 31
0.0
  0
LINE
  5
B3
330
8F
100
AcDbEntity
  8
AM_9
100
AcDbLine
 10
-1.291201294834206
 20
0.1367510877807695
 30
0.0
 11
-1.302370935987677
 21
0.1533171693263528
 31
0.0
  0
LINE
  5
B4
330
8F
100
AcDbEntity
  8
AM_9
100
AcDbLine
 10
-1.302370935987677
 20
-0.1533171693263529
 30
0.0
 11
-1.291201294834206
 21
-0.1367510877807696
 31
0.0
  0
ELLIPSE
  5
B5
330
8F
100
AcDbEntity
  8
AM_9
100
AcDbEllipse
 10
-1.612539301846625
 20
-0.0000000000000005
 30
0.0
 11
-2.002297516605942E-17
 21
-0.1090000000000011
 31
0.0
210
0.0
220
0.0
230
1.0
 40
0.4999999999999949
 41
0.0
 42
6.283185307179586
  0
ELLIPSE
  5
B6
330
8F
100
AcDbEntity
  8
AM_9
100
AcDbEllipse
 10
-1.450159538637043
 20
-0.0000000000000003
 30
0.0
 11
-1.304283015320641E-17
 21
-0.07100186035836256
 31
0.0
210
0.0
220
0.0
230
1.0
 40
0.5000000000000038
 41
0.0
 42
6.283185307179586
  0
ELLIPSE
  5
B7
330
8F
100
AcDbEntity
  8
AM_9
100
AcDbEllipse
 10
-1.50428612637357
 20
0.0
 30
0.0
 11
-1.722159561300965E-17
 21
-0.09375000000000001
 31
0.0
210
0.0
220
0.0
230
1.0
 40
0.5000000000000047
 41
0.0
 42
6.283185307179586
  0
ELLIPSE
  5
B8
330
8F
100
AcDbEntity
  8
AM_9
100
AcDbEllipse
 10
-1.612539301846625
 20
0.0000000000000001
 30
0.0
 11
-3.306648467590851E-17
 21
-0.1800055586036763
 31
0.0
210
0.0
220
0.0
230
1.0
 40
0.500000000000001
 41
0.0
 42
6.283185307179586
  0
ELLIPSE
  5
B9
330
8F
100
AcDbEntity
  8
AM_9
100
AcDbEllipse
 10
-1.595227228407188
 20
0.0000000000000003
 30
0.0
 11
-3.662578219253987E-17
 21
-0.1993814718281231
 31
0.0
210
0.0
220
0.0
230
1.0
 40
0.499999999999992
 41
0.0
 42
6.283185307179586
  0
ELLIPSE
  5
BA
330
8F
100
AcDbEntity
  8
AM_9
100
AcDbEllipse
 10
-1.359218436603423
 20
0.0000000000000004
 30
0.0
 11
-3.506290020247863E-17
 21
-0.1908735385412936
 31
0.0
210
0.0
220
0.0
230
1.0
 40
0.4999999999999977
 41
0.0
 42
6.283185307179586
  0
ELLIPSE
  5
BB
330
8F
100
AcDbEntity
  8
AM_9
100
AcDbEllipse
 10
-1.341906363163987
 20
-0.0000000000000001
 30
0.0
 11
-3.127431692422581E-17
 21
-0.1702494517657402
 31
0.0
210
0.0
220
0.0
230
1.0
 40
0.5000000000000049
 41
0.0
 42
6.283185307179586
  0
ENDBLK
  5
92
330
8F
100
AcDbEntity
  8
0
100
AcDbBlockEnd
  0
BLOCK
  5
BE
330
BC
100
AcDbEntity
  8
0
100
AcDbBlockBegin
  2
3_123340_0_in_065681_4
 70
     2
 10
0.0
 20
0.0
 30
0.0
  3
3_123340_0_in_065681_4
  1

  0
ATTDEF
  5
C0
330
BC
100
AcDbEntity
  8
AM_6
100
AcDbText
 10
6.416645210840088
 20
0.7554999999999996
 30
0.0
 40
0.5
  1
Set Screw Insert Inch Bore
100
AcDbAttributeDefinition
  3

  2
NN
 70
     8
280
     0
  0
ATTDEF
  5
C1
330
BC
100
AcDbEntity
  8
AM_6
100
AcDbText
 10
6.416645210840088
 20
0.2554999999999996
 30
0.0
 40
0.5
  1
SC Normal Duty Bearing Inserts
100
AcDbAttributeDefinition
  3

  2
NT
 70
     8
280
     0
  0
ATTDEF
  5
C2
330
BC
100
AcDbEntity
  8
AM_6
100
AcDbText
 10
6.416645210840088
 20
-0.2445000000000004
 30
0.0
 40
0.5
  1
123340
100
AcDbAttributeDefinition
  3

  2
NB
 70
     8
280
     0
  0
ATTDEF
  5
C3
330
BC
100
AcDbEntity
  8
AM_6
100
AcDbText
 10
6.416645210840088
 20
-0.7445000000000004
 30
0.0
 40
0.5
  1
$PN.
100
AcDbAttributeDefinition
  3

  2
NBSYN
 70
     8
280
     0
  0
ATTDEF
  5
C4
330
BC
100
AcDbEntity
  8
AM_6
100
AcDbText
 10
6.416645210840088
 20
-1.2445
 30
0.0
 40
0.5
  1
123340
100
AcDbAttributeDefinition
  3

  2
LINA
 70
     8
280
     0
  0
ATTDEF
  5
C5
330
BC
100
AcDbEntity
  8
AM_6
100
AcDbText
 10
6.416645210840088
 20
-1.7445
 30
0.0
 40
0.5
  1
207
100
AcDbAttributeDefinition
  3

  2
SERIES
 70
     8
280
     0
  0
ATTDEF
  5
C6
330
BC
100
AcDbEntity
  8
AM_6
100
AcDbText
 10
6.416645210840088
 20
-2.2445
 30
0.0
 40
0.5
  1
1-5/16
100
AcDbAttributeDefinition
  3

  2
SS
 70
     8
280
     0
  0
ATTDEF
  5
C7
330
BC
100
AcDbEntity
  8
AM_6
100
AcDbText
 10
6.416645210840088
 20
-2.7445
 30
0.0
 40
0.5
  1
123340
100
AcDbAttributeDefinition
  3

  2
PN
 70
     8
280
     0
  0
ATTDEF
  5
C8
330
BC
100
AcDbEntity
  8
AM_6
100
AcDbText
 10
6.416645210840088
 20
-3.2445
 30
0.0
 40
0.5
  1
INS-SC-105
100
AcDbAttributeDefinition
  3

  2
DESCRIPTION
 70
     8
280
     0
  0
ATTDEF
  5
C9
330
BC
100
AcDbEntity
  8
AM_6
100
AcDbText
 10
6.416645210840088
 20
-3.7445
 30
0.0
 40
0.5
  1
1.71
100
AcDbAttributeDefinition
  3

  2
A
 70
     8
280
     0
  0
ATTDEF
  5
CA
330
BC
100
AcDbEntity
  8
AM_6
100
AcDbText
 10
6.416645210840088
 20
-4.2445
 30
0.0
 40
0.5
  1
0.75
100
AcDbAttributeDefinition
  3

  2
C
 70
     8
280
     0
  0
ATTDEF
  5
CB
330
BC
100
AcDbEntity
  8
AM_6
100
AcDbText
 10
6.416645210840088
 20
-4.7445
 30
0.0
 40
0.5
  1
2.8346
100
AcDbAttributeDefinition
  3

  2
D
 70
     8
280
     0
  0
ATTDEF
  5
CC
330
BC
100
AcDbEntity
  8
AM_6
100
AcDbText
 10
6.416645210840088
 20
-5.2445
 30
0.0
 40
0.5
  1
0.2
100
AcDbAttributeDefinition
  3

  2
J
 70
     8
280
     0
  0
ATTDEF
  5
CD
330
BC
100
AcDbEntity
  8
AM_6
100
AcDbText
 10
6.416645210840088
 20
-5.7445
 30
0.0
 40
0.5
  1
1.84
100
AcDbAttributeDefinition
  3

  2
L
 70
     8
280
     0
  0
ATTDEF
  5
CE
330
BC
100
AcDbEntity
  8
AM_6
100
AcDbText
 10
6.416645210840088
 20
-6.2445
 30
0.0
 40
0.5
  1
5/16 - 24
100
AcDbAttributeDefinition
  3

  2
N
 70
     8
280
     0
  0
ATTDEF
  5
CF
330
BC
100
AcDbEntity
  8
AM_6
100
AcDbText
 10
6.416645210840088
 20
-6.7445
 30
0.0
 40
0.5
  1
0.67
100
AcDbAttributeDefinition
  3

  2
W
 70
     8
280
     0
  0
ATTDEF
  5
D0
330
BC
100
AcDbEntity
  8
AM_6
100
AcDbText
 10
6.416645210840088
 20
-7.2445
 30
0.0
 40
0.5
  1
1.04
100
AcDbAttributeDefinition
  3

  2
Y
 70
     8
280
     0
  0
ATTDEF
  5
D1
330
BC
100
AcDbEntity
  8
AM_6
100
AcDbText
 10
6.416645210840088
 20
-7.7445
 30
0.0
 40
0.5
  1
baldor
100
AcDbAttributeDefinition
  3

  2
COMPANY
 70
     8
280
     0
  0
ELLIPSE
  5
D2
330
BC
100
AcDbEntity
  8
AM_9
100
AcDbEllipse
 10
0.2725369823901178
 20
-0.7075000000000002
 30
0.0
 11
-2.318256390785961E-17
 21
-0.1262000000000012
 31
0.0
210
0.0
220
0.0
230
1.0
 40
0.9063077870366535
 41
4.442854390760775
 42
4.981923570008603
  0
LINE
  5
D3
330
BC
100
AcDbEntity
  8
AM_9
100
AcDbLine
 10
0.2773128536665633
 20
-0.8337000000000002
 30
0.0
 11
0.3799906177205598
 21
-0.8337000000000002
 31
0.0
  0
LINE
  5
D4
330
BC
100
AcDbEntity
  8
AM_9
100
AcDbLine
 10
0.3799906177205598
 20
-0.5813
 30
0.0
 11
0.2773128536665632
 21
-0.5813
 31
0.0
  0
LWPOLYLINE
  5
D5
330
BC
100
AcDbEntity
  8
AM_9
100
AcDbPolyline
 90
       10
 70
     0
 43
0.0
 10
0.2773309775306622
 20
-0.8336999992753895
 10
0.2717697074800735
 20
-0.8335507258098921
 10
0.2527510254883346
 20
-0.8307922619454979
 10
0.2341646576656218
 20
-0.8246771175123331
 10
0.216531425405887
 20
-0.815317537252158
 10
0.2004079279545785
 20
-0.8030315264728659
 10
0.1860987851059888
 20
-0.7878561440470845
 10
0.1743128962906613
 20
-0.770414407246651
 10
0.1674122221866549
 20
-0.7561531555764031
 10
0.1622904945165384
 20
-0.7411048967858308
  0
LWPOLYLINE
  5
D6
330
BC
100
AcDbEntity
  8
AM_9
100
AcDbPolyline
 90
       10
 70
     0
 43
0.0
 10
0.2773554908862255
 20
-0.5813000007246106
 10
0.2828925113984723
 20
-0.5814492741901081
 10
0.3014664706161563
 20
-0.5842077380545024
 10
0.3191058258205072
 20
-0.5903228824876676
 10
0.3353773612786222
 20
-0.5996824627478429
 10
0.3498818777268807
 20
-0.6119684735271349
 10
0.3624570710369018
 20
-0.6271438559529164
 10
0.3726118584178589
 20
-0.6445855927533499
 10
0.3784733585269832
 20
-0.6588468444235979
 10
0.3827834702636946
 20
-0.6738951032141705
  0
ELLIPSE
  5
D7
330
BC
100
AcDbEntity
  8
AM_9
100
AcDbEllipse
 10
0.272536982390118
 20
-0.7075000000000001
 30
0.0
 11
-2.318256390785927E-17
 21
-0.1261999999999993
 31
0.0
210
0.0
220
0.0
230
1.0
 40
0.9063077870366418
 41
1.30126173717099
 42
1.840330916418804
  0
LINE
  5
D8
330
BC
100
AcDbEntity
  8
AM_9
100
AcDbLine
 10
0.6448774391990978
 20
-0.6738951032141728
 30
0.0
 11
0.6448774391990978
 21
-0.7411048967858272
 31
0.0
  0
LINE
  5
D9
330
BC
100
AcDbEntity
  8
AM_9
100
AcDbLine
 10
0.65625
 20
-0.8337000000000002
 30
0.0
 11
0.8991344012334843
 21
-0.8337
 31
0.0
  0
LINE
  5
DA
330
BC
100
AcDbEntity
  8
AM_9
100
AcDbLine
 10
0.8991344012334843
 20
-0.5813
 30
0.0
 11
0.65625
 21
-0.5813
 31
0.0
  0
LINE
  5
DB
330
BC
100
AcDbEntity
  8
AM_9
100
AcDbLine
 10
0.8991344012334843
 20
-0.8337
 30
0.0
 11
0.92
 21
-0.8545655987665157
 31
0.0
  0
LINE
  5
DC
330
BC
100
AcDbEntity
  8
AM_9
100
AcDbLine
 10
0.92
 20
-0.5604344012334843
 30
0.0
 11
0.8991344012334843
 21
-0.5813
 31
0.0
  0
LINE
  5
DD
330
BC
100
AcDbEntity
  8
AM_9
100
AcDbLine
 10
0.8991344012334843
 20
-0.5813
 30
0.0
 11
0.8991344012334843
 21
-0.8337
 31
0.0
  0
LWPOLYLINE
  5
DE
330
BC
100
AcDbEntity
  8
AM_9
100
AcDbPolyline
 90
        6
 70
     0
 43
0.0
 10
0.6448774391990978
 20
-0.6738951032141728
 10
0.6448587619786376
 20
-0.6741846149668966
 10
0.6440167620789659
 20
-0.6920745985821497
 10
0.6437991935394507
 20
-0.7111181376762932
 10
0.6441316847575982
 20
-0.7263226912934782
 10
0.6448774391990978
 20
-0.7411048967858272
  0
LWPOLYLINE
  5
DF
330
BC
100
AcDbEntity
  8
AM_9
100
AcDbPolyline
 90
        9
 70
     0
 43
0.0
 10
0.6448774391990978
 20
-0.7411048967858272
 10
0.6462007300607304
 20
-0.760770639483876
 10
0.6480078310820605
 20
-0.7794480829742961
 10
0.6499958196618786
 20
-0.7955735095128924
 10
0.6520501152514625
 20
-0.8096358423837848
 10
0.6538472297279901
 20
-0.8205423695919684
 10
0.6552676654301596
 20
-0.8284879781560616
 10
0.6560690128823359
 20
-0.8327554476436153
 10
0.6562499999998012
 20
-0.8336999999989662
  0
LWPOLYLINE
  5
E0
330
BC
100
AcDbEntity
  8
AM_9
100
AcDbPolyline
 90
        5
 70
     0
 43
0.0
 10
0.1622904945165383
 20
-0.7411048967858308
 10
0.1579410874735628
 20
-0.7233969348056365
 10
0.1567249889516311
 20
-0.7058126746232247
 10
0.1586206618308207
 20
-0.6877152386336649
 10
0.1622904945165383
 20
-0.6738951032141695
  0
LWPOLYLINE
  5
E1
330
BC
100
AcDbEntity
  8
AM_9
100
AcDbPolyline
 90
        9
 70
     0
 43
0.0
 10
0.1622904945165384
 20
-0.6738951032141692
 10
0.1695485134769923
 20
-0.6539565670519747
 10
0.179892330482497
 20
-0.6355519170257009
 10
0.1929928771862153
 20
-0.6192205403439872
 10
0.2083870351152139
 20
-0.605364157616213
 10
0.2257471564375807
 20
-0.5943303203263893
 10
0.2443974499671534
 20
-0.5865120218439375
 10
0.2635846177432137
 20
-0.5822199196012168
 10
0.2773554908862255
 20
-0.5813000007246106
  0
LWPOLYLINE
  5
E2
330
BC
100
AcDbEntity
  8
AM_9
100
AcDbPolyline
 90
        6
 70
     0
 43
0.0
 10
0.3827834702636946
 20
-0.6738951032141707
 10
0.3860346617008366
 20
-0.6888830123537207
 10
0.3874086206961281
 20
-0.7046786405418968
 10
0.3866210267007181
 20
-0.7217353988837415
 10
0.383393101492795
 20
-0.7388769683416496
 10
0.3827834702636946
 20
-0.7411048967858295
  0
LWPOLYLINE
  5
E3
330
BC
100
AcDbEntity
  8
AM_9
100
AcDbPolyline
 90
        9
 70
     0
 43
0.0
 10
0.3827834702636946
 20
-0.7411048967858296
 10
0.3766659501916421
 20
-0.7610434329480245
 10
0.3678275558500262
 20
-0.7794480829742982
 10
0.3564318698934924
 20
-0.7957794596560119
 10
0.3427495374355787
 20
-0.8096358423837865
 10
0.3269261530178322
 20
-0.8206696796736102
 10
0.3094587135108083
 20
-0.8284879781560623
 10
0.2909509789842046
 20
-0.8327800803987832
 10
0.2773309775306622
 20
-0.8336999992753895
  0
LINE
  5
E4
330
BC
100
AcDbEntity
  8
AM_9
100
AcDbLine
 10
0.65625
 20
-1.0032
 30
0.0
 11
0.65625
 21
-0.8337
 31
0.0
  0
LINE
  5
E5
330
BC
100
AcDbEntity
  8
AM_9
100
AcDbLine
 10
0.65625
 20
-0.5813
 30
0.0
 11
0.65625
 21
0.6332
 31
0.0
  0
LINE
  5
E6
330
BC
100
AcDbEntity
  8
AM_9
100
AcDbLine
 10
-0.65625
 20
0.6332
 30
0.0
 11
-0.65625
 21
-1.0032
 31
0.0
  0
LWPOLYLINE
  5
E7
330
BC
100
AcDbEntity
  8
AM_9
100
AcDbPolyline
 90
       10
 70
     0
 43
0.0
 10
0.6562499999998012
 20
-0.5813000000010339
 10
0.6562213102126452
 20
-0.581449274190108
 10
0.6557112115801961
 20
-0.5841323766461849
 10
0.6545747469682123
 20
-0.5903228824876662
 10
0.6529906698113923
 20
-0.5995222598832025
 10
0.6510483046980741
 20
-0.6119684735271326
 10
0.6490248859835506
 20
-0.6269042176912416
 10
0.647067110228296
 20
-0.6445855927533468
 10
0.6458455715621372
 20
-0.6587262385454684
 10
0.6448774391990978
 20
-0.6738951032141727
  0
LINE
  5
E8
330
BC
100
AcDbEntity
  8
AM_9
100
AcDbLine
 10
-0.65625
 20
-1.0032
 30
0.0
 11
-0.69305
 21
-1.04
 31
0.0
  0
LINE
  5
E9
330
BC
100
AcDbEntity
  8
AM_9
100
AcDbLine
 10
0.69305
 20
-1.04
 30
0.0
 11
0.65625
 21
-1.0032
 31
0.0
  0
LINE
  5
EA
330
BC
100
AcDbEntity
  8
AM_9
100
AcDbLine
 10
0.65625
 20
0.6332
 30
0.0
 11
0.69305
 21
0.67
 31
0.0
  0
LINE
  5
EB
330
BC
100
AcDbEntity
  8
AM_9
100
AcDbLine
 10
-0.69305
 20
0.67
 30
0.0
 11
-0.65625
 21
0.6332
 31
0.0
  0
LWPOLYLINE
  5
EC
330
BC
100
AcDbEntity
  8
AM_9
100
AcDbPolyline
 90
       39
 70
     0
 43
0.0
 10
0.3831468696165903
 20
-0.5605879082788799
 10
0.3632781926959329
 20
-0.5635680356699398
 10
0.3439609398142159
 20
-0.5701729415079198
 10
0.3261664671045509
 20
-0.5799237393696521
 10
0.3098848853577551
 20
-0.5925453381619384
 10
0.2947371385201887
 20
-0.608634546105366
 10
0.2820561800758902
 20
-0.6270200470031392
 10
0.2715409242079174
 20
-0.648751955752624
 10
0.2644166700217198
 20
-0.6719593141783388
 10
0.2608037887576972
 20
-0.6973312168221054
 10
0.2612115006936286
 20
-0.7229788291470503
 10
0.2658199659526827
 20
-0.748722166329964
 10
0.2744889513719074
 20
-0.7732870748661603
 10
0.2869406238376951
 20
-0.795751488410156
 10
0.3028337006592151
 20
-0.8155921006122825
 10
0.320929310637152
 20
-0.8314358019562612
 10
0.3412258141340099
 20
-0.8435713129913822
 10
0.3614455537922164
 20
-0.8509628016037893
 10
0.3823351054802132
 20
-0.8543649951509523
 10
0.4018250662339457
 20
-0.8537283405896985
 10
0.4207350632430682
 20
-0.849496834881177
 10
0.43829961330239
 20
-0.8419214843032236
 10
0.4544069053250742
 20
-0.8312955586635274
 10
0.46931470387109
 20
-0.8172836347978099
 10
0.4820388056805551
 20
-0.8007671272814006
 10
0.4930258231171737
 20
-0.7807722420046174
 10
0.501153724514045
 20
-0.7589882783813788
 10
0.506516399014524
 20
-0.7345136270465196
 10
0.508488236195261
 20
-0.709323221429411
 10
0.5069073389414688
 20
-0.683299974210065
 10
0.5017163786486232
 20
-0.657957872439703
 10
0.4929165459099835
 20
-0.6339984893613343
 10
0.4806806880771297
 20
-0.6121991277220694
 10
0.4656486804273735
 20
-0.5938345460575526
 10
0.4478496842383146
 20
-0.5788877308662341
 10
0.4290304935181857
 20
-0.5686260742809275
 10
0.4086554104226282
 20
-0.5623590487133964
 10
0.3959919728227245
 20
-0.5606862680881517
 10
0.3831468582600498
 20
-0.5605878957403025
  0
LINE
  5
ED
330
BC
100
AcDbEntity
  8
AM_9
100
AcDbLine
 10
0.92
 20
-0.5
 30
0.0
 11
0.92
 21
-0.3749999999999999
 31
0.0
  0
LINE
  5
EE
330
BC
100
AcDbEntity
  8
AM_9
100
AcDbLine
 10
-0.92
 20
-0.3749999999999999
 30
0.0
 11
-0.92
 21
-0.5
 31
0.0
  0
LINE
  5
EF
330
BC
100
AcDbEntity
  8
AM_9
100
AcDbLine
 10
0.9148954822733085
 20
-0.603640999359201
 30
0.0
 11
0.9140481732314667
 21
-0.6126466414128103
 31
0.0
  0
LINE
  5
F0
330
BC
100
AcDbEntity
  8
AM_9
100
AcDbLine
 10
0.9199999999999997
 20
0.3749999999999999
 30
0.0
 11
0.9199999999999997
 21
0.5000000000000001
 31
0.0
  0
LINE
  5
F1
330
BC
100
AcDbEntity
  8
AM_9
100
AcDbLine
 10
-0.9199999999999997
 20
0.5000000000000001
 30
0.0
 11
-0.9199999999999997
 21
0.3749999999999999
 31
0.0
  0
LINE
  5
F2
330
BC
100
AcDbEntity
  8
AM_9
100
AcDbLine
 10
1.350633333333333
 20
-0.2399999999999999
 30
0.0
 11
1.350633333333333
 21
-0.1599999999999999
 31
0.0
  0
LINE
  5
F3
330
BC
100
AcDbEntity
  8
AM_9
100
AcDbLine
 10
-1.350633333333333
 20
-0.1599999999999999
 30
0.0
 11
-1.350633333333333
 21
-0.2399999999999999
 31
0.0
  0
LINE
  5
F4
330
BC
100
AcDbEntity
  8
AM_9
100
AcDbLine
 10
1.25
 20
0.3749999999999999
 30
0.0
 11
1.335937981344943
 21
0.3749999999999999
 31
0.0
  0
LINE
  5
F5
330
BC
100
AcDbEntity
  8
AM_9
100
AcDbLine
 10
-1.335937981344943
 20
0.3749999999999999
 30
0.0
 11
-1.25
 21
0.3749999999999999
 31
0.0
  0
ARC
  5
F6
330
BC
100
AcDbEntity
  8
AM_9
100
AcDbCircle
 10
1.335937981344943
 20
0.335
 30
0.0
 40
0.0399999999999997
100
AcDbArc
 50
14.07723026334036
 51
90.0
  0
ARC
  5
F7
330
BC
100
AcDbEntity
  8
AM_9
100
AcDbCircle
 10
-1.335937981344943
 20
0.335
 30
0.0
 40
0.0399999999999999
100
AcDbArc
 50
90.0
 51
165.9227697366597
  0
LINE
  5
F8
330
BC
100
AcDbEntity
  8
AM_9
100
AcDbLine
 10
1.25
 20
-0.3749999999999999
 30
0.0
 11
1.335937981344943
 21
-0.3749999999999999
 31
0.0
  0
LINE
  5
F9
330
BC
100
AcDbEntity
  8
AM_9
100
AcDbLine
 10
-1.335937981344943
 20
-0.3749999999999999
 30
0.0
 11
-1.25
 21
-0.3749999999999999
 31
0.0
  0
ARC
  5
FA
330
BC
100
AcDbEntity
  8
AM_9
100
AcDbCircle
 10
1.335937981344942
 20
-0.3349999999999994
 30
0.0
 40
0.0400000000000005
100
AcDbArc
 50
270.0
 51
345.9227727932858
  0
ARC
  5
FB
330
BC
100
AcDbEntity
  8
AM_9
100
AcDbCircle
 10
-1.335937981344942
 20
-0.3349999999999995
 30
0.0
 40
0.0400000000000003
100
AcDbArc
 50
194.0772272067141
 51
270.0
  0
ARC
  5
FC
330
BC
100
AcDbEntity
  8
AM_9
100
AcDbCircle
 10
-0.0000000000000646
 20
0.0000000000000094
 30
0.0
 40
1.417300000000065
100
AcDbArc
 50
345.922772793287
 51
350.2507814750861
  0
ARC
  5
FD
330
BC
100
AcDbEntity
  8
AM_9
100
AcDbCircle
 10
0.0000000000842424
 20
0.000000000017756
 30
0.0
 40
1.41730000008597
100
AcDbArc
 50
189.7492185250452
 51
194.0772272065818
  0
LINE
  5
FE
330
BC
100
AcDbEntity
  8
AM_9
100
AcDbLine
 10
-1.374736731982938
 20
-0.3447291802802586
 30
0.0
 11
1.374736731983001
 21
-0.3447291802802586
 31
0.0
  0
LINE
  5
FF
330
BC
100
AcDbEntity
  8
AM_9
100
AcDbLine
 10
-1.396831876068063
 20
-0.24
 30
0.0
 11
1.396831876068126
 21
-0.24
 31
0.0
  0
ARC
  5
100
330
BC
100
AcDbEntity
  8
AM_9
100
AcDbCircle
 10
-0.0000000000000002
 20
0.0000000000000002
 30
0.0
 40
1.4173
100
AcDbArc
 50
353.518020799482
 51
14.0772272929794
  0
ARC
  5
101
330
BC
100
AcDbEntity
  8
AM_9
100
AcDbCircle
 10
-0.0000000000004139
 20
0.0000000000000284
 30
0.0
 40
1.417299999999591
100
AcDbArc
 50
165.9227727070176
 51
186.4819792005211
  0
LINE
  5
102
330
BC
100
AcDbEntity
  8
AM_9
100
AcDbLine
 10
-1.408239784269709
 20
-0.1599999999999999
 30
0.0
 11
1.40823978426971
 21
-0.1599999999999999
 31
0.0
  0
LINE
  5
103
330
BC
100
AcDbEntity
  8
AM_9
100
AcDbLine
 10
-1.374736731463966
 20
0.3447291823501021
 30
0.0
 11
1.374736731463966
 21
0.3447291823501021
 31
0.0
  0
CIRCLE
  5
104
330
BC
100
AcDbEntity
  8
AM_9
100
AcDbCircle
 10
-0.0000000000000001
 20
0.2000000000000001
 30
0.0
 40
0.0359848484848541
  0
LINE
  5
106
330
BC
100
AcDbEntity
  8
AM_5
100
AcDbLine
 10
0.65625
 20
-0.55125
 30
0.0
 11
0.92
 21
-0.55125
 31
0.0
  0
LINE
  5
107
330
BC
100
AcDbEntity
  8
AM_5
100
AcDbLine
 10
0.65625
 20
-0.86375
 30
0.0
 11
0.92
 21
-0.86375
 31
0.0
  0
ELLIPSE
  5
108
330
BC
100
AcDbEntity
  8
AM_9
100
AcDbEllipse
 10
0.3799906177205591
 20
-0.7074999999999988
 30
0.0
 11
-2.318256390785917E-17
 21
-0.1261999999999988
 31
0.0
210
0.0
220
0.0
230
1.0
 40
0.9063077870366498
 41
0.0
 42
6.283185307179586
  0
CIRCLE
  5
109
330
BC
100
AcDbEntity
  8
AM_9
100
AcDbCircle
 10
-0.0000000000000001
 20
0.2000000000000001
 30
0.0
 40
0.1041666666666618
  0
LINE
  5
10C
330
BC
100
AcDbEntity
  8
AM_7
100
AcDbLine
 10
0.0
 20
-1.1255
 30
0.0
 11
0.0
 21
0.7554999999999996
 31
0.0
  0
LINE
  5
10D
330
BC
100
AcDbEntity
  8
AM_7
100
AcDbLine
 10
0.9449022493352044
 20
-0.7075
 30
0.0
 11
0.5991095910973782
 21
-0.7075
 31
0.0
  0
LINE
  5
10E
330
BC
100
AcDbEntity
  8
AM_7
100
AcDbLine
 10
-0.1093749999999953
 20
0.2000000000000003
 30
0.0
 11
0.1093749999999949
 21
0.2000000000000003
 31
0.0
  0
LWPOLYLINE
  5
110
330
BC
100
AcDbEntity
  8
AM_4
100
AcDbPolyline
 90
        7
 70
     0
 43
0.0
 10
0.9146488251145424
 20
-0.6061814369458751
 10
0.9161363454500667
 20
-0.5916872188313689
 10
0.9175594080024728
 20
-0.5793139641116154
 10
0.918840703194673
 20
-0.5690915941885356
 10
0.9197095976311065
 20
-0.5625562100249473
 10
0.9199986644278962
 20
-0.5604440920669008
 10
0.9199999999999817
 20
-0.5604344012336171
  0
LINE
  5
111
330
BC
100
AcDbEntity
  8
AM_4
100
AcDbLine
 10
0.92
 20
-1.0032
 30
0.0
 11
0.92
 21
-0.8545655987665157
 31
0.0
  0
LINE
  5
112
330
BC
100
AcDbEntity
  8
AM_4
100
AcDbLine
 10
0.92
 20
-0.5604344012334843
 30
0.0
 11
0.92
 21
-0.5
 31
0.0
  0
LINE
  5
113
330
BC
100
AcDbEntity
  8
AM_4
100
AcDbLine
 10
-0.92
 20
-0.5
 30
0.0
 11
-0.92
 21
-1.0032
 31
0.0
  0
LWPOLYLINE
  5
114
330
BC
100
AcDbEntity
  8
AM_4
100
AcDbPolyline
 90
       16
 70
     0
 43
0.0
 10
0.9199999999999463
 20
-0.8545655987661261
 10
0.919977712150823
 20
-0.8544037989290799
 10
0.9195969793371659
 20
-0.8516128593223341
 10
0.9187538115600371
 20
-0.8452383994537461
 10
0.9175731174413001
 20
-0.8357995872058473
 10
0.9161210509255192
 20
-0.823172799736616
 10
0.9145192344080746
 20
-0.8074584668120091
 10
0.9129305687885105
 20
-0.7889932534545555
 10
0.9114947051838159
 20
-0.7676793603234507
 10
0.910413206839903
 20
-0.7442781073396044
 10
0.9098340725472867
 20
-0.7193135335022269
 10
0.9098632539843213
 20
-0.6933348432201435
 10
0.9105152435642478
 20
-0.6679210038113121
 10
0.9117562171353165
 20
-0.6429175251698679
 10
0.9130986721286982
 20
-0.6238626406515675
 10
0.9146488251145424
 20
-0.6061814369458751
  0
LINE
  5
115
330
BC
100
AcDbEntity
  8
AM_4
100
AcDbLine
 10
-0.8832
 20
-1.04
 30
0.0
 11
0.8832
 21
-1.04
 31
0.0
  0
LINE
  5
116
330
BC
100
AcDbEntity
  8
AM_4
100
AcDbLine
 10
-0.92
 20
-1.0032
 30
0.0
 11
0.92
 21
-1.0032
 31
0.0
  0
LINE
  5
117
330
BC
100
AcDbEntity
  8
AM_4
100
AcDbLine
 10
0.8832
 20
-1.04
 30
0.0
 11
0.92
 21
-1.0032
 31
0.0
  0
LINE
  5
118
330
BC
100
AcDbEntity
  8
AM_4
100
AcDbLine
 10
-0.92
 20
-1.0032
 30
0.0
 11
-0.8832
 21
-1.04
 31
0.0
  0
LINE
  5
119
330
BC
100
AcDbEntity
  8
AM_4
100
AcDbLine
 10
0.9199999999999997
 20
0.5000000000000001
 30
0.0
 11
0.9199999999999997
 21
0.6332
 31
0.0
  0
LINE
  5
11A
330
BC
100
AcDbEntity
  8
AM_4
100
AcDbLine
 10
-0.9199999999999997
 20
0.6332
 30
0.0
 11
-0.9199999999999997
 21
0.5000000000000001
 31
0.0
  0
LINE
  5
11B
330
BC
100
AcDbEntity
  8
AM_4
100
AcDbLine
 10
-0.9200000000000002
 20
0.6332
 30
0.0
 11
0.9200000000000002
 21
0.6332
 31
0.0
  0
LINE
  5
11C
330
BC
100
AcDbEntity
  8
AM_4
100
AcDbLine
 10
-0.8832000000000002
 20
0.67
 30
0.0
 11
0.8832000000000002
 21
0.67
 31
0.0
  0
LINE
  5
11D
330
BC
100
AcDbEntity
  8
AM_4
100
AcDbLine
 10
-0.8832000000000002
 20
0.67
 30
0.0
 11
-0.9200000000000002
 21
0.6332
 31
0.0
  0
LINE
  5
11E
330
BC
100
AcDbEntity
  8
AM_4
100
AcDbLine
 10
0.9200000000000002
 20
0.6332
 30
0.0
 11
0.8832000000000002
 21
0.67
 31
0.0
  0
ENDBLK
  5
BF
330
BC
100
AcDbEntity
  8
0
100
AcDbBlockEnd
  0
BLOCK
  5
121
330
11F
100
AcDbEntity
  8
0
100
AcDbBlockBegin
  2
4_065681H_0_in_065681_4
 70
     2
 10
0.0
 20
0.0
 30
0.0
  3
4_065681H_0_in_065681_4
  1

  0
ATTDEF
  5
123
330
11F
100
AcDbEntity
  8
AM_6
100
AcDbText
 10
7.748635
 20
0.7589999999999998
 30
0.0
 40
0.5
  1
NSTU-SC -Inch - HOUSING
100
AcDbAttributeDefinition
  3

  2
NN
 70
     8
280
     0
  0
ATTDEF
  5
124
330
11F
100
AcDbEntity
  8
AM_6
100
AcDbText
 10
7.748635
 20
0.2589999999999998
 30
0.0
 40
0.5
  1
SC Take-Up Bearings -Narrow Slot -(Normal Duty)
100
AcDbAttributeDefinition
  3

  2
NT
 70
     8
280
     0
  0
ATTDEF
  5
125
330
11F
100
AcDbEntity
  8
AM_6
100
AcDbText
 10
7.748635
 20
-0.2410000000000002
 30
0.0
 40
0.5
  1
065681H
100
AcDbAttributeDefinition
  3

  2
NB
 70
     8
280
     0
  0
ATTDEF
  5
126
330
11F
100
AcDbEntity
  8
AM_6
100
AcDbText
 10
7.748635
 20
-0.7410000000000002
 30
0.0
 40
0.5
  1
$PN.H
100
AcDbAttributeDefinition
  3

  2
NBSYN
 70
     8
280
     0
  0
ATTDEF
  5
127
330
11F
100
AcDbEntity
  8
AM_6
100
AcDbText
 10
7.748635
 20
-1.241
 30
0.0
 40
0.5
  1
065681
100
AcDbAttributeDefinition
  3

  2
LINA
 70
     8
280
     0
  0
ATTDEF
  5
128
330
11F
100
AcDbEntity
  8
AM_6
100
AcDbText
 10
7.748635
 20
-1.741
 30
0.0
 40
0.5
  1
207
100
AcDbAttributeDefinition
  3

  2
SERIES
 70
     8
280
     0
  0
ATTDEF
  5
129
330
11F
100
AcDbEntity
  8
AM_6
100
AcDbText
 10
7.748635
 20
-2.241
 30
0.0
 40
0.5
  1
1-5/16
100
AcDbAttributeDefinition
  3

  2
SS
 70
     8
280
     0
  0
ATTDEF
  5
12A
330
11F
100
AcDbEntity
  8
AM_6
100
AcDbText
 10
7.748635
 20
-2.741
 30
0.0
 40
0.5
  1
065681
100
AcDbAttributeDefinition
  3

  2
PN
 70
     8
280
     0
  0
ATTDEF
  5
12B
330
11F
100
AcDbEntity
  8
AM_6
100
AcDbText
 10
7.748635
 20
-3.241
 30
0.0
 40
0.5
  1
NSTU-SC-105-NL
100
AcDbAttributeDefinition
  3

  2
DESCRIPTION
 70
     8
280
     0
  0
ATTDEF
  5
12C
330
11F
100
AcDbEntity
  8
AM_6
100
AcDbText
 10
7.748635
 20
-3.741
 30
0.0
 40
0.5
  1
2.7
100
AcDbAttributeDefinition
  3

  2
W
 70
     8
280
     0
  0
ATTDEF
  5
12D
330
11F
100
AcDbEntity
  8
AM_6
100
AcDbText
 10
7.748635
 20
-4.241
 30
0.0
 40
0.5
  1
NS308
100
AcDbAttributeDefinition
  3

  2
FS
 70
     8
280
     0
  0
ATTDEF
  5
12E
330
11F
100
AcDbEntity
  8
AM_6
100
AcDbText
 10
7.748635
 20
-4.741
 30
0.0
 40
0.5
  1
1.71
100
AcDbAttributeDefinition
  3

  2
A
 70
     8
280
     0
  0
ATTDEF
  5
12F
330
11F
100
AcDbEntity
  8
AM_6
100
AcDbText
 10
7.748635
 20
-5.241
 30
0.0
 40
0.5
  1
4.50
100
AcDbAttributeDefinition
  3

  2
B
 70
     8
280
     0
  0
ATTDEF
  5
130
330
11F
100
AcDbEntity
  8
AM_6
100
AcDbText
 10
7.748635
 20
-5.741
 30
0.0
 40
0.5
  1
0.250
100
AcDbAttributeDefinition
  3

  2
C
 70
     8
280
     0
  0
ATTDEF
  5
131
330
11F
100
AcDbEntity
  8
AM_6
100
AcDbText
 10
7.748635
 20
-6.241
 30
0.0
 40
0.5
  1
2.50
100
AcDbAttributeDefinition
  3

  2
D
 70
     8
280
     0
  0
ATTDEF
  5
132
330
11F
100
AcDbEntity
  8
AM_6
100
AcDbText
 10
7.748635
 20
-6.741
 30
0.0
 40
0.5
  1
2.69
100
AcDbAttributeDefinition
  3

  2
E
 70
     8
280
     0
  0
ATTDEF
  5
133
330
11F
100
AcDbEntity
  8
AM_6
100
AcDbText
 10
7.748635
 20
-7.241
 30
0.0
 40
0.5
  1
3/4
100
AcDbAttributeDefinition
  3

  2
F
 70
     8
280
     0
  0
ATTDEF
  5
134
330
11F
100
AcDbEntity
  8
AM_6
100
AcDbText
 10
7.748635
 20
-7.741
 30
0.0
 40
0.5
  1
0.50
100
AcDbAttributeDefinition
  3

  2
G
 70
     8
280
     0
  0
ATTDEF
  5
135
330
11F
100
AcDbEntity
  8
AM_6
100
AcDbText
 10
7.748635
 20
-8.241
 30
0.0
 40
0.5
  1
0.94
100
AcDbAttributeDefinition
  3

  2
H
 70
     8
280
     0
  0
ATTDEF
  5
136
330
11F
100
AcDbEntity
  8
AM_6
100
AcDbText
 10
7.748635
 20
-8.741
 30
0.0
 40
0.5
  1
1.38
100
AcDbAttributeDefinition
  3

  2
J
 70
     8
280
     0
  0
ATTDEF
  5
137
330
11F
100
AcDbEntity
  8
AM_6
100
AcDbText
 10
7.748635
 20
-9.241
 30
0.0
 40
0.5
  1
1.84
100
AcDbAttributeDefinition
  3

  2
L
 70
     8
280
     0
  0
ATTDEF
  5
138
330
11F
100
AcDbEntity
  8
AM_6
100
AcDbText
 10
7.748635
 20
-9.741
 30
0.0
 40
0.5
  1
3.510 / 3.480
100
AcDbAttributeDefinition
  3

  2
M
 70
     8
280
     0
  0
ATTDEF
  5
139
330
11F
100
AcDbEntity
  8
AM_6
100
AcDbText
 10
7.748635
 20
-10.241
 30
0.0
 40
0.5
  1
4.13
100
AcDbAttributeDefinition
  3

  2
N
 70
     8
280
     0
  0
ATTDEF
  5
13A
330
11F
100
AcDbEntity
  8
AM_6
100
AcDbText
 10
7.748635
 20
-10.741
 30
0.0
 40
0.5
  1
0.32
100
AcDbAttributeDefinition
  3

  2
P
 70
     8
280
     0
  0
ATTDEF
  5
13B
330
11F
100
AcDbEntity
  8
AM_6
100
AcDbText
 10
7.748635
 20
-11.241
 30
0.0
 40
0.5
  1
0.67
100
AcDbAttributeDefinition
  3

  2
R
 70
     8
280
     0
  0
ATTDEF
  5
13C
330
11F
100
AcDbEntity
  8
AM_6
100
AcDbText
 10
7.748635
 20
-11.741
 30
0.0
 40
0.5
  1
1.04
100
AcDbAttributeDefinition
  3

  2
S
 70
     8
280
     0
  0
ATTDEF
  5
13D
330
11F
100
AcDbEntity
  8
AM_6
100
AcDbText
 10
7.748635
 20
-12.241
 30
0.0
 40
0.5
  1
3065
100
AcDbAttributeDefinition
  3

  2
CAPS
 70
     8
280
     0
  0
ATTDEF
  5
13E
330
11F
100
AcDbEntity
  8
AM_6
100
AcDbText
 10
7.748635
 20
-12.741
 30
0.0
 40
0.5
  1
5759
100
AcDbAttributeDefinition
  3

  2
CAPD
 70
     8
280
     0
  0
ATTDEF
  5
13F
330
11F
100
AcDbEntity
  8
AM_6
100
AcDbText
 10
7.748635
 20
-13.241
 30
0.0
 40
0.5
  1
baldor
100
AcDbAttributeDefinition
  3

  2
COMPANY
 70
     8
280
     0
  0
LINE
  5
140
330
11F
100
AcDbEntity
  8
AM_9
100
AcDbLine
 10
-1.567501249989755
 20
-0.15
 30
0.0
 11
-1.26439708952528
 21
-0.15
 31
0.0
  0
LINE
  5
141
330
11F
100
AcDbEntity
  8
AM_9
100
AcDbLine
 10
-1.26439708952528
 20
0.1499999999999999
 30
0.0
 11
-1.567471255495598
 21
0.1499999999999999
 31
0.0
  0
LWPOLYLINE
  5
142
330
11F
100
AcDbEntity
  8
AM_9
100
AcDbPolyline
 90
       20
 70
     0
 43
0.0
 10
-1.567513012918581
 20
0.1499999993406578
 10
-1.558875521507413
 20
0.1490197393218889
 10
-1.546360250628837
 20
0.1441539402238338
 10
-1.533822699228095
 20
0.1350287153179318
 10
-1.522346304455595
 20
0.1223919730923839
 10
-1.511683494905647
 20
0.105891853745494
 10
-1.502771773680035
 20
0.0868441680963068
 10
-1.495465710647154
 20
0.0647430027886491
 10
-1.490445016900663
 20
0.0414396823619893
 10
-1.487619373457731
 20
0.0162600900296781
 10
-1.487254952238122
 20
-0.0085962574743319
 10
-1.489333188264136
 20
-0.0339221386665101
 10
-1.493649913547498
 20
-0.0575562040765736
 10
-1.500283349485192
 20
-0.0802163923870957
 10
-1.508639409911077
 20
-0.1000573392514285
 10
-1.518869922571109
 20
-0.1175950418596672
 10
-1.530074818346085
 20
-0.1313946740187181
 10
-1.542483692119235
 20
-0.1418053818766732
 10
-1.55498112312464
 20
-0.1479429545404568
 10
-1.567508649275856
 20
-0.1499999999050612
  0
LWPOLYLINE
  5
143
330
11F
100
AcDbEntity
  8
AM_9
100
AcDbPolyline
 90
       12
 70
     0
 43
0.0
 10
-1.567508649275856
 20
-0.1499999999050612
 10
-1.567907780948445
 20
-0.1499978457500319
 10
-1.580124896521461
 20
-0.1478079411734521
 10
-1.592037884440175
 20
-0.1413244251685358
 10
-1.602684161474214
 20
-0.1310937236234826
 10
-1.612429251745063
 20
-0.1168248945347197
 10
-1.620552032038743
 20
-0.0996541725470951
 10
-1.627333081275748
 20
-0.0791240131803266
 10
-1.632281931419258
 20
-0.0569199884142482
 10
-1.635593103775608
 20
-0.0324245554702278
 10
-1.636728578387789
 20
-0.0164068866318493
 10
-1.637113952309498
 20
0.0
  0
LINE
  5
144
330
11F
100
AcDbEntity
  8
AM_9
100
AcDbLine
 10
2.35
 20
0.3750000000000001
 30
0.0
 11
2.35
 21
0.6899999999999996
 31
0.0
  0
LINE
  5
145
330
11F
100
AcDbEntity
  8
AM_9
100
AcDbLine
 10
2.03
 20
0.6899999999999996
 30
0.0
 11
2.03
 21
0.3749999999999998
 31
0.0
  0
LINE
  5
146
330
11F
100
AcDbEntity
  8
AM_9
100
AcDbLine
 10
2.35
 20
-0.6899999999999997
 30
0.0
 11
2.35
 21
-0.3749999999999999
 31
0.0
  0
LINE
  5
147
330
11F
100
AcDbEntity
  8
AM_9
100
AcDbLine
 10
2.03
 20
-0.3749999999999999
 30
0.0
 11
2.03
 21
-0.6899999999999997
 31
0.0
  0
LINE
  5
148
330
11F
100
AcDbEntity
  8
AM_9
100
AcDbLine
 10
1.75
 20
0.3749999999999999
 30
0.0
 11
1.75
 21
-0.3749999999999999
 31
0.0
  0
LINE
  5
149
330
11F
100
AcDbEntity
  8
AM_9
100
AcDbLine
 10
2.348617569356534
 20
-0.3744122504787661
 30
0.0
 11
2.349999999967329
 21
-0.3749999999860606
 31
0.0
  0
LWPOLYLINE
  5
14A
330
11F
100
AcDbEntity
  8
AM_9
100
AcDbPolyline
 90
       21
 70
     0
 43
0.0
 10
2.03
 20
0.3749999999999999
 10
2.031997302716337
 20
0.3741521780625
 10
2.03814675046068
 20
0.3715971062799747
 10
2.047847339836106
 20
0.3677395529334196
 10
2.061303694897208
 20
0.3627502432075143
 10
2.078316092112752
 20
0.3570690343350532
 10
2.098801894212291
 20
0.3512009318029581
 10
2.122458004417134
 20
0.3458134195882453
 10
2.149146153092783
 20
0.341605088965487
 10
2.175026893722942
 20
0.3394837167105133
 10
2.202303401167014
 20
0.3393764483288085
 10
2.226264691059636
 20
0.3410866866613981
 10
2.249876996401682
 20
0.3443983953186876
 10
2.271806646858942
 20
0.3488801047212404
 10
2.292173194557665
 20
0.354209488419097
 10
2.311040615752141
 20
0.3601053049618367
 10
2.32702794679631
 20
0.3657890897815468
 10
2.339066055755283
 20
0.3704668527391314
 10
2.346995108612056
 20
0.3737277941605512
 10
2.349915232500954
 20
0.3749638403710875
 10
2.349999999967329
 20
0.3749999999860606
  0
LINE
  5
14B
330
11F
100
AcDbEntity
  8
AM_9
100
AcDbLine
 10
1.75
 20
-0.3749999999999999
 30
0.0
 11
2.03
 21
-0.3749999999999999
 31
0.0
  0
LINE
  5
14C
330
11F
100
AcDbEntity
  8
AM_9
100
AcDbLine
 10
2.35
 20
-0.3750000000000001
 30
0.0
 11
2.69
 21
-0.3749999999999999
 31
0.0
  0
LINE
  5
14D
330
11F
100
AcDbEntity
  8
AM_9
100
AcDbLine
 10
2.69
 20
0.3749999999999999
 30
0.0
 11
2.35
 21
0.3749999999999999
 31
0.0
  0
LINE
  5
14E
330
11F
100
AcDbEntity
  8
AM_9
100
AcDbLine
 10
2.03
 20
0.3749999999999999
 30
0.0
 11
1.75
 21
0.3749999999999999
 31
0.0
  0
LWPOLYLINE
  5
14F
330
11F
100
AcDbEntity
  8
AM_9
100
AcDbPolyline
 90
       22
 70
     0
 43
0.0
 10
2.349999999967329
 20
-0.3749999999860606
 10
2.34855716354838
 20
-0.3743866639084619
 10
2.343437731240092
 20
-0.3722474141859237
 10
2.334514866612369
 20
-0.3686591198817559
 10
2.322103194651517
 20
-0.363972875414002
 10
2.306150676689222
 20
-0.358491254698583
 10
2.286341326701011
 20
-0.352571483858963
 10
2.263127369711885
 20
-0.3469475640510808
 10
2.237926259976097
 20
-0.3425228844840829
 10
2.224212346590341
 20
-0.3408758561502758
 10
2.210180233674187
 20
-0.3397532072418813
 10
2.184813423645203
 20
-0.33919301374628
 10
2.158799019351194
 20
-0.3405855269876381
 10
2.135671685337975
 20
-0.3434771692180079
 10
2.113381571482429
 20
-0.3477001345822317
 10
2.092316745298556
 20
-0.3529405307542152
 10
2.07328763061672
 20
-0.3586736360078045
 10
2.056533015818854
 20
-0.364470075405938
 10
2.043192978009165
 20
-0.3695636639414343
 10
2.034606770532534
 20
-0.3730577110372181
 10
2.030341538009763
 20
-0.3748544043826721
 10
2.03
 20
-0.3749999999999999
  0
LINE
  5
150
330
11F
100
AcDbEntity
  8
AM_9
100
AcDbLine
 10
2.349999999967329
 20
0.3749999999860606
 30
0.0
 11
2.348269435062816
 21
0.3742648982673944
 31
0.0
  0
LWPOLYLINE
  5
151
330
11F
100
AcDbEntity
  8
AM_9
100
AcDbPolyline
 90
       11
 70
     0
 43
0.0
 10
-1.637113952309498
 20
0.0
 10
-1.636231069233392
 20
0.0247770871733312
 10
-1.633492429517205
 20
0.0495541743466625
 10
-1.629093357247075
 20
0.0722491900294252
 10
-1.622850754804404
 20
0.0935202536247025
 10
-1.615199667617265
 20
0.1116292667160456
 10
-1.605853752601433
 20
0.1270497800805065
 10
-1.595507502706547
 20
0.1385039756399077
 10
-1.583809508572029
 20
0.1462950724025522
 10
-1.571731323261947
 20
0.1497598160738642
 10
-1.567513012918581
 20
0.1499999993406578
  0
LINE
  5
152
330
11F
100
AcDbEntity
  8
AM_9
100
AcDbLine
 10
-0.4375
 20
-0.15
 30
0.0
 11
-0.4375
 21
0.5000000000000001
 31
0.0
  0
LINE
  5
153
330
11F
100
AcDbEntity
  8
AM_9
100
AcDbLine
 10
0.4375
 20
-0.15
 30
0.0
 11
0.4375
 21
0.5000000000000001
 31
0.0
  0
LINE
  5
154
330
11F
100
AcDbEntity
  8
AM_9
100
AcDbLine
 10
1.4173
 20
-0.5
 30
0.0
 11
1.4173
 21
0.5
 31
0.0
  0
LINE
  5
155
330
11F
100
AcDbEntity
  8
AM_9
100
AcDbLine
 10
-1.4173
 20
0.5
 30
0.0
 11
-1.4173
 21
-0.5
 31
0.0
  0
LINE
  5
156
330
11F
100
AcDbEntity
  8
AM_9
100
AcDbLine
 10
0.4375
 20
-0.15
 30
0.0
 11
-0.4375
 21
-0.15
 31
0.0
  0
ELLIPSE
  5
157
330
11F
100
AcDbEntity
  8
AM_9
100
AcDbEllipse
 10
-1.26439708952528
 20
-0.0000000000000001
 30
0.0
 11
-2.755455298081541E-17
 21
-0.1499999999999998
 31
0.0
210
0.0
220
0.0
230
1.0
 40
0.4999999999999988
 41
0.0
 42
6.283185307179586
  0
LINE
  5
158
330
11F
100
AcDbEntity
  8
AM_7
100
AcDbLine
 10
1.458665
 20
0.0
 30
0.0
 11
2.748635
 21
0.0
 31
0.0
  0
LINE
  5
159
330
11F
100
AcDbEntity
  8
AM_7
100
AcDbLine
 10
2.19
 20
0.7589999999999998
 30
0.0
 11
2.19
 21
-0.7589999999999998
 31
0.0
  0
LINE
  5
15A
330
11F
100
AcDbEntity
  8
AM_4
100
AcDbLine
 10
1.5173
 20
-0.5
 30
0.0
 11
1.5173
 21
-0.6066666666666665
 31
0.0
  0
ARC
  5
15B
330
11F
100
AcDbEntity
  8
AM_4
100
AcDbCircle
 10
1.600633333333334
 20
-0.606666666666666
 30
0.0
 40
0.0833333333333337
100
AcDbArc
 50
180.0
 51
270.0
  0
LINE
  5
15C
330
11F
100
AcDbEntity
  8
AM_4
100
AcDbLine
 10
1.5173
 20
0.6066666666666665
 30
0.0
 11
1.5173
 21
0.5
 31
0.0
  0
ARC
  5
15D
330
11F
100
AcDbEntity
  8
AM_4
100
AcDbCircle
 10
1.600633333333334
 20
0.606666666666666
 30
0.0
 40
0.0833333333333337
100
AcDbArc
 50
90.0
 51
180.0
  0
LINE
  5
15E
330
11F
100
AcDbEntity
  8
AM_4
100
AcDbLine
 10
1.600633333333334
 20
-0.5
 30
0.0
 11
1.600633333333334
 21
-0.6899999999999997
 31
0.0
  0
LWPOLYLINE
  5
15F
330
11F
100
AcDbEntity
  8
AM_4
100
AcDbPolyline
 90
       20
 70
     0
 43
0.0
 10
2.03
 20
0.6899999999999997
 10
2.032140695186946
 20
0.6895067513201452
 10
2.038744453112479
 20
0.6880248836083203
 10
2.049228912398575
 20
0.685796251888626
 10
2.063871820805275
 20
0.6829409327218396
 10
2.081788263482063
 20
0.6798601179067846
 10
2.103290384396641
 20
0.6767706830515652
 10
2.126929988850567
 20
0.6741497061531578
 10
2.153181233050637
 20
0.6722020690236463
 10
2.179300636844817
 20
0.6712782406513161
 10
2.206525437208576
 20
0.6713963732959348
 10
2.2319685811294
 20
0.6725038005855541
 10
2.256939965558993
 20
0.6745227638775722
 10
2.279607367282519
 20
0.6771480490050191
 10
2.300400415249581
 20
0.6802119167489494
 10
2.318058731664014
 20
0.6833001088507127
 10
2.332545545830736
 20
0.6861626867122566
 10
2.342655639677508
 20
0.688334035425642
 10
2.348620003712706
 20
0.6896813072556183
 10
2.34999999999742
 20
0.6899999999994016
  0
LINE
  5
160
330
11F
100
AcDbEntity
  8
AM_4
100
AcDbLine
 10
1.600633333333334
 20
-0.6899999999999997
 30
0.0
 11
2.03
 21
-0.6899999999999997
 31
0.0
  0
LINE
  5
161
330
11F
100
AcDbEntity
  8
AM_4
100
AcDbLine
 10
2.35
 20
-0.6899999999999997
 30
0.0
 11
2.606666666666666
 21
-0.6899999999999997
 31
0.0
  0
LINE
  5
162
330
11F
100
AcDbEntity
  8
AM_4
100
AcDbLine
 10
2.606666666666666
 20
0.6899999999999997
 30
0.0
 11
2.35
 21
0.6899999999999997
 31
0.0
  0
LINE
  5
163
330
11F
100
AcDbEntity
  8
AM_4
100
AcDbLine
 10
2.03
 20
0.6899999999999997
 30
0.0
 11
1.600633333333334
 21
0.6899999999999997
 31
0.0
  0
LINE
  5
164
330
11F
100
AcDbEntity
  8
AM_4
100
AcDbLine
 10
1.600633333333334
 20
0.6899999999999997
 30
0.0
 11
1.600633333333334
 21
0.5
 31
0.0
  0
LWPOLYLINE
  5
165
330
11F
100
AcDbEntity
  8
AM_4
100
AcDbPolyline
 90
       21
 70
     0
 43
0.0
 10
2.34999999999742
 20
-0.6899999999994016
 10
2.349914545399701
 20
-0.6899801894477786
 10
2.346758026933689
 20
-0.6892554526502804
 10
2.339543043560536
 20
-0.6876504358155735
 10
2.328078204457363
 20
-0.6852485611412613
 10
2.313045938683022
 20
-0.6823784162958157
 10
2.294181942129107
 20
-0.679230356407745
 10
2.272533212320225
 20
-0.6762482762535481
 10
2.247806266272367
 20
-0.6736776413243589
 10
2.222251654225126
 20
-0.6719673870064355
 10
2.194943172524084
 20
-0.6712111701652488
 10
2.168929179778923
 20
-0.6715236253958521
 10
2.142771120070542
 20
-0.6728525597033801
 10
2.118752490926386
 20
-0.6749638564761778
 10
2.096057487226439
 20
-0.6777353434093654
 10
2.076063058469616
 20
-0.6807948491618439
 10
2.058733146158331
 20
-0.6839086100624043
 10
2.045316239328239
 20
-0.6866100717307628
 10
2.035719718082652
 20
-0.6886961633322027
 10
2.031464933014099
 20
-0.6896617775868288
 10
2.03
 20
-0.6899999999999997
  0
LINE
  5
166
330
11F
100
AcDbEntity
  8
AM_4
100
AcDbLine
 10
2.606666666666666
 20
0.6899999999999998
 30
0.0
 11
2.606666666666666
 21
-0.6899999999999998
 31
0.0
  0
LINE
  5
167
330
11F
100
AcDbEntity
  8
AM_4
100
AcDbLine
 10
2.69
 20
0.6066666666666668
 30
0.0
 11
2.69
 21
-0.6066666666567361
 31
0.0
  0
ARC
  5
168
330
11F
100
AcDbEntity
  8
AM_4
100
AcDbCircle
 10
2.606666666666667
 20
-0.6066666666666674
 30
0.0
 40
0.0833333333333325
100
AcDbArc
 50
270.0
 51
0.0
  0
ARC
  5
169
330
11F
100
AcDbEntity
  8
AM_4
100
AcDbCircle
 10
2.606666666666667
 20
0.6066666666666674
 30
0.0
 40
0.0833333333333326
100
AcDbArc
 50
0.0
 51
90.0
  0
LWPOLYLINE
  5
16A
330
11F
100
AcDbEntity
  8
AM_4
100
AcDbPolyline
 90
       14
 70
     0
 43
0.0
 10
1.702415333488642
 20
0.3133974596215561
 10
1.69647692334995
 20
0.279343049306494
 10
1.691071189993458
 20
0.2443803789707558
 10
1.686215197245035
 20
0.2081337716574154
 10
1.682051651159914
 20
0.1711658761838699
 10
1.677321751739963
 20
0.1157412075081617
 10
1.67437470187632
 20
0.0594192080342464
 10
1.67332488309832
 20
0.000744040132084
 10
1.674322771006497
 20
-0.057937393027933
 10
1.676994414973508
 20
-0.1109082046365804
 10
1.681251746541048
 20
-0.1631178569235293
 10
1.68715945140799
 20
-0.2156362661399928
 10
1.694433571671283
 20
-0.2666554496099799
 10
1.702415333488642
 20
-0.313397459621556
  0
LINE
  5
16B
330
11F
100
AcDbEntity
  8
AM_4
100
AcDbLine
 10
-1.81
 20
0.313397459621556
 30
0.0
 11
-1.81
 21
-0.3133974596215561
 31
0.0
  0
LWPOLYLINE
  5
16C
330
11F
100
AcDbEntity
  8
AM_4
100
AcDbPolyline
 90
        5
 70
     0
 43
0.0
 10
1.702415333488642
 20
-0.313397459621556
 10
1.698167735453299
 20
-0.3632481720241085
 10
1.695561044167978
 20
-0.4110415984742827
 10
1.694413542058697
 20
-0.4570365404591318
 10
1.694550087781415
 20
-0.5
  0
LINE
  5
16D
330
11F
100
AcDbEntity
  8
AM_4
100
AcDbLine
 10
1.25
 20
-0.3133974596215559
 30
0.0
 11
1.702415333488642
 21
-0.313397459621556
 31
0.0
  0
LINE
  5
16E
330
11F
100
AcDbEntity
  8
AM_4
100
AcDbLine
 10
-1.81
 20
-0.3133974596215561
 30
0.0
 11
-1.76
 21
-0.5
 31
0.0
  0
LINE
  5
16F
330
11F
100
AcDbEntity
  8
AM_4
100
AcDbLine
 10
-1.81
 20
-0.3133974596215561
 30
0.0
 11
-1.25
 21
-0.3133974596215559
 31
0.0
  0
LINE
  5
170
330
11F
100
AcDbEntity
  8
AM_4
100
AcDbLine
 10
-1.76
 20
-0.5
 30
0.0
 11
1.694550087781415
 21
-0.5
 31
0.0
  0
LWPOLYLINE
  5
171
330
11F
100
AcDbEntity
  8
AM_4
100
AcDbPolyline
 90
        5
 70
     0
 43
0.0
 10
1.694550087781415
 20
0.5
 10
1.694396615063076
 20
0.4587519870342117
 10
1.695447139457533
 20
0.4139967518142001
 10
1.698032428364056
 20
0.3652101419200633
 10
1.702415333488642
 20
0.3133974596215561
  0
LINE
  5
172
330
11F
100
AcDbEntity
  8
AM_4
100
AcDbLine
 10
1.25
 20
0.3133974596215561
 30
0.0
 11
1.702415333488642
 21
0.3133974596215561
 31
0.0
  0
LINE
  5
173
330
11F
100
AcDbEntity
  8
AM_4
100
AcDbLine
 10
-1.76
 20
0.5
 30
0.0
 11
-1.81
 21
0.313397459621556
 31
0.0
  0
LINE
  5
174
330
11F
100
AcDbEntity
  8
AM_4
100
AcDbLine
 10
-1.76
 20
0.5
 30
0.0
 11
1.694550087781415
 21
0.5
 31
0.0
  0
LINE
  5
175
330
11F
100
AcDbEntity
  8
AM_4
100
AcDbLine
 10
-1.81
 20
0.313397459621556
 30
0.0
 11
-1.25
 21
0.3133974596215561
 31
0.0
  0
LINE
  5
176
330
11F
100
AcDbEntity
  8
AM_4
100
AcDbLine
 10
-1.25
 20
0.3750000000000001
 30
0.0
 11
-1.25
 21
-0.3749999999999998
 31
0.0
  0
LINE
  5
177
330
11F
100
AcDbEntity
  8
AM_4
100
AcDbLine
 10
-1.25
 20
-0.1249999999999999
 30
0.0
 11
1.25
 21
-0.1249999999999999
 31
0.0
  0
LINE
  5
178
330
11F
100
AcDbEntity
  8
AM_4
100
AcDbLine
 10
1.25
 20
0.3750000000000001
 30
0.0
 11
1.25
 21
-0.3749999999999998
 31
0.0
  0
LINE
  5
179
330
11F
100
AcDbEntity
  8
AM_4
100
AcDbLine
 10
-1.2
 20
-0.325
 30
0.0
 11
-1.2
 21
-0.1249999999999998
 31
0.0
  0
LINE
  5
17A
330
11F
100
AcDbEntity
  8
AM_4
100
AcDbLine
 10
1.2
 20
-0.325
 30
0.0
 11
1.2
 21
-0.1249999999999999
 31
0.0
  0
LINE
  5
17B
330
11F
100
AcDbEntity
  8
AM_4
100
AcDbLine
 10
1.25
 20
0.3750000000000001
 30
0.0
 11
-1.25
 21
0.3750000000000001
 31
0.0
  0
LINE
  5
17C
330
11F
100
AcDbEntity
  8
AM_4
100
AcDbLine
 10
-1.25
 20
0.3750000000000002
 30
0.0
 11
-1.2
 21
0.3250000000000006
 31
0.0
  0
LINE
  5
17D
330
11F
100
AcDbEntity
  8
AM_4
100
AcDbLine
 10
1.2
 20
-0.325
 30
0.0
 11
-1.2
 21
-0.325
 31
0.0
  0
LINE
  5
17E
330
11F
100
AcDbEntity
  8
AM_4
100
AcDbLine
 10
-1.2
 20
-0.3250000000000002
 30
0.0
 11
-1.25
 21
-0.3749999999999998
 31
0.0
  0
LINE
  5
17F
330
11F
100
AcDbEntity
  8
AM_4
100
AcDbLine
 10
1.25
 20
-0.3749999999999998
 30
0.0
 11
-1.25
 21
-0.3749999999999998
 31
0.0
  0
LINE
  5
180
330
11F
100
AcDbEntity
  8
AM_4
100
AcDbLine
 10
1.25
 20
-0.3749999999999996
 30
0.0
 11
1.2
 21
-0.325
 31
0.0
  0
LINE
  5
181
330
11F
100
AcDbEntity
  8
AM_4
100
AcDbLine
 10
1.25
 20
0.1250000000000001
 30
0.0
 11
-1.25
 21
0.1250000000000001
 31
0.0
  0
LINE
  5
182
330
11F
100
AcDbEntity
  8
AM_4
100
AcDbLine
 10
1.2
 20
0.3250000000000003
 30
0.0
 11
1.25
 21
0.3750000000000001
 31
0.0
  0
LINE
  5
183
330
11F
100
AcDbEntity
  8
AM_4
100
AcDbLine
 10
1.2
 20
0.1250000000000001
 30
0.0
 11
1.2
 21
0.3250000000000003
 31
0.0
  0
LINE
  5
184
330
11F
100
AcDbEntity
  8
AM_4
100
AcDbLine
 10
1.2
 20
0.3250000000000003
 30
0.0
 11
-1.2
 21
0.3250000000000003
 31
0.0
  0
LINE
  5
185
330
11F
100
AcDbEntity
  8
AM_4
100
AcDbLine
 10
-1.2
 20
0.1250000000000001
 30
0.0
 11
-1.2
 21
0.3250000000000003
 31
0.0
  0
ENDBLK
  5
122
330
11F
100
AcDbEntity
  8
0
100
AcDbBlockEnd
  0
ENDSEC
  0
SECTION
  2
ENTITIES
  0
INSERT
  5
6F
330
1F
100
AcDbEntity
  8
0
100
AcDbBlockReference
  2
1_065681_4
 10
0.0
 20
0.0
 30
0.0
  0
POINT
  5
187
330
1F
100
AcDbEntity
  8
ConnectionPoints
100
AcDbPoint
 10
0.0
 20
0.67
 30
0.0
  0
POINT
  5
188
330
1F
100
AcDbEntity
  8
ConnectionPoints
100
AcDbPoint
 10
0.0
 20
-1.04
 30
0.0000000000000001
  0
POINT
  5
189
330
1F
100
AcDbEntity
  8
ConnectionPoints
100
AcDbPoint
 10
-1.567505980849834
 20
-0.0000000000000001
 30
-0.9049999999999999
  0
POINT
  5
18A
330
1F
100
AcDbEntity
  8
ConnectionPoints
100
AcDbPoint
 10
0.0
 20
-1.04
 30
0.0000000000000001
  0
ENDSEC
  0
SECTION
  2
OBJECTS
  0
DICTIONARY
  5
C
330
0
100
AcDbDictionary
281
     1
  3
ACAD_DETAILVIEWSTYLE
350
192
  3
ACAD_GROUP
350
D
  3
ACAD_LAYOUT
350
1A
  3
ACAD_MATERIAL
350
43
  3
ACAD_MLEADERSTYLE
350
6B
  3
ACAD_MLINESTYLE
350
17
  3
ACAD_PLOTSETTINGS
350
19
  3
ACAD_PLOTSTYLENAME
350
E
  3
ACAD_SCALELIST
350
47
  3
ACAD_SECTIONVIEWSTYLE
350
193
  3
ACAD_TABLESTYLE
350
69
  3
ACAD_VISUALSTYLE
350
2A
  3
ACDB_RECOMPOSE_DATA
350
18F
  3
AcDbVariableDictionary
350
18B
  0
SUN
  5
6D
330
29
100
AcDbSun
 90
        1
290
     0
 63
     7
421
 16777215
 40
1.0
291
     1
 91
  2455826
 92
 54000000
292
     0
 70
     2
 71
   256
280
     1
  0
DICTIONARY
  5
192
102
{ACAD_REACTORS
330
C
102
}
330
C
100
AcDbDictionary
281
     1
  0
DICTIONARY
  5
D
102
{ACAD_REACTORS
330
C
102
}
330
C
100
AcDbDictionary
281
     1
  0
DICTIONARY
  5
1A
102
{ACAD_REACTORS
330
C
102
}
330
C
100
AcDbDictionary
281
     1
  3
Layout1
350
1E
  3
Layout2
350
26
  3
Model
350
22
  0
DICTIONARY
  5
43
102
{ACAD_REACTORS
330
C
102
}
330
C
100
AcDbDictionary
281
     1
  3
ByBlock
350
45
  3
ByLayer
350
44
  3
Global
350
46
  0
DICTIONARY
  5
6B
102
{ACAD_REACTORS
330
C
102
}
330
C
100
AcDbDictionary
281
     1
  3
Standard
350
6C
  0
DICTIONARY
  5
17
102
{ACAD_REACTORS
330
C
102
}
330
C
100
AcDbDictionary
281
     1
  3
Standard
350
18
  0
DICTIONARY
  5
19
102
{ACAD_REACTORS
330
C
102
}
330
C
100
AcDbDictionary
281
     1
  0
ACDBDICTIONARYWDFLT
  5
E
102
{ACAD_REACTORS
330
C
102
}
330
C
100
AcDbDictionary
281
     1
  3
Normal
350
F
100
AcDbDictionaryWithDefault
340
F
  0
DICTIONARY
  5
47
102
{ACAD_REACTORS
330
C
102
}
330
C
100
AcDbDictionary
281
     1
  3
A0
350
48
  3
A1
350
49
  3
A2
350
4A
  3
A3
350
4B
  3
A4
350
4C
  3
A5
350
4D
  3
A6
350
4E
  3
A7
350
4F
  3
A8
350
50
  3
A9
350
51
  3
B0
350
52
  3
B1
350
53
  3
B2
350
54
  3
B3
350
55
  3
B4
350
56
  3
B5
350
57
  3
B6
350
58
  3
B7
350
59
  3
B8
350
5A
  3
B9
350
5B
  3
C0
350
5C
  3
C1
350
5D
  3
C2
350
5E
  3
C3
350
5F
  3
C4
350
60
  3
C5
350
61
  3
C6
350
62
  3
C7
350
63
  3
C8
350
64
  3
C9
350
65
  3
D0
350
66
  3
D1
350
67
  3
D2
350
68
  0
DICTIONARY
  5
193
102
{ACAD_REACTORS
330
C
102
}
330
C
100
AcDbDictionary
281
     1
  0
DICTIONARY
  5
69
102
{ACAD_REACTORS
330
C
102
}
330
C
100
AcDbDictionary
281
     1
  3
Standard
350
6A
  0
DICTIONARY
  5
2A
102
{ACAD_REACTORS
330
C
102
}
330
C
100
AcDbDictionary
281
     1
  3
2dWireframe
350
2F
  3
Basic
350
32
  3
Brighten
350
36
  3
ColorChange
350
3A
  3
Conceptual
350
34
  3
Dim
350
35
  3
EdgeColorOff
350
3D
  3
Facepattern
350
39
  3
Flat
350
2B
  3
FlatWithEdges
350
2C
  3
Gouraud
350
2D
  3
GouraudWithEdges
350
2E
  3
Hidden
350
31
  3
JitterOff
350
3B
  3
Linepattern
350
38
  3
OverhangOff
350
3C
  3
Realistic
350
33
  3
Shaded
350
42
  3
Shaded with edges
350
41
  3
Shades of Gray
350
3E
  3
Sketchy
350
3F
  3
Thicken
350
37
  3
Wireframe
350
30
  3
X-Ray
350
40
  0
XRECORD
  5
18F
102
{ACAD_REACTORS
330
C
102
}
330
C
100
AcDbXrecord
280
     1
 90
        1
330
6A
  0
DICTIONARY
  5
18B
102
{ACAD_REACTORS
330
C
102
}
330
C
100
AcDbDictionary
281
     1
  3
CANNOSCALE
350
18C
  3
CMLEADERSTYLE
350
191
  3
CTABLESTYLE
350
190
  0
LAYOUT
  5
1E
102
{ACAD_REACTORS
330
1A
102
}
330
1A
100
AcDbPlotSettings
  1

  2
none_device
  4

  6

 40
0.0
 41
0.0
 42
0.0
 43
0.0
 44
0.0
 45
0.0
 46
0.0
 47
0.0
 48
0.0
 49
0.0
140
0.0
141
0.0
142
1.0
143
1.0
 70
   688
 72
     0
 73
     0
 74
     5
  7

 75
    16
 76
     0
 77
     2
 78
   300
147
1.0
148
0.0
149
0.0
100
AcDbLayout
  1
Layout1
 70
     1
 71
     1
 10
0.0
 20
0.0
 11
12.0
 21
9.0
 12
0.0
 22
0.0
 32
0.0
 14
1.000000000000000E+20
 24
1.000000000000000E+20
 34
1.000000000000000E+20
 15
-1.000000000000000E+20
 25
-1.000000000000000E+20
 35
-1.000000000000000E+20
146
0.0
 13
0.0
 23
0.0
 33
0.0
 16
1.0
 26
0.0
 36
0.0
 17
0.0
 27
1.0
 37
0.0
 76
     0
330
1B
  0
LAYOUT
  5
26
102
{ACAD_REACTORS
330
1A
102
}
330
1A
100
AcDbPlotSettings
  1

  2
none_device
  4

  6

 40
0.0
 41
0.0
 42
0.0
 43
0.0
 44
0.0
 45
0.0
 46
0.0
 47
0.0
 48
0.0
 49
0.0
140
0.0
141
0.0
142
1.0
143
1.0
 70
   688
 72
     0
 73
     0
 74
     5
  7

 75
    16
 76
     0
 77
     2
 78
   300
147
1.0
148
0.0
149
0.0
100
AcDbLayout
  1
Layout2
 70
     1
 71
     2
 10
0.0
 20
0.0
 11
0.0
 21
0.0
 12
0.0
 22
0.0
 32
0.0
 14
0.0
 24
0.0
 34
0.0
 15
0.0
 25
0.0
 35
0.0
146
0.0
 13
0.0
 23
0.0
 33
0.0
 16
1.0
 26
0.0
 36
0.0
 17
0.0
 27
1.0
 37
0.0
 76
     0
330
23
  0
LAYOUT
  5
22
102
{ACAD_REACTORS
330
1A
102
}
330
1A
100
AcDbPlotSettings
  1

  2
none_device
  4
Letter_(8.50_x_11.00_Inches)
  6

 40
6.35
 41
6.35
 42
6.35000508
 43
6.35000508
 44
215.9
 45
279.4
 46
0.0
 47
0.0
 48
0.0
 49
0.0
140
0.0
141
0.0
142
1.0
143
1.0
 70
  1712
 72
     0
 73
     0
 74
     0
  7

 75
     0
 76
     0
 77
     2
 78
   300
147
1.0
148
0.0
149
0.0
100
AcDbLayout
  1
Model
 70
     1
 71
     0
 10
0.0
 20
0.0
 11
12.0
 21
9.0
 12
0.0
 22
0.0
 32
0.0
 14
1.000000000000000E+20
 24
1.000000000000000E+20
 34
1.000000000000000E+20
 15
-1.000000000000000E+20
 25
-1.000000000000000E+20
 35
-1.000000000000000E+20
146
0.0
 13
0.0
 23
0.0
 33
0.0
 16
1.0
 26
0.0
 36
0.0
 17
0.0
 27
1.0
 37
0.0
 76
     0
330
1F
331
29
  0
MATERIAL
  5
45
102
{ACAD_REACTORS
330
43
102
}
330
43
100
AcDbMaterial
  1
ByBlock
 72
     1
 94
      127
  0
MATERIAL
  5
44
102
{ACAD_REACTORS
330
43
102
}
330
43
100
AcDbMaterial
  1
ByLayer
 72
     1
 94
      127
  0
MATERIAL
  5
46
102
{ACAD_REACTORS
330
43
102
}
330
43
100
AcDbMaterial
  1
Global
 72
     1
 94
      127
  0
MLEADERSTYLE
  5
6C
102
{ACAD_REACTORS
330
6B
102
}
330
6B
100
AcDbMLeaderStyle
179
     2
170
     2
171
     1
172
     0
 90
        2
 40
0.0
 41
0.0
173
     1
 91
-1056964608
340
14
 92
       -2
290
     1
 42
0.09
291
     1
 43
0.36
  3
Standard
341
0
 44
0.18
300

342
11
174
     1
178
     6
175
     1
176
     0
 93
-1056964608
 45
0.18
292
     0
297
     0
 46
0.18
343
0
 94
-1056964608
 47
1.0
 49
1.0
140
1.0
293
     1
141
0.0
294
     1
177
     0
142
1.0
295
     0
296
     0
143
0.125
271
     0
272
     9
273
     9
298
     0
  0
MLINESTYLE
  5
18
102
{ACAD_REACTORS
330
17
102
}
330
17
100
AcDbMlineStyle
  2
Standard
 70
     0
  3

 62
   256
 51
90.0
 52
90.0
 71
     2
 49
0.5
 62
   256
  6
BYLAYER
 49
-0.5
 62
   256
  6
BYLAYER
  0
ACDBPLACEHOLDER
  5
F
102
{ACAD_REACTORS
330
E
102
}
330
E
  0
SCALE
  5
48
102
{ACAD_REACTORS
330
47
102
}
330
47
100
AcDbScale
 70
     0
300
1:1
140
1.0
141
1.0
290
     1
  0
SCALE
  5
49
102
{ACAD_REACTORS
330
47
102
}
330
47
100
AcDbScale
 70
     0
300
1:2
140
1.0
141
2.0
290
     0
  0
SCALE
  5
4A
102
{ACAD_REACTORS
330
47
102
}
330
47
100
AcDbScale
 70
     0
300
1:4
140
1.0
141
4.0
290
     0
  0
SCALE
  5
4B
102
{ACAD_REACTORS
330
47
102
}
330
47
100
AcDbScale
 70
     0
300
1:5
140
1.0
141
5.0
290
     0
  0
SCALE
  5
4C
102
{ACAD_REACTORS
330
47
102
}
330
47
100
AcDbScale
 70
     0
300
1:8
140
1.0
141
8.0
290
     0
  0
SCALE
  5
4D
102
{ACAD_REACTORS
330
47
102
}
330
47
100
AcDbScale
 70
     0
300
1:10
140
1.0
141
10.0
290
     0
  0
SCALE
  5
4E
102
{ACAD_REACTORS
330
47
102
}
330
47
100
AcDbScale
 70
     0
300
1:16
140
1.0
141
16.0
290
     0
  0
SCALE
  5
4F
102
{ACAD_REACTORS
330
47
102
}
330
47
100
AcDbScale
 70
     0
300
1:20
140
1.0
141
20.0
290
     0
  0
SCALE
  5
50
102
{ACAD_REACTORS
330
47
102
}
330
47
100
AcDbScale
 70
     0
300
1:30
140
1.0
141
30.0
290
     0
  0
SCALE
  5
51
102
{ACAD_REACTORS
330
47
102
}
330
47
100
AcDbScale
 70
     0
300
1:40
140
1.0
141
40.0
290
     0
  0
SCALE
  5
52
102
{ACAD_REACTORS
330
47
102
}
330
47
100
AcDbScale
 70
     0
300
1:50
140
1.0
141
50.0
290
     0
  0
SCALE
  5
53
102
{ACAD_REACTORS
330
47
102
}
330
47
100
AcDbScale
 70
     0
300
1:100
140
1.0
141
100.0
290
     0
  0
SCALE
  5
54
102
{ACAD_REACTORS
330
47
102
}
330
47
100
AcDbScale
 70
     0
300
2:1
140
2.0
141
1.0
290
     0
  0
SCALE
  5
55
102
{ACAD_REACTORS
330
47
102
}
330
47
100
AcDbScale
 70
     0
300
4:1
140
4.0
141
1.0
290
     0
  0
SCALE
  5
56
102
{ACAD_REACTORS
330
47
102
}
330
47
100
AcDbScale
 70
     0
300
8:1
140
8.0
141
1.0
290
     0
  0
SCALE
  5
57
102
{ACAD_REACTORS
330
47
102
}
330
47
100
AcDbScale
 70
     0
300
10:1
140
10.0
141
1.0
290
     0
  0
SCALE
  5
58
102
{ACAD_REACTORS
330
47
102
}
330
47
100
AcDbScale
 70
     0
300
100:1
140
100.0
141
1.0
290
     0
  0
SCALE
  5
59
102
{ACAD_REACTORS
330
47
102
}
330
47
100
AcDbScale
 70
     0
300
1/128" = 1'-0"
140
0.0078125
141
12.0
290
     0
  0
SCALE
  5
5A
102
{ACAD_REACTORS
330
47
102
}
330
47
100
AcDbScale
 70
     0
300
1/64" = 1'-0"
140
0.015625
141
12.0
290
     0
  0
SCALE
  5
5B
102
{ACAD_REACTORS
330
47
102
}
330
47
100
AcDbScale
 70
     0
300
1/32" = 1'-0"
140
0.03125
141
12.0
290
     0
  0
SCALE
  5
5C
102
{ACAD_REACTORS
330
47
102
}
330
47
100
AcDbScale
 70
     0
300
1/16" = 1'-0"
140
0.0625
141
12.0
290
     0
  0
SCALE
  5
5D
102
{ACAD_REACTORS
330
47
102
}
330
47
100
AcDbScale
 70
     0
300
3/32" = 1'-0"
140
0.09375
141
12.0
290
     0
  0
SCALE
  5
5E
102
{ACAD_REACTORS
330
47
102
}
330
47
100
AcDbScale
 70
     0
300
1/8" = 1'-0"
140
0.125
141
12.0
290
     0
  0
SCALE
  5
5F
102
{ACAD_REACTORS
330
47
102
}
330
47
100
AcDbScale
 70
     0
300
3/16" = 1'-0"
140
0.1875
141
12.0
290
     0
  0
SCALE
  5
60
102
{ACAD_REACTORS
330
47
102
}
330
47
100
AcDbScale
 70
     0
300
1/4" = 1'-0"
140
0.25
141
12.0
290
     0
  0
SCALE
  5
61
102
{ACAD_REACTORS
330
47
102
}
330
47
100
AcDbScale
 70
     0
300
3/8" = 1'-0"
140
0.375
141
12.0
290
     0
  0
SCALE
  5
62
102
{ACAD_REACTORS
330
47
102
}
330
47
100
AcDbScale
 70
     0
300
1/2" = 1'-0"
140
0.5
141
12.0
290
     0
  0
SCALE
  5
63
102
{ACAD_REACTORS
330
47
102
}
330
47
100
AcDbScale
 70
     0
300
3/4" = 1'-0"
140
0.75
141
12.0
290
     0
  0
SCALE
  5
64
102
{ACAD_REACTORS
330
47
102
}
330
47
100
AcDbScale
 70
     0
300
1" = 1'-0"
140
1.0
141
12.0
290
     0
  0
SCALE
  5
65
102
{ACAD_REACTORS
330
47
102
}
330
47
100
AcDbScale
 70
     0
300
1-1/2" = 1'-0"
140
1.5
141
12.0
290
     0
  0
SCALE
  5
66
102
{ACAD_REACTORS
330
47
102
}
330
47
100
AcDbScale
 70
     0
300
3" = 1'-0"
140
3.0
141
12.0
290
     0
  0
SCALE
  5
67
102
{ACAD_REACTORS
330
47
102
}
330
47
100
AcDbScale
 70
     0
300
6" = 1'-0"
140
6.0
141
12.0
290
     0
  0
SCALE
  5
68
102
{ACAD_REACTORS
330
47
102
}
330
47
100
AcDbScale
 70
     0
300
1'-0" = 1'-0"
140
12.0
141
12.0
290
     0
  0
TABLESTYLE
  5
6A
102
{ACAD_REACTORS
330
69
102
}
102
{ACAD_XDICTIONARY
360
18D
102
}
330
69
100
AcDbTableStyle
  3
Standard
 70
     0
 71
     0
 40
0.06
 41
0.06
280
     0
281
     0
  7
Standard
140
0.18
170
     2
 62
     0
 63
   257
283
     0
 90
        4
 91
        0
  1

274
    -2
284
     1
 64
     0
275
    -2
285
     1
 65
     0
276
    -2
286
     1
 66
     0
277
    -2
287
     1
 67
     0
278
    -2
288
     1
 68
     0
279
    -2
289
     1
 69
     0
  7
Standard
140
0.25
170
     5
 62
     0
 63
   257
283
     0
 90
        4
 91
        0
  1

274
    -2
284
     1
 64
     0
275
    -2
285
     1
 65
     0
276
    -2
286
     1
 66
     0
277
    -2
287
     1
 67
     0
278
    -2
288
     1
 68
     0
279
    -2
289
     1
 69
     0
  7
Standard
140
0.18
170
     5
 62
     0
 63
   257
283
     0
 90
        4
 91
        0
  1

274
    -2
284
     1
 64
     0
275
    -2
285
     1
 65
     0
276
    -2
286
     1
 66
     0
277
    -2
287
     1
 67
     0
278
    -2
288
     1
 68
     0
279
    -2
289
     1
 69
     0
  0
VISUALSTYLE
  5
2F
102
{ACAD_REACTORS
330
2A
102
}
330
2A
100
AcDbVisualStyle
  2
2dWireframe
 70
     4
177
     3
291
     0
 70
    58
 90
        0
176
     1
 90
        2
176
     1
 90
        0
176
     1
 90
        0
176
     1
 40
0.6
176
     1
 40
30.0
176
     1
 62
     7
420
 16777215
176
     1
 90
        1
176
     1
 90
        4
176
     1
 62
     7
176
     1
 62
   257
176
     1
 90
        1
176
     1
 90
        1
176
     1
 40
1.0
176
     1
 90
        0
176
     1
 62
   257
176
     1
 40
1.0
176
     1
 90
        1
176
     1
 90
        6
176
     1
 90
        2
176
     1
 62
     7
176
     1
 90
        5
176
     1
 90
        0
176
     1
 90
        0
176
     1
290
     0
176
     1
 90
        1
176
     1
 40
0.0
176
     1
 90
        0
176
     1
290
     1
176
     1
290
     1
176
     1
290
     0
176
     1
290
     0
176
     1
290
     0
176
     1
290
     0
176
     1
290
     0
176
     1
290
     0
176
     1
290
     0
176
     1
 90
       50
176
     1
 40
0.0
176
     1
 40
1.0
176
     1
 90
        0
176
     1
 62
    18
420
        0
176
     1
 90
       50
176
     1
 90
        3
176
     1
 62
     5
420
      255
176
     1
290
     0
176
     1
 90
       50
176
     1
 90
       50
176
     1
 90
       50
176
     1
290
     0
176
     1
 90
       50
176
     1
 62
   256
176
     0
 40
1.0
176
     0
 90
        2
176
     1
  1
strokes_ogs.tif
176
     1
290
     0
176
     1
 40
1.0
176
     1
 40
1.0
176
     1
  0
VISUALSTYLE
  5
32
102
{ACAD_REACTORS
330
2A
102
}
330
2A
100
AcDbVisualStyle
  2
Basic
 70
     7
177
     3
291
     1
 70
    58
 90
        1
176
     1
 90
        0
176
     1
 90
        1
176
     1
 90
        0
176
     1
 40
0.6
176
     1
 40
30.0
176
     1
 62
     7
420
 16777215
176
     1
 90
        0
176
     1
 90
        4
176
     1
 62
     7
176
     1
 62
   257
176
     1
 90
        1
176
     1
 90
        1
176
     1
 40
1.0
176
     1
 90
        8
176
     1
 62
     7
176
     1
 40
1.0
176
     1
 90
        1
176
     1
 90
        6
176
     1
 90
        2
176
     1
 62
     7
176
     1
 90
        5
176
     1
 90
        0
176
     1
 90
        0
176
     1
290
     0
176
     1
 90
        1
176
     1
 40
0.0
176
     1
 90
        0
176
     1
290
     0
176
     1
290
     1
176
     1
290
     1
176
     1
290
     0
176
     1
290
     0
176
     1
290
     0
176
     1
290
     0
176
     1
290
     0
176
     1
290
     0
176
     1
 90
       50
176
     1
 40
0.0
176
     1
 40
1.0
176
     1
 90
        0
176
     1
 62
    18
420
        0
176
     1
 90
       50
176
     1
 90
        3
176
     1
 62
     5
420
      255
176
     1
290
     0
176
     1
 90
       50
176
     1
 90
       50
176
     1
 90
       50
176
     1
290
     0
176
     1
 90
       50
176
     1
 62
   256
176
     0
 40
1.0
176
     0
 90
        2
176
     1
  1
strokes_ogs.tif
176
     1
290
     0
176
     1
 40
1.0
176
     1
 40
1.0
176
     1
  0
VISUALSTYLE
  5
36
102
{ACAD_REACTORS
330
2A
102
}
330
2A
100
AcDbVisualStyle
  2
Brighten
 70
    12
177
     3
291
     1
 70
    58
 90
        2
176
     1
 90
        2
176
     1
 90
        0
176
     1
 90
        0
176
     1
 40
0.6
176
     1
 40
30.0
176
     1
 62
     7
420
 16777215
176
     1
 90
        1
176
     1
 90
        4
176
     1
 62
     7
176
     1
 62
   257
176
     1
 90
        1
176
     1
 90
        1
176
     1
 40
1.0
176
     1
 90
        8
176
     1
 62
     7
176
     1
 40
1.0
176
     1
 90
        1
176
     1
 90
        6
176
     1
 90
        2
176
     1
 62
     7
176
     1
 90
        5
176
     1
 90
        0
176
     1
 90
        0
176
     1
290
     0
176
     1
 90
        1
176
     1
 40
50.0
176
     1
 90
        0
176
     1
290
     0
176
     1
290
     1
176
     1
290
     1
176
     1
290
     0
176
     1
290
     0
176
     1
290
     0
176
     1
290
     0
176
     1
290
     0
176
     1
290
     0
176
     1
 90
       50
176
     1
 40
0.0
176
     1
 40
1.0
176
     1
 90
        0
176
     1
 62
    18
420
        0
176
     1
 90
       50
176
     1
 90
        3
176
     1
 62
     5
420
      255
176
     1
290
     0
176
     1
 90
       50
176
     1
 90
       50
176
     1
 90
       50
176
     1
290
     0
176
     1
 90
       50
176
     1
 62
   256
176
     0
 40
1.0
176
     0
 90
        2
176
     1
  1
strokes_ogs.tif
176
     1
290
     0
176
     1
 40
1.0
176
     1
 40
1.0
176
     1
  0
VISUALSTYLE
  5
3A
102
{ACAD_REACTORS
330
2A
102
}
330
2A
100
AcDbVisualStyle
  2
ColorChange
 70
    16
177
     3
291
     1
 70
    58
 90
        2
176
     1
 90
        2
176
     1
 90
        3
176
     1
 90
        0
176
     1
 40
0.6
176
     1
 40
30.0
176
     1
 62
     8
420
  8421504
176
     1
 90
        1
176
     1
 90
        4
176
     1
 62
     7
176
     1
 62
   257
176
     1
 90
        1
176
     1
 90
        1
176
     1
 40
1.0
176
     1
 90
        8
176
     1
 62
     8
420
  8421504
176
     1
 40
1.0
176
     1
 90
        1
176
     1
 90
        6
176
     1
 90
        2
176
     1
 62
     7
176
     1
 90
        5
176
     1
 90
        0
176
     1
 90
        0
176
     1
290
     0
176
     1
 90
        1
176
     1
 40
0.0
176
     1
 90
        0
176
     1
290
     0
176
     1
290
     1
176
     1
290
     1
176
     1
290
     0
176
     1
290
     0
176
     1
290
     0
176
     1
290
     0
176
     1
290
     0
176
     1
290
     0
176
     1
 90
       50
176
     1
 40
0.0
176
     1
 40
1.0
176
     1
 90
        0
176
     1
 62
    18
420
        0
176
     1
 90
       50
176
     1
 90
        3
176
     1
 62
     5
420
      255
176
     1
290
     0
176
     1
 90
       50
176
     1
 90
       50
176
     1
 90
       50
176
     1
290
     0
176
     1
 90
       50
176
     1
 62
   256
176
     0
 40
1.0
176
     0
 90
        2
176
     1
  1
strokes_ogs.tif
176
     1
290
     0
176
     1
 40
1.0
176
     1
 40
1.0
176
     1
  0
VISUALSTYLE
  5
34
102
{ACAD_REACTORS
330
2A
102
}
330
2A
100
AcDbVisualStyle
  2
Conceptual
 70
     9
177
     3
291
     0
 70
    58
 90
        3
176
     1
 90
        2
176
     1
 90
        0
176
     1
 90
        0
176
     1
 40
0.6
176
     1
 40
30.0
176
     1
 62
     7
420
 16777215
176
     1
 90
        2
176
     1
 90
        2
176
     1
 62
     7
176
     1
 62
   257
176
     1
 90
        1
176
     1
 90
        1
176
     1
 40
179.0
176
     1
 90
        8
176
     1
 62
     7
176
     1
 40
1.0
176
     1
 90
        1
176
     1
 90
        6
176
     1
 90
        2
176
     1
 62
     7
176
     1
 90
        3
176
     1
 90
        0
176
     1
 90
        0
176
     1
290
     0
176
     1
 90
        1
176
     1
 40
0.0
176
     1
 90
        0
176
     1
290
     0
176
     1
290
     1
176
     1
290
     1
176
     1
290
     0
176
     1
290
     0
176
     1
290
     0
176
     1
290
     0
176
     1
290
     0
176
     1
290
     0
176
     1
 90
       50
176
     1
 40
0.0
176
     1
 40
1.0
176
     1
 90
        0
176
     1
 62
    18
420
        0
176
     1
 90
       50
176
     1
 90
        3
176
     1
 62
     5
420
      255
176
     1
290
     0
176
     1
 90
       50
176
     1
 90
       50
176
     1
 90
       50
176
     1
290
     0
176
     1
 90
       50
176
     1
 62
   256
176
     0
 40
1.0
176
     0
 90
        2
176
     1
  1
strokes_ogs.tif
176
     1
290
     0
176
     1
 40
1.0
176
     1
 40
1.0
176
     1
  0
VISUALSTYLE
  5
35
102
{ACAD_REACTORS
330
2A
102
}
330
2A
100
AcDbVisualStyle
  2
Dim
 70
    11
177
     3
291
     1
 70
    58
 90
        2
176
     1
 90
        2
176
     1
 90
        0
176
     1
 90
        0
176
     1
 40
0.6
176
     1
 40
30.0
176
     1
 62
     7
420
 16777215
176
     1
 90
        1
176
     1
 90
        4
176
     1
 62
     7
176
     1
 62
   257
176
     1
 90
        1
176
     1
 90
        1
176
     1
 40
1.0
176
     1
 90
        8
176
     1
 62
     7
176
     1
 40
1.0
176
     1
 90
        1
176
     1
 90
        6
176
     1
 90
        2
176
     1
 62
     7
176
     1
 90
        5
176
     1
 90
        0
176
     1
 90
        0
176
     1
290
     0
176
     1
 90
        1
176
     1
 40
-50.0
176
     1
 90
        0
176
     1
290
     0
176
     1
290
     1
176
     1
290
     1
176
     1
290
     0
176
     1
290
     0
176
     1
290
     0
176
     1
290
     0
176
     1
290
     0
176
     1
290
     0
176
     1
 90
       50
176
     1
 40
0.0
176
     1
 40
1.0
176
     1
 90
        0
176
     1
 62
    18
420
        0
176
     1
 90
       50
176
     1
 90
        3
176
     1
 62
     5
420
      255
176
     1
290
     0
176
     1
 90
       50
176
     1
 90
       50
176
     1
 90
       50
176
     1
290
     0
176
     1
 90
       50
176
     1
 62
   256
176
     0
 40
1.0
176
     0
 90
        2
176
     1
  1
strokes_ogs.tif
176
     1
290
     0
176
     1
 40
1.0
176
     1
 40
1.0
176
     1
  0
VISUALSTYLE
  5
3D
102
{ACAD_REACTORS
330
2A
102
}
330
2A
100
AcDbVisualStyle
  2
EdgeColorOff
 70
    22
177
     3
291
     1
 70
    58
 90
        2
176
     0
 90
        2
176
     0
 90
        0
176
     0
 90
        0
176
     0
 40
0.6
176
     0
 40
30.0
176
     0
 62
     7
420
 16777215
176
     0
 90
        1
176
     0
 90
        4
176
     0
 62
     7
176
     0
 62
   257
176
     0
 90
        1
176
     0
 90
        1
176
     0
 40
1.0
176
     0
 90
        8
176
     2
 62
     7
176
     0
 40
1.0
176
     0
 90
        1
176
     0
 90
        6
176
     0
 90
        2
176
     0
 62
     7
176
     0
 90
        5
176
     0
 90
        0
176
     0
 90
        0
176
     0
290
     0
176
     0
 90
        1
176
     0
 40
0.0
176
     0
 90
        0
176
     0
290
     0
176
     0
290
     1
176
     0
290
     1
176
     0
290
     0
176
     0
290
     0
176
     0
290
     0
176
     0
290
     0
176
     0
290
     0
176
     0
290
     0
176
     0
 90
       50
176
     0
 40
0.0
176
     0
 40
1.0
176
     0
 90
        0
176
     0
 62
    18
420
        0
176
     0
 90
       50
176
     0
 90
        3
176
     0
 62
     5
420
      255
176
     0
290
     0
176
     0
 90
       50
176
     0
 90
       50
176
     0
 90
       50
176
     0
290
     0
176
     0
 90
       50
176
     0
 62
   256
176
     0
 40
1.0
176
     0
 90
        2
176
     0
  1
strokes_ogs.tif
176
     0
290
     0
176
     0
 40
1.0
176
     0
 40
1.0
176
     0
  0
VISUALSTYLE
  5
39
102
{ACAD_REACTORS
330
2A
102
}
330
2A
100
AcDbVisualStyle
  2
Facepattern
 70
    15
177
     3
291
     1
 70
    58
 90
        2
176
     1
 90
        2
176
     1
 90
        0
176
     1
 90
        0
176
     1
 40
0.6
176
     1
 40
30.0
176
     1
 62
     7
420
 16777215
176
     1
 90
        1
176
     1
 90
        4
176
     1
 62
     7
176
     1
 62
   257
176
     1
 90
        1
176
     1
 90
        1
176
     1
 40
1.0
176
     1
 90
        8
176
     1
 62
     7
176
     1
 40
1.0
176
     1
 90
        1
176
     1
 90
        6
176
     1
 90
        2
176
     1
 62
     7
176
     1
 90
        5
176
     1
 90
        0
176
     1
 90
        0
176
     1
290
     0
176
     1
 90
        1
176
     1
 40
0.0
176
     1
 90
        0
176
     1
290
     0
176
     1
290
     1
176
     1
290
     1
176
     1
290
     0
176
     1
290
     0
176
     1
290
     0
176
     1
290
     0
176
     1
290
     0
176
     1
290
     0
176
     1
 90
       50
176
     1
 40
0.0
176
     1
 40
1.0
176
     1
 90
        0
176
     1
 62
    18
420
        0
176
     1
 90
       50
176
     1
 90
        3
176
     1
 62
     5
420
      255
176
     1
290
     0
176
     1
 90
       50
176
     1
 90
       50
176
     1
 90
       50
176
     1
290
     0
176
     1
 90
       50
176
     1
 62
   256
176
     0
 40
1.0
176
     0
 90
        2
176
     1
  1
strokes_ogs.tif
176
     1
290
     0
176
     1
 40
1.0
176
     1
 40
1.0
176
     1
  0
VISUALSTYLE
  5
2B
102
{ACAD_REACTORS
330
2A
102
}
330
2A
100
AcDbVisualStyle
  2
Flat
 70
     0
177
     3
291
     1
 70
    58
 90
        2
176
     1
 90
        1
176
     1
 90
        1
176
     1
 90
        2
176
     1
 40
0.6
176
     1
 40
30.0
176
     1
 62
     7
420
 16777215
176
     1
 90
        0
176
     1
 90
        0
176
     1
 62
     7
176
     1
 62
   257
176
     1
 90
        1
176
     1
 90
        1
176
     1
 40
1.0
176
     1
 90
        8
176
     1
 62
     7
176
     1
 40
1.0
176
     1
 90
        1
176
     1
 90
        6
176
     1
 90
        2
176
     1
 62
     7
176
     1
 90
        5
176
     1
 90
        0
176
     1
 90
        0
176
     1
290
     0
176
     1
 90
       13
176
     1
 40
0.0
176
     1
 90
        0
176
     1
290
     0
176
     1
290
     1
176
     1
290
     1
176
     1
290
     0
176
     1
290
     0
176
     1
290
     0
176
     1
290
     0
176
     1
290
     0
176
     1
290
     0
176
     1
 90
       50
176
     1
 40
0.0
176
     1
 40
1.0
176
     1
 90
        0
176
     1
 62
    18
420
        0
176
     1
 90
       50
176
     1
 90
        3
176
     1
 62
     5
420
      255
176
     1
290
     0
176
     1
 90
       50
176
     1
 90
       50
176
     1
 90
       50
176
     1
290
     0
176
     1
 90
       50
176
     1
 62
   256
176
     0
 40
1.0
176
     0
 90
        2
176
     1
  1
strokes_ogs.tif
176
     1
290
     0
176
     1
 40
1.0
176
     1
 40
1.0
176
     1
  0
VISUALSTYLE
  5
2C
102
{ACAD_REACTORS
330
2A
102
}
330
2A
100
AcDbVisualStyle
  2
FlatWithEdges
 70
     1
177
     3
291
     1
 70
    58
 90
        2
176
     1
 90
        1
176
     1
 90
        1
176
     1
 90
        2
176
     1
 40
0.6
176
     1
 40
30.0
176
     1
 62
     7
420
 16777215
176
     1
 90
        1
176
     1
 90
        0
176
     1
 62
     7
176
     1
 62
   257
176
     1
 90
        1
176
     1
 90
        1
176
     1
 40
1.0
176
     1
 90
        0
176
     1
 62
   257
176
     1
 40
1.0
176
     1
 90
        1
176
     1
 90
        6
176
     1
 90
        2
176
     1
 62
     7
176
     1
 90
        5
176
     1
 90
        0
176
     1
 90
        0
176
     1
290
     0
176
     1
 90
       13
176
     1
 40
0.0
176
     1
 90
        0
176
     1
290
     0
176
     1
290
     1
176
     1
290
     1
176
     1
290
     0
176
     1
290
     0
176
     1
290
     0
176
     1
290
     0
176
     1
290
     0
176
     1
290
     0
176
     1
 90
       50
176
     1
 40
0.0
176
     1
 40
1.0
176
     1
 90
        0
176
     1
 62
    18
420
        0
176
     1
 90
       50
176
     1
 90
        3
176
     1
 62
     5
420
      255
176
     1
290
     0
176
     1
 90
       50
176
     1
 90
       50
176
     1
 90
       50
176
     1
290
     0
176
     1
 90
       50
176
     1
 62
   256
176
     0
 40
1.0
176
     0
 90
        2
176
     1
  1
strokes_ogs.tif
176
     1
290
     0
176
     1
 40
1.0
176
     1
 40
1.0
176
     1
  0
VISUALSTYLE
  5
2D
102
{ACAD_REACTORS
330
2A
102
}
330
2A
100
AcDbVisualStyle
  2
Gouraud
 70
     2
177
     3
291
     1
 70
    58
 90
        2
176
     1
 90
        2
176
     1
 90
        1
176
     1
 90
        2
176
     1
 40
0.6
176
     1
 40
30.0
176
     1
 62
     7
420
 16777215
176
     1
 90
        0
176
     1
 90
        0
176
     1
 62
     7
176
     1
 62
   257
176
     1
 90
        1
176
     1
 90
        1
176
     1
 40
1.0
176
     1
 90
        0
176
     1
 62
     7
176
     1
 40
1.0
176
     1
 90
        1
176
     1
 90
        6
176
     1
 90
        2
176
     1
 62
     7
176
     1
 90
        5
176
     1
 90
        0
176
     1
 90
        0
176
     1
290
     0
176
     1
 90
       13
176
     1
 40
0.0
176
     1
 90
        0
176
     1
290
     0
176
     1
290
     1
176
     1
290
     1
176
     1
290
     0
176
     1
290
     0
176
     1
290
     0
176
     1
290
     0
176
     1
290
     0
176
     1
290
     0
176
     1
 90
       50
176
     1
 40
0.0
176
     1
 40
1.0
176
     1
 90
        0
176
     1
 62
    18
420
        0
176
     1
 90
       50
176
     1
 90
        3
176
     1
 62
     5
420
      255
176
     1
290
     0
176
     1
 90
       50
176
     1
 90
       50
176
     1
 90
       50
176
     1
290
     0
176
     1
 90
       50
176
     1
 62
   256
176
     0
 40
1.0
176
     0
 90
        2
176
     1
  1
strokes_ogs.tif
176
     1
290
     0
176
     1
 40
1.0
176
     1
 40
1.0
176
     1
  0
VISUALSTYLE
  5
2E
102
{ACAD_REACTORS
330
2A
102
}
330
2A
100
AcDbVisualStyle
  2
GouraudWithEdges
 70
     3
177
     3
291
     1
 70
    58
 90
        2
176
     1
 90
        2
176
     1
 90
        1
176
     1
 90
        2
176
     1
 40
0.6
176
     1
 40
30.0
176
     1
 62
     7
420
 16777215
176
     1
 90
        1
176
     1
 90
        0
176
     1
 62
     7
176
     1
 62
   257
176
     1
 90
        1
176
     1
 90
        1
176
     1
 40
1.0
176
     1
 90
        0
176
     1
 62
   257
176
     1
 40
1.0
176
     1
 90
        1
176
     1
 90
        6
176
     1
 90
        2
176
     1
 62
     7
176
     1
 90
        5
176
     1
 90
        0
176
     1
 90
        0
176
     1
290
     0
176
     1
 90
       13
176
     1
 40
0.0
176
     1
 90
        0
176
     1
290
     0
176
     1
290
     1
176
     1
290
     1
176
     1
290
     0
176
     1
290
     0
176
     1
290
     0
176
     1
290
     0
176
     1
290
     0
176
     1
290
     0
176
     1
 90
       50
176
     1
 40
0.0
176
     1
 40
1.0
176
     1
 90
        0
176
     1
 62
    18
420
        0
176
     1
 90
       50
176
     1
 90
        3
176
     1
 62
     5
420
      255
176
     1
290
     0
176
     1
 90
       50
176
     1
 90
       50
176
     1
 90
       50
176
     1
290
     0
176
     1
 90
       50
176
     1
 62
   256
176
     0
 40
1.0
176
     0
 90
        2
176
     1
  1
strokes_ogs.tif
176
     1
290
     0
176
     1
 40
1.0
176
     1
 40
1.0
176
     1
  0
VISUALSTYLE
  5
31
102
{ACAD_REACTORS
330
2A
102
}
330
2A
100
AcDbVisualStyle
  2
Hidden
 70
     6
177
     3
291
     0
 70
    58
 90
        1
176
     1
 90
        2
176
     1
 90
        2
176
     1
 90
        0
176
     1
 40
0.6
176
     1
 40
30.0
176
     1
 62
     7
420
 16777215
176
     1
 90
        2
176
     1
 90
        2
176
     1
 62
     7
176
     1
 62
   257
176
     1
 90
        2
176
     1
 90
        1
176
     1
 40
40.0
176
     1
 90
        0
176
     1
 62
   257
176
     1
 40
1.0
176
     1
 90
        1
176
     1
 90
        6
176
     1
 90
        2
176
     1
 62
     7
176
     1
 90
        3
176
     1
 90
        0
176
     1
 90
        0
176
     1
290
     0
176
     1
 90
        1
176
     1
 40
0.0
176
     1
 90
        0
176
     1
290
     0
176
     1
290
     1
176
     1
290
     1
176
     1
290
     0
176
     1
290
     0
176
     1
290
     0
176
     1
290
     0
176
     1
290
     0
176
     1
290
     0
176
     1
 90
       50
176
     1
 40
0.0
176
     1
 40
1.0
176
     1
 90
        0
176
     1
 62
    18
420
        0
176
     1
 90
       50
176
     1
 90
        3
176
     1
 62
     5
420
      255
176
     1
290
     0
176
     1
 90
       50
176
     1
 90
       50
176
     1
 90
       50
176
     1
290
     0
176
     1
 90
       50
176
     1
 62
   256
176
     0
 40
1.0
176
     0
 90
        2
176
     1
  1
strokes_ogs.tif
176
     1
290
     0
176
     1
 40
1.0
176
     1
 40
1.0
176
     1
  0
VISUALSTYLE
  5
3B
102
{ACAD_REACTORS
330
2A
102
}
330
2A
100
AcDbVisualStyle
  2
JitterOff
 70
    20
177
     3
291
     1
 70
    58
 90
        2
176
     0
 90
        2
176
     0
 90
        0
176
     0
 90
        0
176
     0
 40
0.6
176
     0
 40
30.0
176
     0
 62
     7
420
 16777215
176
     0
 90
        1
176
     0
 90
        4
176
     0
 62
     7
176
     0
 62
   257
176
     0
 90
        1
176
     0
 90
        1
176
     0
 40
1.0
176
     0
 90
       10
176
     2
 62
     7
176
     0
 40
1.0
176
     0
 90
        1
176
     0
 90
        6
176
     0
 90
        2
176
     0
 62
     7
176
     0
 90
        5
176
     0
 90
        0
176
     0
 90
        0
176
     0
290
     0
176
     0
 90
        1
176
     0
 40
0.0
176
     0
 90
        0
176
     0
290
     0
176
     0
290
     1
176
     0
290
     1
176
     0
290
     0
176
     0
290
     0
176
     0
290
     0
176
     0
290
     0
176
     0
290
     0
176
     0
290
     0
176
     0
 90
       50
176
     0
 40
0.0
176
     0
 40
1.0
176
     0
 90
        0
176
     0
 62
    18
420
        0
176
     0
 90
       50
176
     0
 90
        3
176
     0
 62
     5
420
      255
176
     0
290
     0
176
     0
 90
       50
176
     0
 90
       50
176
     0
 90
       50
176
     0
290
     0
176
     0
 90
       50
176
     0
 62
   256
176
     0
 40
1.0
176
     0
 90
        2
176
     0
  1
strokes_ogs.tif
176
     0
290
     0
176
     0
 40
1.0
176
     0
 40
1.0
176
     0
  0
VISUALSTYLE
  5
38
102
{ACAD_REACTORS
330
2A
102
}
330
2A
100
AcDbVisualStyle
  2
Linepattern
 70
    14
177
     3
291
     1
 70
    58
 90
        2
176
     1
 90
        2
176
     1
 90
        0
176
     1
 90
        0
176
     1
 40
0.6
176
     1
 40
30.0
176
     1
 62
     7
420
 16777215
176
     1
 90
        1
176
     1
 90
        4
176
     1
 62
     7
176
     1
 62
   257
176
     1
 90
        7
176
     1
 90
        7
176
     1
 40
1.0
176
     1
 90
        8
176
     1
 62
     7
176
     1
 40
1.0
176
     1
 90
        1
176
     1
 90
        6
176
     1
 90
        2
176
     1
 62
     7
176
     1
 90
        5
176
     1
 90
        0
176
     1
 90
        0
176
     1
290
     0
176
     1
 90
        1
176
     1
 40
0.0
176
     1
 90
        0
176
     1
290
     0
176
     1
290
     1
176
     1
290
     1
176
     1
290
     0
176
     1
290
     0
176
     1
290
     0
176
     1
290
     0
176
     1
290
     0
176
     1
290
     0
176
     1
 90
       50
176
     1
 40
0.0
176
     1
 40
1.0
176
     1
 90
        0
176
     1
 62
    18
420
        0
176
     1
 90
       50
176
     1
 90
        3
176
     1
 62
     5
420
      255
176
     1
290
     0
176
     1
 90
       50
176
     1
 90
       50
176
     1
 90
       50
176
     1
290
     0
176
     1
 90
       50
176
     1
 62
   256
176
     0
 40
1.0
176
     0
 90
        2
176
     1
  1
strokes_ogs.tif
176
     1
290
     0
176
     1
 40
1.0
176
     1
 40
1.0
176
     1
  0
VISUALSTYLE
  5
3C
102
{ACAD_REACTORS
330
2A
102
}
330
2A
100
AcDbVisualStyle
  2
OverhangOff
 70
    21
177
     3
291
     1
 70
    58
 90
        2
176
     0
 90
        2
176
     0
 90
        0
176
     0
 90
        0
176
     0
 40
0.6
176
     0
 40
30.0
176
     0
 62
     7
420
 16777215
176
     0
 90
        1
176
     0
 90
        4
176
     0
 62
     7
176
     0
 62
   257
176
     0
 90
        1
176
     0
 90
        1
176
     0
 40
1.0
176
     0
 90
        9
176
     2
 62
     7
176
     0
 40
1.0
176
     0
 90
        1
176
     0
 90
        6
176
     0
 90
        2
176
     0
 62
     7
176
     0
 90
        5
176
     0
 90
        0
176
     0
 90
        0
176
     0
290
     0
176
     0
 90
        1
176
     0
 40
0.0
176
     0
 90
        0
176
     0
290
     0
176
     0
290
     1
176
     0
290
     1
176
     0
290
     0
176
     0
290
     0
176
     0
290
     0
176
     0
290
     0
176
     0
290
     0
176
     0
290
     0
176
     0
 90
       50
176
     0
 40
0.0
176
     0
 40
1.0
176
     0
 90
        0
176
     0
 62
    18
420
        0
176
     0
 90
       50
176
     0
 90
        3
176
     0
 62
     5
420
      255
176
     0
290
     0
176
     0
 90
       50
176
     0
 90
       50
176
     0
 90
       50
176
     0
290
     0
176
     0
 90
       50
176
     0
 62
   256
176
     0
 40
1.0
176
     0
 90
        2
176
     0
  1
strokes_ogs.tif
176
     0
290
     0
176
     0
 40
1.0
176
     0
 40
1.0
176
     0
  0
VISUALSTYLE
  5
33
102
{ACAD_REACTORS
330
2A
102
}
330
2A
100
AcDbVisualStyle
  2
Realistic
 70
     8
177
     3
291
     0
 70
    58
 90
        2
176
     1
 90
        3
176
     1
 90
        0
176
     1
 90
        2
176
     1
 40
0.6
176
     1
 40
30.0
176
     1
 62
     7
420
 16777215
176
     1
 90
        0
176
     1
 90
        0
176
     1
 62
     7
176
     1
 62
   257
176
     1
 90
        1
176
     1
 90
        1
176
     1
 40
1.0
176
     1
 90
        8
176
     1
 62
   257
176
     1
 40
1.0
176
     1
 90
        1
176
     1
 90
        6
176
     1
 90
        2
176
     1
 62
     7
176
     1
 90
        3
176
     1
 90
        0
176
     1
 90
        0
176
     1
290
     0
176
     1
 90
       13
176
     1
 40
0.0
176
     1
 90
        0
176
     1
290
     0
176
     1
290
     1
176
     1
290
     1
176
     1
290
     0
176
     1
290
     0
176
     1
290
     0
176
     1
290
     0
176
     1
290
     0
176
     1
290
     0
176
     1
 90
       50
176
     1
 40
0.0
176
     1
 40
1.0
176
     1
 90
        0
176
     1
 62
    18
420
        0
176
     1
 90
       50
176
     1
 90
        3
176
     1
 62
     5
420
      255
176
     1
290
     0
176
     1
 90
       50
176
     1
 90
       50
176
     1
 90
       50
176
     1
290
     0
176
     1
 90
       50
176
     1
 62
   256
176
     0
 40
1.0
176
     0
 90
        2
176
     1
  1
strokes_ogs.tif
176
     1
290
     0
176
     1
 40
1.0
176
     1
 40
1.0
176
     1
  0
VISUALSTYLE
  5
42
102
{ACAD_REACTORS
330
2A
102
}
330
2A
100
AcDbVisualStyle
  2
Shaded
 70
    27
177
     3
291
     0
 70
    58
 90
        2
176
     1
 90
        2
176
     1
 90
        1
176
     1
 90
        2
176
     1
 40
0.6
176
     1
 40
30.0
176
     1
 62
     7
420
 16777215
176
     1
 90
        0
176
     1
 90
        4
176
     1
 62
     7
176
     1
 62
   257
176
     1
 90
        1
176
     1
 90
        1
176
     1
 40
1.0
176
     1
 90
        8
176
     1
 62
   257
176
     1
 40
1.0
176
     1
 90
        1
176
     1
 90
        6
176
     1
 90
        2
176
     1
 62
     8
420
  7895160
176
     1
 90
        3
176
     1
 90
        0
176
     1
 90
        0
176
     1
290
     0
176
     1
 90
        5
176
     1
 40
0.0
176
     1
 90
        0
176
     1
290
     0
176
     1
290
     1
176
     1
290
     1
176
     1
290
     0
176
     1
290
     0
176
     1
290
     0
176
     1
290
     0
176
     1
290
     0
176
     1
290
     0
176
     1
 90
       50
176
     1
 40
0.0
176
     1
 40
1.0
176
     1
 90
        0
176
     1
 62
    18
420
        0
176
     1
 90
       50
176
     1
 90
        3
176
     1
 62
     5
420
      255
176
     1
290
     0
176
     1
 90
       50
176
     1
 90
       50
176
     1
 90
       50
176
     1
290
     0
176
     1
 90
       50
176
     1
 62
   256
176
     0
 40
1.0
176
     0
 90
        2
176
     1
  1
strokes_ogs.tif
176
     1
290
     0
176
     1
 40
1.0
176
     1
 40
1.0
176
     1
  0
VISUALSTYLE
  5
41
102
{ACAD_REACTORS
330
2A
102
}
330
2A
100
AcDbVisualStyle
  2
Shaded with edges
 70
    26
177
     3
291
     0
 70
    58
 90
        2
176
     1
 90
        2
176
     1
 90
        1
176
     1
 90
        2
176
     1
 40
0.6
176
     1
 40
30.0
176
     1
 62
     7
420
 16777215
176
     1
 90
        1
176
     1
 90
       10
176
     1
 62
     7
176
     1
 62
   257
176
     1
 90
        2
176
     1
 90
        1
176
     1
 40
1.0
176
     1
 90
        8
176
     1
 62
   257
176
     1
 40
1.0
176
     1
 90
        1
176
     1
 90
        6
176
     1
 90
        2
176
     1
 62
     7
176
     1
 90
        3
176
     1
 90
        0
176
     1
 90
        0
176
     1
290
     0
176
     1
 90
        5
176
     1
 40
0.0
176
     1
 90
        0
176
     1
290
     0
176
     1
290
     1
176
     1
290
     1
176
     1
290
     0
176
     1
290
     0
176
     1
290
     0
176
     1
290
     0
176
     1
290
     0
176
     1
290
     0
176
     1
 90
       50
176
     1
 40
0.0
176
     1
 40
1.0
176
     1
 90
        0
176
     1
 62
    18
420
        0
176
     1
 90
       50
176
     1
 90
        3
176
     1
 62
     5
420
      255
176
     1
290
     0
176
     1
 90
       50
176
     1
 90
       50
176
     1
 90
       50
176
     1
290
     0
176
     1
 90
       50
176
     1
 62
   256
176
     0
 40
1.0
176
     0
 90
        2
176
     1
  1
strokes_ogs.tif
176
     1
290
     0
176
     1
 40
1.0
176
     1
 40
1.0
176
     1
  0
VISUALSTYLE
  5
3E
102
{ACAD_REACTORS
330
2A
102
}
330
2A
100
AcDbVisualStyle
  2
Shades of Gray
 70
    23
177
     3
291
     0
 70
    58
 90
        2
176
     1
 90
        2
176
     1
 90
        3
176
     1
 90
        0
176
     1
 40
0.6
176
     1
 40
30.0
176
     1
 62
     7
420
 16777215
176
     1
 90
        2
176
     1
 90
        2
176
     1
 62
     7
176
     1
 62
     7
176
     1
 90
        1
176
     1
 90
        1
176
     1
 40
40.0
176
     1
 90
        8
176
     1
 62
     7
176
     1
 40
1.0
176
     1
 90
        1
176
     1
 90
        6
176
     1
 90
        2
176
     1
 62
     7
176
     1
 90
        3
176
     1
 90
        0
176
     1
 90
        0
176
     1
290
     0
176
     1
 90
        1
176
     1
 40
0.0
176
     1
 90
        0
176
     1
290
     0
176
     1
290
     1
176
     1
290
     1
176
     1
290
     0
176
     1
290
     0
176
     1
290
     0
176
     1
290
     0
176
     1
290
     0
176
     1
290
     0
176
     1
 90
       50
176
     1
 40
0.0
176
     1
 40
1.0
176
     1
 90
        0
176
     1
 62
    18
420
        0
176
     1
 90
       50
176
     1
 90
        3
176
     1
 62
     5
420
      255
176
     1
290
     0
176
     1
 90
       50
176
     1
 90
       50
176
     1
 90
       50
176
     1
290
     0
176
     1
 90
       50
176
     1
 62
   256
176
     0
 40
1.0
176
     0
 90
        2
176
     1
  1
strokes_ogs.tif
176
     1
290
     0
176
     1
 40
1.0
176
     1
 40
1.0
176
     1
  0
VISUALSTYLE
  5
3F
102
{ACAD_REACTORS
330
2A
102
}
330
2A
100
AcDbVisualStyle
  2
Sketchy
 70
    24
177
     3
291
     0
 70
    58
 90
        1
176
     1
 90
        2
176
     1
 90
        2
176
     1
 90
        0
176
     1
 40
0.6
176
     1
 40
30.0
176
     1
 62
     7
420
 16777215
176
     1
 90
        2
176
     1
 90
        2
176
     1
 62
     7
176
     1
 62
     7
176
     1
 90
        1
176
     1
 90
        1
176
     1
 40
40.0
176
     1
 90
       11
176
     1
 62
     7
176
     1
 40
1.0
176
     1
 90
        1
176
     1
 90
        6
176
     1
 90
        2
176
     1
 62
     7
176
     1
 90
        6
176
     1
 90
        0
176
     1
 90
        0
176
     1
290
     0
176
     1
 90
        1
176
     1
 40
0.0
176
     1
 90
        0
176
     1
290
     0
176
     1
290
     1
176
     1
290
     1
176
     1
290
     0
176
     1
290
     0
176
     1
290
     0
176
     1
290
     0
176
     1
290
     0
176
     1
290
     0
176
     1
 90
       50
176
     1
 40
0.0
176
     1
 40
1.0
176
     1
 90
        0
176
     1
 62
    18
420
        0
176
     1
 90
       50
176
     1
 90
        3
176
     1
 62
     5
420
      255
176
     1
290
     0
176
     1
 90
       50
176
     1
 90
       50
176
     1
 90
       50
176
     1
290
     0
176
     1
 90
       50
176
     1
 62
   256
176
     0
 40
1.0
176
     0
 90
        2
176
     1
  1
strokes_ogs.tif
176
     1
290
     0
176
     1
 40
1.0
176
     1
 40
1.0
176
     1
  0
VISUALSTYLE
  5
37
102
{ACAD_REACTORS
330
2A
102
}
330
2A
100
AcDbVisualStyle
  2
Thicken
 70
    13
177
     3
291
     1
 70
    58
 90
        2
176
     1
 90
        2
176
     1
 90
        0
176
     1
 90
        0
176
     1
 40
0.6
176
     1
 40
30.0
176
     1
 62
     7
420
 16777215
176
     1
 90
        1
176
     1
 90
        4
176
     1
 62
     7
176
     1
 62
   257
176
     1
 90
        1
176
     1
 90
        1
176
     1
 40
1.0
176
     1
 90
       12
176
     1
 62
     7
176
     1
 40
1.0
176
     1
 90
        1
176
     1
 90
        6
176
     1
 90
        2
176
     1
 62
     7
176
     1
 90
        5
176
     1
 90
        0
176
     1
 90
        0
176
     1
290
     0
176
     1
 90
        1
176
     1
 40
0.0
176
     1
 90
        0
176
     1
290
     0
176
     1
290
     1
176
     1
290
     1
176
     1
290
     0
176
     1
290
     0
176
     1
290
     0
176
     1
290
     0
176
     1
290
     0
176
     1
290
     0
176
     1
 90
       50
176
     1
 40
0.0
176
     1
 40
1.0
176
     1
 90
        0
176
     1
 62
    18
420
        0
176
     1
 90
       50
176
     1
 90
        3
176
     1
 62
     5
420
      255
176
     1
290
     0
176
     1
 90
       50
176
     1
 90
       50
176
     1
 90
       50
176
     1
290
     0
176
     1
 90
       50
176
     1
 62
   256
176
     0
 40
1.0
176
     0
 90
        2
176
     1
  1
strokes_ogs.tif
176
     1
290
     0
176
     1
 40
1.0
176
     1
 40
1.0
176
     1
  0
VISUALSTYLE
  5
30
102
{ACAD_REACTORS
330
2A
102
}
330
2A
100
AcDbVisualStyle
  2
Wireframe
 70
     5
177
     3
291
     0
 70
    58
 90
        0
176
     1
 90
        2
176
     1
 90
        0
176
     1
 90
        0
176
     1
 40
0.6
176
     1
 40
30.0
176
     1
 62
     7
420
 16777215
176
     1
 90
        1
176
     1
 90
        4
176
     1
 62
     7
176
     1
 62
   257
176
     1
 90
        1
176
     1
 90
        1
176
     1
 40
1.0
176
     1
 90
        0
176
     1
 62
   257
176
     1
 40
1.0
176
     1
 90
        1
176
     1
 90
        6
176
     1
 90
        2
176
     1
 62
     7
176
     1
 90
        3
176
     1
 90
        0
176
     1
 90
        0
176
     1
290
     0
176
     1
 90
        1
176
     1
 40
0.0
176
     1
 90
        0
176
     1
290
     0
176
     1
290
     1
176
     1
290
     1
176
     1
290
     0
176
     1
290
     0
176
     1
290
     0
176
     1
290
     0
176
     1
290
     0
176
     1
290
     0
176
     1
 90
       50
176
     1
 40
0.0
176
     1
 40
1.0
176
     1
 90
        0
176
     1
 62
    18
420
        0
176
     1
 90
       50
176
     1
 90
        3
176
     1
 62
     5
420
      255
176
     1
290
     0
176
     1
 90
       50
176
     1
 90
       50
176
     1
 90
       50
176
     1
290
     0
176
     1
 90
       50
176
     1
 62
   256
176
     0
 40
1.0
176
     0
 90
        2
176
     1
  1
strokes_ogs.tif
176
     1
290
     0
176
     1
 40
1.0
176
     1
 40
1.0
176
     1
  0
VISUALSTYLE
  5
40
102
{ACAD_REACTORS
330
2A
102
}
330
2A
100
AcDbVisualStyle
  2
X-Ray
 70
    25
177
     3
291
     0
 70
    58
 90
        2
176
     1
 90
        2
176
     1
 90
        1
176
     1
 90
        1
176
     1
 40
0.5
176
     1
 40
30.0
176
     1
 62
     7
420
 16777215
176
     1
 90
        1
176
     1
 90
        0
176
     1
 62
     7
176
     1
 62
   257
176
     1
 90
        1
176
     1
 90
        1
176
     1
 40
1.0
176
     1
 90
        8
176
     1
 62
     7
176
     1
 40
1.0
176
     1
 90
        1
176
     1
 90
        6
176
     1
 90
        2
176
     1
 62
     7
176
     1
 90
        3
176
     1
 90
        0
176
     1
 90
        0
176
     1
290
     0
176
     1
 90
       13
176
     1
 40
0.0
176
     1
 90
        0
176
     1
290
     0
176
     1
290
     1
176
     1
290
     1
176
     1
290
     0
176
     1
290
     0
176
     1
290
     0
176
     1
290
     0
176
     1
290
     0
176
     1
290
     0
176
     1
 90
       50
176
     1
 40
0.0
176
     1
 40
1.0
176
     1
 90
        0
176
     1
 62
    18
420
        0
176
     1
 90
       50
176
     1
 90
        3
176
     1
 62
     5
420
      255
176
     1
290
     0
176
     1
 90
       50
176
     1
 90
       50
176
     1
 90
       50
176
     1
290
     0
176
     1
 90
       50
176
     1
 62
   256
176
     0
 40
1.0
176
     0
 90
        2
176
     1
  1
strokes_ogs.tif
176
     1
290
     0
176
     1
 40
1.0
176
     1
 40
1.0
176
     1
  0
DICTIONARYVAR
  5
18C
102
{ACAD_REACTORS
330
18B
102
}
330
18B
100
DictionaryVariables
280
     0
  1
1:1
  0
DICTIONARYVAR
  5
191
102
{ACAD_REACTORS
330
18B
102
}
330
18B
100
DictionaryVariables
280
     0
  1
Standard
  0
DICTIONARYVAR
  5
190
102
{ACAD_REACTORS
330
18B
102
}
330
18B
100
DictionaryVariables
280
     0
  1
Standard
  0
DICTIONARY
  5
18D
330
6A
100
AcDbDictionary
280
     1
281
     1
  3
ACAD_ROUNDTRIP_2008_TABLESTYLE_CELLSTYLEMAP
360
18E
  0
CELLSTYLEMAP
  5
18E
102
{ACAD_REACTORS
330
18D
102
}
330
18D
100
AcDbCellStyleMap
 90
        3
300
CELLSTYLE
  1
TABLEFORMAT_BEGIN
 90
        5
170
     1
 91
        0
 92
    32768
 62
   257
 93
        1
300
CONTENTFORMAT
  1
CONTENTFORMAT_BEGIN
 90
        0
 91
        0
 92
        4
 93
        0
300

 40
0.0
140
1.0
 94
        5
 62
     0
340
11
144
0.25
309
CONTENTFORMAT_END
171
     1
301
MARGIN
  1
CELLMARGIN_BEGIN
 40
0.06
 40
0.06
 40
0.06
 40
0.06
 40
0.06
 40
0.06
309
CELLMARGIN_END
 94
        6
 95
        1
302
GRIDFORMAT
  1
GRIDFORMAT_BEGIN
 90
        0
 91
        1
 62
     0
 92
       -2
340
14
 93
        0
 40
0.045
309
GRIDFORMAT_END
 95
        2
302
GRIDFORMAT
  1
GRIDFORMAT_BEGIN
 90
        0
 91
        1
 62
     0
 92
       -2
340
14
 93
        0
 40
0.045
309
GRIDFORMAT_END
 95
        4
302
GRIDFORMAT
  1
GRIDFORMAT_BEGIN
 90
        0
 91
        1
 62
     0
 92
       -2
340
14
 93
        0
 40
0.045
309
GRIDFORMAT_END
 95
        8
302
GRIDFORMAT
  1
GRIDFORMAT_BEGIN
 90
        0
 91
        1
 62
     0
 92
       -2
340
14
 93
        0
 40
0.045
309
GRIDFORMAT_END
 95
       16
302
GRIDFORMAT
  1
GRIDFORMAT_BEGIN
 90
        0
 91
        1
 62
     0
 92
       -2
340
14
 93
        0
 40
0.045
309
GRIDFORMAT_END
 95
       32
302
GRIDFORMAT
  1
GRIDFORMAT_BEGIN
 90
        0
 91
        1
 62
     0
 92
       -2
340
14
 93
        0
 40
0.045
309
GRIDFORMAT_END
309
TABLEFORMAT_END
  1
CELLSTYLE_BEGIN
 90
        1
 91
        1
300
_TITLE
309
CELLSTYLE_END
300
CELLSTYLE
  1
TABLEFORMAT_BEGIN
 90
        5
170
     1
 91
        0
 92
        0
 62
   257
 93
        1
300
CONTENTFORMAT
  1
CONTENTFORMAT_BEGIN
 90
        0
 91
        0
 92
        4
 93
        0
300

 40
0.0
140
1.0
 94
        5
 62
     0
340
11
144
0.18
309
CONTENTFORMAT_END
171
     1
301
MARGIN
  1
CELLMARGIN_BEGIN
 40
0.06
 40
0.06
 40
0.06
 40
0.06
 40
0.06
 40
0.06
309
CELLMARGIN_END
 94
        6
 95
        1
302
GRIDFORMAT
  1
GRIDFORMAT_BEGIN
 90
        0
 91
        1
 62
     0
 92
       -2
340
14
 93
        0
 40
0.045
309
GRIDFORMAT_END
 95
        2
302
GRIDFORMAT
  1
GRIDFORMAT_BEGIN
 90
        0
 91
        1
 62
     0
 92
       -2
340
14
 93
        0
 40
0.045
309
GRIDFORMAT_END
 95
        4
302
GRIDFORMAT
  1
GRIDFORMAT_BEGIN
 90
        0
 91
        1
 62
     0
 92
       -2
340
14
 93
        0
 40
0.045
309
GRIDFORMAT_END
 95
        8
302
GRIDFORMAT
  1
GRIDFORMAT_BEGIN
 90
        0
 91
        1
 62
     0
 92
       -2
340
14
 93
        0
 40
0.045
309
GRIDFORMAT_END
 95
       16
302
GRIDFORMAT
  1
GRIDFORMAT_BEGIN
 90
        0
 91
        1
 62
     0
 92
       -2
340
14
 93
        0
 40
0.045
309
GRIDFORMAT_END
 95
       32
302
GRIDFORMAT
  1
GRIDFORMAT_BEGIN
 90
        0
 91
        1
 62
     0
 92
       -2
340
14
 93
        0
 40
0.045
309
GRIDFORMAT_END
309
TABLEFORMAT_END
  1
CELLSTYLE_BEGIN
 90
        2
 91
        1
300
_HEADER
309
CELLSTYLE_END
300
CELLSTYLE
  1
TABLEFORMAT_BEGIN
 90
        5
170
     1
 91
        0
 92
        0
 62
   257
 93
        1
300
CONTENTFORMAT
  1
CONTENTFORMAT_BEGIN
 90
        0
 91
        0
 92
        4
 93
        0
300

 40
0.0
140
1.0
 94
        2
 62
     0
340
11
144
0.18
309
CONTENTFORMAT_END
171
     1
301
MARGIN
  1
CELLMARGIN_BEGIN
 40
0.06
 40
0.06
 40
0.06
 40
0.06
 40
0.06
 40
0.06
309
CELLMARGIN_END
 94
        6
 95
        1
302
GRIDFORMAT
  1
GRIDFORMAT_BEGIN
 90
        0
 91
        1
 62
     0
 92
       -2
340
14
 93
        0
 40
0.045
309
GRIDFORMAT_END
 95
        2
302
GRIDFORMAT
  1
GRIDFORMAT_BEGIN
 90
        0
 91
        1
 62
     0
 92
       -2
340
14
 93
        0
 40
0.045
309
GRIDFORMAT_END
 95
        4
302
GRIDFORMAT
  1
GRIDFORMAT_BEGIN
 90
        0
 91
        1
 62
     0
 92
       -2
340
14
 93
        0
 40
0.045
309
GRIDFORMAT_END
 95
        8
302
GRIDFORMAT
  1
GRIDFORMAT_BEGIN
 90
        0
 91
        1
 62
     0
 92
       -2
340
14
 93
        0
 40
0.045
309
GRIDFORMAT_END
 95
       16
302
GRIDFORMAT
  1
GRIDFORMAT_BEGIN
 90
        0
 91
        1
 62
     0
 92
       -2
340
14
 93
        0
 40
0.045
309
GRIDFORMAT_END
 95
       32
302
GRIDFORMAT
  1
GRIDFORMAT_BEGIN
 90
        0
 91
        1
 62
     0
 92
       -2
340
14
 93
        0
 40
0.045
309
GRIDFORMAT_END
309
TABLEFORMAT_END
  1
CELLSTYLE_BEGIN
 90
        3
 91
        2
300
_DATA
309
CELLSTYLE_END
  0
ENDSEC
  0
EOF