0
SECTION
  2
HEADER
  9
$ACADVER
  1
AC1027
  9
$ACADMAINTVER
 70
     8
  9
$DWGCODEPAGE
  3
ANSI_1252
  9
$REQUIREDVERSIONS
160
                 0
  9
$COMMENTS
  1
File was created by Cadenas
  9
$CUSTOMPROPERTYTAG
  1
NN
  9
$CUSTOMPROPERTY
  1
Set Screw Flange Cartridge Inch Bore
  9
$CUSTOMPROPERTYTAG
  1
NT
  9
$CUSTOMPROPERTY
  1
SC Piloted Flange Bearings -(Normal Duty)
  9
$CUSTOMPROPERTYTAG
  1
NB
  9
$CUSTOMPROPERTY
  1
065644
  9
$CUSTOMPROPERTYTAG
  1
NBSYN
  9
$CUSTOMPROPERTY
  1
$PN.
  9
$CUSTOMPROPERTYTAG
  1
LINA
  9
$CUSTOMPROPERTY
  1
065644
  9
$CUSTOMPROPERTYTAG
  1
SERIES
  9
$CUSTOMPROPERTY
  1
209
  9
$CUSTOMPROPERTYTAG
  1
SS
  9
$CUSTOMPROPERTY
  1
1-5/8
  9
$CUSTOMPROPERTYTAG
  1
PN
  9
$CUSTOMPROPERTY
  1
065644
  9
$CUSTOMPROPERTYTAG
  1
DESCRIPTION
  9
$CUSTOMPROPERTY
  1
FC-SC-110L
  9
$CUSTOMPROPERTYTAG
  1
WEIGHT
  9
$CUSTOMPROPERTY
  1
5.6
  9
$CUSTOMPROPERTYTAG
  1
A
  9
$CUSTOMPROPERTY
  1
1.94
  9
$CUSTOMPROPERTYTAG
  1
B
  9
$CUSTOMPROPERTY
  1
5.75
  9
$CUSTOMPROPERTYTAG
  1
C
  9
$CUSTOMPROPERTY
  1
1.95
  9
$CUSTOMPROPERTYTAG
  1
D
  9
$CUSTOMPROPERTY
  1
4.75
  9
$CUSTOMPROPERTYTAG
  1
E
  9
$CUSTOMPROPERTY
  1
0.44
  9
$CUSTOMPROPERTYTAG
  1
F
  9
$CUSTOMPROPERTY
  1
1/2
  9
$CUSTOMPROPERTYTAG
  1
G
  9
$CUSTOMPROPERTY
  1
1.51
  9
$CUSTOMPROPERTYTAG
  1
H
  9
$CUSTOMPROPERTY
  1
0.91
  9
$CUSTOMPROPERTYTAG
  1
K
  9
$CUSTOMPROPERTY
  1
4.000 / 3.998
  9
$CUSTOMPROPERTYTAG
  1
L
  9
$CUSTOMPROPERTY
  1
2.22
  9
$CUSTOMPROPERTYTAG
  1
COMPANY
  9
$CUSTOMPROPERTY
  1
baldor
  9
$INSBASE
 10
0.0
 20
0.0
 30
0.0
  9
$EXTMIN
 10
1.000000000000000E+20
 20
1.000000000000000E+20
 30
1.000000000000000E+20
  9
$EXTMAX
 10
-1.000000000000000E+20
 20
-1.000000000000000E+20
 30
-1.000000000000000E+20
  9
$LIMMIN
 10
0.0
 20
0.0
  9
$LIMMAX
 10
12.0
 20
9.0
  9
$ORTHOMODE
 70
     0
  9
$REGENMODE
 70
     1
  9
$FILLMODE
 70
     1
  9
$QTEXTMODE
 70
     0
  9
$MIRRTEXT
 70
     1
  9
$LTSCALE
 40
1.0
  9
$ATTMODE
 70
     1
  9
$TEXTSIZE
 40
0.2
  9
$TRACEWID
 40
0.05
  9
$TEXTSTYLE
  7
Standard
  9
$CLAYER
  8
0
  9
$CELTYPE
  6
ByLayer
  9
$CECOLOR
 62
   256
  9
$CELTSCALE
 40
1.0
  9
$DISPSILH
 70
     0
  9
$DIMSCALE
 40
1.0
  9
$DIMASZ
 40
0.18
  9
$DIMEXO
 40
0.0625
  9
$DIMDLI
 40
0.38
  9
$DIMRND
 40
0.0
  9
$DIMDLE
 40
0.0
  9
$DIMEXE
 40
0.18
  9
$DIMTP
 40
0.0
  9
$DIMTM
 40
0.0
  9
$DIMTXT
 40
0.18
  9
$DIMCEN
 40
0.09
  9
$DIMTSZ
 40
0.0
  9
$DIMTOL
 70
     0
  9
$DIMLIM
 70
     0
  9
$DIMTIH
 70
     1
  9
$DIMTOH
 70
     1
  9
$DIMSE1
 70
     0
  9
$DIMSE2
 70
     0
  9
$DIMTAD
 70
     0
  9
$DIMZIN
 70
     0
  9
$DIMBLK
  1

  9
$DIMASO
 70
     1
  9
$DIMSHO
 70
     1
  9
$DIMPOST
  1

  9
$DIMAPOST
  1

  9
$DIMALT
 70
     0
  9
$DIMALTD
 70
     2
  9
$DIMALTF
 40
25.4
  9
$DIMLFAC
 40
1.0
  9
$DIMTOFL
 70
     0
  9
$DIMTVP
 40
0.0
  9
$DIMTIX
 70
     0
  9
$DIMSOXD
 70
     0
  9
$DIMSAH
 70
     0
  9
$DIMBLK1
  1

  9
$DIMBLK2
  1

  9
$DIMSTYLE
  2
Standard
  9
$DIMCLRD
 70
     0
  9
$DIMCLRE
 70
     0
  9
$DIMCLRT
 70
     0
  9
$DIMTFAC
 40
1.0
  9
$DIMGAP
 40
0.09
  9
$DIMJUST
 70
     0
  9
$DIMSD1
 70
     0
  9
$DIMSD2
 70
     0
  9
$DIMTOLJ
 70
     1
  9
$DIMTZIN
 70
     0
  9
$DIMALTZ
 70
     0
  9
$DIMALTTZ
 70
     0
  9
$DIMUPT
 70
     0
  9
$DIMDEC
 70
     4
  9
$DIMTDEC
 70
     4
  9
$DIMALTU
 70
     2
  9
$DIMALTTD
 70
     2
  9
$DIMTXSTY
  7
Standard
  9
$DIMAUNIT
 70
     0
  9
$DIMADEC
 70
     0
  9
$DIMALTRND
 40
0.0
  9
$DIMAZIN
 70
     0
  9
$DIMDSEP
 70
    46
  9
$DIMATFIT
 70
     3
  9
$DIMFRAC
 70
     0
  9
$DIMLDRBLK
  1

  9
$DIMLUNIT
 70
     2
  9
$DIMLWD
 70
    -2
  9
$DIMLWE
 70
    -2
  9
$DIMTMOVE
 70
     0
  9
$DIMFXL
 40
1.0
  9
$DIMFXLON
 70
     0
  9
$DIMJOGANG
 40
0.7853981633974483
  9
$DIMTFILL
 70
     0
  9
$DIMTFILLCLR
 70
     0
  9
$DIMARCSYM
 70
     0
  9
$DIMLTYPE
  6

  9
$DIMLTEX1
  6

  9
$DIMLTEX2
  6

  9
$DIMTXTDIRECTION
 70
     0
  9
$LUNITS
 70
     2
  9
$LUPREC
 70
     4
  9
$SKETCHINC
 40
0.1
  9
$FILLETRAD
 40
0.5
  9
$AUNITS
 70
     0
  9
$AUPREC
 70
     0
  9
$MENU
  1
.
  9
$ELEVATION
 40
0.0
  9
$PELEVATION
 40
0.0
  9
$THICKNESS
 40
0.0
  9
$LIMCHECK
 70
     0
  9
$CHAMFERA
 40
0.0
  9
$CHAMFERB
 40
0.0
  9
$CHAMFERC
 40
0.0
  9
$CHAMFERD
 40
0.0
  9
$SKPOLY
 70
     0
  9
$TDCREATE
 40
2458168.975220636
  9
$TDUCREATE
 40
2458168.93355397
  9
$TDUPDATE
 40
2458168.975220822
  9
$TDUUPDATE
 40
2458168.933554155
  9
$TDINDWG
 40
0.0000000116
  9
$TDUSRTIMER
 40
0.0000000116
  9
$USRTIMER
 70
     1
  9
$ANGBASE
 50
0.0
  9
$ANGDIR
 70
     0
  9
$PDMODE
 70
     0
  9
$PDSIZE
 40
0.0
  9
$PLINEWID
 40
0.0
  9
$SPLFRAME
 70
     0
  9
$SPLINETYPE
 70
     6
  9
$SPLINESEGS
 70
     8
  9
$HANDSEED
  5
1A5
  9
$SURFTAB1
 70
     6
  9
$SURFTAB2
 70
     6
  9
$SURFTYPE
 70
     6
  9
$SURFU
 70
     6
  9
$SURFV
 70
     6
  9
$UCSBASE
  2

  9
$UCSNAME
  2

  9
$UCSORG
 10
0.0
 20
0.0
 30
0.0
  9
$UCSXDIR
 10
1.0
 20
0.0
 30
0.0
  9
$UCSYDIR
 10
0.0
 20
1.0
 30
0.0
  9
$UCSORTHOREF
  2

  9
$UCSORTHOVIEW
 70
     0
  9
$UCSORGTOP
 10
0.0
 20
0.0
 30
0.0
  9
$UCSORGBOTTOM
 10
0.0
 20
0.0
 30
0.0
  9
$UCSORGLEFT
 10
0.0
 20
0.0
 30
0.0
  9
$UCSORGRIGHT
 10
0.0
 20
0.0
 30
0.0
  9
$UCSORGFRONT
 10
0.0
 20
0.0
 30
0.0
  9
$UCSORGBACK
 10
0.0
 20
0.0
 30
0.0
  9
$PUCSBASE
  2

  9
$PUCSNAME
  2

  9
$PUCSORG
 10
0.0
 20
0.0
 30
0.0
  9
$PUCSXDIR
 10
1.0
 20
0.0
 30
0.0
  9
$PUCSYDIR
 10
0.0
 20
1.0
 30
0.0
  9
$PUCSORTHOREF
  2

  9
$PUCSORTHOVIEW
 70
     0
  9
$PUCSORGTOP
 10
0.0
 20
0.0
 30
0.0
  9
$PUCSORGBOTTOM
 10
0.0
 20
0.0
 30
0.0
  9
$PUCSORGLEFT
 10
0.0
 20
0.0
 30
0.0
  9
$PUCSORGRIGHT
 10
0.0
 20
0.0
 30
0.0
  9
$PUCSORGFRONT
 10
0.0
 20
0.0
 30
0.0
  9
$PUCSORGBACK
 10
0.0
 20
0.0
 30
0.0
  9
$USERI1
 70
     0
  9
$USERI2
 70
     0
  9
$USERI3
 70
     0
  9
$USERI4
 70
     0
  9
$USERI5
 70
     0
  9
$USERR1
 40
0.0
  9
$USERR2
 40
0.0
  9
$USERR3
 40
0.0
  9
$USERR4
 40
0.0
  9
$USERR5
 40
0.0
  9
$WORLDVIEW
 70
     1
  9
$SHADEDGE
 70
     3
  9
$SHADEDIF
 70
    70
  9
$TILEMODE
 70
     1
  9
$MAXACTVP
 70
    64
  9
$PINSBASE
 10
0.0
 20
0.0
 30
0.0
  9
$PLIMCHECK
 70
     0
  9
$PEXTMIN
 10
1.000000000000000E+20
 20
1.000000000000000E+20
 30
1.000000000000000E+20
  9
$PEXTMAX
 10
-1.000000000000000E+20
 20
-1.000000000000000E+20
 30
-1.000000000000000E+20
  9
$PLIMMIN
 10
0.0
 20
0.0
  9
$PLIMMAX
 10
12.0
 20
9.0
  9
$UNITMODE
 70
     0
  9
$VISRETAIN
 70
     1
  9
$PLINEGEN
 70
     0
  9
$PSLTSCALE
 70
     1
  9
$TREEDEPTH
 70
  3020
  9
$CMLSTYLE
  2
Standard
  9
$CMLJUST
 70
     0
  9
$CMLSCALE
 40
1.0
  9
$PROXYGRAPHICS
 70
     1
  9
$MEASUREMENT
 70
     0
  9
$CELWEIGHT
370
    -1
  9
$ENDCAPS
280
     0
  9
$JOINSTYLE
280
     0
  9
$LWDISPLAY
290
     0
  9
$INSUNITS
 70
     1
  9
$HYPERLINKBASE
  1

  9
$STYLESHEET
  1

  9
$XEDIT
290
     1
  9
$CEPSNTYPE
380
     0
  9
$PSTYLEMODE
290
     1
  9
$FINGERPRINTGUID
  2
{2A5DB905-AD3F-4896-95AA-89295FB17B75}
  9
$VERSIONGUID
  2
{FAEB1C32-E019-11D5-929B-00C0DF256EC4}
  9
$EXTNAMES
290
     1
  9
$PSVPSCALE
 40
0.0
  9
$OLESTARTUP
290
     0
  9
$SORTENTS
280
   127
  9
$INDEXCTL
280
     0
  9
$HIDETEXT
280
     1
  9
$XCLIPFRAME
280
     2
  9
$HALOGAP
280
     0
  9
$OBSCOLOR
 70
   257
  9
$OBSLTYPE
280
     0
  9
$INTERSECTIONDISPLAY
280
     0
  9
$INTERSECTIONCOLOR
 70
   257
  9
$DIMASSOC
280
     2
  9
$PROJECTNAME
  1

  9
$CAMERADISPLAY
290
     0
  9
$LENSLENGTH
 40
50.0
  9
$CAMERAHEIGHT
 40
0.0
  9
$STEPSPERSEC
 40
2.0
  9
$STEPSIZE
 40
6.0
  9
$3DDWFPREC
 40
2.0
  9
$PSOLWIDTH
 40
0.25
  9
$PSOLHEIGHT
 40
4.0
  9
$LOFTANG1
 40
1.570796326794897
  9
$LOFTANG2
 40
1.570796326794897
  9
$LOFTMAG1
 40
0.0
  9
$LOFTMAG2
 40
0.0
  9
$LOFTPARAM
 70
     7
  9
$LOFTNORMALS
280
     1
  9
$LATITUDE
 40
37.795
  9
$LONGITUDE
 40
-122.394
  9
$NORTHDIRECTION
 40
0.0
  9
$TIMEZONE
 70
 -8000
  9
$LIGHTGLYPHDISPLAY
280
     1
  9
$TILEMODELIGHTSYNCH
280
     1
  9
$CMATERIAL
347
44
  9
$SOLIDHIST
280
     0
  9
$SHOWHIST
280
     1
  9
$DWFFRAME
280
     2
  9
$DGNFRAME
280
     2
  9
$REALWORLDSCALE
290
     1
  9
$INTERFERECOLOR
 62
   256
  9
$CSHADOW
280
     0
  9
$SHADOWPLANELOCATION
 40
0.0
  0
ENDSEC
  0
SECTION
  2
CLASSES
  0
CLASS
  1
ACDBDICTIONARYWDFLT
  2
AcDbDictionaryWithDefault
  3
ObjectDBX Classes
 90
        0
 91
        4
280
     0
281
     0
  0
CLASS
  1
VISUALSTYLE
  2
AcDbVisualStyle
  3
ObjectDBX Classes
 90
     4095
 91
        4
280
     0
281
     0
  0
CLASS
  1
MATERIAL
  2
AcDbMaterial
  3
ObjectDBX Classes
 90
     1153
 91
        4
280
     0
281
     0
  0
CLASS
  1
SCALE
  2
AcDbScale
  3
ObjectDBX Classes
 90
     1153
 91
        4
280
     0
281
     0
  0
CLASS
  1
TABLESTYLE
  2
AcDbTableStyle
  3
ObjectDBX Classes
 90
     4095
 91
        4
280
     0
281
     0
  0
CLASS
  1
MLEADERSTYLE
  2
AcDbMLeaderStyle
  3
ACDB_MLEADERSTYLE_CLASS
 90
     4095
 91
        4
280
     0
281
     0
  0
CLASS
  1
SUN
  2
AcDbSun
  3
SCENEOE
 90
     1153
 91
        4
280
     0
281
     0
  0
CLASS
  1
DICTIONARYVAR
  2
AcDbDictionaryVar
  3
ObjectDBX Classes
 90
        0
 91
        4
280
     0
281
     0
  0
CLASS
  1
CELLSTYLEMAP
  2
AcDbCellStyleMap
  3
ObjectDBX Classes
 90
     1152
 91
        4
280
     0
281
     0
  0
ENDSEC
  0
SECTION
  2
TABLES
  0
TABLE
  2
VPORT
  5
8
330
0
100
AcDbSymbolTable
 70
     1
  0
VPORT
  5
29
330
8
100
AcDbSymbolTableRecord
100
AcDbViewportTableRecord
  2
*Active
 70
     0
 10
0.0
 20
0.0
 11
1.0
 21
1.0
 12
0.0
 22
-0.54
 13
0.0
 23
0.0
 14
0.5
 24
0.5
 15
0.5
 25
0.5
 16
0.0
 26
0.0
 36
1.0
 17
0.0
 27
0.0
 37
0.0
 40
2.17668
 41
2.694470477975632
 42
50.0
 43
0.0
 44
0.0
 50
0.0
 51
0.0
 71
     0
 72
   100
 73
     1
 74
     3
 75
     0
 76
     0
 77
     0
 78
     0
281
     0
 65
     1
110
0.0
120
0.0
130
0.0
111
1.0
121
0.0
131
0.0
112
0.0
122
1.0
132
0.0
 79
     0
146
0.0
348
2F
 60
     3
 61
     5
292
     1
282
     1
141
0.0
142
0.0
 63
   250
361
6D
  0
ENDTAB
  0
TABLE
  2
LTYPE
  5
5
330
0
100
AcDbSymbolTable
 70
     3
  0
LTYPE
  5
14
330
5
100
AcDbSymbolTableRecord
100
AcDbLinetypeTableRecord
  2
ByBlock
 70
     0
  3

 72
    65
 73
     0
 40
0.0
  0
LTYPE
  5
15
330
5
100
AcDbSymbolTableRecord
100
AcDbLinetypeTableRecord
  2
ByLayer
 70
     0
  3

 72
    65
 73
     0
 40
0.0
  0
LTYPE
  5
16
330
5
100
AcDbSymbolTableRecord
100
AcDbLinetypeTableRecord
  2
Continuous
 70
     0
  3
Solid line
 72
    65
 73
     0
 40
0.0
  0
LTYPE
  5
94
330
5
100
AcDbSymbolTableRecord
100
AcDbLinetypeTableRecord
  2
Dashed
 70
     0
  3

 72
    65
 73
     2
 40
2.0
 49
1.0
 74
     0
 49
-1.0
 74
     0
  0
LTYPE
  5
132
330
5
100
AcDbSymbolTableRecord
100
AcDbLinetypeTableRecord
  2
Center
 70
     0
  3

 72
    65
 73
     4
 40
1.5
 49
0.45
 74
     0
 49
-0.5
 74
     0
 49
0.05
 74
     0
 49
-0.5
 74
     0
  0
ENDTAB
  0
TABLE
  2
LAYER
  5
2
330
0
100
AcDbSymbolTable
 70
     6
  0
LAYER
  5
10
330
2
100
AcDbSymbolTableRecord
100
AcDbLayerTableRecord
  2
0
 70
     0
 62
     7
  6
Continuous
370
    -3
390
F
347
46
348
0
  0
LAYER
  5
72
330
2
100
AcDbSymbolTableRecord
100
AcDbLayerTableRecord
  2
AM_6
 70
     0
 62
    -2
  6
Continuous
370
    35
390
F
347
46
348
0
  0
LAYER
  5
95
330
2
100
AcDbSymbolTableRecord
100
AcDbLayerTableRecord
  2
AM_9
 70
     0
 62
     6
  6
Dashed
370
    25
390
F
347
46
348
0
  0
LAYER
  5
B8
330
2
100
AcDbSymbolTableRecord
100
AcDbLayerTableRecord
  2
AM_4
 70
     0
 62
     7
  6
Continuous
370
    50
390
F
347
46
348
0
  0
LAYER
  5
133
330
2
100
AcDbSymbolTableRecord
100
AcDbLayerTableRecord
  2
AM_7
 70
     0
 62
     7
  6
Center
370
    25
390
F
347
46
348
0
  0
LAYER
  5
197
330
2
100
AcDbSymbolTableRecord
100
AcDbLayerTableRecord
  2
ConnectionPoints
 70
     0
 62
     7
  6
Continuous
370
    50
390
F
347
46
348
0
  0
ENDTAB
  0
TABLE
  2
STYLE
  5
3
330
0
100
AcDbSymbolTable
 70
     1
  0
STYLE
  5
11
330
3
100
AcDbSymbolTableRecord
100
AcDbTextStyleTableRecord
  2
Standard
 70
     0
 40
0.0
 41
1.0
 50
0.0
 71
     0
 42
0.2
  3
txt
  4

  0
ENDTAB
  0
TABLE
  2
VIEW
  5
6
330
0
100
AcDbSymbolTable
 70
     0
  0
ENDTAB
  0
TABLE
  2
UCS
  5
7
330
0
100
AcDbSymbolTable
 70
     0
  0
ENDTAB
  0
TABLE
  2
APPID
  5
9
330
0
100
AcDbSymbolTable
 70
     1
  0
APPID
  5
12
330
9
100
AcDbSymbolTableRecord
100
AcDbRegAppTableRecord
  2
ACAD
 70
     0
  0
ENDTAB
  0
TABLE
  2
DIMSTYLE
  5
A
330
0
100
AcDbSymbolTable
 70
     1
100
AcDbDimStyleTable
  0
DIMSTYLE
105
27
330
A
100
AcDbSymbolTableRecord
100
AcDbDimStyleTableRecord
  2
Standard
 70
     0
178
     0
340
11
  0
ENDTAB
  0
TABLE
  2
BLOCK_RECORD
  5
1
330
0
100
AcDbSymbolTable
 70
     5
  0
BLOCK_RECORD
  5
1F
330
1
100
AcDbSymbolTableRecord
100
AcDbBlockTableRecord
  2
*Model_Space
340
22
 70
     0
280
     1
281
     0
  0
BLOCK_RECORD
  5
1B
330
1
100
AcDbSymbolTableRecord
100
AcDbBlockTableRecord
  2
*Paper_Space
340
1E
 70
     0
280
     1
281
     0
  0
BLOCK_RECORD
  5
23
330
1
100
AcDbSymbolTableRecord
100
AcDbBlockTableRecord
  2
*Paper_Space0
340
26
 70
     0
280
     1
281
     0
  0
BLOCK_RECORD
  5
6E
330
1
100
AcDbSymbolTableRecord
100
AcDbBlockTableRecord
  2
1_065644_4
340
0
102
{BLKREFS
331
6F
102
}
 70
     0
280
     1
281
     0
  0
BLOCK_RECORD
  5
88
330
1
100
AcDbSymbolTableRecord
100
AcDbBlockTableRecord
  2
2_405015E_Inch_0_in_065644_4
340
0
102
{BLKREFS
331
89
102
}
 70
     0
280
     1
281
     0
  0
BLOCK_RECORD
  5
E0
330
1
100
AcDbSymbolTableRecord
100
AcDbBlockTableRecord
  2
3_045874_0_in_065644_4
340
0
102
{BLKREFS
331
E1
102
}
 70
     0
280
     1
281
     0
  0
BLOCK_RECORD
  5
142
330
1
100
AcDbSymbolTableRecord
100
AcDbBlockTableRecord
  2
4_065644H_0_in_065644_4
340
0
102
{BLKREFS
331
143
102
}
 70
     0
280
     1
281
     0
  0
ENDTAB
  0
ENDSEC
  0
SECTION
  2
BLOCKS
  0
BLOCK
  5
20
330
1F
100
AcDbEntity
  8
0
100
AcDbBlockBegin
  2
*Model_Space
 70
     0
 10
0.0
 20
0.0
 30
0.0
  3
*Model_Space
  1

  0
ENDBLK
  5
21
330
1F
100
AcDbEntity
  8
0
100
AcDbBlockEnd
  0
BLOCK
  5
1C
330
1B
100
AcDbEntity
 67
     1
  8
0
100
AcDbBlockBegin
  2
*Paper_Space
 70
     0
 10
0.0
 20
0.0
 30
0.0
  3
*Paper_Space
  1

  0
ENDBLK
  5
1D
330
1B
100
AcDbEntity
 67
     1
  8
0
100
AcDbBlockEnd
  0
BLOCK
  5
24
330
23
100
AcDbEntity
  8
0
100
AcDbBlockBegin
  2
*Paper_Space0
 70
     0
 10
0.0
 20
0.0
 30
0.0
  3
*Paper_Space0
  1

  0
ENDBLK
  5
25
330
23
100
AcDbEntity
  8
0
100
AcDbBlockEnd
  0
BLOCK
  5
70
330
6E
100
AcDbEntity
  8
0
100
AcDbBlockBegin
  2
1_065644_4
 70
     2
 10
0.0
 20
0.0
 30
0.0
  3
1_065644_4
  1

  0
ATTDEF
  5
73
330
6E
100
AcDbEntity
  8
AM_6
100
AcDbText
 10
7.875
 20
0.5269999999999998
 30
0.0
 40
0.5
  1
Set Screw Flange Cartridge Inch Bore
100
AcDbAttributeDefinition
  3

  2
NN
 70
     8
280
     0
  0
ATTDEF
  5
74
330
6E
100
AcDbEntity
  8
AM_6
100
AcDbText
 10
7.875
 20
0.0269999999999998
 30
0.0
 40
0.5
  1
SC Piloted Flange Bearings -(Normal Duty)
100
AcDbAttributeDefinition
  3

  2
NT
 70
     8
280
     0
  0
ATTDEF
  5
75
330
6E
100
AcDbEntity
  8
AM_6
100
AcDbText
 10
7.875
 20
-0.4730000000000002
 30
0.0
 40
0.5
  1
065644
100
AcDbAttributeDefinition
  3

  2
NB
 70
     8
280
     0
  0
ATTDEF
  5
76
330
6E
100
AcDbEntity
  8
AM_6
100
AcDbText
 10
7.875
 20
-0.9730000000000002
 30
0.0
 40
0.5
  1
$PN.
100
AcDbAttributeDefinition
  3

  2
NBSYN
 70
     8
280
     0
  0
ATTDEF
  5
77
330
6E
100
AcDbEntity
  8
AM_6
100
AcDbText
 10
7.875
 20
-1.473
 30
0.0
 40
0.5
  1
065644
100
AcDbAttributeDefinition
  3

  2
LINA
 70
     8
280
     0
  0
ATTDEF
  5
78
330
6E
100
AcDbEntity
  8
AM_6
100
AcDbText
 10
7.875
 20
-1.973
 30
0.0
 40
0.5
  1
209
100
AcDbAttributeDefinition
  3

  2
SERIES
 70
     8
280
     0
  0
ATTDEF
  5
79
330
6E
100
AcDbEntity
  8
AM_6
100
AcDbText
 10
7.875
 20
-2.473
 30
0.0
 40
0.5
  1
1-5/8
100
AcDbAttributeDefinition
  3

  2
SS
 70
     8
280
     0
  0
ATTDEF
  5
7A
330
6E
100
AcDbEntity
  8
AM_6
100
AcDbText
 10
7.875
 20
-2.973
 30
0.0
 40
0.5
  1
065644
100
AcDbAttributeDefinition
  3

  2
PN
 70
     8
280
     0
  0
ATTDEF
  5
7B
330
6E
100
AcDbEntity
  8
AM_6
100
AcDbText
 10
7.875
 20
-3.473
 30
0.0
 40
0.5
  1
FC-SC-110L
100
AcDbAttributeDefinition
  3

  2
DESCRIPTION
 70
     8
280
     0
  0
ATTDEF
  5
7C
330
6E
100
AcDbEntity
  8
AM_6
100
AcDbText
 10
7.875
 20
-3.973
 30
0.0
 40
0.5
  1
5.6
100
AcDbAttributeDefinition
  3

  2
WEIGHT
 70
     8
280
     0
  0
ATTDEF
  5
7D
330
6E
100
AcDbEntity
  8
AM_6
100
AcDbText
 10
7.875
 20
-4.473000000000001
 30
0.0
 40
0.5
  1
1.94
100
AcDbAttributeDefinition
  3

  2
A
 70
     8
280
     0
  0
ATTDEF
  5
7E
330
6E
100
AcDbEntity
  8
AM_6
100
AcDbText
 10
7.875
 20
-4.973000000000001
 30
0.0
 40
0.5
  1
5.75
100
AcDbAttributeDefinition
  3

  2
B
 70
     8
280
     0
  0
ATTDEF
  5
7F
330
6E
100
AcDbEntity
  8
AM_6
100
AcDbText
 10
7.875
 20
-5.473000000000001
 30
0.0
 40
0.5
  1
1.95
100
AcDbAttributeDefinition
  3

  2
C
 70
     8
280
     0
  0
ATTDEF
  5
80
330
6E
100
AcDbEntity
  8
AM_6
100
AcDbText
 10
7.875
 20
-5.973000000000001
 30
0.0
 40
0.5
  1
4.75
100
AcDbAttributeDefinition
  3

  2
D
 70
     8
280
     0
  0
ATTDEF
  5
81
330
6E
100
AcDbEntity
  8
AM_6
100
AcDbText
 10
7.875
 20
-6.473000000000001
 30
0.0
 40
0.5
  1
0.44
100
AcDbAttributeDefinition
  3

  2
E
 70
     8
280
     0
  0
ATTDEF
  5
82
330
6E
100
AcDbEntity
  8
AM_6
100
AcDbText
 10
7.875
 20
-6.973000000000001
 30
0.0
 40
0.5
  1
1/2
100
AcDbAttributeDefinition
  3

  2
F
 70
     8
280
     0
  0
ATTDEF
  5
83
330
6E
100
AcDbEntity
  8
AM_6
100
AcDbText
 10
7.875
 20
-7.473000000000001
 30
0.0
 40
0.5
  1
1.51
100
AcDbAttributeDefinition
  3

  2
G
 70
     8
280
     0
  0
ATTDEF
  5
84
330
6E
100
AcDbEntity
  8
AM_6
100
AcDbText
 10
7.875
 20
-7.973000000000001
 30
0.0
 40
0.5
  1
0.91
100
AcDbAttributeDefinition
  3

  2
H
 70
     8
280
     0
  0
ATTDEF
  5
85
330
6E
100
AcDbEntity
  8
AM_6
100
AcDbText
 10
7.875
 20
-8.473
 30
0.0
 40
0.5
  1
4.000 / 3.998
100
AcDbAttributeDefinition
  3

  2
K
 70
     8
280
     0
  0
ATTDEF
  5
86
330
6E
100
AcDbEntity
  8
AM_6
100
AcDbText
 10
7.875
 20
-8.973
 30
0.0
 40
0.5
  1
2.22
100
AcDbAttributeDefinition
  3

  2
L
 70
     8
280
     0
  0
ATTDEF
  5
87
330
6E
100
AcDbEntity
  8
AM_6
100
AcDbText
 10
7.875
 20
-9.473
 30
0.0
 40
0.5
  1
baldor
100
AcDbAttributeDefinition
  3

  2
COMPANY
 70
     8
280
     0
  0
INSERT
  5
89
330
6E
100
AcDbEntity
  8
0
100
AcDbBlockReference
  2
2_405015E_Inch_0_in_065644_4
 10
0.0
 20
0.0
 30
0.0
  0
INSERT
  5
E1
330
6E
100
AcDbEntity
  8
0
100
AcDbBlockReference
  2
3_045874_0_in_065644_4
 10
0.0
 20
0.0
 30
0.0
  0
INSERT
  5
143
330
6E
100
AcDbEntity
  8
0
100
AcDbBlockReference
  2
4_065644H_0_in_065644_4
 10
0.0
 20
0.0
 30
0.0
  0
ENDBLK
  5
71
330
6E
100
AcDbEntity
  8
0
100
AcDbBlockEnd
  0
BLOCK
  5
8A
330
88
100
AcDbEntity
  8
0
100
AcDbBlockBegin
  2
2_405015E_Inch_0_in_065644_4
 70
     2
 10
0.0
 20
0.0
 30
0.0
  3
2_405015E_Inch_0_in_065644_4
  1

  0
ATTDEF
  5
8C
330
88
100
AcDbEntity
  8
AM_6
100
AcDbText
 10
5.039829185960297
 20
-0.4484113678294766
 30
0.0
 40
0.5
  1
405015E -Inch
100
AcDbAttributeDefinition
  3

  2
NN
 70
     8
280
     0
  0
ATTDEF
  5
8D
330
88
100
AcDbEntity
  8
AM_6
100
AcDbText
 10
5.039829185960297
 20
-0.9484113678294765
 30
0.0
 40
0.5
  1
Grease Fitting
100
AcDbAttributeDefinition
  3

  2
NT
 70
     8
280
     0
  0
ATTDEF
  5
8E
330
88
100
AcDbEntity
  8
AM_6
100
AcDbText
 10
5.039829185960297
 20
-1.448411367829477
 30
0.0
 40
0.5
  1
405015E-Inch
100
AcDbAttributeDefinition
  3

  2
NB
 70
     8
280
     0
  0
ATTDEF
  5
8F
330
88
100
AcDbEntity
  8
AM_6
100
AcDbText
 10
5.039829185960297
 20
-1.948411367829477
 30
0.0
 40
0.5
  1
$MN.-Inch
100
AcDbAttributeDefinition
  3

  2
NBSYN
 70
     8
280
     0
  0
ATTDEF
  5
90
330
88
100
AcDbEntity
  8
AM_6
100
AcDbText
 10
5.039829185960297
 20
-2.448411367829476
 30
0.0
 40
0.5
  1
405015E
100
AcDbAttributeDefinition
  3

  2
LINA
 70
     8
280
     0
  0
ATTDEF
  5
91
330
88
100
AcDbEntity
  8
AM_6
100
AcDbText
 10
5.039829185960297
 20
-2.948411367829476
 30
0.0
 40
0.5
  1
405015E
100
AcDbAttributeDefinition
  3

  2
MN
 70
     8
280
     0
  0
ATTDEF
  5
92
330
88
100
AcDbEntity
  8
AM_6
100
AcDbText
 10
5.039829185960297
 20
-3.448411367829476
 30
0.0
 40
0.5
  1
1/8 x 27PTF
100
AcDbAttributeDefinition
  3

  2
T
 70
     8
280
     0
  0
ATTDEF
  5
93
330
88
100
AcDbEntity
  8
AM_6
100
AcDbText
 10
5.039829185960297
 20
-3.948411367829476
 30
0.0
 40
0.5
  1
baldor
100
AcDbAttributeDefinition
  3

  2
COMPANY
 70
     8
280
     0
  0
LINE
  5
96
330
88
100
AcDbEntity
  8
AM_9
100
AcDbLine
 10
-0.0744606593024077
 20
-0.9582906403857477
 30
0.0
 11
-0.070368198597732
 21
-0.8912309216134006
 31
0.0
  0
LINE
  5
97
330
88
100
AcDbEntity
  8
AM_9
100
AcDbLine
 10
-0.3260902180373971
 20
-0.9582906403857477
 30
0.0
 11
-0.3219977573327215
 21
-0.8912309216134006
 31
0.0
  0
LWPOLYLINE
  5
98
330
88
100
AcDbEntity
  8
AM_9
100
AcDbPolyline
 90
        3
 70
     0
 43
0.0
 10
-0.070368198597732
 20
-0.8912309216134006
 10
-0.1326601493159272
 20
-0.8857810418335925
 10
-0.195729684300928
 20
-0.8838031787851246
  0
LWPOLYLINE
  5
99
330
88
100
AcDbEntity
  8
AM_9
100
AcDbPolyline
 90
        4
 70
     0
 43
0.0
 10
-0.195729684300928
 20
-0.8838031787851246
 10
-0.2440161889855808
 20
-0.8849643765444714
 10
-0.2924350330230817
 20
-0.8882941082067517
 10
-0.3219977573327215
 20
-0.8912309216134006
  0
LWPOLYLINE
  5
9A
330
88
100
AcDbEntity
  8
AM_9
100
AcDbPolyline
 90
        3
 70
     0
 43
0.0
 10
-0.3219977573327215
 20
-0.8912309216134006
 10
-0.3568642311899391
 20
-0.8545546170233334
 10
-0.3922605507569027
 20
-0.8210682560592288
  0
LWPOLYLINE
  5
9B
330
88
100
AcDbEntity
  8
AM_9
100
AcDbPolyline
 90
        3
 70
     0
 43
0.0
 10
-0.0148162126544186
 20
-0.8210682560592288
 10
-0.0424852050489889
 20
-0.8543962601849998
 10
-0.070368198597732
 20
-0.8912309216134006
  0
LINE
  5
9C
330
88
100
AcDbEntity
  8
AM_9
100
AcDbLine
 10
-0.3386873307732749
 20
-0.9495116984667683
 30
0.0
 11
-0.3260902180373971
 21
-0.9582906403857477
 31
0.0
  0
LINE
  5
9D
330
88
100
AcDbEntity
  8
AM_9
100
AcDbLine
 10
-0.2470095633004762
 20
-0.9646445122630491
 30
0.0
 11
-0.200728732334201
 21
-0.9657183832140237
 31
0.0
  0
LWPOLYLINE
  5
9E
330
88
100
AcDbEntity
  8
AM_9
100
AcDbPolyline
 90
        4
 70
     0
 43
0.0
 10
-0.3260902180373971
 20
-0.9582906403857477
 10
-0.2968859441860563
 20
-0.9612274537923965
 10
-0.2490151770989009
 20
-0.9645504130939064
 10
-0.2470095633004762
 20
-0.9646445122630491
  0
LWPOLYLINE
  5
9F
330
88
100
AcDbEntity
  8
AM_9
100
AcDbPolyline
 90
        3
 70
     0
 43
0.0
 10
-0.1794366848538135
 20
-0.9654900415366444
 10
-0.1377016963953907
 20
-0.9637578404512006
 10
-0.1092102240761944
 20
-0.9616770808566556
  0
LINE
  5
A0
330
88
100
AcDbEntity
  8
AM_9
100
AcDbLine
 10
-0.200728732334201
 20
-0.9657183832140237
 30
0.0
 11
-0.1794366848538135
 21
-0.9654900415366444
 31
0.0
  0
LWPOLYLINE
  5
A1
330
88
100
AcDbEntity
  8
AM_9
100
AcDbPolyline
 90
        3
 70
     0
 43
0.0
 10
-0.3922605507569027
 20
-0.8210682560592288
 10
-0.4277382405562057
 20
-0.7916613374591042
 10
-0.4634299315096814
 20
-0.7657610761616092
  0
LINE
  5
A2
330
88
100
AcDbEntity
  8
AM_9
100
AcDbLine
 10
-0.3101744718156448
 20
-0.4698885219400283
 30
0.0
 11
-0.3374251059201854
 21
-0.4837790044185059
 31
0.0
  0
LINE
  5
A3
330
88
100
AcDbEntity
  8
AM_9
100
AcDbLine
 10
-0.0528185015276166
 20
-0.5011477224222571
 30
0.0
 11
-0.0781778080628709
 21
-0.4840466074107892
 31
0.0
  0
LWPOLYLINE
  5
A4
330
88
100
AcDbEntity
  8
AM_9
100
AcDbPolyline
 90
        3
 70
     0
 43
0.0
 10
0.0398291859602975
 20
-0.7657610761616092
 10
0.0127362995016117
 20
-0.7915376211920605
 10
-0.0148162126544186
 20
-0.8210682560592288
  0
LINE
  5
A5
330
88
100
AcDbEntity
  8
AM_9
100
AcDbLine
 10
-0.3979864348482304
 20
-0.5567725214922888
 30
0.0
 11
-0.4165124573320851
 21
-0.7432498399956243
 31
0.0
  0
LINE
  5
A6
330
88
100
AcDbEntity
  8
AM_9
100
AcDbLine
 10
-0.0058700556812226
 20
-0.7683101582193683
 30
0.0
 11
-0.001582706025223
 21
-0.5809638946905914
 31
0.0
  0
LINE
  5
A7
330
88
100
AcDbEntity
  8
AM_9
100
AcDbLine
 10
-0.1226551694306268
 20
-0.9502332515821341
 30
0.0
 11
-0.1173480708572093
 21
-0.9417982975917752
 31
0.0
  0
LINE
  5
A8
330
88
100
AcDbEntity
  8
AM_9
100
AcDbLine
 10
-0.3269581074461037
 20
-0.9290064032362711
 30
0.0
 11
-0.3227160944021791
 21
-0.9380241118932757
 31
0.0
  0
ELLIPSE
  5
A9
330
88
100
AcDbEntity
  8
AM_9
100
AcDbEllipse
 10
-0.221595127578603
 20
-0.9262595024125765
 30
0.0
 11
-0.1048050182944473
 21
0.006395947177751963
 31
0.0
210
0.0
220
0.0
230
1.0
 40
0.5713938048432669
 41
0.0
 42
3.141592653589793
  0
LINE
  5
AA
330
88
100
AcDbEntity
  8
AM_9
100
AcDbLine
 10
-0.3272431950709459
 20
-0.9336778948710114
 30
0.0
 11
-0.3278998602830321
 21
-0.9444381165634942
 31
0.0
  0
LINE
  5
AB
330
88
100
AcDbEntity
  8
AM_9
100
AcDbLine
 10
-0.1182898236941377
 20
-0.9572300109189983
 30
0.0
 11
-0.1176331584820515
 21
-0.9464697892265156
 31
0.0
  0
LINE
  5
AC
330
88
100
AcDbEntity
  8
AM_9
100
AcDbLine
 10
-0.1366461555804965
 20
-0.9516613170763736
 30
0.0
 11
-0.1173323838718165
 21
-0.941541248128204
 31
0.0
  0
LINE
  5
AD
330
88
100
AcDbEntity
  8
AM_9
100
AcDbLine
 10
-0.3269424204607109
 20
-0.9287493537726997
 30
0.0
 11
-0.3090025897214096
 21
-0.9411429023434659
 31
0.0
  0
ELLIPSE
  5
AE
330
88
100
AcDbEntity
  8
AM_9
100
AcDbEllipse
 10
-0.219983090639086
 20
-0.8998444060644901
 30
0.0
 11
-0.1185994455544671
 21
0.007237781180916632
 31
0.0
210
0.0
220
0.0
230
1.0
 40
0.5713938048432725
 41
0.3030073327399121
 42
2.838585320849921
  0
ELLIPSE
  5
AF
330
88
100
AcDbEntity
  8
AM_9
100
AcDbEllipse
 10
-0.2172618626875554
 20
-0.8552539275446884
 30
0.0
 11
-0.1722136629594427
 21
0.01050970182058701
 31
0.0
210
0.0
220
0.0
230
1.0
 40
0.5713938048432678
 41
0.7573886593007328
 42
2.384203994289062
  0
ELLIPSE
  5
B0
330
88
100
AcDbEntity
  8
AM_9
100
AcDbEllipse
 10
-0.2163461271439069
 20
-0.8402485377624963
 30
0.0
 11
-0.2183437881139269
 21
0.01332488995329822
 31
0.0
210
0.0
220
0.0
230
1.0
 40
0.5713938048412216
 41
1.042947769991659
 42
2.098644883596869
  0
ELLIPSE
  5
B1
330
88
100
AcDbEntity
  8
AM_9
100
AcDbEllipse
 10
-0.2163461271439481
 20
-0.8402485377628937
 30
0.0
 11
-0.2133530729560427
 21
0.01302032104069926
 31
0.0
210
0.0
220
0.0
230
1.0
 40
0.5713938048414942
 41
1.03887603710116
 42
2.102716616493082
  0
ELLIPSE
  5
B2
330
88
100
AcDbEntity
  8
AM_9
100
AcDbEllipse
 10
-0.2230948419885812
 20
-0.9508340637412436
 30
0.0
 11
-0.1048050182944435
 21
0.006395947177755931
 31
0.0
210
0.0
220
0.0
230
1.0
 40
0.5713938048432733
 41
5.927616274104683
 42
9.780346993844429
  0
ELLIPSE
  5
B3
330
88
100
AcDbEntity
  8
AM_9
100
AcDbEllipse
 10
-0.2260942708085487
 20
-0.9999831863985856
 30
0.0
 11
-0.1347493092357177
 21
0.008223360657109893
 31
0.0
210
0.0
220
0.0
230
1.0
 40
0.5713938048432737
 41
0.2851509814542332
 42
2.856441672135564
  0
ELLIPSE
  5
B4
330
88
100
AcDbEntity
  8
AM_9
100
AcDbEllipse
 10
-0.1980996018222197
 20
-0.5412580415967532
 30
0.0
 11
-0.161602223917902
 21
0.009862116383415271
 31
0.0
210
0.0
220
0.0
230
1.0
 40
0.5713938048432796
 41
0.0
 42
6.283185307179586
  0
ELLIPSE
  5
B5
330
88
100
AcDbEntity
  8
AM_9
100
AcDbEllipse
 10
-0.2113470791103921
 20
-0.7583333333333304
 30
0.0
 11
-0.2183437881134297
 21
0.01332488995365066
 31
0.0
210
0.0
220
0.0
230
1.0
 40
0.5713938048432622
 41
0.0
 42
6.283185307179586
  0
ELLIPSE
  5
B6
330
88
100
AcDbEntity
  8
AM_9
100
AcDbEllipse
 10
-0.2113470791103933
 20
-0.7583333333333332
 30
0.0
 11
-0.2053698224055339
 21
0.01253312634629564
 31
0.0
210
0.0
220
0.0
230
1.0
 40
0.5713938048432685
 41
0.0
 42
6.283185307179586
  0
ELLIPSE
  5
B7
330
88
100
AcDbEntity
  8
AM_9
100
AcDbEllipse
 10
-0.1999349900254132
 20
-0.5713330076443837
 30
0.0
 11
-0.1982488000800351
 21
0.01209855094742873
 31
0.0
210
0.0
220
0.0
230
1.0
 40
0.5713938048432335
 41
0.0
 42
6.283185307179586
  0
LWPOLYLINE
  5
B9
330
88
100
AcDbEntity
  8
AM_4
100
AcDbPolyline
 90
        3
 70
     0
 43
0.0
 10
-0.3972595987901758
 20
-0.902983460488128
 10
-0.3617819089908729
 20
-0.9323903790882527
 10
-0.3386873307732749
 20
-0.9495116984667683
  0
LWPOLYLINE
  5
BA
330
88
100
AcDbEntity
  8
AM_4
100
AcDbPolyline
 90
        3
 70
     0
 43
0.0
 10
-0.0744606593024077
 20
-0.9582906403857477
 10
-0.047367772843722
 20
-0.9325140953552966
 10
-0.0198152606876916
 20
-0.902983460488128
  0
LINE
  5
BB
330
88
100
AcDbEntity
  8
AM_4
100
AcDbLine
 10
-0.1092102240761944
 20
-0.9616770808566556
 30
0.0
 11
-0.0744606593024077
 21
-0.9582906403857477
 31
0.0
  0
LWPOLYLINE
  5
BC
330
88
100
AcDbEntity
  8
AM_4
100
AcDbPolyline
 90
        3
 70
     0
 43
0.0
 10
-0.467522392214357
 20
-0.8328207949339564
 10
-0.4326559183571394
 20
-0.8694970995240235
 10
-0.3972595987901758
 20
-0.902983460488128
  0
LWPOLYLINE
  5
BD
330
88
100
AcDbEntity
  8
AM_4
100
AcDbPolyline
 90
        3
 70
     0
 43
0.0
 10
-0.0198152606876916
 20
-0.902983460488128
 10
0.0078537317068787
 20
-0.8696554563623571
 10
0.0357367252556218
 20
-0.8328207949339564
  0
LINE
  5
BE
330
88
100
AcDbEntity
  8
AM_4
100
AcDbLine
 10
-0.1173480708572093
 20
-0.9417982975917752
 30
0.0
 11
-0.1080206639300415
 21
-0.9269735779843251
 31
0.0
  0
LINE
  5
BF
330
88
100
AcDbEntity
  8
AM_4
100
AcDbLine
 10
-0.3344135901931593
 20
-0.9131574724069422
 30
0.0
 11
-0.3269581074461037
 21
-0.9290064032362711
 31
0.0
  0
ELLIPSE
  5
C0
330
88
100
AcDbEntity
  8
AM_4
100
AcDbEllipse
 10
-0.2199830906390874
 20
-0.8998444060644853
 30
0.0
 11
-0.1185994455544678
 21
0.00723778118092471
 31
0.0
210
0.0
220
0.0
230
1.0
 40
0.5713938048432747
 41
2.838585320849972
 42
6.586192639919679
  0
LINE
  5
C1
330
88
100
AcDbEntity
  8
AM_4
100
AcDbLine
 10
-0.467522392214357
 20
-0.8328207949339564
 30
0.0
 11
-0.4634299315096814
 21
-0.7657610761616092
 31
0.0
  0
LWPOLYLINE
  5
C2
330
88
100
AcDbEntity
  8
AM_4
100
AcDbPolyline
 90
        3
 70
     0
 43
0.0
 10
-0.412876993599641
 20
-0.7775136150363368
 10
-0.4403066934840854
 20
-0.8069205336364614
 10
-0.467522392214357
 20
-0.8328207949339564
  0
LWPOLYLINE
  5
C3
330
88
100
AcDbEntity
  8
AM_4
100
AcDbPolyline
 90
        3
 70
     0
 43
0.0
 10
-0.407877945566368
 20
-0.6955984106074375
 10
-0.3804482456819236
 20
-0.6661914920073129
 10
-0.3532325469516519
 20
-0.6402912307098179
  0
LWPOLYLINE
  5
C4
330
88
100
AcDbEntity
  8
AM_4
100
AcDbPolyline
 90
        3
 70
     0
 43
0.0
 10
-0.4634299315096814
 20
-0.7657610761616092
 10
-0.435671864246412
 20
-0.729084771571542
 10
-0.407877945566368
 20
-0.6955984106074375
  0
ELLIPSE
  5
C5
330
88
100
AcDbEntity
  8
AM_4
100
AcDbEllipse
 10
-0.221595127578603
 20
-0.9262595024125764
 30
0.0
 11
-0.1048050182944472
 21
0.006395947177751676
 31
0.0
210
0.0
220
0.0
230
1.0
 40
0.5713938048432762
 41
3.141592653589793
 42
6.283185307179586
  0
LINE
  5
C6
330
88
100
AcDbEntity
  8
AM_4
100
AcDbLine
 10
-0.3264001458730502
 20
-0.9198635552348245
 30
0.0
 11
-0.3272431950709459
 21
-0.9336778948710114
 31
0.0
  0
LINE
  5
C7
330
88
100
AcDbEntity
  8
AM_4
100
AcDbLine
 10
-0.1176331584820515
 20
-0.9464697892265156
 30
0.0
 11
-0.1167901092841558
 21
-0.9326554495903285
 31
0.0
  0
LWPOLYLINE
  5
C8
330
88
100
AcDbEntity
  8
AM_4
100
AcDbPolyline
 90
        3
 70
     0
 43
0.0
 10
-0.3573250076563276
 20
-0.707350949482165
 10
-0.3850830749195969
 20
-0.7440272540722324
 10
-0.412876993599641
 20
-0.7775136150363368
  0
LINE
  5
C9
330
88
100
AcDbEntity
  8
AM_4
100
AcDbLine
 10
-0.3573250076563276
 20
-0.707350949482165
 30
0.0
 11
-0.3532325469516519
 21
-0.6402912307098179
 31
0.0
  0
LWPOLYLINE
  5
CA
330
88
100
AcDbEntity
  8
AM_4
100
AcDbPolyline
 90
        4
 70
     0
 43
0.0
 10
-0.2319635219531316
 20
-0.714778692310441
 10
-0.2801082975554833
 20
-0.7136174945510941
 10
-0.3281207338049868
 20
-0.7102877628888138
 10
-0.3573250076563276
 20
-0.707350949482165
  0
LWPOLYLINE
  5
CB
330
88
100
AcDbEntity
  8
AM_4
100
AcDbPolyline
 90
        3
 70
     0
 43
0.0
 10
-0.2269644739198585
 20
-0.6328634878815418
 10
-0.1641767304911742
 20
-0.634824030644365
 10
-0.1016029882166624
 20
-0.6402912307098179
  0
LWPOLYLINE
  5
CC
330
88
100
AcDbEntity
  8
AM_4
100
AcDbPolyline
 90
        4
 70
     0
 43
0.0
 10
-0.3532325469516519
 20
-0.6402912307098179
 10
-0.3236698226420121
 20
-0.6373544173031691
 10
-0.2753934743620446
 20
-0.6340314580016592
 10
-0.2269644739198585
 20
-0.6328634878815418
  0
LWPOLYLINE
  5
CD
330
88
100
AcDbEntity
  8
AM_4
100
AcDbPolyline
 90
        3
 70
     0
 43
0.0
 10
-0.1056954489213381
 20
-0.707350949482165
 10
-0.1686525804441169
 20
-0.7128008292619731
 10
-0.2319635219531316
 20
-0.714778692310441
  0
LINE
  5
CE
330
88
100
AcDbEntity
  8
AM_4
100
AcDbLine
 10
-0.1171145134153778
 20
-0.9414270879282084
 30
0.0
 11
-0.0962515259262266
 21
-0.9304952577792518
 31
0.0
  0
LINE
  5
CF
330
88
100
AcDbEntity
  8
AM_4
100
AcDbLine
 10
-0.3465236306503898
 20
-0.9152218749972998
 30
0.0
 11
-0.3271447920725618
 21
-0.9286095474145871
 31
0.0
  0
ELLIPSE
  5
D0
330
88
100
AcDbEntity
  8
AM_4
100
AcDbEllipse
 10
-0.2172618626875549
 20
-0.855253927544688
 30
0.0
 11
-0.1722136629594431
 21
0.01050970182058626
 31
0.0
210
0.0
220
0.0
230
1.0
 40
0.5713938048432687
 41
2.384203994289052
 42
7.040573966480315
  0
ELLIPSE
  5
D1
330
88
100
AcDbEntity
  8
AM_4
100
AcDbEllipse
 10
-0.216346127143667
 20
-0.8402485377622332
 30
0.0
 11
-0.2183437881134323
 21
0.01332488995364995
 31
0.0
210
0.0
220
0.0
230
1.0
 40
0.5713938048432718
 41
2.098644883597948
 42
7.326133077171435
  0
LINE
  5
D2
330
88
100
AcDbEntity
  8
AM_4
100
AcDbLine
 10
-0.1056954489213381
 20
-0.707350949482165
 30
0.0
 11
-0.1016029882166624
 21
-0.6402912307098179
 31
0.0
  0
LWPOLYLINE
  5
D3
330
88
100
AcDbEntity
  8
AM_4
100
AcDbPolyline
 90
        3
 70
     0
 43
0.0
 10
-0.0354326554971568
 20
-0.7775136150363368
 10
-0.0706710527863338
 20
-0.7441856109105658
 10
-0.1056954489213381
 20
-0.707350949482165
  0
LWPOLYLINE
  5
D4
330
88
100
AcDbEntity
  8
AM_4
100
AcDbPolyline
 90
        3
 70
     0
 43
0.0
 10
0.0357367252556218
 20
-0.8328207949339564
 10
0.0002050705938205
 20
-0.8070442499035052
 10
-0.0354326554971568
 20
-0.7775136150363368
  0
LINE
  5
D5
330
88
100
AcDbEntity
  8
AM_4
100
AcDbLine
 10
0.0357367252556218
 20
-0.8328207949339564
 30
0.0
 11
0.0398291859602975
 21
-0.7657610761616092
 31
0.0
  0
LWPOLYLINE
  5
D6
330
88
100
AcDbEntity
  8
AM_4
100
AcDbPolyline
 90
        3
 70
     0
 43
0.0
 10
-0.0304336074638838
 20
-0.6955984106074375
 10
0.0048047898252932
 20
-0.7289264147332084
 10
0.0398291859602975
 20
-0.7657610761616092
  0
LWPOLYLINE
  5
D7
330
88
100
AcDbEntity
  8
AM_4
100
AcDbPolyline
 90
        3
 70
     0
 43
0.0
 10
-0.1016029882166624
 20
-0.6402912307098179
 10
-0.0660713335548612
 20
-0.6660677757402691
 10
-0.0304336074638838
 20
-0.6955984106074375
  0
ELLIPSE
  5
D8
330
88
100
AcDbEntity
  8
AM_4
100
AcDbEllipse
 10
-0.2163461271436674
 20
-0.8402485377622314
 30
0.0
 11
-0.2133530729565543
 21
0.01302032104042473
 31
0.0
210
0.0
220
0.0
230
1.0
 40
0.5713938048432708
 41
2.102716616489409
 42
7.322061344279987
  0
LINE
  5
D9
330
88
100
AcDbEntity
  8
AM_4
100
AcDbLine
 10
-0.3200718990055206
 20
-0.9239908164759433
 30
0.0
 11
-0.3507790584017517
 21
-0.9654704399146249
 31
0.0
  0
LINE
  5
DA
330
88
100
AcDbEntity
  8
AM_4
100
AcDbLine
 10
-0.0981379702019458
 20
-0.9808883949071614
 30
0.0
 11
-0.123573274850116
 21
-0.9359825592479162
 31
0.0
  0
ELLIPSE
  5
DB
330
88
100
AcDbEntity
  8
AM_4
100
AcDbEllipse
 10
-0.223094841988585
 20
-0.9508340637412466
 30
0.0
 11
-0.104805018294447
 21
0.006395947177752131
 31
0.0
210
0.0
220
0.0
230
1.0
 40
0.5713938048432717
 41
3.497161686664821
 42
5.927616274104561
  0
LINE
  5
DC
330
88
100
AcDbEntity
  8
AM_4
100
AcDbLine
 10
-0.1327501074730786
 20
-1.087990512819414
 30
0.0
 11
-0.0981080245913925
 21
-1.029533332353701
 31
0.0
  0
LINE
  5
DD
330
88
100
AcDbEntity
  8
AM_4
100
AcDbLine
 10
-0.3567240711368541
 20
-1.01375074293249
 30
0.0
 11
-0.329447537588216
 21
-1.075986637494652
 31
0.0
  0
ELLIPSE
  5
DE
330
88
100
AcDbEntity
  8
AM_4
100
AcDbEllipse
 10
-0.2260942708085468
 20
-0.9999831863985773
 30
0.0
 11
-0.1347493092357156
 21
0.008223360657122494
 31
0.0
210
0.0
220
0.0
230
1.0
 40
0.5713938048432753
 41
2.856441672135613
 42
6.568336288634076
  0
ELLIPSE
  5
DF
330
88
100
AcDbEntity
  8
AM_4
100
AcDbEllipse
 10
-0.2300935092351671
 20
-1.065515349941705
 30
0.0
 11
-0.102487232290887
 21
0.006254499400829557
 31
0.0
210
0.0
220
0.0
230
1.0
 40
0.5713938048432865
 41
0.0
 42
6.283185307179586
  0
ENDBLK
  5
8B
330
88
100
AcDbEntity
  8
0
100
AcDbBlockEnd
  0
BLOCK
  5
E2
330
E0
100
AcDbEntity
  8
0
100
AcDbBlockBegin
  2
3_045874_0_in_065644_4
 70
     2
 10
0.0
 20
0.0
 30
0.0
  3
3_045874_0_in_065644_4
  1

  0
ATTDEF
  5
E4
330
E0
100
AcDbEntity
  8
AM_6
100
AcDbText
 10
6.672772310767205
 20
0.5269999999999998
 30
0.0
 40
0.5
  1
Set Screw Insert Inch Bore
100
AcDbAttributeDefinition
  3

  2
NN
 70
     8
280
     0
  0
ATTDEF
  5
E5
330
E0
100
AcDbEntity
  8
AM_6
100
AcDbText
 10
6.672772310767205
 20
0.0269999999999998
 30
0.0
 40
0.5
  1
SC Normal Duty Bearing Inserts
100
AcDbAttributeDefinition
  3

  2
NT
 70
     8
280
     0
  0
ATTDEF
  5
E6
330
E0
100
AcDbEntity
  8
AM_6
100
AcDbText
 10
6.672772310767205
 20
-0.4730000000000002
 30
0.0
 40
0.5
  1
045874
100
AcDbAttributeDefinition
  3

  2
NB
 70
     8
280
     0
  0
ATTDEF
  5
E7
330
E0
100
AcDbEntity
  8
AM_6
100
AcDbText
 10
6.672772310767205
 20
-0.9730000000000002
 30
0.0
 40
0.5
  1
$PN.
100
AcDbAttributeDefinition
  3

  2
NBSYN
 70
     8
280
     0
  0
ATTDEF
  5
E8
330
E0
100
AcDbEntity
  8
AM_6
100
AcDbText
 10
6.672772310767205
 20
-1.473
 30
0.0
 40
0.5
  1
045874
100
AcDbAttributeDefinition
  3

  2
LINA
 70
     8
280
     0
  0
ATTDEF
  5
E9
330
E0
100
AcDbEntity
  8
AM_6
100
AcDbText
 10
6.672772310767205
 20
-1.973
 30
0.0
 40
0.5
  1
209
100
AcDbAttributeDefinition
  3

  2
SERIES
 70
     8
280
     0
  0
ATTDEF
  5
EA
330
E0
100
AcDbEntity
  8
AM_6
100
AcDbText
 10
6.672772310767205
 20
-2.473
 30
0.0
 40
0.5
  1
1-5/8
100
AcDbAttributeDefinition
  3

  2
SS
 70
     8
280
     0
  0
ATTDEF
  5
EB
330
E0
100
AcDbEntity
  8
AM_6
100
AcDbText
 10
6.672772310767205
 20
-2.973
 30
0.0
 40
0.5
  1
045874
100
AcDbAttributeDefinition
  3

  2
PN
 70
     8
280
     0
  0
ATTDEF
  5
EC
330
E0
100
AcDbEntity
  8
AM_6
100
AcDbText
 10
6.672772310767205
 20
-3.473
 30
0.0
 40
0.5
  1
INS-SC-110L
100
AcDbAttributeDefinition
  3

  2
DESCRIPTION
 70
     8
280
     0
  0
ATTDEF
  5
ED
330
E0
100
AcDbEntity
  8
AM_6
100
AcDbText
 10
6.672772310767205
 20
-3.973
 30
0.0
 40
0.5
  1
1.94
100
AcDbAttributeDefinition
  3

  2
A
 70
     8
280
     0
  0
ATTDEF
  5
EE
330
E0
100
AcDbEntity
  8
AM_6
100
AcDbText
 10
6.672772310767205
 20
-4.473000000000001
 30
0.0
 40
0.5
  1
0.87
100
AcDbAttributeDefinition
  3

  2
C
 70
     8
280
     0
  0
ATTDEF
  5
EF
330
E0
100
AcDbEntity
  8
AM_6
100
AcDbText
 10
6.672772310767205
 20
-4.973000000000001
 30
0.0
 40
0.5
  1
3.3465
100
AcDbAttributeDefinition
  3

  2
D
 70
     8
280
     0
  0
ATTDEF
  5
F0
330
E0
100
AcDbEntity
  8
AM_6
100
AcDbText
 10
6.672772310767205
 20
-5.473000000000001
 30
0.0
 40
0.5
  1
0.25
100
AcDbAttributeDefinition
  3

  2
J
 70
     8
280
     0
  0
ATTDEF
  5
F1
330
E0
100
AcDbEntity
  8
AM_6
100
AcDbText
 10
6.672772310767205
 20
-5.973000000000001
 30
0.0
 40
0.5
  1
2.22
100
AcDbAttributeDefinition
  3

  2
L
 70
     8
280
     0
  0
ATTDEF
  5
F2
330
E0
100
AcDbEntity
  8
AM_6
100
AcDbText
 10
6.672772310767205
 20
-6.473000000000001
 30
0.0
 40
0.5
  1
5/16 - 24
100
AcDbAttributeDefinition
  3

  2
N
 70
     8
280
     0
  0
ATTDEF
  5
F3
330
E0
100
AcDbEntity
  8
AM_6
100
AcDbText
 10
6.672772310767205
 20
-6.973000000000001
 30
0.0
 40
0.5
  1
0.75
100
AcDbAttributeDefinition
  3

  2
W
 70
     8
280
     0
  0
ATTDEF
  5
F4
330
E0
100
AcDbEntity
  8
AM_6
100
AcDbText
 10
6.672772310767205
 20
-7.473000000000001
 30
0.0
 40
0.5
  1
1.19
100
AcDbAttributeDefinition
  3

  2
Y
 70
     8
280
     0
  0
ATTDEF
  5
F5
330
E0
100
AcDbEntity
  8
AM_6
100
AcDbText
 10
6.672772310767205
 20
-7.973000000000001
 30
0.0
 40
0.5
  1
baldor
100
AcDbAttributeDefinition
  3

  2
COMPANY
 70
     8
280
     0
  0
ELLIPSE
  5
F6
330
E0
100
AcDbEntity
  8
AM_9
100
AcDbEllipse
 10
-1.240618847591797
 20
-0.0700000000000001
 30
0.0
 11
1.535447312567142E-18
 21
0.02507575757575457
 31
0.0
210
0.0
220
0.0
230
1.0
 40
0.7071067811865455
 41
0.0
 42
6.283185307179586
  0
LWPOLYLINE
  5
F7
330
E0
100
AcDbEntity
  8
AM_9
100
AcDbPolyline
 90
       15
 70
     0
 43
0.0
 10
-1.281515276759521
 20
-0.0700000000000001
 10
-1.281075614238817
 20
-0.0800238053789472
 10
-1.27929149824982
 20
-0.0924282597121362
 10
-1.276093985368711
 20
-0.1046965699240643
 10
-1.271462513985806
 20
-0.1166109500176262
 10
-1.266140371687525
 20
-0.1267364514443961
 10
-1.259821494091518
 20
-0.1361082119348552
 10
-1.252590437983169
 20
-0.1446212503600913
 10
-1.244536233423758
 20
-0.152188947915229
 10
-1.235753225107774
 20
-0.1587364120762756
 10
-1.226342860922881
 20
-0.1641973006318018
 10
-1.215305508724822
 20
-0.1689129488159847
 10
-1.203917770777073
 20
-0.1721288091293929
 10
-1.192405330881943
 20
-0.1738415696169903
 10
-1.184759652628349
 20
-0.1741666425184945
  0
LWPOLYLINE
  5
F8
330
E0
100
AcDbEntity
  8
AM_9
100
AcDbPolyline
 90
        8
 70
     0
 43
0.0
 10
-1.256681571373785
 20
0.0000432500523238
 10
-1.259877019142553
 20
-0.0039651177658962
 10
-1.266157341779557
 20
-0.013291971580733
 10
-1.271466930031083
 20
-0.0233986814721332
 10
-1.275733311687062
 20
-0.0342054015518646
 10
-1.278879574261988
 20
-0.045611614896852
 10
-1.280829810973036
 20
-0.0574927968199604
 10
-1.281515276759521
 20
-0.0700000000000001
  0
LWPOLYLINE
  5
F9
330
E0
100
AcDbEntity
  8
AM_9
100
AcDbPolyline
 90
        9
 70
     0
 43
0.0
 10
-1.184690177719068
 20
0.0341666666191186
 10
-1.194472190198977
 20
0.0336434412699643
 10
-1.205555499054723
 20
0.0317622943069153
 10
-1.216219937265725
 20
0.0285848634384877
 10
-1.226354366098013
 20
0.0241914836230097
 10
-1.235863661114292
 20
0.0186634241862382
 10
-1.244666552846353
 20
0.0120795315071579
 10
-1.252692427095887
 20
0.0045138287790931
 10
-1.256681571373785
 20
0.0000432500523238
  0
LINE
  5
FA
330
E0
100
AcDbEntity
  8
AM_9
100
AcDbLine
 10
-1.184693129443407
 20
-0.1741666666666621
 30
0.0
 11
-1.178631205929127
 21
-0.1741666666666621
 31
0.0
  0
LINE
  5
FB
330
E0
100
AcDbEntity
  8
AM_9
100
AcDbLine
 10
-1.1563944846545
 20
0.0341666666666618
 30
0.0
 11
-1.184693129443407
 21
0.0341666666666618
 31
0.0
  0
LWPOLYLINE
  5
FC
330
E0
100
AcDbEntity
  8
AM_9
100
AcDbPolyline
 90
       21
 70
     0
 43
0.0
 10
-1.156365287237629
 20
0.0341666662676527
 10
-1.160460174445286
 20
0.0339958941447954
 10
-1.172904350477623
 20
0.0315944478949584
 10
-1.185155236685684
 20
0.026362850461709
 10
-1.196908293895719
 20
0.0184932241030343
 10
-1.207875661414754
 20
0.0081289045443778
 10
-1.21771352602873
 20
-0.0043665702784028
 10
-1.226214655462518
 20
-0.0188140624942256
 10
-1.233065820510356
 20
-0.0346663212759188
 10
-1.238104216571431
 20
-0.0516840159450833
 10
-1.241135147786674
 20
-0.0692112933928163
 10
-1.242046363744594
 20
-0.0868858069204806
 10
-1.240810337707869
 20
-0.1040849059853814
 10
-1.237426019494496
 20
-0.1203112128117044
 10
-1.232011678127359
 20
-0.1351061451074335
 10
-1.224741880876739
 20
-0.1479302795447299
 10
-1.215813387076247
 20
-0.1585355835278406
 10
-1.205574172759326
 20
-0.1664944520616785
 10
-1.194245903079536
 20
-0.1717293690629939
 10
-1.182264423543004
 20
-0.1740304478513297
 10
-1.178671633054158
 20
-0.174166666124339
  0
LWPOLYLINE
  5
FD
330
E0
100
AcDbEntity
  8
AM_9
100
AcDbPolyline
 90
       15
 70
     0
 43
0.0
 10
-1.178671633054158
 20
-0.174166666124339
 10
-1.169872923176987
 20
-0.1734351980202186
 10
-1.157483004852852
 20
-0.1699439818139682
 10
-1.145383547923699
 20
-0.1637058811762852
 10
-1.133894883940757
 20
-0.1548460471245565
 10
-1.12335089893767
 20
-0.1436694845442278
 10
-1.113981651351382
 20
-0.1303509892146619
 10
-1.106113547547627
 20
-0.1153807863162133
 10
-1.099921104937141
 20
-0.0989783056703054
 10
-1.095639827396547
 20
-0.0817748555367253
 10
-1.093400705465826
 20
-0.0640877368229482
 10
-1.09328425767638
 20
-0.04656705938654
 10
-1.095335503038043
 20
-0.0296661384086397
 10
-1.099477090993746
 20
-0.0139105415435352
 10
-1.107656978193349
 20
0.0038036529449392
  0
ELLIPSE
  5
FE
330
E0
100
AcDbEntity
  8
AM_9
100
AcDbEllipse
 10
-0.569103880629796
 20
-1.1325
 30
0.0
 11
7.727521302619776E-18
 21
0.1261999999999996
 31
0.0
210
0.0
220
0.0
230
1.0
 40
0.7071067811865481
 41
4.222304537301387
 42
5.202473423467993
  0
ELLIPSE
  5
FF
330
E0
100
AcDbEntity
  8
AM_9
100
AcDbEllipse
 10
-0.5691038806297964
 20
-1.1325
 30
0.0
 11
7.727521302619790E-18
 21
0.1261999999999999
 31
0.0
210
0.0
220
0.0
230
1.0
 40
0.7071067811865469
 41
1.080711883711594
 42
2.060880769878199
  0
LINE
  5
100
330
E0
100
AcDbEntity
  8
AM_9
100
AcDbLine
 10
-0.5744768930319294
 20
-1.0063
 30
0.0
 11
-0.771770034644256
 21
-1.0063
 31
0.0
  0
LINE
  5
101
330
E0
100
AcDbEntity
  8
AM_9
100
AcDbLine
 10
-0.771770034644256
 20
-1.2587
 30
0.0
 11
-0.5744768930319295
 21
-1.2587
 31
0.0
  0
LWPOLYLINE
  5
102
330
E0
100
AcDbEntity
  8
AM_9
100
AcDbPolyline
 90
        8
 70
     0
 43
0.0
 10
-0.5745297327965928
 20
-1.258699999762684
 10
-0.5654431284751816
 20
-1.25804248330815
 10
-0.55036722548531
 20
-1.254179792523883
 10
-0.5356811373001581
 20
-1.246931342961088
 10
-0.521797633032452
 20
-1.236545210168158
 10
-0.5090793778526856
 20
-1.223139360856228
 10
-0.4980813363593843
 20
-1.20720304593982
 10
-0.4903707995767432
 20
-1.191902389647108
  0
LWPOLYLINE
  5
103
330
E0
100
AcDbEntity
  8
AM_9
100
AcDbPolyline
 90
        8
 70
     0
 43
0.0
 10
-0.5745187865794179
 20
-1.006300000237317
 10
-0.5834588041221436
 20
-1.00695751669185
 10
-0.5977057529517362
 20
-1.010820207476117
 10
-0.6108989507888489
 20
-1.018068657038913
 10
-0.6228029224094334
 20
-1.028454789831842
 10
-0.633239814770996
 20
-1.041860639143773
 10
-0.6419277470015217
 20
-1.05779695406018
 10
-0.6478369616828491
 20
-1.073097610352892
  0
ELLIPSE
  5
104
330
E0
100
AcDbEntity
  8
AM_9
100
AcDbEllipse
 10
0.2752695858659091
 20
-1.1325
 30
0.0
 11
-2.318256390785933E-17
 21
-0.1261999999999996
 31
0.0
210
0.0
220
0.0
230
1.0
 40
0.9396926207859086
 41
4.222304537301381
 42
5.202473423467996
  0
LINE
  5
105
330
E0
100
AcDbEntity
  8
AM_9
100
AcDbLine
 10
0.2778684556841064
 20
-1.2587
 30
0.0
 11
0.3732970816947196
 21
-1.2587
 31
0.0
  0
LINE
  5
106
330
E0
100
AcDbEntity
  8
AM_9
100
AcDbLine
 10
0.3732970816947196
 20
-1.0063
 30
0.0
 11
0.2778684556841065
 21
-1.0063
 31
0.0
  0
LWPOLYLINE
  5
107
330
E0
100
AcDbEntity
  8
AM_9
100
AcDbPolyline
 90
        8
 70
     0
 43
0.0
 10
0.2778986397960684
 20
-1.006300000237317
 10
0.265885164868015
 20
-1.00695751669185
 10
0.2462007358422141
 20
-1.010820207476117
 10
0.2273149334221821
 20
-1.018068657038912
 10
0.2097013695989015
 20
-1.028454789831842
 10
0.1937638945841417
 20
-1.041860639143772
 10
0.1801246051192247
 20
-1.05779695406018
 10
0.1706391435540094
 20
-1.073097610352892
  0
LWPOLYLINE
  5
108
330
E0
100
AcDbEntity
  8
AM_9
100
AcDbPolyline
 90
        4
 70
     0
 43
0.0
 10
0.2778840930829292
 20
-1.258699999762684
 10
0.2898266655215861
 20
-1.25804248330815
 10
0.3091101381031096
 20
-1.254179792523883
 10
0.325775430623747
 20
-1.247689949245138
  0
LWPOLYLINE
  5
109
330
E0
100
AcDbEntity
  8
AM_9
100
AcDbPolyline
 90
        8
 70
     0
 43
0.0
 10
-0.6478369616828492
 20
-1.073097610352892
 10
-0.6534485494500496
 20
-1.091104816051985
 10
-0.6569969430730944
 20
-1.110486095853146
 10
-0.6583052597635154
 20
-1.129343433214495
 10
-0.6576520952215612
 20
-1.14829841941346
 10
-0.6552070091335601
 20
-1.165854954701751
 10
-0.6510811721470763
 20
-1.182514443176026
 10
-0.6478369616828492
 20
-1.191902389647108
  0
LWPOLYLINE
  5
10A
330
E0
100
AcDbEntity
  8
AM_9
100
AcDbPolyline
 90
        8
 70
     0
 43
0.0
 10
-0.6478369616828492
 20
-1.191902389647108
 10
-0.6407129716514159
 20
-1.209784296442741
 10
-0.6316907488111932
 20
-1.225470712653506
 10
-0.6208985115734971
 20
-1.238492018615724
 10
-0.6085649410344964
 20
-1.248518718968571
 10
-0.5949564638457978
 20
-1.255206305122973
 10
-0.5804026615688516
 20
-1.258423041808179
 10
-0.5745297327965928
 20
-1.258699999762684
  0
LWPOLYLINE
  5
10B
330
E0
100
AcDbEntity
  8
AM_9
100
AcDbPolyline
 90
        8
 70
     0
 43
0.0
 10
-0.4903707995767432
 20
-1.191902389647108
 10
-0.4828692982383558
 20
-1.173895183948016
 10
-0.4780285208987107
 20
-1.154513904146855
 10
-0.4762281081950122
 20
-1.135656566785505
 10
-0.4771267878150319
 20
-1.11670158058654
 10
-0.4804803767826341
 20
-1.099145045298249
 10
-0.4860550969546448
 20
-1.082485556823974
 10
-0.4903707995767432
 20
-1.073097610352892
  0
LWPOLYLINE
  5
10C
330
E0
100
AcDbEntity
  8
AM_9
100
AcDbPolyline
 90
        8
 70
     0
 43
0.0
 10
-0.4903707995767433
 20
-1.073097610352892
 10
-0.4996425019657858
 20
-1.055215703557259
 10
-0.5110020037791962
 20
-1.039529287346494
 10
-0.5240588625373535
 20
-1.026507981384277
 10
-0.5383353625238452
 20
-1.01648128103143
 10
-0.5533327329800112
 20
-1.009793694877027
 10
-0.5685850863712424
 20
-1.006576958191821
 10
-0.5745187865794179
 20
-1.006300000237317
  0
LWPOLYLINE
  5
10D
330
E0
100
AcDbEntity
  8
AM_9
100
AcDbPolyline
 90
        8
 70
     0
 43
0.0
 10
0.1706391435540093
 20
-1.073097610352892
 10
0.1604730668576137
 20
-1.093609322907216
 10
0.155177741976523
 20
-1.112649719574285
 10
0.1533354087599735
 20
-1.132346629608565
 10
0.15485535031302
 20
-1.150550447032053
 10
0.1593392210447451
 20
-1.168242416710615
 10
0.1643241122407448
 20
-1.180404804000588
 10
0.1706391435540093
 20
-1.191902389647108
  0
LWPOLYLINE
  5
10E
330
E0
100
AcDbEntity
  8
AM_9
100
AcDbPolyline
 90
        8
 70
     0
 43
0.0
 10
0.1706391435540094
 20
-1.191902389647108
 10
0.1820528879120271
 20
-1.209784296442741
 10
0.1961610489961502
 20
-1.225470712653506
 10
0.2125555783045942
 20
-1.238492018615724
 10
0.230706873556229
 20
-1.248518718968571
 10
0.2500502981601512
 20
-1.255206305122973
 10
0.2700243274292598
 20
-1.258423041808179
 10
0.2778840930829292
 20
-1.258699999762684
  0
LWPOLYLINE
  5
10F
330
E0
100
AcDbEntity
  8
AM_9
100
AcDbPolyline
 90
        9
 70
     0
 43
0.0
 10
0.3799000281778102
 20
-1.191902389647107
 10
0.3837611986069083
 20
-1.184460942359022
 10
0.390818721576847
 20
-1.165622913794528
 10
0.3947096696438114
 20
-1.145642612504216
 10
0.395282455656833
 20
-1.127002002933985
 10
0.3930415473686862
 20
-1.108525521657441
 10
0.3882456563101087
 20
-1.091336861858239
 10
0.3810767943085381
 20
-1.075232880078022
 10
0.3799000281778102
 20
-1.073097610352893
  0
LWPOLYLINE
  5
110
330
E0
100
AcDbEntity
  8
AM_9
100
AcDbPolyline
 90
        5
 70
     0
 43
0.0
 10
0.3254088413594676
 20
-1.017132165058639
 10
0.3240367898336875
 20
-1.01648128103143
 10
0.3053651583549932
 20
-1.009793694877027
 10
0.2857290109427481
 20
-1.006576958191821
 10
0.2778986397960684
 20
-1.006300000237317
  0
LINE
  5
111
330
E0
100
AcDbEntity
  8
AM_9
100
AcDbLine
 10
0.8125
 20
-1.4656
 30
0.0
 11
0.8125
 21
0.3855999999999999
 31
0.0
  0
LINE
  5
112
330
E0
100
AcDbEntity
  8
AM_9
100
AcDbLine
 10
-0.8125
 20
0.3855999999999999
 30
0.0
 11
-0.8125
 21
-1.4656
 31
0.0
  0
LINE
  5
113
330
E0
100
AcDbEntity
  8
AM_9
100
AcDbLine
 10
0.8125
 20
0.3855999999999999
 30
0.0
 11
0.8569
 21
0.4299999999999998
 31
0.0
  0
LINE
  5
114
330
E0
100
AcDbEntity
  8
AM_9
100
AcDbLine
 10
-0.8569
 20
0.4299999999999998
 30
0.0
 11
-0.8125
 21
0.3855999999999999
 31
0.0
  0
LINE
  5
115
330
E0
100
AcDbEntity
  8
AM_9
100
AcDbLine
 10
-0.8125
 20
-1.4656
 30
0.0
 11
-0.8569
 21
-1.51
 31
0.0
  0
LINE
  5
116
330
E0
100
AcDbEntity
  8
AM_9
100
AcDbLine
 10
0.8569
 20
-1.51
 30
0.0
 11
0.8125
 21
-1.4656
 31
0.0
  0
LINE
  5
117
330
E0
100
AcDbEntity
  8
AM_9
100
AcDbLine
 10
-1.0656
 20
0.4299999999999998
 30
0.0
 11
-1.11
 21
0.3855999999999999
 31
0.0
  0
LINE
  5
118
330
E0
100
AcDbEntity
  8
AM_9
100
AcDbLine
 10
1.11
 20
0.3855999999999999
 30
0.0
 11
1.0656
 21
0.4299999999999998
 31
0.0
  0
LINE
  5
119
330
E0
100
AcDbEntity
  8
AM_9
100
AcDbLine
 10
-1.0656
 20
0.4299999999999998
 30
0.0
 11
1.0656
 21
0.4299999999999998
 31
0.0
  0
LINE
  5
11A
330
E0
100
AcDbEntity
  8
AM_9
100
AcDbLine
 10
1.110000000000001
 20
-0.9099999999999998
 30
0.0
 11
1.110000000000001
 21
-0.755
 31
0.0
  0
LINE
  5
11B
330
E0
100
AcDbEntity
  8
AM_9
100
AcDbLine
 10
-1.110000000000001
 20
-0.755
 30
0.0
 11
-1.110000000000001
 21
-0.9099999999999998
 31
0.0
  0
LINE
  5
11C
330
E0
100
AcDbEntity
  8
AM_9
100
AcDbLine
 10
1.110000000000001
 20
0.1149999999999999
 30
0.0
 11
1.110000000000001
 21
0.3855999999999999
 31
0.0
  0
LINE
  5
11D
330
E0
100
AcDbEntity
  8
AM_9
100
AcDbLine
 10
-1.110000000000001
 20
0.3855999999999999
 30
0.0
 11
-1.110000000000001
 21
0.1149999999999999
 31
0.0
  0
LINE
  5
11E
330
E0
100
AcDbEntity
  8
AM_9
100
AcDbLine
 10
-1.110000000000001
 20
0.3855999999999999
 30
0.0
 11
1.110000000000001
 21
0.3855999999999999
 31
0.0
  0
LINE
  5
11F
330
E0
100
AcDbEntity
  8
AM_9
100
AcDbLine
 10
1.589916666666666
 20
-0.6200000000000002
 30
0.0
 11
1.589916666666666
 21
-0.5200000000000001
 31
0.0
  0
LINE
  5
120
330
E0
100
AcDbEntity
  8
AM_9
100
AcDbLine
 10
-1.589916666666666
 20
-0.5200000000000001
 30
0.0
 11
-1.589916666666666
 21
-0.6200000000000002
 31
0.0
  0
LINE
  5
121
330
E0
100
AcDbEntity
  8
AM_9
100
AcDbLine
 10
-1.576932326544176
 20
-0.7550000000000006
 30
0.0
 11
1.576932326544176
 21
-0.7550000000000006
 31
0.0
  0
ARC
  5
122
330
E0
100
AcDbEntity
  8
AM_9
100
AcDbCircle
 10
1.576932326544176
 20
-0.7050000000000006
 30
0.0
 40
0.0499999999999999
100
AcDbArc
 50
270.0
 51
346.2798930886402
  0
ARC
  5
123
330
E0
100
AcDbEntity
  8
AM_9
100
AcDbCircle
 10
-1.576932326544176
 20
-0.7050000000000005
 30
0.0
 40
0.0500000000000001
100
AcDbArc
 50
193.7201069113599
 51
270.0
  0
LINE
  5
124
330
E0
100
AcDbEntity
  8
AM_9
100
AcDbLine
 10
-1.576932326544167
 20
0.1149999999999999
 30
0.0
 11
1.576932326544167
 21
0.1149999999999999
 31
0.0
  0
ARC
  5
125
330
E0
100
AcDbEntity
  8
AM_9
100
AcDbCircle
 10
1.576932326544167
 20
0.0649999999999997
 30
0.0
 40
0.0500000000000001
100
AcDbArc
 50
13.72007682425428
 51
90.0
  0
ARC
  5
126
330
E0
100
AcDbEntity
  8
AM_9
100
AcDbCircle
 10
-1.576932326544167
 20
0.0649999999999997
 30
0.0
 40
0.0500000000000003
100
AcDbArc
 50
90.0
 51
166.2799231757457
  0
ARC
  5
127
330
E0
100
AcDbEntity
  8
AM_9
100
AcDbCircle
 10
-0.000000000155796
 20
-0.3200000000331764
 30
0.0
 40
1.67324999984085
100
AcDbArc
 50
190.3285117335289
 51
193.7200737810711
  0
ARC
  5
128
330
E0
100
AcDbEntity
  8
AM_9
100
AcDbCircle
 10
0.0000000009122594
 20
-0.3200000001942254
 30
0.0
 40
1.673249999068111
100
AcDbArc
 50
346.2799262181454
 51
349.6714882672543
  0
LINE
  5
129
330
E0
100
AcDbEntity
  8
AM_9
100
AcDbLine
 10
-0.0046926139816751
 20
-0.7168589539480946
 30
0.0
 11
1.625505623851417
 21
-0.7168589539480948
 31
0.0
  0
LINE
  5
12A
330
E0
100
AcDbEntity
  8
AM_9
100
AcDbLine
 10
-1.62550562385107
 20
-0.7168589539480948
 30
0.0
 11
-0.0079579705007597
 21
-0.7168589539480946
 31
0.0
  0
LINE
  5
12B
330
E0
100
AcDbEntity
  8
AM_9
100
AcDbLine
 10
-1.646136556455823
 20
-0.62
 30
0.0
 11
1.646136556456169
 21
-0.62
 31
0.0
  0
LWPOLYLINE
  5
12C
330
E0
100
AcDbEntity
  8
AM_9
100
AcDbPolyline
 90
        6
 70
     0
 43
0.0
 10
-1.107656978193349
 20
0.0038036529449392
 10
-1.115878639251355
 20
0.015016419293983
 10
-1.125554540557787
 20
0.0238800691280467
 10
-1.13644101013273
 20
0.0300978985267005
 10
-1.148211730873025
 20
0.0335163904657303
 10
-1.156365287237629
 20
0.0341666662676527
  0
ARC
  5
12D
330
E0
100
AcDbEntity
  8
AM_9
100
AcDbCircle
 10
0.0000000000013769
 20
-0.319999999999918
 30
0.0
 40
1.673249999998639
100
AcDbArc
 50
353.1351448839914
 51
13.72007288185667
  0
ARC
  5
12E
330
E0
100
AcDbEntity
  8
AM_9
100
AcDbCircle
 10
-0.0000000000015543
 20
-0.319999999999907
 30
0.0
 40
1.673249999998467
100
AcDbArc
 50
166.2799271181423
 51
186.8648551160096
  0
LINE
  5
12F
330
E0
100
AcDbEntity
  8
AM_9
100
AcDbLine
 10
-1.661254213689163
 20
-0.5199999999999997
 30
0.0
 11
1.661254213689159
 21
-0.5199999999999997
 31
0.0
  0
LINE
  5
130
330
E0
100
AcDbEntity
  8
AM_9
100
AcDbLine
 10
-1.625505630078345
 20
0.0768589284413285
 30
0.0
 11
1.625505630078342
 21
0.0768589284413285
 31
0.0
  0
ELLIPSE
  5
131
330
E0
100
AcDbEntity
  8
AM_9
100
AcDbEllipse
 10
-1.184693129443406
 20
-0.0700000000000001
 30
0.0
 11
-1.913510623667653E-17
 21
-0.104166666666662
 31
0.0
210
0.0
220
0.0
230
1.0
 40
0.7071067811865518
 41
0.0
 42
6.283185307179586
  0
LINE
  5
134
330
E0
100
AcDbEntity
  8
AM_7
100
AcDbLine
 10
0.0
 20
-1.607
 30
0.0
 11
0.0
 21
0.5269999999999998
 31
0.0
  0
ELLIPSE
  5
135
330
E0
100
AcDbEntity
  8
AM_4
100
AcDbEllipse
 10
0.2752695858659086
 20
-1.1325
 30
0.0
 11
-2.318256390785957E-17
 21
-0.126200000000001
 31
0.0
210
0.0
220
0.0
230
1.0
 40
0.9396926207859084
 41
1.080711883711603
 42
2.060880769878191
  0
LWPOLYLINE
  5
136
330
E0
100
AcDbEntity
  8
AM_4
100
AcDbPolyline
 90
        6
 70
     0
 43
0.0
 10
0.325775430623747
 20
-1.247689949245138
 10
0.3272738450993793
 20
-1.246931342961088
 10
0.3439299297162658
 20
-1.236545210168158
 10
0.3587639334324609
 20
-1.223139360856227
 10
0.3712858472446842
 20
-1.20720304593982
 10
0.37990002817781
 20
-1.191902389647107
  0
LWPOLYLINE
  5
137
330
E0
100
AcDbEntity
  8
AM_4
100
AcDbPolyline
 90
        5
 70
     0
 43
0.0
 10
0.37990002817781
 20
-1.073097610352893
 10
0.3695251097905164
 20
-1.05521570355726
 10
0.356547466063419
 20
-1.039529287346494
 10
0.3412483104631819
 20
-1.026507981384277
 10
0.3254088413594676
 20
-1.017132165058639
  0
LINE
  5
138
330
E0
100
AcDbEntity
  8
AM_4
100
AcDbLine
 10
1.0656
 20
-1.51
 30
0.0
 11
1.11
 21
-1.4656
 31
0.0
  0
LINE
  5
139
330
E0
100
AcDbEntity
  8
AM_4
100
AcDbLine
 10
-1.11
 20
-1.4656
 30
0.0
 11
-1.0656
 21
-1.51
 31
0.0
  0
LINE
  5
13A
330
E0
100
AcDbEntity
  8
AM_4
100
AcDbLine
 10
-1.0656
 20
-1.51
 30
0.0
 11
1.0656
 21
-1.51
 31
0.0
  0
LWPOLYLINE
  5
13B
330
E0
100
AcDbEntity
  8
AM_4
100
AcDbPolyline
 90
       39
 70
     0
 43
0.0
 10
-0.851286574364702
 20
-1.032220591558775
 10
-0.8414948578255256
 20
-1.017874962044484
 10
-0.8302447114687106
 20
-1.005947498964889
 10
-0.8160898831763718
 20
-0.9959155020513075
 10
-0.8006568719562975
 20
-0.9897429635897445
 10
-0.7852698929586881
 20
-0.9877649853343916
 10
-0.7695679571253717
 20
-0.9895568816396434
 10
-0.7544515576764059
 20
-0.9949016446998996
 10
-0.7399216191973107
 20
-1.003546053230576
 10
-0.7261205556059064
 20
-1.015516718424383
 10
-0.7137384839712764
 20
-1.030234532126682
 10
-0.7025952317971421
 20
-1.048292923308635
 10
-0.6936948607734247
 20
-1.068409393779197
 10
-0.6870181345478393
 20
-1.09134045200633
 10
-0.6832984529383217
 20
-1.115347200722636
 10
-0.6827191170898548
 20
-1.140688782657119
 10
-0.6854434912246794
 20
-1.165803218930045
 10
-0.6915096348856045
 20
-1.190206049807746
 10
-0.7006700072260661
 20
-1.212938130941755
 10
-0.7124533316662267
 20
-1.232934934535094
 10
-0.726565638313158
 20
-1.249947909803408
 10
-0.7417846173633031
 20
-1.262753817762681
 10
-0.7581775448446775
 20
-1.271759540825939
 10
-0.7741087837305208
 20
-1.276337486434652
 10
-0.7900616744039665
 20
-1.277041822840709
 10
-0.8048935767576239
 20
-1.273993907603691
 10
-0.8188997603188467
 20
-1.267478234655242
 10
-0.8318041320829991
 20
-1.25762095266097
 10
-0.8432894637675645
 20
-1.24482799047523
 10
-0.8535757311323722
 20
-1.228678083660569
 10
-0.8619681384123217
 20
-1.210219497600454
 10
-0.8686741785694523
 20
-1.18867341386881
 10
-0.8730946076969622
 20
-1.165691794177458
 10
-0.8752103106163718
 20
-1.140796801920004
 10
-0.8747816944232305
 20
-1.115675660474861
 10
-0.8717062877077881
 20
-1.09057614848824
 10
-0.8660206196216066
 20
-1.066675377892427
 10
-0.8594787094767423
 20
-1.048617151426105
 10
-0.8512865743072077
 20
-1.032220591534266
  0
LWPOLYLINE
  5
13C
330
E0
100
AcDbEntity
  8
AM_4
100
AcDbPolyline
 90
       39
 70
     0
 43
0.0
 10
0.3853676404724628
 20
-0.987892961350679
 10
0.40534955642406
 20
-0.9907413646864636
 10
0.4244814292550753
 20
-0.9970773969564024
 10
0.4423152267877812
 20
-1.006754436181806
 10
0.4584001602480062
 20
-1.019382516514562
 10
0.4729860765648741
 20
-1.035367180273844
 10
0.4850408739661664
 20
-1.053680323099221
 10
0.4948035912777009
 20
-1.075099029549615
 10
0.5013490396018215
 20
-1.097981851385484
 10
0.5046058180004548
 20
-1.122823161514032
 10
0.5041921143271717
 20
-1.147927824104306
 10
0.4999567665699391
 20
-1.173068690243024
 10
0.4919873475786847
 20
-1.197050856096467
 10
0.480467879313426
 20
-1.218985426559653
 10
0.4656204122351839
 20
-1.238366235399335
 10
0.4484066839122892
 20
-1.253949486353952
 10
0.4288042126183442
 20
-1.265940404131829
 10
0.4086525261529148
 20
-1.273424386420813
 10
0.3874374696659805
 20
-1.27698267779364
 10
0.3669694244774668
 20
-1.276528488940747
 10
0.3467250153910442
 20
-1.27243604829782
 10
0.3275279385135522
 20
-1.264925257776446
 10
0.3096241304717315
 20
-1.254284107851854
 10
0.2929471162376075
 20
-1.240302674650707
 10
0.2785283372199944
 20
-1.223770968454941
 10
0.266108127929475
 20
-1.203972939607006
 10
0.2568593596257214
 20
-1.182392138929783
 10
0.2508172975751092
 20
-1.158368387632668
 10
0.2486478689097141
 20
-1.133654349128514
 10
0.2505584273861981
 20
-1.108228507733332
 10
0.2565640649690887
 20
-1.083486246796331
 10
0.2665895650673822
 20
-1.060123417381894
 10
0.280316761539571
 20
-1.03887868277037
 10
0.2969421032048744
 20
-1.020933447128743
 10
0.3162621160774983
 20
-1.006305463001708
 10
0.3365129378703593
 20
-0.9961083455380104
 10
0.3580264374477068
 20
-0.9898128931047918
 10
0.3716774242396984
 20
-0.9880307208941758
 10
0.3853676359818068
 20
-0.9878929565918919
  0
LINE
  5
13D
330
E0
100
AcDbEntity
  8
AM_4
100
AcDbLine
 10
1.110000000000001
 20
-1.4656
 30
0.0
 11
1.110000000000001
 21
-0.9099999999999998
 31
0.0
  0
LINE
  5
13E
330
E0
100
AcDbEntity
  8
AM_4
100
AcDbLine
 10
-1.110000000000001
 20
-0.9099999999999998
 30
0.0
 11
-1.110000000000001
 21
-1.4656
 31
0.0
  0
LINE
  5
13F
330
E0
100
AcDbEntity
  8
AM_4
100
AcDbLine
 10
-1.110000000000001
 20
-1.4656
 30
0.0
 11
1.110000000000001
 21
-1.4656
 31
0.0
  0
ELLIPSE
  5
140
330
E0
100
AcDbEntity
  8
AM_4
100
AcDbEllipse
 10
-0.7717700346442559
 20
-1.1325
 30
0.0
 11
7.727521302619804E-18
 21
0.1262000000000001
 31
0.0
210
0.0
220
0.0
230
1.0
 40
0.7071067811865475
 41
0.0
 42
6.283185307179586
  0
ELLIPSE
  5
141
330
E0
100
AcDbEntity
  8
AM_4
100
AcDbEllipse
 10
0.3732970816947195
 20
-1.1325
 30
0.0
 11
-2.318256390785941E-17
 21
-0.1262000000000001
 31
0.0
210
0.0
220
0.0
230
1.0
 40
0.9396926207859077
 41
0.0
 42
6.283185307179586
  0
ENDBLK
  5
E3
330
E0
100
AcDbEntity
  8
0
100
AcDbBlockEnd
  0
BLOCK
  5
144
330
142
100
AcDbEntity
  8
0
100
AcDbBlockBegin
  2
4_065644H_0_in_065644_4
 70
     2
 10
0.0
 20
0.0
 30
0.0
  3
4_065644H_0_in_065644_4
  1

  0
ATTDEF
  5
146
330
142
100
AcDbEntity
  8
AM_6
100
AcDbText
 10
7.875
 20
0.4400000000000001
 30
0.0
 40
0.5
  1
FC-SC -I-Housing
100
AcDbAttributeDefinition
  3

  2
NN
 70
     8
280
     0
  0
ATTDEF
  5
147
330
142
100
AcDbEntity
  8
AM_6
100
AcDbText
 10
7.875
 20
-0.0599999999999999
 30
0.0
 40
0.5
  1
SC Piloted Flange Bearings -(Normal Duty)
100
AcDbAttributeDefinition
  3

  2
NT
 70
     8
280
     0
  0
ATTDEF
  5
148
330
142
100
AcDbEntity
  8
AM_6
100
AcDbText
 10
7.875
 20
-0.5599999999999998
 30
0.0
 40
0.5
  1
065644H
100
AcDbAttributeDefinition
  3

  2
NB
 70
     8
280
     0
  0
ATTDEF
  5
149
330
142
100
AcDbEntity
  8
AM_6
100
AcDbText
 10
7.875
 20
-1.06
 30
0.0
 40
0.5
  1
$PN.H
100
AcDbAttributeDefinition
  3

  2
NBSYN
 70
     8
280
     0
  0
ATTDEF
  5
14A
330
142
100
AcDbEntity
  8
AM_6
100
AcDbText
 10
7.875
 20
-1.56
 30
0.0
 40
0.5
  1
065644
100
AcDbAttributeDefinition
  3

  2
LINA
 70
     8
280
     0
  0
ATTDEF
  5
14B
330
142
100
AcDbEntity
  8
AM_6
100
AcDbText
 10
7.875
 20
-2.06
 30
0.0
 40
0.5
  1
209
100
AcDbAttributeDefinition
  3

  2
SERIES
 70
     8
280
     0
  0
ATTDEF
  5
14C
330
142
100
AcDbEntity
  8
AM_6
100
AcDbText
 10
7.875
 20
-2.56
 30
0.0
 40
0.5
  1
1-5/8
100
AcDbAttributeDefinition
  3

  2
SS
 70
     8
280
     0
  0
ATTDEF
  5
14D
330
142
100
AcDbEntity
  8
AM_6
100
AcDbText
 10
7.875
 20
-3.06
 30
0.0
 40
0.5
  1
065644
100
AcDbAttributeDefinition
  3

  2
PN
 70
     8
280
     0
  0
ATTDEF
  5
14E
330
142
100
AcDbEntity
  8
AM_6
100
AcDbText
 10
7.875
 20
-3.56
 30
0.0
 40
0.5
  1
FC-SC-110L
100
AcDbAttributeDefinition
  3

  2
DESCRIPTION
 70
     8
280
     0
  0
ATTDEF
  5
14F
330
142
100
AcDbEntity
  8
AM_6
100
AcDbText
 10
7.875
 20
-4.06
 30
0.0
 40
0.5
  1
1.94
100
AcDbAttributeDefinition
  3

  2
A
 70
     8
280
     0
  0
ATTDEF
  5
150
330
142
100
AcDbEntity
  8
AM_6
100
AcDbText
 10
7.875
 20
-4.56
 30
0.0
 40
0.5
  1
5.75
100
AcDbAttributeDefinition
  3

  2
B
 70
     8
280
     0
  0
ATTDEF
  5
151
330
142
100
AcDbEntity
  8
AM_6
100
AcDbText
 10
7.875
 20
-5.06
 30
0.0
 40
0.5
  1
1.95
100
AcDbAttributeDefinition
  3

  2
C
 70
     8
280
     0
  0
ATTDEF
  5
152
330
142
100
AcDbEntity
  8
AM_6
100
AcDbText
 10
7.875
 20
-5.56
 30
0.0
 40
0.5
  1
4.75
100
AcDbAttributeDefinition
  3

  2
D
 70
     8
280
     0
  0
ATTDEF
  5
153
330
142
100
AcDbEntity
  8
AM_6
100
AcDbText
 10
7.875
 20
-6.06
 30
0.0
 40
0.5
  1
0.44
100
AcDbAttributeDefinition
  3

  2
E
 70
     8
280
     0
  0
ATTDEF
  5
154
330
142
100
AcDbEntity
  8
AM_6
100
AcDbText
 10
7.875
 20
-6.56
 30
0.0
 40
0.5
  1
1/2
100
AcDbAttributeDefinition
  3

  2
F
 70
     8
280
     0
  0
ATTDEF
  5
155
330
142
100
AcDbEntity
  8
AM_6
100
AcDbText
 10
7.875
 20
-7.06
 30
0.0
 40
0.5
  1
1.51
100
AcDbAttributeDefinition
  3

  2
G
 70
     8
280
     0
  0
ATTDEF
  5
156
330
142
100
AcDbEntity
  8
AM_6
100
AcDbText
 10
7.875
 20
-7.56
 30
0.0
 40
0.5
  1
0.91
100
AcDbAttributeDefinition
  3

  2
H
 70
     8
280
     0
  0
ATTDEF
  5
157
330
142
100
AcDbEntity
  8
AM_6
100
AcDbText
 10
7.875
 20
-8.059999999999999
 30
0.0
 40
0.5
  1
4.000 / 3.998
100
AcDbAttributeDefinition
  3

  2
K
 70
     8
280
     0
  0
ATTDEF
  5
158
330
142
100
AcDbEntity
  8
AM_6
100
AcDbText
 10
7.875
 20
-8.559999999999999
 30
0.0
 40
0.5
  1
2.22
100
AcDbAttributeDefinition
  3

  2
L
 70
     8
280
     0
  0
ATTDEF
  5
159
330
142
100
AcDbEntity
  8
AM_6
100
AcDbText
 10
7.875
 20
-9.059999999999999
 30
0.0
 40
0.5
  1
baldor
100
AcDbAttributeDefinition
  3

  2
COMPANY
 70
     8
280
     0
  0
LINE
  5
15A
330
142
100
AcDbEntity
  8
AM_9
100
AcDbLine
 10
-1.563030468018463
 20
-0.4375000000000001
 30
0.0
 11
-1.563030468018463
 21
0.4399999999999999
 31
0.0
  0
LINE
  5
15B
330
142
100
AcDbEntity
  8
AM_9
100
AcDbLine
 10
-0.7969981217330383
 20
-0.4375000000000001
 30
0.0
 11
-0.7969981217330383
 21
0.4399999999999999
 31
0.0
  0
LINE
  5
15C
330
142
100
AcDbEntity
  8
AM_9
100
AcDbLine
 10
-0.7364396734010936
 20
-0.4375000000000001
 30
0.0
 11
-1.563030468018463
 21
-0.4375000000000001
 31
0.0
  0
LINE
  5
15D
330
142
100
AcDbEntity
  8
AM_9
100
AcDbLine
 10
1.563030468018462
 20
-0.4374999999999999
 30
0.0
 11
1.563030468018462
 21
0.4400000000000001
 31
0.0
  0
LINE
  5
15E
330
142
100
AcDbEntity
  8
AM_9
100
AcDbLine
 10
-2.125
 20
-0.6066666666666667
 30
0.0
 11
-2.125
 21
-0.91
 31
0.0
  0
LINE
  5
15F
330
142
100
AcDbEntity
  8
AM_9
100
AcDbLine
 10
2.125
 20
-0.91
 30
0.0
 11
2.125
 21
-0.6066666666666667
 31
0.0
  0
LINE
  5
160
330
142
100
AcDbEntity
  8
AM_9
100
AcDbLine
 10
1.932706273482943
 20
-0.6066666666666666
 30
0.0
 11
1.932706273482943
 21
-0.91
 31
0.0
  0
LINE
  5
161
330
142
100
AcDbEntity
  8
AM_9
100
AcDbLine
 10
1.93216962605801
 20
-0.6066666666666666
 30
0.0
 11
1.93216962605801
 21
-0.91
 31
0.0
  0
LINE
  5
162
330
142
100
AcDbEntity
  8
AM_9
100
AcDbLine
 10
1.915654290723611
 20
-0.6066666666666666
 30
0.0
 11
1.915654290723611
 21
-0.91
 31
0.0
  0
LINE
  5
163
330
142
100
AcDbEntity
  8
AM_9
100
AcDbLine
 10
-1.932706273482943
 20
-0.6066666666666666
 30
0.0
 11
-1.932706273482943
 21
-0.91
 31
0.0
  0
LINE
  5
164
330
142
100
AcDbEntity
  8
AM_9
100
AcDbLine
 10
-1.932169646890399
 20
-0.6066666666666666
 30
0.0
 11
-1.932169646890399
 21
-0.91
 31
0.0
  0
LINE
  5
165
330
142
100
AcDbEntity
  8
AM_9
100
AcDbLine
 10
-1.915654290723614
 20
-0.91
 30
0.0
 11
-1.915654290723614
 21
-0.6066666666666666
 31
0.0
  0
LINE
  5
166
330
142
100
AcDbEntity
  8
AM_9
100
AcDbLine
 10
2.00816903893232
 20
-0.6066666666666666
 30
0.0
 11
2.057396925990131
 21
-0.6066666666666666
 31
0.0
  0
LINE
  5
167
330
142
100
AcDbEntity
  8
AM_9
100
AcDbLine
 10
-2.057396925990146
 20
-0.6066666666666666
 30
0.0
 11
-2.008169038932305
 21
-0.6066666666666666
 31
0.0
  0
LINE
  5
168
330
142
100
AcDbEntity
  8
AM_9
100
AcDbLine
 10
1.563030468018462
 20
-0.4374999999999999
 30
0.0
 11
0.7364396734010936
 21
-0.4374999999999999
 31
0.0
  0
LINE
  5
169
330
142
100
AcDbEntity
  8
AM_9
100
AcDbLine
 10
0.7969981217330359
 20
-0.4374999999999999
 30
0.0
 11
0.7969981217330359
 21
0.4399999999999999
 31
0.0
  0
LINE
  5
16A
330
142
100
AcDbEntity
  8
AM_9
100
AcDbLine
 10
-1.50247201968652
 20
-0.4375000000000001
 30
0.0
 11
-1.502472019686521
 21
0.4399999999999999
 31
0.0
  0
LINE
  5
16B
330
142
100
AcDbEntity
  8
AM_9
100
AcDbLine
 10
0.7364396734010937
 20
0.4400000000000001
 30
0.0
 11
0.7364396734010936
 21
-0.4374999999999999
 31
0.0
  0
LINE
  5
16C
330
142
100
AcDbEntity
  8
AM_9
100
AcDbLine
 10
1.50247201968652
 20
-0.4374999999999999
 30
0.0
 11
1.502472019686521
 21
0.4400000000000001
 31
0.0
  0
LINE
  5
16D
330
142
100
AcDbEntity
  8
AM_9
100
AcDbLine
 10
-0.7364396734010936
 20
0.4399999999999999
 30
0.0
 11
-0.7364396734010936
 21
-0.4375000000000001
 31
0.0
  0
LINE
  5
16E
330
142
100
AcDbEntity
  8
AM_9
100
AcDbLine
 10
1.67325
 20
-0.9100000000000001
 30
0.0
 11
1.67325
 21
0.4399999999999999
 31
0.0
  0
LINE
  5
16F
330
142
100
AcDbEntity
  8
AM_9
100
AcDbLine
 10
-1.67325
 20
0.4399999999999999
 30
0.0
 11
-1.67325
 21
-0.9100000000000001
 31
0.0
  0
LINE
  5
170
330
142
100
AcDbEntity
  8
AM_9
100
AcDbLine
 10
1.42937860531805
 20
0.0000000000000001
 30
0.0
 11
1.42937860531805
 21
-0.9099999999999998
 31
0.0
  0
LINE
  5
171
330
142
100
AcDbEntity
  8
AM_9
100
AcDbLine
 10
1.92937860531805
 20
-0.9099999999999998
 30
0.0
 11
1.92937860531805
 21
0.0000000000000001
 31
0.0
  0
LINE
  5
172
330
142
100
AcDbEntity
  8
AM_9
100
AcDbLine
 10
-1.92937860531805
 20
0.0000000000000001
 30
0.0
 11
-1.92937860531805
 21
-0.9099999999999998
 31
0.0
  0
LINE
  5
173
330
142
100
AcDbEntity
  8
AM_9
100
AcDbLine
 10
-1.42937860531805
 20
-0.9099999999999998
 30
0.0
 11
-1.42937860531805
 21
0.0000000000000001
 31
0.0
  0
LINE
  5
174
330
142
100
AcDbEntity
  8
AM_9
100
AcDbLine
 10
-2.133438806623412
 20
-0.6066666666666666
 30
0.0
 11
-2.133438806623412
 21
-0.9099999999999998
 31
0.0
  0
LINE
  5
175
330
142
100
AcDbEntity
  8
AM_9
100
AcDbLine
 10
2.133438806623412
 20
-0.6066666666666666
 30
0.0
 11
2.133438806623412
 21
-0.9099999999999998
 31
0.0
  0
LINE
  5
176
330
142
100
AcDbEntity
  8
AM_9
100
AcDbLine
 10
-0.5803730836624902
 20
-0.9099999999999998
 30
0.0
 11
-0.5803730836624902
 21
-0.6066666666666665
 31
0.0
  0
LINE
  5
177
330
142
100
AcDbEntity
  8
AM_9
100
AcDbLine
 10
-0.026361794179562
 20
-0.9099999999999998
 30
0.0
 11
-0.388794563209546
 21
-0.9099999999999998
 31
0.0
  0
LINE
  5
178
330
142
100
AcDbEntity
  8
AM_7
100
AcDbLine
 10
-1.67937860531805
 20
-0.9555000000000001
 30
0.0
 11
-1.67937860531805
 21
0.0454999999999999
 31
0.0
  0
LINE
  5
179
330
142
100
AcDbEntity
  8
AM_7
100
AcDbLine
 10
1.67937860531805
 20
-0.9555000000000001
 30
0.0
 11
1.67937860531805
 21
0.0454999999999999
 31
0.0
  0
LINE
  5
17A
330
142
100
AcDbEntity
  8
AM_4
100
AcDbLine
 10
2.0
 20
0.0000000000000001
 30
0.0
 11
2.0
 21
0.4224
 31
0.0
  0
LINE
  5
17B
330
142
100
AcDbEntity
  8
AM_4
100
AcDbLine
 10
-2.0
 20
0.4224
 30
0.0
 11
-2.0
 21
0.0000000000000001
 31
0.0
  0
LINE
  5
17C
330
142
100
AcDbEntity
  8
AM_4
100
AcDbLine
 10
-2.0
 20
0.4224
 30
0.0
 11
2.0
 21
0.4224
 31
0.0
  0
LINE
  5
17D
330
142
100
AcDbEntity
  8
AM_4
100
AcDbLine
 10
-1.982399999999999
 20
0.44
 30
0.0
 11
1.982399999999991
 21
0.44
 31
0.0
  0
ARC
  5
17E
330
142
100
AcDbEntity
  8
AM_4
100
AcDbCircle
 10
1.9824
 20
0.4223999999999998
 30
0.0
 40
0.0176000000000001
100
AcDbArc
 50
0.0000008537736463
 51
90.0
  0
ARC
  5
17F
330
142
100
AcDbEntity
  8
AM_4
100
AcDbCircle
 10
-1.9824
 20
0.4223999999999999
 30
0.0
 40
0.0176000000000001
100
AcDbArc
 50
90.0
 51
179.9999991462263
  0
LINE
  5
180
330
142
100
AcDbEntity
  8
AM_4
100
AcDbLine
 10
-0.388794563209546
 20
-0.9099999999999998
 30
0.0
 11
-2.180378605318051
 21
-0.91
 31
0.0
  0
LINE
  5
181
330
142
100
AcDbEntity
  8
AM_4
100
AcDbLine
 10
-2.180378605318051
 20
-0.6066666666666665
 30
0.0
 11
-2.180378605318051
 21
-0.91
 31
0.0
  0
LINE
  5
182
330
142
100
AcDbEntity
  8
AM_4
100
AcDbLine
 10
2.18037860531805
 20
-0.9099999999999998
 30
0.0
 11
2.18037860531805
 21
-0.6066666666666665
 31
0.0
  0
LINE
  5
183
330
142
100
AcDbEntity
  8
AM_4
100
AcDbLine
 10
-0.88450298820233
 20
-0.6066666666666665
 30
0.0
 11
-0.88450298820233
 21
-0.9099999999999998
 31
0.0
  0
LINE
  5
184
330
142
100
AcDbEntity
  8
AM_4
100
AcDbLine
 10
0.8845029570654713
 20
-0.6066666666666665
 30
0.0
 11
0.8845029570654713
 21
-0.9099999999999998
 31
0.0
  0
LINE
  5
185
330
142
100
AcDbEntity
  8
AM_4
100
AcDbLine
 10
1.037174549694811
 20
-0.6066666666666665
 30
0.0
 11
1.037174549694811
 21
-0.9099999999999998
 31
0.0
  0
LINE
  5
186
330
142
100
AcDbEntity
  8
AM_4
100
AcDbLine
 10
-1.037174549694811
 20
-0.6066666666666665
 30
0.0
 11
-1.037174549694811
 21
-0.9099999999999998
 31
0.0
  0
LINE
  5
187
330
142
100
AcDbEntity
  8
AM_4
100
AcDbLine
 10
1.46764685618596
 20
-0.6066666666666665
 30
0.0
 11
1.46764685618596
 21
-0.91
 31
0.0
  0
LINE
  5
188
330
142
100
AcDbEntity
  8
AM_4
100
AcDbLine
 10
-1.46764685618596
 20
-0.6066666666666665
 30
0.0
 11
-1.46764685618596
 21
-0.9099999999999998
 31
0.0
  0
LINE
  5
189
330
142
100
AcDbEntity
  8
AM_4
100
AcDbLine
 10
-0.6287031055564062
 20
-0.6066666666666665
 30
0.0
 11
-0.5909468111377767
 21
-0.9099999999999998
 31
0.0
  0
LINE
  5
18A
330
142
100
AcDbEntity
  8
AM_4
100
AcDbLine
 10
2.18037860531805
 20
-0.9099999999999998
 30
0.0
 11
-0.026361794179562
 21
-0.9099999999999998
 31
0.0
  0
LINE
  5
18B
330
142
100
AcDbEntity
  8
AM_4
100
AcDbLine
 10
0.2165826748109064
 20
-0.9099999999999998
 30
0.0
 11
0.2165826748109064
 21
-0.6066666666666665
 31
0.0
  0
LINE
  5
18C
330
142
100
AcDbEntity
  8
AM_4
100
AcDbLine
 10
0.1682526529169903
 20
-0.6066666666666665
 30
0.0
 11
0.2060089473356198
 21
-0.9099999999999998
 31
0.0
  0
LINE
  5
18D
330
142
100
AcDbEntity
  8
AM_4
100
AcDbLine
 10
-2.875
 20
0.0
 30
0.0
 11
2.875
 21
0.0
 31
0.0
  0
LINE
  5
18E
330
142
100
AcDbEntity
  8
AM_4
100
AcDbLine
 10
-2.008169038932305
 20
-0.6066666666666665
 30
0.0
 11
2.00816903893232
 21
-0.6066666666666665
 31
0.0
  0
LINE
  5
18F
330
142
100
AcDbEntity
  8
AM_4
100
AcDbLine
 10
-2.008169038932289
 20
-0.9099999999999998
 30
0.0
 11
-2.008169038932305
 21
-0.6066666666666665
 31
0.0
  0
LINE
  5
190
330
142
100
AcDbEntity
  8
AM_4
100
AcDbLine
 10
2.00816903893232
 20
-0.6066666666666665
 30
0.0
 11
2.008169038932289
 21
-0.9099999999999998
 31
0.0
  0
LINE
  5
191
330
142
100
AcDbEntity
  8
AM_4
100
AcDbLine
 10
2.057396925990159
 20
-0.9099999999999998
 30
0.0
 11
2.057396925990131
 21
-0.6066666666666665
 31
0.0
  0
LINE
  5
192
330
142
100
AcDbEntity
  8
AM_4
100
AcDbLine
 10
2.057396925990131
 20
-0.6066666666666665
 30
0.0
 11
2.875
 21
-0.6066666666666667
 31
0.0
  0
LINE
  5
193
330
142
100
AcDbEntity
  8
AM_4
100
AcDbLine
 10
-2.057396925990146
 20
-0.6066666666666665
 30
0.0
 11
-2.057396925990159
 21
-0.9099999999999998
 31
0.0
  0
LINE
  5
194
330
142
100
AcDbEntity
  8
AM_4
100
AcDbLine
 10
2.875
 20
-0.6066666666666667
 30
0.0
 11
2.875
 21
0.0
 31
0.0
  0
LINE
  5
195
330
142
100
AcDbEntity
  8
AM_4
100
AcDbLine
 10
-2.875
 20
0.0
 30
0.0
 11
-2.875
 21
-0.6066666666666667
 31
0.0
  0
LINE
  5
196
330
142
100
AcDbEntity
  8
AM_4
100
AcDbLine
 10
-2.875
 20
-0.6066666666666667
 30
0.0
 11
-2.057396925990146
 21
-0.6066666666666665
 31
0.0
  0
ENDBLK
  5
145
330
142
100
AcDbEntity
  8
0
100
AcDbBlockEnd
  0
ENDSEC
  0
SECTION
  2
ENTITIES
  0
INSERT
  5
6F
330
1F
100
AcDbEntity
  8
0
100
AcDbBlockReference
  2
1_065644_4
 10
0.0
 20
0.0
 30
0.0
  0
POINT
  5
198
330
1F
100
AcDbEntity
  8
ConnectionPoints
100
AcDbPoint
 10
0.0
 20
0.4299999999999999
 30
0.0
  0
POINT
  5
199
330
1F
100
AcDbEntity
  8
ConnectionPoints
100
AcDbPoint
 10
0.0
 20
-1.51
 30
0.0000000000000001
  0
POINT
  5
19A
330
1F
100
AcDbEntity
  8
ConnectionPoints
100
AcDbPoint
 10
0.0
 20
-1.51
 30
0.0000000000000001
  0
POINT
  5
19B
330
1F
100
AcDbEntity
  8
ConnectionPoints
100
AcDbPoint
 10
-0.2113470791103933
 20
-0.7583333333333332
 30
2.415708168267634
  0
ENDSEC
  0
SECTION
  2
OBJECTS
  0
DICTIONARY
  5
C
330
0
100
AcDbDictionary
281
     1
  3
ACAD_DETAILVIEWSTYLE
350
1A3
  3
ACAD_GROUP
350
D
  3
ACAD_LAYOUT
350
1A
  3
ACAD_MATERIAL
350
43
  3
ACAD_MLEADERSTYLE
350
6B
  3
ACAD_MLINESTYLE
350
17
  3
ACAD_PLOTSETTINGS
350
19
  3
ACAD_PLOTSTYLENAME
350
E
  3
ACAD_SCALELIST
350
47
  3
ACAD_SECTIONVIEWSTYLE
350
1A4
  3
ACAD_TABLESTYLE
350
69
  3
ACAD_VISUALSTYLE
350
2A
  3
ACDB_RECOMPOSE_DATA
350
1A0
  3
AcDbVariableDictionary
350
19C
  0
SUN
  5
6D
330
29
100
AcDbSun
 90
        1
290
     0
 63
     7
421
 16777215
 40
1.0
291
     1
 91
  2455826
 92
 54000000
292
     0
 70
     2
 71
   256
280
     1
  0
DICTIONARY
  5
1A3
102
{ACAD_REACTORS
330
C
102
}
330
C
100
AcDbDictionary
281
     1
  0
DICTIONARY
  5
D
102
{ACAD_REACTORS
330
C
102
}
330
C
100
AcDbDictionary
281
     1
  0
DICTIONARY
  5
1A
102
{ACAD_REACTORS
330
C
102
}
330
C
100
AcDbDictionary
281
     1
  3
Layout1
350
1E
  3
Layout2
350
26
  3
Model
350
22
  0
DICTIONARY
  5
43
102
{ACAD_REACTORS
330
C
102
}
330
C
100
AcDbDictionary
281
     1
  3
ByBlock
350
45
  3
ByLayer
350
44
  3
Global
350
46
  0
DICTIONARY
  5
6B
102
{ACAD_REACTORS
330
C
102
}
330
C
100
AcDbDictionary
281
     1
  3
Standard
350
6C
  0
DICTIONARY
  5
17
102
{ACAD_REACTORS
330
C
102
}
330
C
100
AcDbDictionary
281
     1
  3
Standard
350
18
  0
DICTIONARY
  5
19
102
{ACAD_REACTORS
330
C
102
}
330
C
100
AcDbDictionary
281
     1
  0
ACDBDICTIONARYWDFLT
  5
E
102
{ACAD_REACTORS
330
C
102
}
330
C
100
AcDbDictionary
281
     1
  3
Normal
350
F
100
AcDbDictionaryWithDefault
340
F
  0
DICTIONARY
  5
47
102
{ACAD_REACTORS
330
C
102
}
330
C
100
AcDbDictionary
281
     1
  3
A0
350
48
  3
A1
350
49
  3
A2
350
4A
  3
A3
350
4B
  3
A4
350
4C
  3
A5
350
4D
  3
A6
350
4E
  3
A7
350
4F
  3
A8
350
50
  3
A9
350
51
  3
B0
350
52
  3
B1
350
53
  3
B2
350
54
  3
B3
350
55
  3
B4
350
56
  3
B5
350
57
  3
B6
350
58
  3
B7
350
59
  3
B8
350
5A
  3
B9
350
5B
  3
C0
350
5C
  3
C1
350
5D
  3
C2
350
5E
  3
C3
350
5F
  3
C4
350
60
  3
C5
350
61
  3
C6
350
62
  3
C7
350
63
  3
C8
350
64
  3
C9
350
65
  3
D0
350
66
  3
D1
350
67
  3
D2
350
68
  0
DICTIONARY
  5
1A4
102
{ACAD_REACTORS
330
C
102
}
330
C
100
AcDbDictionary
281
     1
  0
DICTIONARY
  5
69
102
{ACAD_REACTORS
330
C
102
}
330
C
100
AcDbDictionary
281
     1
  3
Standard
350
6A
  0
DICTIONARY
  5
2A
102
{ACAD_REACTORS
330
C
102
}
330
C
100
AcDbDictionary
281
     1
  3
2dWireframe
350
2F
  3
Basic
350
32
  3
Brighten
350
36
  3
ColorChange
350
3A
  3
Conceptual
350
34
  3
Dim
350
35
  3
EdgeColorOff
350
3D
  3
Facepattern
350
39
  3
Flat
350
2B
  3
FlatWithEdges
350
2C
  3
Gouraud
350
2D
  3
GouraudWithEdges
350
2E
  3
Hidden
350
31
  3
JitterOff
350
3B
  3
Linepattern
350
38
  3
OverhangOff
350
3C
  3
Realistic
350
33
  3
Shaded
350
42
  3
Shaded with edges
350
41
  3
Shades of Gray
350
3E
  3
Sketchy
350
3F
  3
Thicken
350
37
  3
Wireframe
350
30
  3
X-Ray
350
40
  0
XRECORD
  5
1A0
102
{ACAD_REACTORS
330
C
102
}
330
C
100
AcDbXrecord
280
     1
 90
        1
330
6A
  0
DICTIONARY
  5
19C
102
{ACAD_REACTORS
330
C
102
}
330
C
100
AcDbDictionary
281
     1
  3
CANNOSCALE
350
19D
  3
CMLEADERSTYLE
350
1A2
  3
CTABLESTYLE
350
1A1
  0
LAYOUT
  5
1E
102
{ACAD_REACTORS
330
1A
102
}
330
1A
100
AcDbPlotSettings
  1

  2
none_device
  4

  6

 40
0.0
 41
0.0
 42
0.0
 43
0.0
 44
0.0
 45
0.0
 46
0.0
 47
0.0
 48
0.0
 49
0.0
140
0.0
141
0.0
142
1.0
143
1.0
 70
   688
 72
     0
 73
     0
 74
     5
  7

 75
    16
 76
     0
 77
     2
 78
   300
147
1.0
148
0.0
149
0.0
100
AcDbLayout
  1
Layout1
 70
     1
 71
     1
 10
0.0
 20
0.0
 11
12.0
 21
9.0
 12
0.0
 22
0.0
 32
0.0
 14
1.000000000000000E+20
 24
1.000000000000000E+20
 34
1.000000000000000E+20
 15
-1.000000000000000E+20
 25
-1.000000000000000E+20
 35
-1.000000000000000E+20
146
0.0
 13
0.0
 23
0.0
 33
0.0
 16
1.0
 26
0.0
 36
0.0
 17
0.0
 27
1.0
 37
0.0
 76
     0
330
1B
  0
LAYOUT
  5
26
102
{ACAD_REACTORS
330
1A
102
}
330
1A
100
AcDbPlotSettings
  1

  2
none_device
  4

  6

 40
0.0
 41
0.0
 42
0.0
 43
0.0
 44
0.0
 45
0.0
 46
0.0
 47
0.0
 48
0.0
 49
0.0
140
0.0
141
0.0
142
1.0
143
1.0
 70
   688
 72
     0
 73
     0
 74
     5
  7

 75
    16
 76
     0
 77
     2
 78
   300
147
1.0
148
0.0
149
0.0
100
AcDbLayout
  1
Layout2
 70
     1
 71
     2
 10
0.0
 20
0.0
 11
0.0
 21
0.0
 12
0.0
 22
0.0
 32
0.0
 14
0.0
 24
0.0
 34
0.0
 15
0.0
 25
0.0
 35
0.0
146
0.0
 13
0.0
 23
0.0
 33
0.0
 16
1.0
 26
0.0
 36
0.0
 17
0.0
 27
1.0
 37
0.0
 76
     0
330
23
  0
LAYOUT
  5
22
102
{ACAD_REACTORS
330
1A
102
}
330
1A
100
AcDbPlotSettings
  1

  2
none_device
  4
Letter_(8.50_x_11.00_Inches)
  6

 40
6.35
 41
6.35
 42
6.35000508
 43
6.35000508
 44
215.9
 45
279.4
 46
0.0
 47
0.0
 48
0.0
 49
0.0
140
0.0
141
0.0
142
1.0
143
1.0
 70
  1712
 72
     0
 73
     0
 74
     0
  7

 75
     0
 76
     0
 77
     2
 78
   300
147
1.0
148
0.0
149
0.0
100
AcDbLayout
  1
Model
 70
     1
 71
     0
 10
0.0
 20
0.0
 11
12.0
 21
9.0
 12
0.0
 22
0.0
 32
0.0
 14
1.000000000000000E+20
 24
1.000000000000000E+20
 34
1.000000000000000E+20
 15
-1.000000000000000E+20
 25
-1.000000000000000E+20
 35
-1.000000000000000E+20
146
0.0
 13
0.0
 23
0.0
 33
0.0
 16
1.0
 26
0.0
 36
0.0
 17
0.0
 27
1.0
 37
0.0
 76
     0
330
1F
331
29
  0
MATERIAL
  5
45
102
{ACAD_REACTORS
330
43
102
}
330
43
100
AcDbMaterial
  1
ByBlock
 72
     1
 94
      127
  0
MATERIAL
  5
44
102
{ACAD_REACTORS
330
43
102
}
330
43
100
AcDbMaterial
  1
ByLayer
 72
     1
 94
      127
  0
MATERIAL
  5
46
102
{ACAD_REACTORS
330
43
102
}
330
43
100
AcDbMaterial
  1
Global
 72
     1
 94
      127
  0
MLEADERSTYLE
  5
6C
102
{ACAD_REACTORS
330
6B
102
}
330
6B
100
AcDbMLeaderStyle
179
     2
170
     2
171
     1
172
     0
 90
        2
 40
0.0
 41
0.0
173
     1
 91
-1056964608
340
14
 92
       -2
290
     1
 42
0.09
291
     1
 43
0.36
  3
Standard
341
0
 44
0.18
300

342
11
174
     1
178
     6
175
     1
176
     0
 93
-1056964608
 45
0.18
292
     0
297
     0
 46
0.18
343
0
 94
-1056964608
 47
1.0
 49
1.0
140
1.0
293
     1
141
0.0
294
     1
177
     0
142
1.0
295
     0
296
     0
143
0.125
271
     0
272
     9
273
     9
298
     0
  0
MLINESTYLE
  5
18
102
{ACAD_REACTORS
330
17
102
}
330
17
100
AcDbMlineStyle
  2
Standard
 70
     0
  3

 62
   256
 51
90.0
 52
90.0
 71
     2
 49
0.5
 62
   256
  6
BYLAYER
 49
-0.5
 62
   256
  6
BYLAYER
  0
ACDBPLACEHOLDER
  5
F
102
{ACAD_REACTORS
330
E
102
}
330
E
  0
SCALE
  5
48
102
{ACAD_REACTORS
330
47
102
}
330
47
100
AcDbScale
 70
     0
300
1:1
140
1.0
141
1.0
290
     1
  0
SCALE
  5
49
102
{ACAD_REACTORS
330
47
102
}
330
47
100
AcDbScale
 70
     0
300
1:2
140
1.0
141
2.0
290
     0
  0
SCALE
  5
4A
102
{ACAD_REACTORS
330
47
102
}
330
47
100
AcDbScale
 70
     0
300
1:4
140
1.0
141
4.0
290
     0
  0
SCALE
  5
4B
102
{ACAD_REACTORS
330
47
102
}
330
47
100
AcDbScale
 70
     0
300
1:5
140
1.0
141
5.0
290
     0
  0
SCALE
  5
4C
102
{ACAD_REACTORS
330
47
102
}
330
47
100
AcDbScale
 70
     0
300
1:8
140
1.0
141
8.0
290
     0
  0
SCALE
  5
4D
102
{ACAD_REACTORS
330
47
102
}
330
47
100
AcDbScale
 70
     0
300
1:10
140
1.0
141
10.0
290
     0
  0
SCALE
  5
4E
102
{ACAD_REACTORS
330
47
102
}
330
47
100
AcDbScale
 70
     0
300
1:16
140
1.0
141
16.0
290
     0
  0
SCALE
  5
4F
102
{ACAD_REACTORS
330
47
102
}
330
47
100
AcDbScale
 70
     0
300
1:20
140
1.0
141
20.0
290
     0
  0
SCALE
  5
50
102
{ACAD_REACTORS
330
47
102
}
330
47
100
AcDbScale
 70
     0
300
1:30
140
1.0
141
30.0
290
     0
  0
SCALE
  5
51
102
{ACAD_REACTORS
330
47
102
}
330
47
100
AcDbScale
 70
     0
300
1:40
140
1.0
141
40.0
290
     0
  0
SCALE
  5
52
102
{ACAD_REACTORS
330
47
102
}
330
47
100
AcDbScale
 70
     0
300
1:50
140
1.0
141
50.0
290
     0
  0
SCALE
  5
53
102
{ACAD_REACTORS
330
47
102
}
330
47
100
AcDbScale
 70
     0
300
1:100
140
1.0
141
100.0
290
     0
  0
SCALE
  5
54
102
{ACAD_REACTORS
330
47
102
}
330
47
100
AcDbScale
 70
     0
300
2:1
140
2.0
141
1.0
290
     0
  0
SCALE
  5
55
102
{ACAD_REACTORS
330
47
102
}
330
47
100
AcDbScale
 70
     0
300
4:1
140
4.0
141
1.0
290
     0
  0
SCALE
  5
56
102
{ACAD_REACTORS
330
47
102
}
330
47
100
AcDbScale
 70
     0
300
8:1
140
8.0
141
1.0
290
     0
  0
SCALE
  5
57
102
{ACAD_REACTORS
330
47
102
}
330
47
100
AcDbScale
 70
     0
300
10:1
140
10.0
141
1.0
290
     0
  0
SCALE
  5
58
102
{ACAD_REACTORS
330
47
102
}
330
47
100
AcDbScale
 70
     0
300
100:1
140
100.0
141
1.0
290
     0
  0
SCALE
  5
59
102
{ACAD_REACTORS
330
47
102
}
330
47
100
AcDbScale
 70
     0
300
1/128" = 1'-0"
140
0.0078125
141
12.0
290
     0
  0
SCALE
  5
5A
102
{ACAD_REACTORS
330
47
102
}
330
47
100
AcDbScale
 70
     0
300
1/64" = 1'-0"
140
0.015625
141
12.0
290
     0
  0
SCALE
  5
5B
102
{ACAD_REACTORS
330
47
102
}
330
47
100
AcDbScale
 70
     0
300
1/32" = 1'-0"
140
0.03125
141
12.0
290
     0
  0
SCALE
  5
5C
102
{ACAD_REACTORS
330
47
102
}
330
47
100
AcDbScale
 70
     0
300
1/16" = 1'-0"
140
0.0625
141
12.0
290
     0
  0
SCALE
  5
5D
102
{ACAD_REACTORS
330
47
102
}
330
47
100
AcDbScale
 70
     0
300
3/32" = 1'-0"
140
0.09375
141
12.0
290
     0
  0
SCALE
  5
5E
102
{ACAD_REACTORS
330
47
102
}
330
47
100
AcDbScale
 70
     0
300
1/8" = 1'-0"
140
0.125
141
12.0
290
     0
  0
SCALE
  5
5F
102
{ACAD_REACTORS
330
47
102
}
330
47
100
AcDbScale
 70
     0
300
3/16" = 1'-0"
140
0.1875
141
12.0
290
     0
  0
SCALE
  5
60
102
{ACAD_REACTORS
330
47
102
}
330
47
100
AcDbScale
 70
     0
300
1/4" = 1'-0"
140
0.25
141
12.0
290
     0
  0
SCALE
  5
61
102
{ACAD_REACTORS
330
47
102
}
330
47
100
AcDbScale
 70
     0
300
3/8" = 1'-0"
140
0.375
141
12.0
290
     0
  0
SCALE
  5
62
102
{ACAD_REACTORS
330
47
102
}
330
47
100
AcDbScale
 70
     0
300
1/2" = 1'-0"
140
0.5
141
12.0
290
     0
  0
SCALE
  5
63
102
{ACAD_REACTORS
330
47
102
}
330
47
100
AcDbScale
 70
     0
300
3/4" = 1'-0"
140
0.75
141
12.0
290
     0
  0
SCALE
  5
64
102
{ACAD_REACTORS
330
47
102
}
330
47
100
AcDbScale
 70
     0
300
1" = 1'-0"
140
1.0
141
12.0
290
     0
  0
SCALE
  5
65
102
{ACAD_REACTORS
330
47
102
}
330
47
100
AcDbScale
 70
     0
300
1-1/2" = 1'-0"
140
1.5
141
12.0
290
     0
  0
SCALE
  5
66
102
{ACAD_REACTORS
330
47
102
}
330
47
100
AcDbScale
 70
     0
300
3" = 1'-0"
140
3.0
141
12.0
290
     0
  0
SCALE
  5
67
102
{ACAD_REACTORS
330
47
102
}
330
47
100
AcDbScale
 70
     0
300
6" = 1'-0"
140
6.0
141
12.0
290
     0
  0
SCALE
  5
68
102
{ACAD_REACTORS
330
47
102
}
330
47
100
AcDbScale
 70
     0
300
1'-0" = 1'-0"
140
12.0
141
12.0
290
     0
  0
TABLESTYLE
  5
6A
102
{ACAD_REACTORS
330
69
102
}
102
{ACAD_XDICTIONARY
360
19E
102
}
330
69
100
AcDbTableStyle
  3
Standard
 70
     0
 71
     0
 40
0.06
 41
0.06
280
     0
281
     0
  7
Standard
140
0.18
170
     2
 62
     0
 63
   257
283
     0
 90
        4
 91
        0
  1

274
    -2
284
     1
 64
     0
275
    -2
285
     1
 65
     0
276
    -2
286
     1
 66
     0
277
    -2
287
     1
 67
     0
278
    -2
288
     1
 68
     0
279
    -2
289
     1
 69
     0
  7
Standard
140
0.25
170
     5
 62
     0
 63
   257
283
     0
 90
        4
 91
        0
  1

274
    -2
284
     1
 64
     0
275
    -2
285
     1
 65
     0
276
    -2
286
     1
 66
     0
277
    -2
287
     1
 67
     0
278
    -2
288
     1
 68
     0
279
    -2
289
     1
 69
     0
  7
Standard
140
0.18
170
     5
 62
     0
 63
   257
283
     0
 90
        4
 91
        0
  1

274
    -2
284
     1
 64
     0
275
    -2
285
     1
 65
     0
276
    -2
286
     1
 66
     0
277
    -2
287
     1
 67
     0
278
    -2
288
     1
 68
     0
279
    -2
289
     1
 69
     0
  0
VISUALSTYLE
  5
2F
102
{ACAD_REACTORS
330
2A
102
}
330
2A
100
AcDbVisualStyle
  2
2dWireframe
 70
     4
177
     3
291
     0
 70
    58
 90
        0
176
     1
 90
        2
176
     1
 90
        0
176
     1
 90
        0
176
     1
 40
0.6
176
     1
 40
30.0
176
     1
 62
     7
420
 16777215
176
     1
 90
        1
176
     1
 90
        4
176
     1
 62
     7
176
     1
 62
   257
176
     1
 90
        1
176
     1
 90
        1
176
     1
 40
1.0
176
     1
 90
        0
176
     1
 62
   257
176
     1
 40
1.0
176
     1
 90
        1
176
     1
 90
        6
176
     1
 90
        2
176
     1
 62
     7
176
     1
 90
        5
176
     1
 90
        0
176
     1
 90
        0
176
     1
290
     0
176
     1
 90
        1
176
     1
 40
0.0
176
     1
 90
        0
176
     1
290
     1
176
     1
290
     1
176
     1
290
     0
176
     1
290
     0
176
     1
290
     0
176
     1
290
     0
176
     1
290
     0
176
     1
290
     0
176
     1
290
     0
176
     1
 90
       50
176
     1
 40
0.0
176
     1
 40
1.0
176
     1
 90
        0
176
     1
 62
    18
420
        0
176
     1
 90
       50
176
     1
 90
        3
176
     1
 62
     5
420
      255
176
     1
290
     0
176
     1
 90
       50
176
     1
 90
       50
176
     1
 90
       50
176
     1
290
     0
176
     1
 90
       50
176
     1
 62
   256
176
     0
 40
1.0
176
     0
 90
        2
176
     1
  1
strokes_ogs.tif
176
     1
290
     0
176
     1
 40
1.0
176
     1
 40
1.0
176
     1
  0
VISUALSTYLE
  5
32
102
{ACAD_REACTORS
330
2A
102
}
330
2A
100
AcDbVisualStyle
  2
Basic
 70
     7
177
     3
291
     1
 70
    58
 90
        1
176
     1
 90
        0
176
     1
 90
        1
176
     1
 90
        0
176
     1
 40
0.6
176
     1
 40
30.0
176
     1
 62
     7
420
 16777215
176
     1
 90
        0
176
     1
 90
        4
176
     1
 62
     7
176
     1
 62
   257
176
     1
 90
        1
176
     1
 90
        1
176
     1
 40
1.0
176
     1
 90
        8
176
     1
 62
     7
176
     1
 40
1.0
176
     1
 90
        1
176
     1
 90
        6
176
     1
 90
        2
176
     1
 62
     7
176
     1
 90
        5
176
     1
 90
        0
176
     1
 90
        0
176
     1
290
     0
176
     1
 90
        1
176
     1
 40
0.0
176
     1
 90
        0
176
     1
290
     0
176
     1
290
     1
176
     1
290
     1
176
     1
290
     0
176
     1
290
     0
176
     1
290
     0
176
     1
290
     0
176
     1
290
     0
176
     1
290
     0
176
     1
 90
       50
176
     1
 40
0.0
176
     1
 40
1.0
176
     1
 90
        0
176
     1
 62
    18
420
        0
176
     1
 90
       50
176
     1
 90
        3
176
     1
 62
     5
420
      255
176
     1
290
     0
176
     1
 90
       50
176
     1
 90
       50
176
     1
 90
       50
176
     1
290
     0
176
     1
 90
       50
176
     1
 62
   256
176
     0
 40
1.0
176
     0
 90
        2
176
     1
  1
strokes_ogs.tif
176
     1
290
     0
176
     1
 40
1.0
176
     1
 40
1.0
176
     1
  0
VISUALSTYLE
  5
36
102
{ACAD_REACTORS
330
2A
102
}
330
2A
100
AcDbVisualStyle
  2
Brighten
 70
    12
177
     3
291
     1
 70
    58
 90
        2
176
     1
 90
        2
176
     1
 90
        0
176
     1
 90
        0
176
     1
 40
0.6
176
     1
 40
30.0
176
     1
 62
     7
420
 16777215
176
     1
 90
        1
176
     1
 90
        4
176
     1
 62
     7
176
     1
 62
   257
176
     1
 90
        1
176
     1
 90
        1
176
     1
 40
1.0
176
     1
 90
        8
176
     1
 62
     7
176
     1
 40
1.0
176
     1
 90
        1
176
     1
 90
        6
176
     1
 90
        2
176
     1
 62
     7
176
     1
 90
        5
176
     1
 90
        0
176
     1
 90
        0
176
     1
290
     0
176
     1
 90
        1
176
     1
 40
50.0
176
     1
 90
        0
176
     1
290
     0
176
     1
290
     1
176
     1
290
     1
176
     1
290
     0
176
     1
290
     0
176
     1
290
     0
176
     1
290
     0
176
     1
290
     0
176
     1
290
     0
176
     1
 90
       50
176
     1
 40
0.0
176
     1
 40
1.0
176
     1
 90
        0
176
     1
 62
    18
420
        0
176
     1
 90
       50
176
     1
 90
        3
176
     1
 62
     5
420
      255
176
     1
290
     0
176
     1
 90
       50
176
     1
 90
       50
176
     1
 90
       50
176
     1
290
     0
176
     1
 90
       50
176
     1
 62
   256
176
     0
 40
1.0
176
     0
 90
        2
176
     1
  1
strokes_ogs.tif
176
     1
290
     0
176
     1
 40
1.0
176
     1
 40
1.0
176
     1
  0
VISUALSTYLE
  5
3A
102
{ACAD_REACTORS
330
2A
102
}
330
2A
100
AcDbVisualStyle
  2
ColorChange
 70
    16
177
     3
291
     1
 70
    58
 90
        2
176
     1
 90
        2
176
     1
 90
        3
176
     1
 90
        0
176
     1
 40
0.6
176
     1
 40
30.0
176
     1
 62
     8
420
  8421504
176
     1
 90
        1
176
     1
 90
        4
176
     1
 62
     7
176
     1
 62
   257
176
     1
 90
        1
176
     1
 90
        1
176
     1
 40
1.0
176
     1
 90
        8
176
     1
 62
     8
420
  8421504
176
     1
 40
1.0
176
     1
 90
        1
176
     1
 90
        6
176
     1
 90
        2
176
     1
 62
     7
176
     1
 90
        5
176
     1
 90
        0
176
     1
 90
        0
176
     1
290
     0
176
     1
 90
        1
176
     1
 40
0.0
176
     1
 90
        0
176
     1
290
     0
176
     1
290
     1
176
     1
290
     1
176
     1
290
     0
176
     1
290
     0
176
     1
290
     0
176
     1
290
     0
176
     1
290
     0
176
     1
290
     0
176
     1
 90
       50
176
     1
 40
0.0
176
     1
 40
1.0
176
     1
 90
        0
176
     1
 62
    18
420
        0
176
     1
 90
       50
176
     1
 90
        3
176
     1
 62
     5
420
      255
176
     1
290
     0
176
     1
 90
       50
176
     1
 90
       50
176
     1
 90
       50
176
     1
290
     0
176
     1
 90
       50
176
     1
 62
   256
176
     0
 40
1.0
176
     0
 90
        2
176
     1
  1
strokes_ogs.tif
176
     1
290
     0
176
     1
 40
1.0
176
     1
 40
1.0
176
     1
  0
VISUALSTYLE
  5
34
102
{ACAD_REACTORS
330
2A
102
}
330
2A
100
AcDbVisualStyle
  2
Conceptual
 70
     9
177
     3
291
     0
 70
    58
 90
        3
176
     1
 90
        2
176
     1
 90
        0
176
     1
 90
        0
176
     1
 40
0.6
176
     1
 40
30.0
176
     1
 62
     7
420
 16777215
176
     1
 90
        2
176
     1
 90
        2
176
     1
 62
     7
176
     1
 62
   257
176
     1
 90
        1
176
     1
 90
        1
176
     1
 40
179.0
176
     1
 90
        8
176
     1
 62
     7
176
     1
 40
1.0
176
     1
 90
        1
176
     1
 90
        6
176
     1
 90
        2
176
     1
 62
     7
176
     1
 90
        3
176
     1
 90
        0
176
     1
 90
        0
176
     1
290
     0
176
     1
 90
        1
176
     1
 40
0.0
176
     1
 90
        0
176
     1
290
     0
176
     1
290
     1
176
     1
290
     1
176
     1
290
     0
176
     1
290
     0
176
     1
290
     0
176
     1
290
     0
176
     1
290
     0
176
     1
290
     0
176
     1
 90
       50
176
     1
 40
0.0
176
     1
 40
1.0
176
     1
 90
        0
176
     1
 62
    18
420
        0
176
     1
 90
       50
176
     1
 90
        3
176
     1
 62
     5
420
      255
176
     1
290
     0
176
     1
 90
       50
176
     1
 90
       50
176
     1
 90
       50
176
     1
290
     0
176
     1
 90
       50
176
     1
 62
   256
176
     0
 40
1.0
176
     0
 90
        2
176
     1
  1
strokes_ogs.tif
176
     1
290
     0
176
     1
 40
1.0
176
     1
 40
1.0
176
     1
  0
VISUALSTYLE
  5
35
102
{ACAD_REACTORS
330
2A
102
}
330
2A
100
AcDbVisualStyle
  2
Dim
 70
    11
177
     3
291
     1
 70
    58
 90
        2
176
     1
 90
        2
176
     1
 90
        0
176
     1
 90
        0
176
     1
 40
0.6
176
     1
 40
30.0
176
     1
 62
     7
420
 16777215
176
     1
 90
        1
176
     1
 90
        4
176
     1
 62
     7
176
     1
 62
   257
176
     1
 90
        1
176
     1
 90
        1
176
     1
 40
1.0
176
     1
 90
        8
176
     1
 62
     7
176
     1
 40
1.0
176
     1
 90
        1
176
     1
 90
        6
176
     1
 90
        2
176
     1
 62
     7
176
     1
 90
        5
176
     1
 90
        0
176
     1
 90
        0
176
     1
290
     0
176
     1
 90
        1
176
     1
 40
-50.0
176
     1
 90
        0
176
     1
290
     0
176
     1
290
     1
176
     1
290
     1
176
     1
290
     0
176
     1
290
     0
176
     1
290
     0
176
     1
290
     0
176
     1
290
     0
176
     1
290
     0
176
     1
 90
       50
176
     1
 40
0.0
176
     1
 40
1.0
176
     1
 90
        0
176
     1
 62
    18
420
        0
176
     1
 90
       50
176
     1
 90
        3
176
     1
 62
     5
420
      255
176
     1
290
     0
176
     1
 90
       50
176
     1
 90
       50
176
     1
 90
       50
176
     1
290
     0
176
     1
 90
       50
176
     1
 62
   256
176
     0
 40
1.0
176
     0
 90
        2
176
     1
  1
strokes_ogs.tif
176
     1
290
     0
176
     1
 40
1.0
176
     1
 40
1.0
176
     1
  0
VISUALSTYLE
  5
3D
102
{ACAD_REACTORS
330
2A
102
}
330
2A
100
AcDbVisualStyle
  2
EdgeColorOff
 70
    22
177
     3
291
     1
 70
    58
 90
        2
176
     0
 90
        2
176
     0
 90
        0
176
     0
 90
        0
176
     0
 40
0.6
176
     0
 40
30.0
176
     0
 62
     7
420
 16777215
176
     0
 90
        1
176
     0
 90
        4
176
     0
 62
     7
176
     0
 62
   257
176
     0
 90
        1
176
     0
 90
        1
176
     0
 40
1.0
176
     0
 90
        8
176
     2
 62
     7
176
     0
 40
1.0
176
     0
 90
        1
176
     0
 90
        6
176
     0
 90
        2
176
     0
 62
     7
176
     0
 90
        5
176
     0
 90
        0
176
     0
 90
        0
176
     0
290
     0
176
     0
 90
        1
176
     0
 40
0.0
176
     0
 90
        0
176
     0
290
     0
176
     0
290
     1
176
     0
290
     1
176
     0
290
     0
176
     0
290
     0
176
     0
290
     0
176
     0
290
     0
176
     0
290
     0
176
     0
290
     0
176
     0
 90
       50
176
     0
 40
0.0
176
     0
 40
1.0
176
     0
 90
        0
176
     0
 62
    18
420
        0
176
     0
 90
       50
176
     0
 90
        3
176
     0
 62
     5
420
      255
176
     0
290
     0
176
     0
 90
       50
176
     0
 90
       50
176
     0
 90
       50
176
     0
290
     0
176
     0
 90
       50
176
     0
 62
   256
176
     0
 40
1.0
176
     0
 90
        2
176
     0
  1
strokes_ogs.tif
176
     0
290
     0
176
     0
 40
1.0
176
     0
 40
1.0
176
     0
  0
VISUALSTYLE
  5
39
102
{ACAD_REACTORS
330
2A
102
}
330
2A
100
AcDbVisualStyle
  2
Facepattern
 70
    15
177
     3
291
     1
 70
    58
 90
        2
176
     1
 90
        2
176
     1
 90
        0
176
     1
 90
        0
176
     1
 40
0.6
176
     1
 40
30.0
176
     1
 62
     7
420
 16777215
176
     1
 90
        1
176
     1
 90
        4
176
     1
 62
     7
176
     1
 62
   257
176
     1
 90
        1
176
     1
 90
        1
176
     1
 40
1.0
176
     1
 90
        8
176
     1
 62
     7
176
     1
 40
1.0
176
     1
 90
        1
176
     1
 90
        6
176
     1
 90
        2
176
     1
 62
     7
176
     1
 90
        5
176
     1
 90
        0
176
     1
 90
        0
176
     1
290
     0
176
     1
 90
        1
176
     1
 40
0.0
176
     1
 90
        0
176
     1
290
     0
176
     1
290
     1
176
     1
290
     1
176
     1
290
     0
176
     1
290
     0
176
     1
290
     0
176
     1
290
     0
176
     1
290
     0
176
     1
290
     0
176
     1
 90
       50
176
     1
 40
0.0
176
     1
 40
1.0
176
     1
 90
        0
176
     1
 62
    18
420
        0
176
     1
 90
       50
176
     1
 90
        3
176
     1
 62
     5
420
      255
176
     1
290
     0
176
     1
 90
       50
176
     1
 90
       50
176
     1
 90
       50
176
     1
290
     0
176
     1
 90
       50
176
     1
 62
   256
176
     0
 40
1.0
176
     0
 90
        2
176
     1
  1
strokes_ogs.tif
176
     1
290
     0
176
     1
 40
1.0
176
     1
 40
1.0
176
     1
  0
VISUALSTYLE
  5
2B
102
{ACAD_REACTORS
330
2A
102
}
330
2A
100
AcDbVisualStyle
  2
Flat
 70
     0
177
     3
291
     1
 70
    58
 90
        2
176
     1
 90
        1
176
     1
 90
        1
176
     1
 90
        2
176
     1
 40
0.6
176
     1
 40
30.0
176
     1
 62
     7
420
 16777215
176
     1
 90
        0
176
     1
 90
        0
176
     1
 62
     7
176
     1
 62
   257
176
     1
 90
        1
176
     1
 90
        1
176
     1
 40
1.0
176
     1
 90
        8
176
     1
 62
     7
176
     1
 40
1.0
176
     1
 90
        1
176
     1
 90
        6
176
     1
 90
        2
176
     1
 62
     7
176
     1
 90
        5
176
     1
 90
        0
176
     1
 90
        0
176
     1
290
     0
176
     1
 90
       13
176
     1
 40
0.0
176
     1
 90
        0
176
     1
290
     0
176
     1
290
     1
176
     1
290
     1
176
     1
290
     0
176
     1
290
     0
176
     1
290
     0
176
     1
290
     0
176
     1
290
     0
176
     1
290
     0
176
     1
 90
       50
176
     1
 40
0.0
176
     1
 40
1.0
176
     1
 90
        0
176
     1
 62
    18
420
        0
176
     1
 90
       50
176
     1
 90
        3
176
     1
 62
     5
420
      255
176
     1
290
     0
176
     1
 90
       50
176
     1
 90
       50
176
     1
 90
       50
176
     1
290
     0
176
     1
 90
       50
176
     1
 62
   256
176
     0
 40
1.0
176
     0
 90
        2
176
     1
  1
strokes_ogs.tif
176
     1
290
     0
176
     1
 40
1.0
176
     1
 40
1.0
176
     1
  0
VISUALSTYLE
  5
2C
102
{ACAD_REACTORS
330
2A
102
}
330
2A
100
AcDbVisualStyle
  2
FlatWithEdges
 70
     1
177
     3
291
     1
 70
    58
 90
        2
176
     1
 90
        1
176
     1
 90
        1
176
     1
 90
        2
176
     1
 40
0.6
176
     1
 40
30.0
176
     1
 62
     7
420
 16777215
176
     1
 90
        1
176
     1
 90
        0
176
     1
 62
     7
176
     1
 62
   257
176
     1
 90
        1
176
     1
 90
        1
176
     1
 40
1.0
176
     1
 90
        0
176
     1
 62
   257
176
     1
 40
1.0
176
     1
 90
        1
176
     1
 90
        6
176
     1
 90
        2
176
     1
 62
     7
176
     1
 90
        5
176
     1
 90
        0
176
     1
 90
        0
176
     1
290
     0
176
     1
 90
       13
176
     1
 40
0.0
176
     1
 90
        0
176
     1
290
     0
176
     1
290
     1
176
     1
290
     1
176
     1
290
     0
176
     1
290
     0
176
     1
290
     0
176
     1
290
     0
176
     1
290
     0
176
     1
290
     0
176
     1
 90
       50
176
     1
 40
0.0
176
     1
 40
1.0
176
     1
 90
        0
176
     1
 62
    18
420
        0
176
     1
 90
       50
176
     1
 90
        3
176
     1
 62
     5
420
      255
176
     1
290
     0
176
     1
 90
       50
176
     1
 90
       50
176
     1
 90
       50
176
     1
290
     0
176
     1
 90
       50
176
     1
 62
   256
176
     0
 40
1.0
176
     0
 90
        2
176
     1
  1
strokes_ogs.tif
176
     1
290
     0
176
     1
 40
1.0
176
     1
 40
1.0
176
     1
  0
VISUALSTYLE
  5
2D
102
{ACAD_REACTORS
330
2A
102
}
330
2A
100
AcDbVisualStyle
  2
Gouraud
 70
     2
177
     3
291
     1
 70
    58
 90
        2
176
     1
 90
        2
176
     1
 90
        1
176
     1
 90
        2
176
     1
 40
0.6
176
     1
 40
30.0
176
     1
 62
     7
420
 16777215
176
     1
 90
        0
176
     1
 90
        0
176
     1
 62
     7
176
     1
 62
   257
176
     1
 90
        1
176
     1
 90
        1
176
     1
 40
1.0
176
     1
 90
        0
176
     1
 62
     7
176
     1
 40
1.0
176
     1
 90
        1
176
     1
 90
        6
176
     1
 90
        2
176
     1
 62
     7
176
     1
 90
        5
176
     1
 90
        0
176
     1
 90
        0
176
     1
290
     0
176
     1
 90
       13
176
     1
 40
0.0
176
     1
 90
        0
176
     1
290
     0
176
     1
290
     1
176
     1
290
     1
176
     1
290
     0
176
     1
290
     0
176
     1
290
     0
176
     1
290
     0
176
     1
290
     0
176
     1
290
     0
176
     1
 90
       50
176
     1
 40
0.0
176
     1
 40
1.0
176
     1
 90
        0
176
     1
 62
    18
420
        0
176
     1
 90
       50
176
     1
 90
        3
176
     1
 62
     5
420
      255
176
     1
290
     0
176
     1
 90
       50
176
     1
 90
       50
176
     1
 90
       50
176
     1
290
     0
176
     1
 90
       50
176
     1
 62
   256
176
     0
 40
1.0
176
     0
 90
        2
176
     1
  1
strokes_ogs.tif
176
     1
290
     0
176
     1
 40
1.0
176
     1
 40
1.0
176
     1
  0
VISUALSTYLE
  5
2E
102
{ACAD_REACTORS
330
2A
102
}
330
2A
100
AcDbVisualStyle
  2
GouraudWithEdges
 70
     3
177
     3
291
     1
 70
    58
 90
        2
176
     1
 90
        2
176
     1
 90
        1
176
     1
 90
        2
176
     1
 40
0.6
176
     1
 40
30.0
176
     1
 62
     7
420
 16777215
176
     1
 90
        1
176
     1
 90
        0
176
     1
 62
     7
176
     1
 62
   257
176
     1
 90
        1
176
     1
 90
        1
176
     1
 40
1.0
176
     1
 90
        0
176
     1
 62
   257
176
     1
 40
1.0
176
     1
 90
        1
176
     1
 90
        6
176
     1
 90
        2
176
     1
 62
     7
176
     1
 90
        5
176
     1
 90
        0
176
     1
 90
        0
176
     1
290
     0
176
     1
 90
       13
176
     1
 40
0.0
176
     1
 90
        0
176
     1
290
     0
176
     1
290
     1
176
     1
290
     1
176
     1
290
     0
176
     1
290
     0
176
     1
290
     0
176
     1
290
     0
176
     1
290
     0
176
     1
290
     0
176
     1
 90
       50
176
     1
 40
0.0
176
     1
 40
1.0
176
     1
 90
        0
176
     1
 62
    18
420
        0
176
     1
 90
       50
176
     1
 90
        3
176
     1
 62
     5
420
      255
176
     1
290
     0
176
     1
 90
       50
176
     1
 90
       50
176
     1
 90
       50
176
     1
290
     0
176
     1
 90
       50
176
     1
 62
   256
176
     0
 40
1.0
176
     0
 90
        2
176
     1
  1
strokes_ogs.tif
176
     1
290
     0
176
     1
 40
1.0
176
     1
 40
1.0
176
     1
  0
VISUALSTYLE
  5
31
102
{ACAD_REACTORS
330
2A
102
}
330
2A
100
AcDbVisualStyle
  2
Hidden
 70
     6
177
     3
291
     0
 70
    58
 90
        1
176
     1
 90
        2
176
     1
 90
        2
176
     1
 90
        0
176
     1
 40
0.6
176
     1
 40
30.0
176
     1
 62
     7
420
 16777215
176
     1
 90
        2
176
     1
 90
        2
176
     1
 62
     7
176
     1
 62
   257
176
     1
 90
        2
176
     1
 90
        1
176
     1
 40
40.0
176
     1
 90
        0
176
     1
 62
   257
176
     1
 40
1.0
176
     1
 90
        1
176
     1
 90
        6
176
     1
 90
        2
176
     1
 62
     7
176
     1
 90
        3
176
     1
 90
        0
176
     1
 90
        0
176
     1
290
     0
176
     1
 90
        1
176
     1
 40
0.0
176
     1
 90
        0
176
     1
290
     0
176
     1
290
     1
176
     1
290
     1
176
     1
290
     0
176
     1
290
     0
176
     1
290
     0
176
     1
290
     0
176
     1
290
     0
176
     1
290
     0
176
     1
 90
       50
176
     1
 40
0.0
176
     1
 40
1.0
176
     1
 90
        0
176
     1
 62
    18
420
        0
176
     1
 90
       50
176
     1
 90
        3
176
     1
 62
     5
420
      255
176
     1
290
     0
176
     1
 90
       50
176
     1
 90
       50
176
     1
 90
       50
176
     1
290
     0
176
     1
 90
       50
176
     1
 62
   256
176
     0
 40
1.0
176
     0
 90
        2
176
     1
  1
strokes_ogs.tif
176
     1
290
     0
176
     1
 40
1.0
176
     1
 40
1.0
176
     1
  0
VISUALSTYLE
  5
3B
102
{ACAD_REACTORS
330
2A
102
}
330
2A
100
AcDbVisualStyle
  2
JitterOff
 70
    20
177
     3
291
     1
 70
    58
 90
        2
176
     0
 90
        2
176
     0
 90
        0
176
     0
 90
        0
176
     0
 40
0.6
176
     0
 40
30.0
176
     0
 62
     7
420
 16777215
176
     0
 90
        1
176
     0
 90
        4
176
     0
 62
     7
176
     0
 62
   257
176
     0
 90
        1
176
     0
 90
        1
176
     0
 40
1.0
176
     0
 90
       10
176
     2
 62
     7
176
     0
 40
1.0
176
     0
 90
        1
176
     0
 90
        6
176
     0
 90
        2
176
     0
 62
     7
176
     0
 90
        5
176
     0
 90
        0
176
     0
 90
        0
176
     0
290
     0
176
     0
 90
        1
176
     0
 40
0.0
176
     0
 90
        0
176
     0
290
     0
176
     0
290
     1
176
     0
290
     1
176
     0
290
     0
176
     0
290
     0
176
     0
290
     0
176
     0
290
     0
176
     0
290
     0
176
     0
290
     0
176
     0
 90
       50
176
     0
 40
0.0
176
     0
 40
1.0
176
     0
 90
        0
176
     0
 62
    18
420
        0
176
     0
 90
       50
176
     0
 90
        3
176
     0
 62
     5
420
      255
176
     0
290
     0
176
     0
 90
       50
176
     0
 90
       50
176
     0
 90
       50
176
     0
290
     0
176
     0
 90
       50
176
     0
 62
   256
176
     0
 40
1.0
176
     0
 90
        2
176
     0
  1
strokes_ogs.tif
176
     0
290
     0
176
     0
 40
1.0
176
     0
 40
1.0
176
     0
  0
VISUALSTYLE
  5
38
102
{ACAD_REACTORS
330
2A
102
}
330
2A
100
AcDbVisualStyle
  2
Linepattern
 70
    14
177
     3
291
     1
 70
    58
 90
        2
176
     1
 90
        2
176
     1
 90
        0
176
     1
 90
        0
176
     1
 40
0.6
176
     1
 40
30.0
176
     1
 62
     7
420
 16777215
176
     1
 90
        1
176
     1
 90
        4
176
     1
 62
     7
176
     1
 62
   257
176
     1
 90
        7
176
     1
 90
        7
176
     1
 40
1.0
176
     1
 90
        8
176
     1
 62
     7
176
     1
 40
1.0
176
     1
 90
        1
176
     1
 90
        6
176
     1
 90
        2
176
     1
 62
     7
176
     1
 90
        5
176
     1
 90
        0
176
     1
 90
        0
176
     1
290
     0
176
     1
 90
        1
176
     1
 40
0.0
176
     1
 90
        0
176
     1
290
     0
176
     1
290
     1
176
     1
290
     1
176
     1
290
     0
176
     1
290
     0
176
     1
290
     0
176
     1
290
     0
176
     1
290
     0
176
     1
290
     0
176
     1
 90
       50
176
     1
 40
0.0
176
     1
 40
1.0
176
     1
 90
        0
176
     1
 62
    18
420
        0
176
     1
 90
       50
176
     1
 90
        3
176
     1
 62
     5
420
      255
176
     1
290
     0
176
     1
 90
       50
176
     1
 90
       50
176
     1
 90
       50
176
     1
290
     0
176
     1
 90
       50
176
     1
 62
   256
176
     0
 40
1.0
176
     0
 90
        2
176
     1
  1
strokes_ogs.tif
176
     1
290
     0
176
     1
 40
1.0
176
     1
 40
1.0
176
     1
  0
VISUALSTYLE
  5
3C
102
{ACAD_REACTORS
330
2A
102
}
330
2A
100
AcDbVisualStyle
  2
OverhangOff
 70
    21
177
     3
291
     1
 70
    58
 90
        2
176
     0
 90
        2
176
     0
 90
        0
176
     0
 90
        0
176
     0
 40
0.6
176
     0
 40
30.0
176
     0
 62
     7
420
 16777215
176
     0
 90
        1
176
     0
 90
        4
176
     0
 62
     7
176
     0
 62
   257
176
     0
 90
        1
176
     0
 90
        1
176
     0
 40
1.0
176
     0
 90
        9
176
     2
 62
     7
176
     0
 40
1.0
176
     0
 90
        1
176
     0
 90
        6
176
     0
 90
        2
176
     0
 62
     7
176
     0
 90
        5
176
     0
 90
        0
176
     0
 90
        0
176
     0
290
     0
176
     0
 90
        1
176
     0
 40
0.0
176
     0
 90
        0
176
     0
290
     0
176
     0
290
     1
176
     0
290
     1
176
     0
290
     0
176
     0
290
     0
176
     0
290
     0
176
     0
290
     0
176
     0
290
     0
176
     0
290
     0
176
     0
 90
       50
176
     0
 40
0.0
176
     0
 40
1.0
176
     0
 90
        0
176
     0
 62
    18
420
        0
176
     0
 90
       50
176
     0
 90
        3
176
     0
 62
     5
420
      255
176
     0
290
     0
176
     0
 90
       50
176
     0
 90
       50
176
     0
 90
       50
176
     0
290
     0
176
     0
 90
       50
176
     0
 62
   256
176
     0
 40
1.0
176
     0
 90
        2
176
     0
  1
strokes_ogs.tif
176
     0
290
     0
176
     0
 40
1.0
176
     0
 40
1.0
176
     0
  0
VISUALSTYLE
  5
33
102
{ACAD_REACTORS
330
2A
102
}
330
2A
100
AcDbVisualStyle
  2
Realistic
 70
     8
177
     3
291
     0
 70
    58
 90
        2
176
     1
 90
        3
176
     1
 90
        0
176
     1
 90
        2
176
     1
 40
0.6
176
     1
 40
30.0
176
     1
 62
     7
420
 16777215
176
     1
 90
        0
176
     1
 90
        0
176
     1
 62
     7
176
     1
 62
   257
176
     1
 90
        1
176
     1
 90
        1
176
     1
 40
1.0
176
     1
 90
        8
176
     1
 62
   257
176
     1
 40
1.0
176
     1
 90
        1
176
     1
 90
        6
176
     1
 90
        2
176
     1
 62
     7
176
     1
 90
        3
176
     1
 90
        0
176
     1
 90
        0
176
     1
290
     0
176
     1
 90
       13
176
     1
 40
0.0
176
     1
 90
        0
176
     1
290
     0
176
     1
290
     1
176
     1
290
     1
176
     1
290
     0
176
     1
290
     0
176
     1
290
     0
176
     1
290
     0
176
     1
290
     0
176
     1
290
     0
176
     1
 90
       50
176
     1
 40
0.0
176
     1
 40
1.0
176
     1
 90
        0
176
     1
 62
    18
420
        0
176
     1
 90
       50
176
     1
 90
        3
176
     1
 62
     5
420
      255
176
     1
290
     0
176
     1
 90
       50
176
     1
 90
       50
176
     1
 90
       50
176
     1
290
     0
176
     1
 90
       50
176
     1
 62
   256
176
     0
 40
1.0
176
     0
 90
        2
176
     1
  1
strokes_ogs.tif
176
     1
290
     0
176
     1
 40
1.0
176
     1
 40
1.0
176
     1
  0
VISUALSTYLE
  5
42
102
{ACAD_REACTORS
330
2A
102
}
330
2A
100
AcDbVisualStyle
  2
Shaded
 70
    27
177
     3
291
     0
 70
    58
 90
        2
176
     1
 90
        2
176
     1
 90
        1
176
     1
 90
        2
176
     1
 40
0.6
176
     1
 40
30.0
176
     1
 62
     7
420
 16777215
176
     1
 90
        0
176
     1
 90
        4
176
     1
 62
     7
176
     1
 62
   257
176
     1
 90
        1
176
     1
 90
        1
176
     1
 40
1.0
176
     1
 90
        8
176
     1
 62
   257
176
     1
 40
1.0
176
     1
 90
        1
176
     1
 90
        6
176
     1
 90
        2
176
     1
 62
     8
420
  7895160
176
     1
 90
        3
176
     1
 90
        0
176
     1
 90
        0
176
     1
290
     0
176
     1
 90
        5
176
     1
 40
0.0
176
     1
 90
        0
176
     1
290
     0
176
     1
290
     1
176
     1
290
     1
176
     1
290
     0
176
     1
290
     0
176
     1
290
     0
176
     1
290
     0
176
     1
290
     0
176
     1
290
     0
176
     1
 90
       50
176
     1
 40
0.0
176
     1
 40
1.0
176
     1
 90
        0
176
     1
 62
    18
420
        0
176
     1
 90
       50
176
     1
 90
        3
176
     1
 62
     5
420
      255
176
     1
290
     0
176
     1
 90
       50
176
     1
 90
       50
176
     1
 90
       50
176
     1
290
     0
176
     1
 90
       50
176
     1
 62
   256
176
     0
 40
1.0
176
     0
 90
        2
176
     1
  1
strokes_ogs.tif
176
     1
290
     0
176
     1
 40
1.0
176
     1
 40
1.0
176
     1
  0
VISUALSTYLE
  5
41
102
{ACAD_REACTORS
330
2A
102
}
330
2A
100
AcDbVisualStyle
  2
Shaded with edges
 70
    26
177
     3
291
     0
 70
    58
 90
        2
176
     1
 90
        2
176
     1
 90
        1
176
     1
 90
        2
176
     1
 40
0.6
176
     1
 40
30.0
176
     1
 62
     7
420
 16777215
176
     1
 90
        1
176
     1
 90
       10
176
     1
 62
     7
176
     1
 62
   257
176
     1
 90
        2
176
     1
 90
        1
176
     1
 40
1.0
176
     1
 90
        8
176
     1
 62
   257
176
     1
 40
1.0
176
     1
 90
        1
176
     1
 90
        6
176
     1
 90
        2
176
     1
 62
     7
176
     1
 90
        3
176
     1
 90
        0
176
     1
 90
        0
176
     1
290
     0
176
     1
 90
        5
176
     1
 40
0.0
176
     1
 90
        0
176
     1
290
     0
176
     1
290
     1
176
     1
290
     1
176
     1
290
     0
176
     1
290
     0
176
     1
290
     0
176
     1
290
     0
176
     1
290
     0
176
     1
290
     0
176
     1
 90
       50
176
     1
 40
0.0
176
     1
 40
1.0
176
     1
 90
        0
176
     1
 62
    18
420
        0
176
     1
 90
       50
176
     1
 90
        3
176
     1
 62
     5
420
      255
176
     1
290
     0
176
     1
 90
       50
176
     1
 90
       50
176
     1
 90
       50
176
     1
290
     0
176
     1
 90
       50
176
     1
 62
   256
176
     0
 40
1.0
176
     0
 90
        2
176
     1
  1
strokes_ogs.tif
176
     1
290
     0
176
     1
 40
1.0
176
     1
 40
1.0
176
     1
  0
VISUALSTYLE
  5
3E
102
{ACAD_REACTORS
330
2A
102
}
330
2A
100
AcDbVisualStyle
  2
Shades of Gray
 70
    23
177
     3
291
     0
 70
    58
 90
        2
176
     1
 90
        2
176
     1
 90
        3
176
     1
 90
        0
176
     1
 40
0.6
176
     1
 40
30.0
176
     1
 62
     7
420
 16777215
176
     1
 90
        2
176
     1
 90
        2
176
     1
 62
     7
176
     1
 62
     7
176
     1
 90
        1
176
     1
 90
        1
176
     1
 40
40.0
176
     1
 90
        8
176
     1
 62
     7
176
     1
 40
1.0
176
     1
 90
        1
176
     1
 90
        6
176
     1
 90
        2
176
     1
 62
     7
176
     1
 90
        3
176
     1
 90
        0
176
     1
 90
        0
176
     1
290
     0
176
     1
 90
        1
176
     1
 40
0.0
176
     1
 90
        0
176
     1
290
     0
176
     1
290
     1
176
     1
290
     1
176
     1
290
     0
176
     1
290
     0
176
     1
290
     0
176
     1
290
     0
176
     1
290
     0
176
     1
290
     0
176
     1
 90
       50
176
     1
 40
0.0
176
     1
 40
1.0
176
     1
 90
        0
176
     1
 62
    18
420
        0
176
     1
 90
       50
176
     1
 90
        3
176
     1
 62
     5
420
      255
176
     1
290
     0
176
     1
 90
       50
176
     1
 90
       50
176
     1
 90
       50
176
     1
290
     0
176
     1
 90
       50
176
     1
 62
   256
176
     0
 40
1.0
176
     0
 90
        2
176
     1
  1
strokes_ogs.tif
176
     1
290
     0
176
     1
 40
1.0
176
     1
 40
1.0
176
     1
  0
VISUALSTYLE
  5
3F
102
{ACAD_REACTORS
330
2A
102
}
330
2A
100
AcDbVisualStyle
  2
Sketchy
 70
    24
177
     3
291
     0
 70
    58
 90
        1
176
     1
 90
        2
176
     1
 90
        2
176
     1
 90
        0
176
     1
 40
0.6
176
     1
 40
30.0
176
     1
 62
     7
420
 16777215
176
     1
 90
        2
176
     1
 90
        2
176
     1
 62
     7
176
     1
 62
     7
176
     1
 90
        1
176
     1
 90
        1
176
     1
 40
40.0
176
     1
 90
       11
176
     1
 62
     7
176
     1
 40
1.0
176
     1
 90
        1
176
     1
 90
        6
176
     1
 90
        2
176
     1
 62
     7
176
     1
 90
        6
176
     1
 90
        0
176
     1
 90
        0
176
     1
290
     0
176
     1
 90
        1
176
     1
 40
0.0
176
     1
 90
        0
176
     1
290
     0
176
     1
290
     1
176
     1
290
     1
176
     1
290
     0
176
     1
290
     0
176
     1
290
     0
176
     1
290
     0
176
     1
290
     0
176
     1
290
     0
176
     1
 90
       50
176
     1
 40
0.0
176
     1
 40
1.0
176
     1
 90
        0
176
     1
 62
    18
420
        0
176
     1
 90
       50
176
     1
 90
        3
176
     1
 62
     5
420
      255
176
     1
290
     0
176
     1
 90
       50
176
     1
 90
       50
176
     1
 90
       50
176
     1
290
     0
176
     1
 90
       50
176
     1
 62
   256
176
     0
 40
1.0
176
     0
 90
        2
176
     1
  1
strokes_ogs.tif
176
     1
290
     0
176
     1
 40
1.0
176
     1
 40
1.0
176
     1
  0
VISUALSTYLE
  5
37
102
{ACAD_REACTORS
330
2A
102
}
330
2A
100
AcDbVisualStyle
  2
Thicken
 70
    13
177
     3
291
     1
 70
    58
 90
        2
176
     1
 90
        2
176
     1
 90
        0
176
     1
 90
        0
176
     1
 40
0.6
176
     1
 40
30.0
176
     1
 62
     7
420
 16777215
176
     1
 90
        1
176
     1
 90
        4
176
     1
 62
     7
176
     1
 62
   257
176
     1
 90
        1
176
     1
 90
        1
176
     1
 40
1.0
176
     1
 90
       12
176
     1
 62
     7
176
     1
 40
1.0
176
     1
 90
        1
176
     1
 90
        6
176
     1
 90
        2
176
     1
 62
     7
176
     1
 90
        5
176
     1
 90
        0
176
     1
 90
        0
176
     1
290
     0
176
     1
 90
        1
176
     1
 40
0.0
176
     1
 90
        0
176
     1
290
     0
176
     1
290
     1
176
     1
290
     1
176
     1
290
     0
176
     1
290
     0
176
     1
290
     0
176
     1
290
     0
176
     1
290
     0
176
     1
290
     0
176
     1
 90
       50
176
     1
 40
0.0
176
     1
 40
1.0
176
     1
 90
        0
176
     1
 62
    18
420
        0
176
     1
 90
       50
176
     1
 90
        3
176
     1
 62
     5
420
      255
176
     1
290
     0
176
     1
 90
       50
176
     1
 90
       50
176
     1
 90
       50
176
     1
290
     0
176
     1
 90
       50
176
     1
 62
   256
176
     0
 40
1.0
176
     0
 90
        2
176
     1
  1
strokes_ogs.tif
176
     1
290
     0
176
     1
 40
1.0
176
     1
 40
1.0
176
     1
  0
VISUALSTYLE
  5
30
102
{ACAD_REACTORS
330
2A
102
}
330
2A
100
AcDbVisualStyle
  2
Wireframe
 70
     5
177
     3
291
     0
 70
    58
 90
        0
176
     1
 90
        2
176
     1
 90
        0
176
     1
 90
        0
176
     1
 40
0.6
176
     1
 40
30.0
176
     1
 62
     7
420
 16777215
176
     1
 90
        1
176
     1
 90
        4
176
     1
 62
     7
176
     1
 62
   257
176
     1
 90
        1
176
     1
 90
        1
176
     1
 40
1.0
176
     1
 90
        0
176
     1
 62
   257
176
     1
 40
1.0
176
     1
 90
        1
176
     1
 90
        6
176
     1
 90
        2
176
     1
 62
     7
176
     1
 90
        3
176
     1
 90
        0
176
     1
 90
        0
176
     1
290
     0
176
     1
 90
        1
176
     1
 40
0.0
176
     1
 90
        0
176
     1
290
     0
176
     1
290
     1
176
     1
290
     1
176
     1
290
     0
176
     1
290
     0
176
     1
290
     0
176
     1
290
     0
176
     1
290
     0
176
     1
290
     0
176
     1
 90
       50
176
     1
 40
0.0
176
     1
 40
1.0
176
     1
 90
        0
176
     1
 62
    18
420
        0
176
     1
 90
       50
176
     1
 90
        3
176
     1
 62
     5
420
      255
176
     1
290
     0
176
     1
 90
       50
176
     1
 90
       50
176
     1
 90
       50
176
     1
290
     0
176
     1
 90
       50
176
     1
 62
   256
176
     0
 40
1.0
176
     0
 90
        2
176
     1
  1
strokes_ogs.tif
176
     1
290
     0
176
     1
 40
1.0
176
     1
 40
1.0
176
     1
  0
VISUALSTYLE
  5
40
102
{ACAD_REACTORS
330
2A
102
}
330
2A
100
AcDbVisualStyle
  2
X-Ray
 70
    25
177
     3
291
     0
 70
    58
 90
        2
176
     1
 90
        2
176
     1
 90
        1
176
     1
 90
        1
176
     1
 40
0.5
176
     1
 40
30.0
176
     1
 62
     7
420
 16777215
176
     1
 90
        1
176
     1
 90
        0
176
     1
 62
     7
176
     1
 62
   257
176
     1
 90
        1
176
     1
 90
        1
176
     1
 40
1.0
176
     1
 90
        8
176
     1
 62
     7
176
     1
 40
1.0
176
     1
 90
        1
176
     1
 90
        6
176
     1
 90
        2
176
     1
 62
     7
176
     1
 90
        3
176
     1
 90
        0
176
     1
 90
        0
176
     1
290
     0
176
     1
 90
       13
176
     1
 40
0.0
176
     1
 90
        0
176
     1
290
     0
176
     1
290
     1
176
     1
290
     1
176
     1
290
     0
176
     1
290
     0
176
     1
290
     0
176
     1
290
     0
176
     1
290
     0
176
     1
290
     0
176
     1
 90
       50
176
     1
 40
0.0
176
     1
 40
1.0
176
     1
 90
        0
176
     1
 62
    18
420
        0
176
     1
 90
       50
176
     1
 90
        3
176
     1
 62
     5
420
      255
176
     1
290
     0
176
     1
 90
       50
176
     1
 90
       50
176
     1
 90
       50
176
     1
290
     0
176
     1
 90
       50
176
     1
 62
   256
176
     0
 40
1.0
176
     0
 90
        2
176
     1
  1
strokes_ogs.tif
176
     1
290
     0
176
     1
 40
1.0
176
     1
 40
1.0
176
     1
  0
DICTIONARYVAR
  5
19D
102
{ACAD_REACTORS
330
19C
102
}
330
19C
100
DictionaryVariables
280
     0
  1
1:1
  0
DICTIONARYVAR
  5
1A2
102
{ACAD_REACTORS
330
19C
102
}
330
19C
100
DictionaryVariables
280
     0
  1
Standard
  0
DICTIONARYVAR
  5
1A1
102
{ACAD_REACTORS
330
19C
102
}
330
19C
100
DictionaryVariables
280
     0
  1
Standard
  0
DICTIONARY
  5
19E
330
6A
100
AcDbDictionary
280
     1
281
     1
  3
ACAD_ROUNDTRIP_2008_TABLESTYLE_CELLSTYLEMAP
360
19F
  0
CELLSTYLEMAP
  5
19F
102
{ACAD_REACTORS
330
19E
102
}
330
19E
100
AcDbCellStyleMap
 90
        3
300
CELLSTYLE
  1
TABLEFORMAT_BEGIN
 90
        5
170
     1
 91
        0
 92
    32768
 62
   257
 93
        1
300
CONTENTFORMAT
  1
CONTENTFORMAT_BEGIN
 90
        0
 91
        0
 92
        4
 93
        0
300

 40
0.0
140
1.0
 94
        5
 62
     0
340
11
144
0.25
309
CONTENTFORMAT_END
171
     1
301
MARGIN
  1
CELLMARGIN_BEGIN
 40
0.06
 40
0.06
 40
0.06
 40
0.06
 40
0.06
 40
0.06
309
CELLMARGIN_END
 94
        6
 95
        1
302
GRIDFORMAT
  1
GRIDFORMAT_BEGIN
 90
        0
 91
        1
 62
     0
 92
       -2
340
14
 93
        0
 40
0.045
309
GRIDFORMAT_END
 95
        2
302
GRIDFORMAT
  1
GRIDFORMAT_BEGIN
 90
        0
 91
        1
 62
     0
 92
       -2
340
14
 93
        0
 40
0.045
309
GRIDFORMAT_END
 95
        4
302
GRIDFORMAT
  1
GRIDFORMAT_BEGIN
 90
        0
 91
        1
 62
     0
 92
       -2
340
14
 93
        0
 40
0.045
309
GRIDFORMAT_END
 95
        8
302
GRIDFORMAT
  1
GRIDFORMAT_BEGIN
 90
        0
 91
        1
 62
     0
 92
       -2
340
14
 93
        0
 40
0.045
309
GRIDFORMAT_END
 95
       16
302
GRIDFORMAT
  1
GRIDFORMAT_BEGIN
 90
        0
 91
        1
 62
     0
 92
       -2
340
14
 93
        0
 40
0.045
309
GRIDFORMAT_END
 95
       32
302
GRIDFORMAT
  1
GRIDFORMAT_BEGIN
 90
        0
 91
        1
 62
     0
 92
       -2
340
14
 93
        0
 40
0.045
309
GRIDFORMAT_END
309
TABLEFORMAT_END
  1
CELLSTYLE_BEGIN
 90
        1
 91
        1
300
_TITLE
309
CELLSTYLE_END
300
CELLSTYLE
  1
TABLEFORMAT_BEGIN
 90
        5
170
     1
 91
        0
 92
        0
 62
   257
 93
        1
300
CONTENTFORMAT
  1
CONTENTFORMAT_BEGIN
 90
        0
 91
        0
 92
        4
 93
        0
300

 40
0.0
140
1.0
 94
        5
 62
     0
340
11
144
0.18
309
CONTENTFORMAT_END
171
     1
301
MARGIN
  1
CELLMARGIN_BEGIN
 40
0.06
 40
0.06
 40
0.06
 40
0.06
 40
0.06
 40
0.06
309
CELLMARGIN_END
 94
        6
 95
        1
302
GRIDFORMAT
  1
GRIDFORMAT_BEGIN
 90
        0
 91
        1
 62
     0
 92
       -2
340
14
 93
        0
 40
0.045
309
GRIDFORMAT_END
 95
        2
302
GRIDFORMAT
  1
GRIDFORMAT_BEGIN
 90
        0
 91
        1
 62
     0
 92
       -2
340
14
 93
        0
 40
0.045
309
GRIDFORMAT_END
 95
        4
302
GRIDFORMAT
  1
GRIDFORMAT_BEGIN
 90
        0
 91
        1
 62
     0
 92
       -2
340
14
 93
        0
 40
0.045
309
GRIDFORMAT_END
 95
        8
302
GRIDFORMAT
  1
GRIDFORMAT_BEGIN
 90
        0
 91
        1
 62
     0
 92
       -2
340
14
 93
        0
 40
0.045
309
GRIDFORMAT_END
 95
       16
302
GRIDFORMAT
  1
GRIDFORMAT_BEGIN
 90
        0
 91
        1
 62
     0
 92
       -2
340
14
 93
        0
 40
0.045
309
GRIDFORMAT_END
 95
       32
302
GRIDFORMAT
  1
GRIDFORMAT_BEGIN
 90
        0
 91
        1
 62
     0
 92
       -2
340
14
 93
        0
 40
0.045
309
GRIDFORMAT_END
309
TABLEFORMAT_END
  1
CELLSTYLE_BEGIN
 90
        2
 91
        1
300
_HEADER
309
CELLSTYLE_END
300
CELLSTYLE
  1
TABLEFORMAT_BEGIN
 90
        5
170
     1
 91
        0
 92
        0
 62
   257
 93
        1
300
CONTENTFORMAT
  1
CONTENTFORMAT_BEGIN
 90
        0
 91
        0
 92
        4
 93
        0
300

 40
0.0
140
1.0
 94
        2
 62
     0
340
11
144
0.18
309
CONTENTFORMAT_END
171
     1
301
MARGIN
  1
CELLMARGIN_BEGIN
 40
0.06
 40
0.06
 40
0.06
 40
0.06
 40
0.06
 40
0.06
309
CELLMARGIN_END
 94
        6
 95
        1
302
GRIDFORMAT
  1
GRIDFORMAT_BEGIN
 90
        0
 91
        1
 62
     0
 92
       -2
340
14
 93
        0
 40
0.045
309
GRIDFORMAT_END
 95
        2
302
GRIDFORMAT
  1
GRIDFORMAT_BEGIN
 90
        0
 91
        1
 62
     0
 92
       -2
340
14
 93
        0
 40
0.045
309
GRIDFORMAT_END
 95
        4
302
GRIDFORMAT
  1
GRIDFORMAT_BEGIN
 90
        0
 91
        1
 62
     0
 92
       -2
340
14
 93
        0
 40
0.045
309
GRIDFORMAT_END
 95
        8
302
GRIDFORMAT
  1
GRIDFORMAT_BEGIN
 90
        0
 91
        1
 62
     0
 92
       -2
340
14
 93
        0
 40
0.045
309
GRIDFORMAT_END
 95
       16
302
GRIDFORMAT
  1
GRIDFORMAT_BEGIN
 90
        0
 91
        1
 62
     0
 92
       -2
340
14
 93
        0
 40
0.045
309
GRIDFORMAT_END
 95
       32
302
GRIDFORMAT
  1
GRIDFORMAT_BEGIN
 90
        0
 91
        1
 62
     0
 92
       -2
340
14
 93
        0
 40
0.045
309
GRIDFORMAT_END
309
TABLEFORMAT_END
  1
CELLSTYLE_BEGIN
 90
        3
 91
        2
300
_DATA
309
CELLSTYLE_END
  0
ENDSEC
  0
EOF