0
SECTION
  2
HEADER
  9
$ACADVER
  1
AC1027
  9
$ACADMAINTVER
 70
     8
  9
$DWGCODEPAGE
  3
ANSI_1252
  9
$REQUIREDVERSIONS
160
                 0
  9
$COMMENTS
  1
File was created by Cadenas
  9
$CUSTOMPROPERTYTAG
  1
NN
  9
$CUSTOMPROPERTY
  1
Set Screw Four-Bolt Flange Metric Bore
  9
$CUSTOMPROPERTYTAG
  1
NT
  9
$CUSTOMPROPERTY
  1
SC 4 Bolt Flange Bearings -(Normal Duty)
  9
$CUSTOMPROPERTYTAG
  1
NB
  9
$CUSTOMPROPERTY
  1
064943
  9
$CUSTOMPROPERTYTAG
  1
NBSYN
  9
$CUSTOMPROPERTY
  1
$PN.
  9
$CUSTOMPROPERTYTAG
  1
LINA
  9
$CUSTOMPROPERTY
  1
064943
  9
$CUSTOMPROPERTYTAG
  1
SERIES
  9
$CUSTOMPROPERTY
  1
205
  9
$CUSTOMPROPERTYTAG
  1
SS
  9
$CUSTOMPROPERTY
  1
25
  9
$CUSTOMPROPERTYTAG
  1
PN
  9
$CUSTOMPROPERTY
  1
064943
  9
$CUSTOMPROPERTYTAG
  1
DESCRIPTION
  9
$CUSTOMPROPERTY
  1
F4B-SC-25M-NL
  9
$CUSTOMPROPERTYTAG
  1
WEIGHT
  9
$CUSTOMPROPERTY
  1
0.9
  9
$CUSTOMPROPERTYTAG
  1
LF
  9
$CUSTOMPROPERTY
  1
NO-LUBE
  9
$CUSTOMPROPERTYTAG
  1
A
  9
$CUSTOMPROPERTY
  1
34.0
  9
$CUSTOMPROPERTYTAG
  1
B
  9
$CUSTOMPROPERTY
  1
95.3
  9
$CUSTOMPROPERTYTAG
  1
C
  9
$CUSTOMPROPERTY
  1
34.8
  9
$CUSTOMPROPERTYTAG
  1
D
  9
$CUSTOMPROPERTY
  1
69.9
  9
$CUSTOMPROPERTYTAG
  1
F
  9
$CUSTOMPROPERTY
  1
M10
  9
$CUSTOMPROPERTYTAG
  1
H
  9
$CUSTOMPROPERTY
  1
12.7
  9
$CUSTOMPROPERTYTAG
  1
J
  9
$CUSTOMPROPERTY
  1
10.7
  9
$CUSTOMPROPERTYTAG
  1
L
  9
$CUSTOMPROPERTY
  1
33.5
  9
$CUSTOMPROPERTYTAG
  1
N
  9
$CUSTOMPROPERTY
  1
52.3
  9
$CUSTOMPROPERTYTAG
  1
COMPANY
  9
$CUSTOMPROPERTY
  1
baldor
  9
$INSBASE
 10
0.0
 20
0.0
 30
0.0
  9
$EXTMIN
 10
1.000000000000000E+20
 20
1.000000000000000E+20
 30
1.000000000000000E+20
  9
$EXTMAX
 10
-1.000000000000000E+20
 20
-1.000000000000000E+20
 30
-1.000000000000000E+20
  9
$LIMMIN
 10
0.0
 20
0.0
  9
$LIMMAX
 10
420.0
 20
297.0
  9
$ORTHOMODE
 70
     0
  9
$REGENMODE
 70
     1
  9
$FILLMODE
 70
     1
  9
$QTEXTMODE
 70
     0
  9
$MIRRTEXT
 70
     1
  9
$LTSCALE
 40
1.0
  9
$ATTMODE
 70
     1
  9
$TEXTSIZE
 40
2.5
  9
$TRACEWID
 40
1.0
  9
$TEXTSTYLE
  7
Standard
  9
$CLAYER
  8
0
  9
$CELTYPE
  6
ByLayer
  9
$CECOLOR
 62
   256
  9
$CELTSCALE
 40
1.0
  9
$DISPSILH
 70
     0
  9
$DIMSCALE
 40
1.0
  9
$DIMASZ
 40
2.5
  9
$DIMEXO
 40
0.625
  9
$DIMDLI
 40
3.75
  9
$DIMRND
 40
0.0
  9
$DIMDLE
 40
0.0
  9
$DIMEXE
 40
1.25
  9
$DIMTP
 40
0.0
  9
$DIMTM
 40
0.0
  9
$DIMTXT
 40
2.5
  9
$DIMCEN
 40
2.5
  9
$DIMTSZ
 40
0.0
  9
$DIMTOL
 70
     0
  9
$DIMLIM
 70
     0
  9
$DIMTIH
 70
     0
  9
$DIMTOH
 70
     0
  9
$DIMSE1
 70
     0
  9
$DIMSE2
 70
     0
  9
$DIMTAD
 70
     1
  9
$DIMZIN
 70
     8
  9
$DIMBLK
  1

  9
$DIMASO
 70
     1
  9
$DIMSHO
 70
     1
  9
$DIMPOST
  1

  9
$DIMAPOST
  1

  9
$DIMALT
 70
     0
  9
$DIMALTD
 70
     3
  9
$DIMALTF
 40
0.03937007874016
  9
$DIMLFAC
 40
1.0
  9
$DIMTOFL
 70
     1
  9
$DIMTVP
 40
0.0
  9
$DIMTIX
 70
     0
  9
$DIMSOXD
 70
     0
  9
$DIMSAH
 70
     0
  9
$DIMBLK1
  1

  9
$DIMBLK2
  1

  9
$DIMSTYLE
  2
ISO-25
  9
$DIMCLRD
 70
     0
  9
$DIMCLRE
 70
     0
  9
$DIMCLRT
 70
     0
  9
$DIMTFAC
 40
1.0
  9
$DIMGAP
 40
0.625
  9
$DIMJUST
 70
     0
  9
$DIMSD1
 70
     0
  9
$DIMSD2
 70
     0
  9
$DIMTOLJ
 70
     0
  9
$DIMTZIN
 70
     8
  9
$DIMALTZ
 70
     0
  9
$DIMALTTZ
 70
     0
  9
$DIMUPT
 70
     0
  9
$DIMDEC
 70
     2
  9
$DIMTDEC
 70
     2
  9
$DIMALTU
 70
     2
  9
$DIMALTTD
 70
     3
  9
$DIMTXSTY
  7
Standard
  9
$DIMAUNIT
 70
     0
  9
$DIMADEC
 70
     0
  9
$DIMALTRND
 40
0.0
  9
$DIMAZIN
 70
     0
  9
$DIMDSEP
 70
    44
  9
$DIMATFIT
 70
     3
  9
$DIMFRAC
 70
     0
  9
$DIMLDRBLK
  1

  9
$DIMLUNIT
 70
     2
  9
$DIMLWD
 70
    -2
  9
$DIMLWE
 70
    -2
  9
$DIMTMOVE
 70
     0
  9
$DIMFXL
 40
1.0
  9
$DIMFXLON
 70
     0
  9
$DIMJOGANG
 40
0.7853981633974483
  9
$DIMTFILL
 70
     0
  9
$DIMTFILLCLR
 70
     0
  9
$DIMARCSYM
 70
     0
  9
$DIMLTYPE
  6

  9
$DIMLTEX1
  6

  9
$DIMLTEX2
  6

  9
$DIMTXTDIRECTION
 70
     0
  9
$LUNITS
 70
     2
  9
$LUPREC
 70
     4
  9
$SKETCHINC
 40
1.0
  9
$FILLETRAD
 40
10.0
  9
$AUNITS
 70
     0
  9
$AUPREC
 70
     0
  9
$MENU
  1
.
  9
$ELEVATION
 40
0.0
  9
$PELEVATION
 40
0.0
  9
$THICKNESS
 40
0.0
  9
$LIMCHECK
 70
     0
  9
$CHAMFERA
 40
0.0
  9
$CHAMFERB
 40
0.0
  9
$CHAMFERC
 40
0.0
  9
$CHAMFERD
 40
0.0
  9
$SKPOLY
 70
     0
  9
$TDCREATE
 40
2458168.906242049
  9
$TDUCREATE
 40
2458168.864575382
  9
$TDUPDATE
 40
2458168.906242049
  9
$TDUUPDATE
 40
2458168.864575382
  9
$TDINDWG
 40
0.0000000116
  9
$TDUSRTIMER
 40
0.0000000116
  9
$USRTIMER
 70
     1
  9
$ANGBASE
 50
0.0
  9
$ANGDIR
 70
     0
  9
$PDMODE
 70
     0
  9
$PDSIZE
 40
0.0
  9
$PLINEWID
 40
0.0
  9
$SPLFRAME
 70
     0
  9
$SPLINETYPE
 70
     6
  9
$SPLINESEGS
 70
     8
  9
$HANDSEED
  5
163
  9
$SURFTAB1
 70
     6
  9
$SURFTAB2
 70
     6
  9
$SURFTYPE
 70
     6
  9
$SURFU
 70
     6
  9
$SURFV
 70
     6
  9
$UCSBASE
  2

  9
$UCSNAME
  2

  9
$UCSORG
 10
0.0
 20
0.0
 30
0.0
  9
$UCSXDIR
 10
1.0
 20
0.0
 30
0.0
  9
$UCSYDIR
 10
0.0
 20
1.0
 30
0.0
  9
$UCSORTHOREF
  2

  9
$UCSORTHOVIEW
 70
     0
  9
$UCSORGTOP
 10
0.0
 20
0.0
 30
0.0
  9
$UCSORGBOTTOM
 10
0.0
 20
0.0
 30
0.0
  9
$UCSORGLEFT
 10
0.0
 20
0.0
 30
0.0
  9
$UCSORGRIGHT
 10
0.0
 20
0.0
 30
0.0
  9
$UCSORGFRONT
 10
0.0
 20
0.0
 30
0.0
  9
$UCSORGBACK
 10
0.0
 20
0.0
 30
0.0
  9
$PUCSBASE
  2

  9
$PUCSNAME
  2

  9
$PUCSORG
 10
0.0
 20
0.0
 30
0.0
  9
$PUCSXDIR
 10
1.0
 20
0.0
 30
0.0
  9
$PUCSYDIR
 10
0.0
 20
1.0
 30
0.0
  9
$PUCSORTHOREF
  2

  9
$PUCSORTHOVIEW
 70
     0
  9
$PUCSORGTOP
 10
0.0
 20
0.0
 30
0.0
  9
$PUCSORGBOTTOM
 10
0.0
 20
0.0
 30
0.0
  9
$PUCSORGLEFT
 10
0.0
 20
0.0
 30
0.0
  9
$PUCSORGRIGHT
 10
0.0
 20
0.0
 30
0.0
  9
$PUCSORGFRONT
 10
0.0
 20
0.0
 30
0.0
  9
$PUCSORGBACK
 10
0.0
 20
0.0
 30
0.0
  9
$USERI1
 70
     0
  9
$USERI2
 70
     0
  9
$USERI3
 70
     0
  9
$USERI4
 70
     0
  9
$USERI5
 70
     0
  9
$USERR1
 40
0.0
  9
$USERR2
 40
0.0
  9
$USERR3
 40
0.0
  9
$USERR4
 40
0.0
  9
$USERR5
 40
0.0
  9
$WORLDVIEW
 70
     1
  9
$SHADEDGE
 70
     3
  9
$SHADEDIF
 70
    70
  9
$TILEMODE
 70
     1
  9
$MAXACTVP
 70
    64
  9
$PINSBASE
 10
0.0
 20
0.0
 30
0.0
  9
$PLIMCHECK
 70
     0
  9
$PEXTMIN
 10
1.000000000000000E+20
 20
1.000000000000000E+20
 30
1.000000000000000E+20
  9
$PEXTMAX
 10
-1.000000000000000E+20
 20
-1.000000000000000E+20
 30
-1.000000000000000E+20
  9
$PLIMMIN
 10
0.0
 20
0.0
  9
$PLIMMAX
 10
420.0
 20
297.0
  9
$UNITMODE
 70
     0
  9
$VISRETAIN
 70
     1
  9
$PLINEGEN
 70
     0
  9
$PSLTSCALE
 70
     1
  9
$TREEDEPTH
 70
  3020
  9
$CMLSTYLE
  2
Standard
  9
$CMLJUST
 70
     0
  9
$CMLSCALE
 40
20.0
  9
$PROXYGRAPHICS
 70
     1
  9
$MEASUREMENT
 70
     1
  9
$CELWEIGHT
370
    -1
  9
$ENDCAPS
280
     0
  9
$JOINSTYLE
280
     0
  9
$LWDISPLAY
290
     0
  9
$INSUNITS
 70
     4
  9
$HYPERLINKBASE
  1

  9
$STYLESHEET
  1

  9
$XEDIT
290
     1
  9
$CEPSNTYPE
380
     0
  9
$PSTYLEMODE
290
     1
  9
$FINGERPRINTGUID
  2
{2DD0B6F9-9FFE-48E7-A059-10229A35F836}
  9
$VERSIONGUID
  2
{FAEB1C32-E019-11D5-929B-00C0DF256EC4}
  9
$EXTNAMES
290
     1
  9
$PSVPSCALE
 40
0.0
  9
$OLESTARTUP
290
     0
  9
$SORTENTS
280
   127
  9
$INDEXCTL
280
     0
  9
$HIDETEXT
280
     1
  9
$XCLIPFRAME
280
     2
  9
$HALOGAP
280
     0
  9
$OBSCOLOR
 70
   257
  9
$OBSLTYPE
280
     0
  9
$INTERSECTIONDISPLAY
280
     0
  9
$INTERSECTIONCOLOR
 70
   257
  9
$DIMASSOC
280
     2
  9
$PROJECTNAME
  1

  9
$CAMERADISPLAY
290
     0
  9
$LENSLENGTH
 40
50.0
  9
$CAMERAHEIGHT
 40
0.0
  9
$STEPSPERSEC
 40
2.0
  9
$STEPSIZE
 40
6.0
  9
$3DDWFPREC
 40
2.0
  9
$PSOLWIDTH
 40
5.0
  9
$PSOLHEIGHT
 40
80.0
  9
$LOFTANG1
 40
1.570796326794897
  9
$LOFTANG2
 40
1.570796326794897
  9
$LOFTMAG1
 40
0.0
  9
$LOFTMAG2
 40
0.0
  9
$LOFTPARAM
 70
     7
  9
$LOFTNORMALS
280
     1
  9
$LATITUDE
 40
37.795
  9
$LONGITUDE
 40
-122.394
  9
$NORTHDIRECTION
 40
0.0
  9
$TIMEZONE
 70
 -8000
  9
$LIGHTGLYPHDISPLAY
280
     1
  9
$TILEMODELIGHTSYNCH
280
     1
  9
$CMATERIAL
347
44
  9
$SOLIDHIST
280
     0
  9
$SHOWHIST
280
     1
  9
$DWFFRAME
280
     2
  9
$DGNFRAME
280
     2
  9
$REALWORLDSCALE
290
     1
  9
$INTERFERECOLOR
 62
   256
  9
$CSHADOW
280
     0
  9
$SHADOWPLANELOCATION
 40
0.0
  0
ENDSEC
  0
SECTION
  2
CLASSES
  0
CLASS
  1
ACDBDICTIONARYWDFLT
  2
AcDbDictionaryWithDefault
  3
ObjectDBX Classes
 90
        0
 91
        4
280
     0
281
     0
  0
CLASS
  1
VISUALSTYLE
  2
AcDbVisualStyle
  3
ObjectDBX Classes
 90
     4095
 91
        4
280
     0
281
     0
  0
CLASS
  1
MATERIAL
  2
AcDbMaterial
  3
ObjectDBX Classes
 90
     1153
 91
        4
280
     0
281
     0
  0
CLASS
  1
SCALE
  2
AcDbScale
  3
ObjectDBX Classes
 90
     1153
 91
        4
280
     0
281
     0
  0
CLASS
  1
TABLESTYLE
  2
AcDbTableStyle
  3
ObjectDBX Classes
 90
     4095
 91
        4
280
     0
281
     0
  0
CLASS
  1
MLEADERSTYLE
  2
AcDbMLeaderStyle
  3
ACDB_MLEADERSTYLE_CLASS
 90
     4095
 91
        4
280
     0
281
     0
  0
CLASS
  1
SUN
  2
AcDbSun
  3
SCENEOE
 90
     1153
 91
        4
280
     0
281
     0
  0
CLASS
  1
DICTIONARYVAR
  2
AcDbDictionaryVar
  3
ObjectDBX Classes
 90
        0
 91
        4
280
     0
281
     0
  0
CLASS
  1
CELLSTYLEMAP
  2
AcDbCellStyleMap
  3
ObjectDBX Classes
 90
     1152
 91
        4
280
     0
281
     0
  0
ENDSEC
  0
SECTION
  2
TABLES
  0
TABLE
  2
VPORT
  5
8
330
0
100
AcDbSymbolTable
 70
     1
  0
VPORT
  5
29
330
8
100
AcDbSymbolTableRecord
100
AcDbViewportTableRecord
  2
*Active
 70
     0
 10
0.0
 20
0.0
 11
1.0
 21
1.0
 12
0.0
 22
-17.64750000000004
 13
0.0
 23
0.0
 14
10.0
 24
10.0
 15
10.0
 25
10.0
 16
0.0
 26
0.0
 36
1.0
 17
0.0
 27
0.0
 37
0.0
 40
38.45909999999993
 41
2.527516244529907
 42
50.0
 43
0.0
 44
0.0
 50
0.0
 51
0.0
 71
     0
 72
   100
 73
     1
 74
     3
 75
     0
 76
     0
 77
     0
 78
     0
281
     0
 65
     1
110
0.0
120
0.0
130
0.0
111
1.0
121
0.0
131
0.0
112
0.0
122
1.0
132
0.0
 79
     0
146
0.0
348
2F
 60
     3
 61
     5
292
     1
282
     1
141
0.0
142
0.0
 63
   250
361
6D
  0
ENDTAB
  0
TABLE
  2
LTYPE
  5
5
330
0
100
AcDbSymbolTable
 70
     3
  0
LTYPE
  5
14
330
5
100
AcDbSymbolTableRecord
100
AcDbLinetypeTableRecord
  2
ByBlock
 70
     0
  3

 72
    65
 73
     0
 40
0.0
  0
LTYPE
  5
15
330
5
100
AcDbSymbolTableRecord
100
AcDbLinetypeTableRecord
  2
ByLayer
 70
     0
  3

 72
    65
 73
     0
 40
0.0
  0
LTYPE
  5
16
330
5
100
AcDbSymbolTableRecord
100
AcDbLinetypeTableRecord
  2
Continuous
 70
     0
  3
Solid line
 72
    65
 73
     0
 40
0.0
  0
LTYPE
  5
93
330
5
100
AcDbSymbolTableRecord
100
AcDbLinetypeTableRecord
  2
Dashed
 70
     0
  3

 72
    65
 73
     2
 40
2.0
 49
1.0
 74
     0
 49
-1.0
 74
     0
  0
LTYPE
  5
96
330
5
100
AcDbSymbolTableRecord
100
AcDbLinetypeTableRecord
  2
Center
 70
     0
  3

 72
    65
 73
     4
 40
1.5
 49
0.45
 74
     0
 49
-0.5
 74
     0
 49
0.05
 74
     0
 49
-0.5
 74
     0
  0
ENDTAB
  0
TABLE
  2
LAYER
  5
2
330
0
100
AcDbSymbolTable
 70
     7
  0
LAYER
  5
10
330
2
100
AcDbSymbolTableRecord
100
AcDbLayerTableRecord
  2
0
 70
     0
 62
     7
  6
Continuous
370
    -3
390
F
347
46
348
0
  0
LAYER
  5
72
330
2
100
AcDbSymbolTableRecord
100
AcDbLayerTableRecord
  2
AM_6
 70
     0
 62
    -2
  6
Continuous
370
    35
390
F
347
46
348
0
  0
LAYER
  5
94
330
2
100
AcDbSymbolTableRecord
100
AcDbLayerTableRecord
  2
AM_9
 70
     0
 62
     6
  6
Dashed
370
    25
390
F
347
46
348
0
  0
LAYER
  5
97
330
2
100
AcDbSymbolTableRecord
100
AcDbLayerTableRecord
  2
AM_7
 70
     0
 62
     7
  6
Center
370
    25
390
F
347
46
348
0
  0
LAYER
  5
99
330
2
100
AcDbSymbolTableRecord
100
AcDbLayerTableRecord
  2
AM_4
 70
     0
 62
     7
  6
Continuous
370
    50
390
F
347
46
348
0
  0
LAYER
  5
A3
330
2
100
AcDbSymbolTableRecord
100
AcDbLayerTableRecord
  2
AM_5
 70
     0
 62
     3
  6
Continuous
370
    25
390
F
347
46
348
0
  0
LAYER
  5
156
330
2
100
AcDbSymbolTableRecord
100
AcDbLayerTableRecord
  2
ConnectionPoints
 70
     0
 62
     7
  6
Continuous
370
    50
390
F
347
46
348
0
  0
ENDTAB
  0
TABLE
  2
STYLE
  5
3
330
0
100
AcDbSymbolTable
 70
     1
  0
STYLE
  5
11
330
3
100
AcDbSymbolTableRecord
100
AcDbTextStyleTableRecord
  2
Standard
 70
     0
 40
0.0
 41
1.0
 50
0.0
 71
     0
 42
2.5
  3
txt
  4

  0
ENDTAB
  0
TABLE
  2
VIEW
  5
6
330
0
100
AcDbSymbolTable
 70
     0
  0
ENDTAB
  0
TABLE
  2
UCS
  5
7
330
0
100
AcDbSymbolTable
 70
     0
  0
ENDTAB
  0
TABLE
  2
APPID
  5
9
330
0
100
AcDbSymbolTable
 70
     1
  0
APPID
  5
12
330
9
100
AcDbSymbolTableRecord
100
AcDbRegAppTableRecord
  2
ACAD
 70
     0
  0
ENDTAB
  0
TABLE
  2
DIMSTYLE
  5
A
330
0
100
AcDbSymbolTable
 70
     1
100
AcDbDimStyleTable
  0
DIMSTYLE
105
27
330
A
100
AcDbSymbolTableRecord
100
AcDbDimStyleTableRecord
  2
ISO-25
 70
     0
 41
2.5
 42
0.625
 43
3.75
 44
1.25
 73
     0
 74
     0
 77
     1
 78
     8
140
2.5
141
2.5
143
0.03937007874016
147
0.625
171
     3
172
     1
178
     0
271
     2
272
     2
274
     3
278
    44
283
     0
284
     8
340
11
  0
ENDTAB
  0
TABLE
  2
BLOCK_RECORD
  5
1
330
0
100
AcDbSymbolTable
 70
     5
  0
BLOCK_RECORD
  5
1F
330
1
100
AcDbSymbolTableRecord
100
AcDbBlockTableRecord
  2
*Model_Space
340
22
 70
     0
280
     1
281
     0
  0
BLOCK_RECORD
  5
1B
330
1
100
AcDbSymbolTableRecord
100
AcDbBlockTableRecord
  2
*Paper_Space
340
1E
 70
     0
280
     1
281
     0
  0
BLOCK_RECORD
  5
23
330
1
100
AcDbSymbolTableRecord
100
AcDbBlockTableRecord
  2
*Paper_Space0
340
26
 70
     0
280
     1
281
     0
  0
BLOCK_RECORD
  5
6E
330
1
100
AcDbSymbolTableRecord
100
AcDbBlockTableRecord
  2
1_064943_4
340
0
102
{BLKREFS
331
6F
102
}
 70
     0
280
     1
281
     0
  0
BLOCK_RECORD
  5
88
330
1
100
AcDbSymbolTableRecord
100
AcDbBlockTableRecord
  2
2_430026m_0_in_064943_4
340
0
102
{BLKREFS
331
89
102
}
 70
     0
280
     1
281
     0
  0
BLOCK_RECORD
  5
A5
330
1
100
AcDbSymbolTableRecord
100
AcDbBlockTableRecord
  2
3_125804_0_in_064943_4
340
0
102
{BLKREFS
331
A6
102
}
 70
     0
280
     1
281
     0
  0
BLOCK_RECORD
  5
FB
330
1
100
AcDbSymbolTableRecord
100
AcDbBlockTableRecord
  2
4_64943H_0_in_064943_4
340
0
102
{BLKREFS
331
FC
102
}
 70
     0
280
     1
281
     0
  0
ENDTAB
  0
ENDSEC
  0
SECTION
  2
BLOCKS
  0
BLOCK
  5
20
330
1F
100
AcDbEntity
  8
0
100
AcDbBlockBegin
  2
*Model_Space
 70
     0
 10
0.0
 20
0.0
 30
0.0
  3
*Model_Space
  1

  0
ENDBLK
  5
21
330
1F
100
AcDbEntity
  8
0
100
AcDbBlockEnd
  0
BLOCK
  5
1C
330
1B
100
AcDbEntity
 67
     1
  8
0
100
AcDbBlockBegin
  2
*Paper_Space
 70
     0
 10
0.0
 20
0.0
 30
0.0
  3
*Paper_Space
  1

  0
ENDBLK
  5
1D
330
1B
100
AcDbEntity
 67
     1
  8
0
100
AcDbBlockEnd
  0
BLOCK
  5
24
330
23
100
AcDbEntity
  8
0
100
AcDbBlockBegin
  2
*Paper_Space0
 70
     0
 10
0.0
 20
0.0
 30
0.0
  3
*Paper_Space0
  1

  0
ENDBLK
  5
25
330
23
100
AcDbEntity
  8
0
100
AcDbBlockEnd
  0
BLOCK
  5
70
330
6E
100
AcDbEntity
  8
0
100
AcDbBlockBegin
  2
1_064943_4
 70
     2
 10
0.0
 20
0.0
 30
0.0
  3
1_064943_4
  1

  0
ATTDEF
  5
73
330
6E
100
AcDbEntity
  8
AM_6
100
AcDbText
 10
52.65
 20
1.205
 30
0.0
 40
0.5
  1
Set Screw Four-Bolt Flange Metric Bore
100
AcDbAttributeDefinition
  3

  2
NN
 70
     8
280
     0
  0
ATTDEF
  5
74
330
6E
100
AcDbEntity
  8
AM_6
100
AcDbText
 10
52.65
 20
0.7050000000000003
 30
0.0
 40
0.5
  1
SC 4 Bolt Flange Bearings -(Normal Duty)
100
AcDbAttributeDefinition
  3

  2
NT
 70
     8
280
     0
  0
ATTDEF
  5
75
330
6E
100
AcDbEntity
  8
AM_6
100
AcDbText
 10
52.65
 20
0.2050000000000003
 30
0.0
 40
0.5
  1
064943
100
AcDbAttributeDefinition
  3

  2
NB
 70
     8
280
     0
  0
ATTDEF
  5
76
330
6E
100
AcDbEntity
  8
AM_6
100
AcDbText
 10
52.65
 20
-0.2949999999999997
 30
0.0
 40
0.5
  1
$PN.
100
AcDbAttributeDefinition
  3

  2
NBSYN
 70
     8
280
     0
  0
ATTDEF
  5
77
330
6E
100
AcDbEntity
  8
AM_6
100
AcDbText
 10
52.65
 20
-0.7949999999999997
 30
0.0
 40
0.5
  1
064943
100
AcDbAttributeDefinition
  3

  2
LINA
 70
     8
280
     0
  0
ATTDEF
  5
78
330
6E
100
AcDbEntity
  8
AM_6
100
AcDbText
 10
52.65
 20
-1.295
 30
0.0
 40
0.5
  1
205
100
AcDbAttributeDefinition
  3

  2
SERIES
 70
     8
280
     0
  0
ATTDEF
  5
79
330
6E
100
AcDbEntity
  8
AM_6
100
AcDbText
 10
52.65
 20
-1.795
 30
0.0
 40
0.5
  1
25
100
AcDbAttributeDefinition
  3

  2
SS
 70
     8
280
     0
  0
ATTDEF
  5
7A
330
6E
100
AcDbEntity
  8
AM_6
100
AcDbText
 10
52.65
 20
-2.295
 30
0.0
 40
0.5
  1
064943
100
AcDbAttributeDefinition
  3

  2
PN
 70
     8
280
     0
  0
ATTDEF
  5
7B
330
6E
100
AcDbEntity
  8
AM_6
100
AcDbText
 10
52.65
 20
-2.795
 30
0.0
 40
0.5
  1
F4B-SC-25M-NL
100
AcDbAttributeDefinition
  3

  2
DESCRIPTION
 70
     8
280
     0
  0
ATTDEF
  5
7C
330
6E
100
AcDbEntity
  8
AM_6
100
AcDbText
 10
52.65
 20
-3.295
 30
0.0
 40
0.5
  1
0.9
100
AcDbAttributeDefinition
  3

  2
WEIGHT
 70
     8
280
     0
  0
ATTDEF
  5
7D
330
6E
100
AcDbEntity
  8
AM_6
100
AcDbText
 10
52.65
 20
-3.795
 30
0.0
 40
0.5
  1
NO-LUBE
100
AcDbAttributeDefinition
  3

  2
LF
 70
     8
280
     0
  0
ATTDEF
  5
7E
330
6E
100
AcDbEntity
  8
AM_6
100
AcDbText
 10
52.65
 20
-4.295
 30
0.0
 40
0.5
  1
34.0
100
AcDbAttributeDefinition
  3

  2
A
 70
     8
280
     0
  0
ATTDEF
  5
7F
330
6E
100
AcDbEntity
  8
AM_6
100
AcDbText
 10
52.65
 20
-4.795
 30
0.0
 40
0.5
  1
95.3
100
AcDbAttributeDefinition
  3

  2
B
 70
     8
280
     0
  0
ATTDEF
  5
80
330
6E
100
AcDbEntity
  8
AM_6
100
AcDbText
 10
52.65
 20
-5.295
 30
0.0
 40
0.5
  1
34.8
100
AcDbAttributeDefinition
  3

  2
C
 70
     8
280
     0
  0
ATTDEF
  5
81
330
6E
100
AcDbEntity
  8
AM_6
100
AcDbText
 10
52.65
 20
-5.795
 30
0.0
 40
0.5
  1
69.9
100
AcDbAttributeDefinition
  3

  2
D
 70
     8
280
     0
  0
ATTDEF
  5
82
330
6E
100
AcDbEntity
  8
AM_6
100
AcDbText
 10
52.65
 20
-6.295
 30
0.0
 40
0.5
  1
M10
100
AcDbAttributeDefinition
  3

  2
F
 70
     8
280
     0
  0
ATTDEF
  5
83
330
6E
100
AcDbEntity
  8
AM_6
100
AcDbText
 10
52.65
 20
-6.795
 30
0.0
 40
0.5
  1
12.7
100
AcDbAttributeDefinition
  3

  2
H
 70
     8
280
     0
  0
ATTDEF
  5
84
330
6E
100
AcDbEntity
  8
AM_6
100
AcDbText
 10
52.65
 20
-7.295
 30
0.0
 40
0.5
  1
10.7
100
AcDbAttributeDefinition
  3

  2
J
 70
     8
280
     0
  0
ATTDEF
  5
85
330
6E
100
AcDbEntity
  8
AM_6
100
AcDbText
 10
52.65
 20
-7.795
 30
0.0
 40
0.5
  1
33.5
100
AcDbAttributeDefinition
  3

  2
L
 70
     8
280
     0
  0
ATTDEF
  5
86
330
6E
100
AcDbEntity
  8
AM_6
100
AcDbText
 10
52.65
 20
-8.295
 30
0.0
 40
0.5
  1
52.3
100
AcDbAttributeDefinition
  3

  2
N
 70
     8
280
     0
  0
ATTDEF
  5
87
330
6E
100
AcDbEntity
  8
AM_6
100
AcDbText
 10
52.65
 20
-8.795
 30
0.0
 40
0.5
  1
baldor
100
AcDbAttributeDefinition
  3

  2
COMPANY
 70
     8
280
     0
  0
INSERT
  5
89
330
6E
100
AcDbEntity
  8
0
100
AcDbBlockReference
  2
2_430026m_0_in_064943_4
 10
0.0
 20
0.0
 30
0.0
  0
INSERT
  5
A6
330
6E
100
AcDbEntity
  8
0
100
AcDbBlockReference
  2
3_125804_0_in_064943_4
 10
0.0
 20
0.0
 30
0.0
  0
INSERT
  5
FC
330
6E
100
AcDbEntity
  8
0
100
AcDbBlockReference
  2
4_64943H_0_in_064943_4
 10
0.0
 20
0.0
 30
0.0
  0
ENDBLK
  5
71
330
6E
100
AcDbEntity
  8
0
100
AcDbBlockEnd
  0
BLOCK
  5
8A
330
88
100
AcDbEntity
  8
0
100
AcDbBlockBegin
  2
2_430026m_0_in_064943_4
 70
     2
 10
0.0
 20
0.0
 30
0.0
  3
2_430026m_0_in_064943_4
  1

  0
ATTDEF
  5
8C
330
88
100
AcDbEntity
  8
AM_6
100
AcDbText
 10
10.25
 20
-10.86
 30
0.0
 40
0.5
  1
430026 Plug - Metric
100
AcDbAttributeDefinition
  3

  2
NN
 70
     8
280
     0
  0
ATTDEF
  5
8D
330
88
100
AcDbEntity
  8
AM_6
100
AcDbText
 10
10.25
 20
-11.36
 30
0.0
 40
0.5
  1
Plug
100
AcDbAttributeDefinition
  3

  2
NT
 70
     8
280
     0
  0
ATTDEF
  5
8E
330
88
100
AcDbEntity
  8
AM_6
100
AcDbText
 10
10.25
 20
-11.86
 30
0.0
 40
0.5
  1
430026m
100
AcDbAttributeDefinition
  3

  2
NB
 70
     8
280
     0
  0
ATTDEF
  5
8F
330
88
100
AcDbEntity
  8
AM_6
100
AcDbText
 10
10.25
 20
-12.36
 30
0.0
 40
0.5
  1
$PN.m
100
AcDbAttributeDefinition
  3

  2
NBSYN
 70
     8
280
     0
  0
ATTDEF
  5
90
330
88
100
AcDbEntity
  8
AM_6
100
AcDbText
 10
10.25
 20
-12.86
 30
0.0
 40
0.5
  1
430026m
100
AcDbAttributeDefinition
  3

  2
LINA
 70
     8
280
     0
  0
ATTDEF
  5
91
330
88
100
AcDbEntity
  8
AM_6
100
AcDbText
 10
10.25
 20
-13.36
 30
0.0
 40
0.5
  1
430026
100
AcDbAttributeDefinition
  3

  2
PN
 70
     8
280
     0
  0
ATTDEF
  5
92
330
88
100
AcDbEntity
  8
AM_6
100
AcDbText
 10
10.25
 20
-13.86
 30
0.0
 40
0.5
  1
baldor
100
AcDbAttributeDefinition
  3

  2
COMPANY
 70
     8
280
     0
  0
CIRCLE
  5
95
330
88
100
AcDbEntity
  8
AM_9
100
AcDbCircle
 10
0.0
 20
-15.86
 30
0.0
 40
5.0
  0
LINE
  5
98
330
88
100
AcDbEntity
  8
AM_7
100
AcDbLine
 10
-5.25
 20
-15.86
 30
0.0
 11
5.25
 21
-15.86
 31
0.0
  0
CIRCLE
  5
9A
330
88
100
AcDbEntity
  8
AM_4
100
AcDbCircle
 10
0.0
 20
-15.86
 30
0.0
 40
1.772197253102404
  0
LINE
  5
9B
330
88
100
AcDbEntity
  8
AM_4
100
AcDbLine
 10
-2.35
 20
-14.50322686740438
 30
0.0
 11
0.0
 21
-13.14645373480876
 31
0.0
  0
LINE
  5
9C
330
88
100
AcDbEntity
  8
AM_4
100
AcDbLine
 10
0.0
 20
-13.14645373480876
 30
0.0
 11
2.35
 21
-14.50322686740438
 31
0.0
  0
LINE
  5
9D
330
88
100
AcDbEntity
  8
AM_4
100
AcDbLine
 10
2.35
 20
-14.50322686740438
 30
0.0
 11
2.35
 21
-17.21677313259562
 31
0.0
  0
LINE
  5
9E
330
88
100
AcDbEntity
  8
AM_4
100
AcDbLine
 10
2.35
 20
-17.21677313259562
 30
0.0
 11
0.0
 21
-18.57354626519124
 31
0.0
  0
LINE
  5
9F
330
88
100
AcDbEntity
  8
AM_4
100
AcDbLine
 10
0.0
 20
-18.57354626519124
 30
0.0
 11
-2.35
 21
-17.21677313259562
 31
0.0
  0
LINE
  5
A0
330
88
100
AcDbEntity
  8
AM_4
100
AcDbLine
 10
-2.35
 20
-17.21677313259562
 30
0.0
 11
-2.35
 21
-14.50322686740438
 31
0.0
  0
CIRCLE
  5
A1
330
88
100
AcDbEntity
  8
AM_4
100
AcDbCircle
 10
0.0
 20
-15.86
 30
0.0
 40
2.768600000000001
  0
CIRCLE
  5
A2
330
88
100
AcDbEntity
  8
AM_4
100
AcDbCircle
 10
-0.0000000000000002
 20
-15.86000000000001
 30
0.0
 40
2.349999999999991
  0
CIRCLE
  5
A4
330
88
100
AcDbEntity
  8
AM_5
100
AcDbCircle
 10
-0.0000000000000003
 20
-15.86
 30
0.0
 40
4.079999999999999
  0
ENDBLK
  5
8B
330
88
100
AcDbEntity
  8
0
100
AcDbBlockEnd
  0
BLOCK
  5
A7
330
A5
100
AcDbEntity
  8
0
100
AcDbBlockBegin
  2
3_125804_0_in_064943_4
 70
     2
 10
0.0
 20
0.0
 30
0.0
  3
3_125804_0_in_064943_4
  1

  0
ATTDEF
  5
A9
330
A5
100
AcDbEntity
  8
AM_6
100
AcDbText
 10
30.9898208311046
 20
-0.7999999999999934
 30
0.0
 40
0.5
  1
Set Screw Insert Metric Bore - Stainless Steel
100
AcDbAttributeDefinition
  3

  2
NN
 70
     8
280
     0
  0
ATTDEF
  5
AA
330
A5
100
AcDbEntity
  8
AM_6
100
AcDbText
 10
30.9898208311046
 20
-1.299999999999993
 30
0.0
 40
0.5
  1
SC Bearing Insert -Metric
100
AcDbAttributeDefinition
  3

  2
NT
 70
     8
280
     0
  0
ATTDEF
  5
AB
330
A5
100
AcDbEntity
  8
AM_6
100
AcDbText
 10
30.9898208311046
 20
-1.799999999999993
 30
0.0
 40
0.5
  1
125804
100
AcDbAttributeDefinition
  3

  2
NB
 70
     8
280
     0
  0
ATTDEF
  5
AC
330
A5
100
AcDbEntity
  8
AM_6
100
AcDbText
 10
30.9898208311046
 20
-2.299999999999994
 30
0.0
 40
0.5
  1
$PN.
100
AcDbAttributeDefinition
  3

  2
NBSYN
 70
     8
280
     0
  0
ATTDEF
  5
AD
330
A5
100
AcDbEntity
  8
AM_6
100
AcDbText
 10
30.9898208311046
 20
-2.799999999999994
 30
0.0
 40
0.5
  1
125804
100
AcDbAttributeDefinition
  3

  2
LINA
 70
     8
280
     0
  0
ATTDEF
  5
AE
330
A5
100
AcDbEntity
  8
AM_6
100
AcDbText
 10
30.9898208311046
 20
-3.299999999999994
 30
0.0
 40
0.5
  1
205
100
AcDbAttributeDefinition
  3

  2
SERIES
 70
     8
280
     0
  0
ATTDEF
  5
AF
330
A5
100
AcDbEntity
  8
AM_6
100
AcDbText
 10
30.9898208311046
 20
-3.799999999999994
 30
0.0
 40
0.5
  1
25
100
AcDbAttributeDefinition
  3

  2
SS
 70
     8
280
     0
  0
ATTDEF
  5
B0
330
A5
100
AcDbEntity
  8
AM_6
100
AcDbText
 10
30.9898208311046
 20
-4.299999999999994
 30
0.0
 40
0.5
  1
125804
100
AcDbAttributeDefinition
  3

  2
PN
 70
     8
280
     0
  0
ATTDEF
  5
B1
330
A5
100
AcDbEntity
  8
AM_6
100
AcDbText
 10
30.9898208311046
 20
-4.799999999999994
 30
0.0
 40
0.5
  1
INS-SC-25
100
AcDbAttributeDefinition
  3

  2
DESCRIPTION
 70
     8
280
     0
  0
ATTDEF
  5
B2
330
A5
100
AcDbEntity
  8
AM_6
100
AcDbText
 10
30.9898208311046
 20
-5.299999999999994
 30
0.0
 40
0.5
  1
0.18
100
AcDbAttributeDefinition
  3

  2
WEIGHT
 70
     8
280
     0
  0
ATTDEF
  5
B3
330
A5
100
AcDbEntity
  8
AM_6
100
AcDbText
 10
30.9898208311046
 20
-5.799999999999994
 30
0.0
 40
0.5
  1
34.0
100
AcDbAttributeDefinition
  3

  2
A
 70
     8
280
     0
  0
ATTDEF
  5
B4
330
A5
100
AcDbEntity
  8
AM_6
100
AcDbText
 10
30.9898208311046
 20
-6.299999999999994
 30
0.0
 40
0.5
  1
15.0
100
AcDbAttributeDefinition
  3

  2
C
 70
     8
280
     0
  0
ATTDEF
  5
B5
330
A5
100
AcDbEntity
  8
AM_6
100
AcDbText
 10
30.9898208311046
 20
-6.799999999999994
 30
0.0
 40
0.5
  1
52
100
AcDbAttributeDefinition
  3

  2
D
 70
     8
280
     0
  0
ATTDEF
  5
B6
330
A5
100
AcDbEntity
  8
AM_6
100
AcDbText
 10
30.9898208311046
 20
-7.299999999999994
 30
0.0
 40
0.5
  1
4.1
100
AcDbAttributeDefinition
  3

  2
J
 70
     8
280
     0
  0
ATTDEF
  5
B7
330
A5
100
AcDbEntity
  8
AM_6
100
AcDbText
 10
30.9898208311046
 20
-7.799999999999994
 30
0.0
 40
0.5
  1
33.5
100
AcDbAttributeDefinition
  3

  2
L
 70
     8
280
     0
  0
ATTDEF
  5
B8
330
A5
100
AcDbEntity
  8
AM_6
100
AcDbText
 10
30.9898208311046
 20
-8.299999999999994
 30
0.0
 40
0.5
  1
M6 x 1
100
AcDbAttributeDefinition
  3

  2
N
 70
     8
280
     0
  0
ATTDEF
  5
B9
330
A5
100
AcDbEntity
  8
AM_6
100
AcDbText
 10
30.9898208311046
 20
-8.799999999999994
 30
0.0
 40
0.5
  1
14.2
100
AcDbAttributeDefinition
  3

  2
W
 70
     8
280
     0
  0
ATTDEF
  5
BA
330
A5
100
AcDbEntity
  8
AM_6
100
AcDbText
 10
30.9898208311046
 20
-9.299999999999994
 30
0.0
 40
0.5
  1
19.8
100
AcDbAttributeDefinition
  3

  2
Y
 70
     8
280
     0
  0
ATTDEF
  5
BB
330
A5
100
AcDbEntity
  8
AM_6
100
AcDbText
 10
30.9898208311046
 20
-9.799999999999994
 30
0.0
 40
0.5
  1
baldor
100
AcDbAttributeDefinition
  3

  2
COMPANY
 70
     8
280
     0
  0
LINE
  5
BC
330
A5
100
AcDbEntity
  8
AM_9
100
AcDbLine
 10
-25.88636363636363
 20
-12.4
 30
0.0
 11
-25.82491644490576
 21
-12.4
 31
0.0
  0
LINE
  5
BD
330
A5
100
AcDbEntity
  8
AM_9
100
AcDbLine
 10
-25.17951831587445
 20
-9.399999999999995
 30
0.0
 11
-25.88636363636363
 21
-9.399999999999995
 31
0.0
  0
LINE
  5
BE
330
A5
100
AcDbEntity
  8
AM_9
100
AcDbLine
 10
-27.25
 20
-10.76363636363636
 30
0.0
 11
-27.25
 21
-11.03636363636364
 31
0.0
  0
ARC
  5
BF
330
A5
100
AcDbEntity
  8
AM_9
100
AcDbCircle
 10
-25.88636363636363
 20
-11.03636363636363
 30
0.0
 40
1.363636363636367
100
AcDbArc
 50
180.0
 51
270.0
  0
ARC
  5
C0
330
A5
100
AcDbEntity
  8
AM_9
100
AcDbCircle
 10
-25.88636363636363
 20
-10.76363636363636
 30
0.0
 40
1.363636363636365
100
AcDbArc
 50
90.0
 51
180.0
  0
LINE
  5
C1
330
A5
100
AcDbEntity
  8
AM_9
100
AcDbLine
 10
-25.88636363636363
 20
-9.399999999999995
 30
0.0
 11
-25.88636363636363
 21
-12.4
 31
0.0
  0
LINE
  5
C2
330
A5
100
AcDbEntity
  8
AM_9
100
AcDbLine
 10
11.32736042923629
 20
-31.1085
 30
0.0
 11
14.93518513871691
 21
-31.1085
 31
0.0
  0
LINE
  5
C3
330
A5
100
AcDbEntity
  8
AM_9
100
AcDbLine
 10
14.93518513871691
 20
-26.19149999999999
 30
0.0
 11
11.32823466765775
 21
-26.19149999999999
 31
0.0
  0
LWPOLYLINE
  5
C4
330
A5
100
AcDbEntity
  8
AM_9
100
AcDbPolyline
 90
       21
 70
     0
 43
0.0
 10
11.3287710543223
 20
-31.10849999337398
 10
11.43708432725571
 20
-31.09449964887007
 10
11.59041360574163
 20
-31.01940830795396
 10
11.72984901011183
 20
-30.8766738714626
 10
11.84648282873371
 20
-30.67686054412403
 10
11.94538336427337
 20
-30.41519842914395
 10
12.02257853410266
 20
-30.10746404993347
 10
12.08160873290631
 20
-29.74858034099108
 10
12.12034755950946
 20
-29.3676940132544
 10
12.14201990294994
 20
-28.95396990296071
 10
12.14608648985945
 20
-28.55003417597758
 10
12.13344061769922
 20
-28.1371774253268
 10
12.10474646490168
 20
-27.7538569830941
 10
12.05750598108148
 20
-27.38508235992557
 10
11.99233943848622
 20
-27.05677898951704
 10
11.90494116319116
 20
-26.76431135599491
 10
11.79773424753364
 20
-26.52838622100006
 10
11.66563229072347
 20
-26.34700731118077
 10
11.51832344151471
 20
-26.23627269407716
 10
11.34903025257111
 20
-26.19196772726819
 10
11.328938687997
 20
-26.19150000950247
  0
LWPOLYLINE
  5
C5
330
A5
100
AcDbEntity
  8
AM_9
100
AcDbPolyline
 90
       11
 70
     0
 43
0.0
 10
11.328938687997
 20
-26.19150000950247
 10
11.17481404040238
 20
-26.21708164700159
 10
10.98821782373555
 20
-26.31088784788658
 10
10.806463211895
 20
-26.46498342002954
 10
10.62601356262581
 20
-26.68358319544943
 10
10.46154611907239
 20
-26.95339833502006
 10
10.3143351004761
 20
-27.279173927536
 10
10.19850436236258
 20
-27.63788378658611
 10
10.1152174547535
 20
-28.03729699862608
 10
10.08051704378547
 20
-28.33857904304329
 10
10.06856228285847
 20
-28.65
  0
ELLIPSE
  5
C6
330
A5
100
AcDbEntity
  8
AM_9
100
AcDbEllipse
 10
14.93518513871691
 20
-28.64999999999999
 30
0.0
 11
-4.516191233555679E-16
 21
-2.458500000000015
 31
0.0
210
0.0
220
0.0
230
1.0
 40
0.4226182617406963
 41
3.527557220636986
 42
5.858330968489474
  0
LINE
  5
C7
330
A5
100
AcDbEntity
  8
AM_9
100
AcDbLine
 10
14.45068821937723
 20
-30.82484469477621
 30
0.0
 11
14.60684866404506
 21
-31.01962152262691
 31
0.0
  0
LINE
  5
C8
330
A5
100
AcDbEntity
  8
AM_9
100
AcDbLine
 10
14.60857975996333
 20
-26.27821930465567
 30
0.0
 11
14.45068821937723
 21
-26.47515530522378
 31
0.0
  0
LWPOLYLINE
  5
C9
330
A5
100
AcDbEntity
  8
AM_9
100
AcDbPolyline
 90
       11
 70
     0
 43
0.0
 10
10.06856228285847
 20
-28.65
 10
10.08856047178986
 20
-29.05240605087863
 10
10.14973498502878
 20
-29.45481210175727
 10
10.24528571193377
 20
-29.82324378687024
 10
10.37548400349201
 20
-30.16874773870063
 10
10.52889564206261
 20
-30.4667073956259
 10
10.7053906680942
 20
-30.72130896990199
 10
10.8890808639902
 20
-30.91280960520366
 10
11.08142027261827
 20
-31.04418130149535
 10
11.26177297408809
 20
-31.10350694465665
 10
11.3287710543223
 20
-31.10849999337398
  0
LINE
  5
CA
330
A5
100
AcDbEntity
  8
AM_9
100
AcDbLine
 10
12.5
 20
-34.13
 30
0.0
 11
12.5
 21
-1.469999999999992
 31
0.0
  0
LINE
  5
CB
330
A5
100
AcDbEntity
  8
AM_9
100
AcDbLine
 10
-12.5
 20
-1.469999999999992
 30
0.0
 11
-12.5
 21
-34.13
 31
0.0
  0
LINE
  5
CC
330
A5
100
AcDbEntity
  8
AM_9
100
AcDbLine
 10
12.5
 20
-1.469999999999992
 30
0.0
 11
13.17
 21
-0.7999999999999934
 31
0.0
  0
LINE
  5
CD
330
A5
100
AcDbEntity
  8
AM_9
100
AcDbLine
 10
-13.17
 20
-0.7999999999999934
 30
0.0
 11
-12.5
 21
-1.469999999999992
 31
0.0
  0
LINE
  5
CE
330
A5
100
AcDbEntity
  8
AM_9
100
AcDbLine
 10
-12.5
 20
-34.13
 30
0.0
 11
-13.17
 21
-34.8
 31
0.0
  0
LINE
  5
CF
330
A5
100
AcDbEntity
  8
AM_9
100
AcDbLine
 10
13.17
 20
-34.8
 30
0.0
 11
12.5
 21
-34.13
 31
0.0
  0
LINE
  5
D0
330
A5
100
AcDbEntity
  8
AM_9
100
AcDbLine
 10
-16.08
 20
-0.7999999999999934
 30
0.0
 11
16.08
 21
-0.7999999999999934
 31
0.0
  0
LINE
  5
D1
330
A5
100
AcDbEntity
  8
AM_9
100
AcDbLine
 10
-16.08
 20
-0.7999999999999934
 30
0.0
 11
-16.75
 21
-1.469999999999992
 31
0.0
  0
LINE
  5
D2
330
A5
100
AcDbEntity
  8
AM_9
100
AcDbLine
 10
16.75
 20
-1.469999999999992
 30
0.0
 11
16.08
 21
-0.7999999999999934
 31
0.0
  0
LINE
  5
D3
330
A5
100
AcDbEntity
  8
AM_9
100
AcDbLine
 10
16.75000000000002
 20
-24.1
 30
0.0
 11
16.75000000000002
 21
-22.49999999999999
 31
0.0
  0
LINE
  5
D4
330
A5
100
AcDbEntity
  8
AM_9
100
AcDbLine
 10
-16.75000000000002
 20
-22.49999999999999
 30
0.0
 11
-16.75000000000002
 21
-24.1
 31
0.0
  0
LINE
  5
D5
330
A5
100
AcDbEntity
  8
AM_9
100
AcDbLine
 10
-16.75
 20
-1.469999999999992
 30
0.0
 11
16.75000000000002
 21
-1.469999999999992
 31
0.0
  0
LINE
  5
D6
330
A5
100
AcDbEntity
  8
AM_9
100
AcDbLine
 10
16.75000000000002
 20
-7.499999999999996
 30
0.0
 11
16.75000000000002
 21
-1.469999999999992
 31
0.0
  0
LINE
  5
D7
330
A5
100
AcDbEntity
  8
AM_9
100
AcDbLine
 10
-16.75000000000002
 20
-1.469999999999992
 30
0.0
 11
-16.75000000000002
 21
-7.499999999999996
 31
0.0
  0
LINE
  5
D8
330
A5
100
AcDbEntity
  8
AM_9
100
AcDbLine
 10
24.5
 20
-19.68999999999999
 30
0.0
 11
24.5
 21
-17.69
 31
0.0
  0
LINE
  5
D9
330
A5
100
AcDbEntity
  8
AM_9
100
AcDbLine
 10
-24.5
 20
-17.69
 30
0.0
 11
-24.5
 21
-19.68999999999999
 31
0.0
  0
LINE
  5
DA
330
A5
100
AcDbEntity
  8
AM_9
100
AcDbLine
 10
-24.09545395833821
 20
-22.5
 30
0.0
 11
24.0954539582617
 21
-22.5
 31
0.0
  0
ARC
  5
DB
330
A5
100
AcDbEntity
  8
AM_9
100
AcDbCircle
 10
24.09545395833821
 20
-21.9
 30
0.0
 40
0.600000000000005
100
AcDbArc
 50
270.0
 51
338.5875329531161
  0
ARC
  5
DC
330
A5
100
AcDbEntity
  8
AM_9
100
AcDbCircle
 10
-24.09545395833821
 20
-21.9
 30
0.0
 40
0.6000000000000031
100
AcDbArc
 50
201.4124670468839
 51
270.0
  0
LINE
  5
DD
330
A5
100
AcDbEntity
  8
AM_9
100
AcDbLine
 10
-24.09545395833821
 20
-7.499999999999996
 30
0.0
 11
24.0954539582617
 21
-7.499999999999996
 31
0.0
  0
ARC
  5
DE
330
A5
100
AcDbEntity
  8
AM_9
100
AcDbCircle
 10
24.09545395833821
 20
-8.10000000000001
 30
0.0
 40
0.6000000000000129
100
AcDbArc
 50
21.41246704688531
 51
90.0
  0
ARC
  5
DF
330
A5
100
AcDbEntity
  8
AM_9
100
AcDbCircle
 10
-24.09545395833821
 20
-8.100000000000009
 30
0.0
 40
0.6000000000000121
100
AcDbArc
 50
90.0
 51
158.5875329531148
  0
LINE
  5
E0
330
A5
100
AcDbEntity
  8
AM_9
100
AcDbLine
 10
-24.65403979828546
 20
-22.11904761904761
 30
0.0
 11
24.65403979828546
 21
-22.11904761904761
 31
0.0
  0
LINE
  5
E1
330
A5
100
AcDbEntity
  8
AM_9
100
AcDbLine
 10
-25.42759625520367
 20
-19.68999999999999
 30
0.0
 11
25.42759625520367
 21
-19.68999999999999
 31
0.0
  0
ARC
  5
E2
330
A5
100
AcDbEntity
  8
AM_9
100
AcDbCircle
 10
6.500000000000409
 20
-15.00000000000012
 30
0.0
 40
19.49999999999957
100
AcDbArc
 50
338.5875329531158
 51
346.0831905891927
  0
ARC
  5
E3
330
A5
100
AcDbEntity
  8
AM_9
100
AcDbCircle
 10
-6.500000000001521
 20
-15.00000000000047
 30
0.0
 40
19.49999999999841
100
AcDbArc
 50
193.916809410807
 51
201.4124670468844
  0
LINE
  5
E4
330
A5
100
AcDbEntity
  8
AM_9
100
AcDbLine
 10
-25.81356776983476
 20
-17.69
 30
0.0
 11
25.81356776983476
 21
-17.69
 31
0.0
  0
LINE
  5
E5
330
A5
100
AcDbEntity
  8
AM_9
100
AcDbLine
 10
-24.65403979828546
 20
-7.880952380952374
 30
0.0
 11
24.65403979828546
 21
-7.880952380952374
 31
0.0
  0
ARC
  5
E6
330
A5
100
AcDbEntity
  8
AM_9
100
AcDbCircle
 10
6.500000000000114
 20
-14.99999999999999
 30
0.0
 40
19.49999999999989
100
AcDbArc
 50
352.0708352668855
 51
21.41246704688418
  0
ARC
  5
E7
330
A5
100
AcDbEntity
  8
AM_9
100
AcDbCircle
 10
-6.49999999999778
 20
-15.00000000000082
 30
0.0
 40
19.50000000000237
100
AcDbArc
 50
158.587532953116
 51
163.3225078066618
  0
ARC
  5
E8
330
A5
100
AcDbEntity
  8
AM_9
100
AcDbCircle
 10
-6.499999999885642
 20
-14.99999999999974
 30
0.0
 40
19.5000000001133
100
AcDbArc
 50
172.3226589264049
 51
187.9291647330689
  0
LINE
  5
E9
330
A5
100
AcDbEntity
  8
AM_9
100
AcDbLine
 10
-25.63234833730331
 20
-11.43148661015747
 30
0.0
 11
-25.82588937151403
 21
-12.39999999999983
 31
0.0
  0
LWPOLYLINE
  5
EA
330
A5
100
AcDbEntity
  8
AM_9
100
AcDbPolyline
 90
       14
 70
     0
 43
0.0
 10
-25.17859737775824
 20
-9.40000000004422
 10
-25.17892237790504
 20
-9.401352914566358
 10
-25.18652295066659
 20
-9.433030436744536
 10
-25.20311246183222
 20
-9.502424741381516
 10
-25.22897073278832
 20
-9.611289245874774
 10
-25.26213959339293
 20
-9.752197880933567
 10
-25.30296137054609
 20
-9.927613067887776
 10
-25.34901958260107
 20
-10.1282430076218
 10
-25.40037748919193
 20
-10.35545730676126
 10
-25.45399586149596
 20
-10.59674815154887
 10
-25.51002556571536
 20
-10.85351370267851
 10
-25.56449695696179
 20
-11.10785605743592
 10
-25.6182810094738
 20
-11.36375051621622
 10
-25.63234833730331
 20
-11.43148661015747
  0
LINE
  5
EB
330
A5
100
AcDbEntity
  8
AM_7
100
AcDbLine
 10
-2.581425000000001
 20
-28.65
 30
0.0
 11
2.581425000000004
 21
-28.65
 31
0.0
  0
LINE
  5
EC
330
A5
100
AcDbEntity
  8
AM_7
100
AcDbLine
 10
-27.775
 20
-10.9
 30
0.0
 11
-16.225
 21
-10.9
 31
0.0
  0
ELLIPSE
  5
ED
330
A5
100
AcDbEntity
  8
AM_4
100
AcDbEllipse
 10
14.93518513871691
 20
-28.65
 30
0.0
 11
-4.516191233555660E-16
 21
-2.458500000000004
 31
0.0
210
0.0
220
0.0
230
1.0
 40
0.4226182617406989
 41
5.858330968489474
 42
9.81074252781657
  0
LWPOLYLINE
  5
EE
330
A5
100
AcDbEntity
  8
AM_4
100
AcDbPolyline
 90
       14
 70
     0
 43
0.0
 10
14.60937132319045
 20
-31.02276793412384
 10
14.5513171466255
 20
-30.94619377898176
 10
14.39066119230004
 20
-30.68615112454544
 10
14.24797024021554
 20
-30.37982315074883
 10
14.12032973818406
 20
-30.0086470200979
 10
14.02328283578816
 20
-29.60435910921013
 10
13.9580636590557
 20
-29.14982427896283
 10
13.93386945458105
 20
-28.682051621826
 10
13.95359984297436
 20
-28.19875836260676
 10
14.01714636793638
 20
-27.72816710570191
 10
14.12272695231117
 20
-27.28332811151627
 10
14.26504003231897
 20
-26.8786714078268
 10
14.43300468045781
 20
-26.53800318093668
 10
14.60957233999056
 20
-26.27698127446565
  0
LWPOLYLINE
  5
EF
330
A5
100
AcDbEntity
  8
AM_4
100
AcDbPolyline
 90
        6
 70
     0
 43
0.0
 10
14.60957233999056
 20
-26.27698127446565
 10
14.62261665312639
 20
-26.26091318711699
 10
14.81212163434845
 20
-26.07115249105235
 10
15.00563112117527
 20
-25.95559562367589
 10
15.11940126824486
 20
-25.92510367456255
 10
15.23028504774831
 20
-25.92363815469306
  0
LINE
  5
F0
330
A5
100
AcDbEntity
  8
AM_4
100
AcDbLine
 10
-16.08
 20
-34.8
 30
0.0
 11
16.08
 21
-34.8
 31
0.0
  0
LINE
  5
F1
330
A5
100
AcDbEntity
  8
AM_4
100
AcDbLine
 10
16.08
 20
-34.8
 30
0.0
 11
16.75
 21
-34.13
 31
0.0
  0
LINE
  5
F2
330
A5
100
AcDbEntity
  8
AM_4
100
AcDbLine
 10
-16.75
 20
-34.13
 30
0.0
 11
-16.08
 21
-34.8
 31
0.0
  0
CIRCLE
  5
F3
330
A5
100
AcDbEntity
  8
AM_4
100
AcDbCircle
 10
0.000000000000002
 20
-28.65
 30
0.0
 40
2.458500000000002
  0
LINE
  5
F4
330
A5
100
AcDbEntity
  8
AM_4
100
AcDbLine
 10
-16.75
 20
-34.13
 30
0.0
 11
16.75000000000002
 21
-34.13
 31
0.0
  0
LWPOLYLINE
  5
F5
330
A5
100
AcDbEntity
  8
AM_4
100
AcDbPolyline
 90
       39
 70
     0
 43
0.0
 10
-1.827023452207703
 20
-26.75903150398016
 10
-1.550102159268445
 20
-26.49145628746973
 10
-1.228700974739312
 20
-26.2635109104608
 10
-0.8425103187702928
 20
-26.07624359919488
 10
-0.4147636925574149
 20
-25.95754869044537
 10
-0.0159470140916454
 20
-25.92070767704026
 10
0.3957126320035473
 20
-25.95421687455111
 10
0.7704674187270715
 20
-26.05014474414805
 10
1.134166596802676
 20
-26.20978844738817
 10
1.467716379399022
 20
-26.42568020264581
 10
1.770636575578844
 20
-26.69790112069124
 10
2.038010781259484
 20
-27.02765188868741
 10
2.25588084934533
 20
-27.40477095130042
 10
2.418408085807249
 20
-27.82939285414418
 10
2.513566243175421
 20
-28.28677199803195
 10
2.534124400199822
 20
-28.76071327369893
 10
2.474998288528166
 20
-29.24486800654651
 10
2.338669023780907
 20
-29.70417216990354
 10
2.119943703461898
 20
-30.1460119476731
 10
1.841861445902006
 20
-30.52422734223697
 10
1.48987255313802
 20
-30.85717173681486
 10
1.117693735034751
 20
-31.0990204224163
 10
0.6933774109020174
 20
-31.27495575287998
 10
0.2923870026766344
 20
-31.36107309710944
 10
-0.1309585527195604
 20
-31.37569034529774
 10
-0.5159237938350865
 20
-31.32204702182473
 10
-0.8971235645687435
 20
-31.20222285154512
 10
-1.24648693943594
 20
-31.02575968929035
 10
-1.571561320023065
 20
-30.7904794463925
 10
-1.864820540241138
 20
-30.49775516348478
 10
-2.114893001468994
 20
-30.15425433089804
 10
-2.317164216163981
 20
-29.75765294417755
 10
-2.457699492829923
 20
-29.32254345446192
 10
-2.528778166658726
 20
-28.85849977309743
 10
-2.52334489936107
 20
-28.37590393246451
 10
-2.439312218726275
 20
-27.90420440475925
 10
-2.272622884528061
 20
-27.44044927689187
 10
-2.077606453256039
 20
-27.08681726040725
 10
-1.82702345238983
 20
-26.75903150385861
  0
LWPOLYLINE
  5
F6
330
A5
100
AcDbEntity
  8
AM_4
100
AcDbPolyline
 90
       23
 70
     0
 43
0.0
 10
15.23028504774831
 20
-25.92363815469306
 10
15.39367479897994
 20
-25.97953948863606
 10
15.54260732871638
 20
-26.10284427038419
 10
15.67083855923372
 20
-26.2840279683163
 10
15.78128460491212
 20
-26.51821639557478
 10
15.87829839901052
 20
-26.8168924081267
 10
15.95525986305587
 20
-27.15801658073147
 10
16.01625778674936
 20
-27.56157723313463
 10
16.05603290594724
 20
-27.9924397398946
 10
16.07576439071413
 20
-28.4636904836421
 10
16.07338007740771
 20
-28.93999215479634
 10
16.04793929128446
 20
-29.41803190821128
 10
15.99871073414047
 20
-29.87411127069378
 10
15.92501014147114
 20
-30.29105409053277
 10
15.8255456368075
 20
-30.65917009940622
 10
15.70483059547129
 20
-30.95276794022767
 10
15.55983318769743
 20
-31.17738881126159
 10
15.40501856752262
 20
-31.31365587013346
 10
15.23399617514975
 20
-31.37589452976087
 10
15.06387702891477
 20
-31.36331539565577
 10
14.88885859276031
 20
-31.28425043930508
 10
14.71695150756675
 20
-31.14339056701516
 10
14.60937132319045
 20
-31.02276793412384
  0
LINE
  5
F7
330
A5
100
AcDbEntity
  8
AM_4
100
AcDbLine
 10
16.75000000000002
 20
-34.13
 30
0.0
 11
16.75000000000002
 21
-24.1
 31
0.0
  0
LINE
  5
F8
330
A5
100
AcDbEntity
  8
AM_4
100
AcDbLine
 10
-16.75000000000002
 20
-24.1
 30
0.0
 11
-16.75000000000002
 21
-34.13
 31
0.0
  0
ARC
  5
F9
330
A5
100
AcDbEntity
  8
AM_5
100
AcDbCircle
 10
0.000000000000002
 20
-28.65
 30
0.0
 40
3.0
100
AcDbArc
 50
75.00000000000001
 51
15.00000000000002
  0
ARC
  5
FA
330
A5
100
AcDbEntity
  8
AM_5
100
AcDbCircle
 10
0.0000000000000032
 20
-28.8
 30
0.0
 40
3.0
100
AcDbArc
 50
75.00000000000006
 51
15.00000000000002
  0
ENDBLK
  5
A8
330
A5
100
AcDbEntity
  8
0
100
AcDbBlockEnd
  0
BLOCK
  5
FD
330
FB
100
AcDbEntity
  8
0
100
AcDbBlockBegin
  2
4_64943H_0_in_064943_4
 70
     2
 10
0.0
 20
0.0
 30
0.0
  3
4_64943H_0_in_064943_4
  1

  0
ATTDEF
  5
FF
330
FB
100
AcDbEntity
  8
AM_6
100
AcDbText
 10
52.65
 20
1.205
 30
0.0
 40
0.5
  1
F4B-SC -M-Housing
100
AcDbAttributeDefinition
  3

  2
NN
 70
     8
280
     0
  0
ATTDEF
  5
100
330
FB
100
AcDbEntity
  8
AM_6
100
AcDbText
 10
52.65
 20
0.7050000000000003
 30
0.0
 40
0.5
  1
SC 4 Bolt Flange Bearings -(Normal Duty)
100
AcDbAttributeDefinition
  3

  2
NT
 70
     8
280
     0
  0
ATTDEF
  5
101
330
FB
100
AcDbEntity
  8
AM_6
100
AcDbText
 10
52.65
 20
0.2050000000000003
 30
0.0
 40
0.5
  1
64943H
100
AcDbAttributeDefinition
  3

  2
NB
 70
     8
280
     0
  0
ATTDEF
  5
102
330
FB
100
AcDbEntity
  8
AM_6
100
AcDbText
 10
52.65
 20
-0.2949999999999997
 30
0.0
 40
0.5
  1
$PN.H
100
AcDbAttributeDefinition
  3

  2
NBSYN
 70
     8
280
     0
  0
ATTDEF
  5
103
330
FB
100
AcDbEntity
  8
AM_6
100
AcDbText
 10
52.65
 20
-0.7949999999999997
 30
0.0
 40
0.5
  1
64943
100
AcDbAttributeDefinition
  3

  2
LINA
 70
     8
280
     0
  0
ATTDEF
  5
104
330
FB
100
AcDbEntity
  8
AM_6
100
AcDbText
 10
52.65
 20
-1.295
 30
0.0
 40
0.5
  1
205
100
AcDbAttributeDefinition
  3

  2
SERIES
 70
     8
280
     0
  0
ATTDEF
  5
105
330
FB
100
AcDbEntity
  8
AM_6
100
AcDbText
 10
52.65
 20
-1.795
 30
0.0
 40
0.5
  1
25
100
AcDbAttributeDefinition
  3

  2
SS
 70
     8
280
     0
  0
ATTDEF
  5
106
330
FB
100
AcDbEntity
  8
AM_6
100
AcDbText
 10
52.65
 20
-2.295
 30
0.0
 40
0.5
  1
64943
100
AcDbAttributeDefinition
  3

  2
PN
 70
     8
280
     0
  0
ATTDEF
  5
107
330
FB
100
AcDbEntity
  8
AM_6
100
AcDbText
 10
52.65
 20
-2.795
 30
0.0
 40
0.5
  1
F4B-SC-25M-NL
100
AcDbAttributeDefinition
  3

  2
DESCRIPTION
 70
     8
280
     0
  0
ATTDEF
  5
108
330
FB
100
AcDbEntity
  8
AM_6
100
AcDbText
 10
52.65
 20
-3.295
 30
0.0
 40
0.5
  1
2
100
AcDbAttributeDefinition
  3

  2
LF1
 70
     8
280
     0
  0
ATTDEF
  5
109
330
FB
100
AcDbEntity
  8
AM_6
100
AcDbText
 10
52.65
 20
-3.795
 30
0.0
 40
0.5
  1
34.0
100
AcDbAttributeDefinition
  3

  2
A
 70
     8
280
     0
  0
ATTDEF
  5
10A
330
FB
100
AcDbEntity
  8
AM_6
100
AcDbText
 10
52.65
 20
-4.295
 30
0.0
 40
0.5
  1
15.1
100
AcDbAttributeDefinition
  3

  2
A1
 70
     8
280
     0
  0
ATTDEF
  5
10B
330
FB
100
AcDbEntity
  8
AM_6
100
AcDbText
 10
52.65
 20
-4.795
 30
0.0
 40
0.5
  1
95.3
100
AcDbAttributeDefinition
  3

  2
B
 70
     8
280
     0
  0
ATTDEF
  5
10C
330
FB
100
AcDbEntity
  8
AM_6
100
AcDbText
 10
52.65
 20
-5.295
 30
0.0
 40
0.5
  1
34.8
100
AcDbAttributeDefinition
  3

  2
C
 70
     8
280
     0
  0
ATTDEF
  5
10D
330
FB
100
AcDbEntity
  8
AM_6
100
AcDbText
 10
52.65
 20
-5.795
 30
0.0
 40
0.5
  1
69.9
100
AcDbAttributeDefinition
  3

  2
D
 70
     8
280
     0
  0
ATTDEF
  5
10E
330
FB
100
AcDbEntity
  8
AM_6
100
AcDbText
 10
52.65
 20
-6.295
 30
0.0
 40
0.5
  1
M10
100
AcDbAttributeDefinition
  3

  2
F
 70
     8
280
     0
  0
ATTDEF
  5
10F
330
FB
100
AcDbEntity
  8
AM_6
100
AcDbText
 10
52.65
 20
-6.795
 30
0.0
 40
0.5
  1
11.5
100
AcDbAttributeDefinition
  3

  2
F1
 70
     8
280
     0
  0
ATTDEF
  5
110
330
FB
100
AcDbEntity
  8
AM_6
100
AcDbText
 10
52.65
 20
-7.295
 30
0.0
 40
0.5
  1
12.7
100
AcDbAttributeDefinition
  3

  2
H
 70
     8
280
     0
  0
ATTDEF
  5
111
330
FB
100
AcDbEntity
  8
AM_6
100
AcDbText
 10
52.65
 20
-7.795
 30
0.0
 40
0.5
  1
10.7
100
AcDbAttributeDefinition
  3

  2
J
 70
     8
280
     0
  0
ATTDEF
  5
112
330
FB
100
AcDbEntity
  8
AM_6
100
AcDbText
 10
52.65
 20
-8.295
 30
0.0
 40
0.5
  1
33.5
100
AcDbAttributeDefinition
  3

  2
L
 70
     8
280
     0
  0
ATTDEF
  5
113
330
FB
100
AcDbEntity
  8
AM_6
100
AcDbText
 10
52.65
 20
-8.795
 30
0.0
 40
0.5
  1
52.3
100
AcDbAttributeDefinition
  3

  2
N
 70
     8
280
     0
  0
ATTDEF
  5
114
330
FB
100
AcDbEntity
  8
AM_6
100
AcDbText
 10
52.65
 20
-9.295
 30
0.0
 40
0.5
  1
baldor
100
AcDbAttributeDefinition
  3

  2
COMPANY
 70
     8
280
     0
  0
LINE
  5
115
330
FB
100
AcDbEntity
  8
AM_9
100
AcDbLine
 10
-24.21389064153054
 20
-14.46
 30
0.0
 11
-24.21389064153054
 21
-5.079999999999998
 31
0.0
  0
LINE
  5
116
330
FB
100
AcDbEntity
  8
AM_9
100
AcDbLine
 10
-22.798026230356
 20
-14.46
 30
0.0
 11
-27.25
 21
-14.46
 31
0.0
  0
LINE
  5
117
330
FB
100
AcDbEntity
  8
AM_9
100
AcDbLine
 10
-27.25
 20
-11.03636363636364
 30
0.0
 11
-27.25
 21
-14.46
 31
0.0
  0
LINE
  5
118
330
FB
100
AcDbEntity
  8
AM_9
100
AcDbLine
 10
-27.25
 20
-5.079999999999999
 30
0.0
 11
-27.25
 21
-10.76363636363636
 31
0.0
  0
LINE
  5
119
330
FB
100
AcDbEntity
  8
AM_9
100
AcDbLine
 10
27.25
 20
-14.46
 30
0.0
 11
22.798026230356
 21
-14.46
 31
0.0
  0
LINE
  5
11A
330
FB
100
AcDbEntity
  8
AM_9
100
AcDbLine
 10
24.21389064153053
 20
-14.46
 30
0.0
 11
24.21389064153053
 21
-5.079999999999998
 31
0.0
  0
LINE
  5
11B
330
FB
100
AcDbEntity
  8
AM_9
100
AcDbLine
 10
27.25
 20
-14.46
 30
0.0
 11
27.25
 21
-5.079999999999999
 31
0.0
  0
LINE
  5
11C
330
FB
100
AcDbEntity
  8
AM_9
100
AcDbLine
 10
-22.798026230356
 20
-14.46
 30
0.0
 11
-22.798026230356
 21
-5.079999999999997
 31
0.0
  0
LINE
  5
11D
330
FB
100
AcDbEntity
  8
AM_9
100
AcDbLine
 10
22.798026230356
 20
-5.079999999999997
 30
0.0
 11
22.798026230356
 21
-14.46
 31
0.0
  0
LINE
  5
11E
330
FB
100
AcDbEntity
  8
AM_9
100
AcDbLine
 10
26.0
 20
-21.56
 30
0.0
 11
26.0
 21
-14.46
 31
0.0
  0
LINE
  5
11F
330
FB
100
AcDbEntity
  8
AM_9
100
AcDbLine
 10
-26.0
 20
-14.46
 30
0.0
 11
-26.0
 21
-21.56
 31
0.0
  0
LINE
  5
120
330
FB
100
AcDbEntity
  8
AM_9
100
AcDbLine
 10
-27.66666666666667
 20
-21.56
 30
0.0
 11
27.66666666666667
 21
-21.56
 31
0.0
  0
LINE
  5
121
330
FB
100
AcDbEntity
  8
AM_9
100
AcDbLine
 10
27.66666666666667
 20
-24.1
 30
0.0
 11
27.66666666666667
 21
-21.56
 31
0.0
  0
LINE
  5
122
330
FB
100
AcDbEntity
  8
AM_9
100
AcDbLine
 10
-27.66666666666667
 20
-21.56
 30
0.0
 11
-27.66666666666667
 21
-24.1
 31
0.0
  0
LINE
  5
123
330
FB
100
AcDbEntity
  8
AM_9
100
AcDbLine
 10
-27.66666666666667
 20
-5.08
 30
0.0
 11
27.66666666666667
 21
-5.08
 31
0.0
  0
LINE
  5
124
330
FB
100
AcDbEntity
  8
AM_9
100
AcDbLine
 10
27.66666666666667
 20
-5.08
 30
0.0
 11
27.66666666666667
 21
0.0
 31
0.0
  0
LINE
  5
125
330
FB
100
AcDbEntity
  8
AM_9
100
AcDbLine
 10
-27.66666666666667
 20
0.0
 30
0.0
 11
-27.66666666666667
 21
-5.08
 31
0.0
  0
LINE
  5
126
330
FB
100
AcDbEntity
  8
AM_9
100
AcDbLine
 10
-46.16849308062363
 20
-11.43
 30
0.0
 11
-46.16849308062363
 21
-12.7
 31
0.0
  0
LINE
  5
127
330
FB
100
AcDbEntity
  8
AM_9
100
AcDbLine
 10
46.16849308062363
 20
-11.43
 30
0.0
 11
46.16849308062363
 21
-12.7
 31
0.0
  0
LINE
  5
128
330
FB
100
AcDbEntity
  8
AM_9
100
AcDbLine
 10
37.16722359219201
 20
-11.43
 30
0.0
 11
47.65
 21
-11.43
 31
0.0
  0
LINE
  5
129
330
FB
100
AcDbEntity
  8
AM_9
100
AcDbLine
 10
-47.65
 20
-11.43
 30
0.0
 11
-37.16722359219201
 21
-11.43
 31
0.0
  0
LINE
  5
12A
330
FB
100
AcDbEntity
  8
AM_9
100
AcDbLine
 10
-37.16722359219201
 20
-11.43
 30
0.0
 11
-37.06688251259209
 21
-12.7
 31
0.0
  0
LINE
  5
12B
330
FB
100
AcDbEntity
  8
AM_9
100
AcDbLine
 10
12.7
 20
-11.43
 30
0.0
 11
-12.7
 21
-11.43
 31
0.0
  0
LINE
  5
12C
330
FB
100
AcDbEntity
  8
AM_9
100
AcDbLine
 10
37.06688251259209
 20
-12.7
 30
0.0
 11
37.16722359219201
 21
-11.43
 31
0.0
  0
LINE
  5
12D
330
FB
100
AcDbEntity
  8
AM_9
100
AcDbLine
 10
39.18495850622408
 20
-12.7
 30
0.0
 11
39.33646265560166
 21
-11.43
 31
0.0
  0
LINE
  5
12E
330
FB
100
AcDbEntity
  8
AM_9
100
AcDbLine
 10
-39.33646265560166
 20
-11.43
 30
0.0
 11
-39.18495850622408
 21
-12.7
 31
0.0
  0
LINE
  5
12F
330
FB
100
AcDbEntity
  8
AM_9
100
AcDbLine
 10
12.68982531158333
 20
-22.98043747783469
 30
0.0
 11
-12.68982531158333
 21
-22.98043747783469
 31
0.0
  0
LINE
  5
130
330
FB
100
AcDbEntity
  8
AM_9
100
AcDbLine
 10
-29.2
 20
-12.7
 30
0.0
 11
-29.2
 21
0.0000000000000021
 31
0.0
  0
LINE
  5
131
330
FB
100
AcDbEntity
  8
AM_9
100
AcDbLine
 10
-40.7
 20
0.0000000000000021
 30
0.0
 11
-40.7
 21
-12.7
 31
0.0
  0
LINE
  5
132
330
FB
100
AcDbEntity
  8
AM_9
100
AcDbLine
 10
40.7
 20
-12.7
 30
0.0
 11
40.7
 21
0.0000000000000021
 31
0.0
  0
LINE
  5
133
330
FB
100
AcDbEntity
  8
AM_9
100
AcDbLine
 10
29.2
 20
0.0000000000000021
 30
0.0
 11
29.2
 21
-12.7
 31
0.0
  0
CIRCLE
  5
134
330
FB
100
AcDbEntity
  8
AM_9
100
AcDbCircle
 10
0.0
 20
-15.86
 30
0.0
 40
3.810000000000001
  0
LINE
  5
135
330
FB
100
AcDbEntity
  8
AM_7
100
AcDbLine
 10
34.95
 20
0.6349999999999979
 30
0.0
 11
34.95
 21
-13.335
 31
0.0
  0
LINE
  5
136
330
FB
100
AcDbEntity
  8
AM_7
100
AcDbLine
 10
-34.95
 20
0.6349999999999979
 30
0.0
 11
-34.95
 21
-13.335
 31
0.0
  0
LINE
  5
137
330
FB
100
AcDbEntity
  8
AM_7
100
AcDbLine
 10
0.0
 20
-36.5
 30
0.0
 11
0.0
 21
1.205
 31
0.0
  0
LINE
  5
138
330
FB
100
AcDbEntity
  8
AM_4
100
AcDbLine
 10
-36.69749925991132
 20
-24.1
 30
0.0
 11
36.69749925990894
 21
-24.1
 31
0.0
  0
ARC
  5
139
330
FB
100
AcDbEntity
  8
AM_4
100
AcDbCircle
 10
36.69749925991132
 20
-22.82999999999999
 30
0.0
 40
1.27000000000001
100
AcDbArc
 50
270.0
 51
353.1970722856586
  0
ARC
  5
13A
330
FB
100
AcDbEntity
  8
AM_4
100
AcDbCircle
 10
-36.69749925991132
 20
-22.82999999999999
 30
0.0
 40
1.270000000000011
100
AcDbArc
 50
186.8029277143413
 51
270.0
  0
LINE
  5
13B
330
FB
100
AcDbEntity
  8
AM_4
100
AcDbLine
 10
12.68982531158333
 20
-22.98043747783469
 30
0.0
 11
37.95855776976039
 21
-22.98043747783469
 31
0.0
  0
LINE
  5
13C
330
FB
100
AcDbEntity
  8
AM_4
100
AcDbLine
 10
37.95855776976039
 20
-22.98043747783469
 30
0.0
 11
39.18495850622408
 21
-12.7
 31
0.0
  0
LINE
  5
13D
330
FB
100
AcDbEntity
  8
AM_4
100
AcDbLine
 10
-39.18495850622408
 20
-12.7
 30
0.0
 11
-37.95855776976039
 21
-22.98043747783469
 31
0.0
  0
LINE
  5
13E
330
FB
100
AcDbEntity
  8
AM_4
100
AcDbLine
 10
-37.95855776976039
 20
-22.98043747783469
 30
0.0
 11
-12.68982531158333
 21
-22.98043747783469
 31
0.0
  0
LINE
  5
13F
330
FB
100
AcDbEntity
  8
AM_4
100
AcDbLine
 10
-12.7
 20
-6.773333295484385
 30
0.0
 11
-12.7
 21
-22.82
 31
0.0
  0
LINE
  5
140
330
FB
100
AcDbEntity
  8
AM_4
100
AcDbLine
 10
12.7
 20
-22.82
 30
0.0
 11
12.7
 21
-6.77333333333333
 31
0.0
  0
LINE
  5
141
330
FB
100
AcDbEntity
  8
AM_4
100
AcDbLine
 10
-11.43
 20
-24.09
 30
0.0
 11
11.43
 21
-24.09
 31
0.0
  0
ARC
  5
142
330
FB
100
AcDbEntity
  8
AM_4
100
AcDbCircle
 10
11.43
 20
-22.82
 30
0.0
 40
1.270000000000003
100
AcDbArc
 50
270.0
 51
0.0
  0
ARC
  5
143
330
FB
100
AcDbEntity
  8
AM_4
100
AcDbCircle
 10
-11.42999999999999
 20
-22.81999999999999
 30
0.0
 40
1.270000000000007
100
AcDbArc
 50
180.0
 51
270.0
  0
LINE
  5
144
330
FB
100
AcDbEntity
  8
AM_4
100
AcDbLine
 10
47.65
 20
-12.7
 30
0.0
 11
12.70854806546355
 21
-12.7
 31
0.0
  0
LINE
  5
145
330
FB
100
AcDbEntity
  8
AM_4
100
AcDbLine
 10
12.88234391341693
 20
-11.43
 30
0.0
 11
12.70854806546355
 21
-12.7
 31
0.0
  0
LINE
  5
146
330
FB
100
AcDbEntity
  8
AM_4
100
AcDbLine
 10
-12.70854806546356
 20
-12.7
 30
0.0
 11
-12.88234391341694
 21
-11.43
 31
0.0
  0
LINE
  5
147
330
FB
100
AcDbEntity
  8
AM_4
100
AcDbLine
 10
-12.7
 20
-11.43
 30
0.0
 11
-32.39733159223525
 21
-11.43
 31
0.0
  0
LINE
  5
148
330
FB
100
AcDbEntity
  8
AM_4
100
AcDbLine
 10
32.39733159223523
 20
-11.43
 30
0.0
 11
12.7
 21
-11.43
 31
0.0
  0
LINE
  5
149
330
FB
100
AcDbEntity
  8
AM_4
100
AcDbLine
 10
10.16
 20
-4.233333333333332
 30
0.0
 11
-10.16
 21
-4.233333333333331
 31
0.0
  0
ARC
  5
14A
330
FB
100
AcDbEntity
  8
AM_4
100
AcDbCircle
 10
-10.16
 20
-6.773333333333333
 30
0.0
 40
2.540000000000003
100
AcDbArc
 50
90.0
 51
179.9999991462263
  0
ARC
  5
14B
330
FB
100
AcDbEntity
  8
AM_4
100
AcDbCircle
 10
10.16
 20
-6.77333333333333
 30
0.0
 40
2.539999999999996
100
AcDbArc
 50
0.0
 51
90.0
  0
LINE
  5
14C
330
FB
100
AcDbEntity
  8
AM_4
100
AcDbLine
 10
32.39733159223523
 20
-12.7
 30
0.0
 11
32.39733159223523
 21
-11.43
 31
0.0
  0
LINE
  5
14D
330
FB
100
AcDbEntity
  8
AM_4
100
AcDbLine
 10
28.47299999999998
 20
-11.43
 30
0.0
 11
28.47299999999998
 21
-12.7
 31
0.0
  0
LINE
  5
14E
330
FB
100
AcDbEntity
  8
AM_4
100
AcDbLine
 10
34.95
 20
-12.7
 30
0.0
 11
34.95
 21
0.0000000000000029
 31
0.0
  0
LINE
  5
14F
330
FB
100
AcDbEntity
  8
AM_4
100
AcDbLine
 10
47.65
 20
-12.7
 30
0.0
 11
47.65
 21
0.0000000000000021
 31
0.0
  0
LINE
  5
150
330
FB
100
AcDbEntity
  8
AM_4
100
AcDbLine
 10
-32.39733159223525
 20
-11.43
 30
0.0
 11
-32.39733159223525
 21
-12.7
 31
0.0
  0
LINE
  5
151
330
FB
100
AcDbEntity
  8
AM_4
100
AcDbLine
 10
-28.47300000000001
 20
-11.43
 30
0.0
 11
-28.47300000000001
 21
-12.7
 31
0.0
  0
LINE
  5
152
330
FB
100
AcDbEntity
  8
AM_4
100
AcDbLine
 10
47.65
 20
0.0000000000000021
 30
0.0
 11
-47.65
 21
0.0000000000000021
 31
0.0
  0
LINE
  5
153
330
FB
100
AcDbEntity
  8
AM_4
100
AcDbLine
 10
-47.65
 20
-12.7
 30
0.0
 11
-47.65
 21
0.0000000000000021
 31
0.0
  0
LINE
  5
154
330
FB
100
AcDbEntity
  8
AM_4
100
AcDbLine
 10
-12.70854806546356
 20
-12.7
 30
0.0
 11
-47.65
 21
-12.7
 31
0.0
  0
LINE
  5
155
330
FB
100
AcDbEntity
  8
AM_4
100
AcDbLine
 10
-34.95000000000002
 20
-12.7
 30
0.0
 11
-34.95000000000002
 21
0.0000000000000029
 31
0.0
  0
ENDBLK
  5
FE
330
FB
100
AcDbEntity
  8
0
100
AcDbBlockEnd
  0
ENDSEC
  0
SECTION
  2
ENTITIES
  0
INSERT
  5
6F
330
1F
100
AcDbEntity
  8
0
100
AcDbBlockReference
  2
1_064943_4
 10
0.0
 20
0.0
 30
0.0
  0
POINT
  5
157
330
1F
100
AcDbEntity
  8
ConnectionPoints
100
AcDbPoint
 10
0.0
 20
-34.8
 30
0.0000000000000021
  0
POINT
  5
158
330
1F
100
AcDbEntity
  8
ConnectionPoints
100
AcDbPoint
 10
0.0
 20
-15.86
 30
42.775
  0
POINT
  5
159
330
1F
100
AcDbEntity
  8
ConnectionPoints
100
AcDbPoint
 10
0.0
 20
-34.8
 30
0.0000000000000021
  0
ENDSEC
  0
SECTION
  2
OBJECTS
  0
DICTIONARY
  5
C
330
0
100
AcDbDictionary
281
     1
  3
ACAD_DETAILVIEWSTYLE
350
161
  3
ACAD_GROUP
350
D
  3
ACAD_LAYOUT
350
1A
  3
ACAD_MATERIAL
350
43
  3
ACAD_MLEADERSTYLE
350
6B
  3
ACAD_MLINESTYLE
350
17
  3
ACAD_PLOTSETTINGS
350
19
  3
ACAD_PLOTSTYLENAME
350
E
  3
ACAD_SCALELIST
350
47
  3
ACAD_SECTIONVIEWSTYLE
350
162
  3
ACAD_TABLESTYLE
350
69
  3
ACAD_VISUALSTYLE
350
2A
  3
ACDB_RECOMPOSE_DATA
350
15E
  3
AcDbVariableDictionary
350
15A
  0
SUN
  5
6D
330
29
100
AcDbSun
 90
        1
290
     0
 63
     7
421
 16777215
 40
1.0
291
     1
 91
  2455826
 92
 54000000
292
     0
 70
     2
 71
   256
280
     1
  0
DICTIONARY
  5
161
102
{ACAD_REACTORS
330
C
102
}
330
C
100
AcDbDictionary
281
     1
  0
DICTIONARY
  5
D
102
{ACAD_REACTORS
330
C
102
}
330
C
100
AcDbDictionary
281
     1
  0
DICTIONARY
  5
1A
102
{ACAD_REACTORS
330
C
102
}
330
C
100
AcDbDictionary
281
     1
  3
Layout1
350
1E
  3
Layout2
350
26
  3
Model
350
22
  0
DICTIONARY
  5
43
102
{ACAD_REACTORS
330
C
102
}
330
C
100
AcDbDictionary
281
     1
  3
ByBlock
350
45
  3
ByLayer
350
44
  3
Global
350
46
  0
DICTIONARY
  5
6B
102
{ACAD_REACTORS
330
C
102
}
330
C
100
AcDbDictionary
281
     1
  3
Standard
350
6C
  0
DICTIONARY
  5
17
102
{ACAD_REACTORS
330
C
102
}
330
C
100
AcDbDictionary
281
     1
  3
Standard
350
18
  0
DICTIONARY
  5
19
102
{ACAD_REACTORS
330
C
102
}
330
C
100
AcDbDictionary
281
     1
  0
ACDBDICTIONARYWDFLT
  5
E
102
{ACAD_REACTORS
330
C
102
}
330
C
100
AcDbDictionary
281
     1
  3
Normal
350
F
100
AcDbDictionaryWithDefault
340
F
  0
DICTIONARY
  5
47
102
{ACAD_REACTORS
330
C
102
}
330
C
100
AcDbDictionary
281
     1
  3
A0
350
48
  3
A1
350
49
  3
A2
350
4A
  3
A3
350
4B
  3
A4
350
4C
  3
A5
350
4D
  3
A6
350
4E
  3
A7
350
4F
  3
A8
350
50
  3
A9
350
51
  3
B0
350
52
  3
B1
350
53
  3
B2
350
54
  3
B3
350
55
  3
B4
350
56
  3
B5
350
57
  3
B6
350
58
  3
B7
350
59
  3
B8
350
5A
  3
B9
350
5B
  3
C0
350
5C
  3
C1
350
5D
  3
C2
350
5E
  3
C3
350
5F
  3
C4
350
60
  3
C5
350
61
  3
C6
350
62
  3
C7
350
63
  3
C8
350
64
  3
C9
350
65
  3
D0
350
66
  3
D1
350
67
  3
D2
350
68
  0
DICTIONARY
  5
162
102
{ACAD_REACTORS
330
C
102
}
330
C
100
AcDbDictionary
281
     1
  0
DICTIONARY
  5
69
102
{ACAD_REACTORS
330
C
102
}
330
C
100
AcDbDictionary
281
     1
  3
Standard
350
6A
  0
DICTIONARY
  5
2A
102
{ACAD_REACTORS
330
C
102
}
330
C
100
AcDbDictionary
281
     1
  3
2dWireframe
350
2F
  3
Basic
350
32
  3
Brighten
350
36
  3
ColorChange
350
3A
  3
Conceptual
350
34
  3
Dim
350
35
  3
EdgeColorOff
350
3D
  3
Facepattern
350
39
  3
Flat
350
2B
  3
FlatWithEdges
350
2C
  3
Gouraud
350
2D
  3
GouraudWithEdges
350
2E
  3
Hidden
350
31
  3
JitterOff
350
3B
  3
Linepattern
350
38
  3
OverhangOff
350
3C
  3
Realistic
350
33
  3
Shaded
350
42
  3
Shaded with edges
350
41
  3
Shades of Gray
350
3E
  3
Sketchy
350
3F
  3
Thicken
350
37
  3
Wireframe
350
30
  3
X-Ray
350
40
  0
XRECORD
  5
15E
102
{ACAD_REACTORS
330
C
102
}
330
C
100
AcDbXrecord
280
     1
 90
        1
330
6A
  0
DICTIONARY
  5
15A
102
{ACAD_REACTORS
330
C
102
}
330
C
100
AcDbDictionary
281
     1
  3
CANNOSCALE
350
15B
  3
CMLEADERSTYLE
350
160
  3
CTABLESTYLE
350
15F
  0
LAYOUT
  5
1E
102
{ACAD_REACTORS
330
1A
102
}
330
1A
100
AcDbPlotSettings
  1

  2
none_device
  4

  6

 40
0.0
 41
0.0
 42
0.0
 43
0.0
 44
0.0
 45
0.0
 46
0.0
 47
0.0
 48
0.0
 49
0.0
140
0.0
141
0.0
142
1.0
143
1.0
 70
   688
 72
     1
 73
     0
 74
     5
  7

 75
    16
 76
     0
 77
     2
 78
   300
147
1.0
148
0.0
149
0.0
100
AcDbLayout
  1
Layout1
 70
     1
 71
     1
 10
0.0
 20
0.0
 11
420.0
 21
297.0
 12
0.0
 22
0.0
 32
0.0
 14
1.000000000000000E+20
 24
1.000000000000000E+20
 34
1.000000000000000E+20
 15
-1.000000000000000E+20
 25
-1.000000000000000E+20
 35
-1.000000000000000E+20
146
0.0
 13
0.0
 23
0.0
 33
0.0
 16
1.0
 26
0.0
 36
0.0
 17
0.0
 27
1.0
 37
0.0
 76
     0
330
1B
  0
LAYOUT
  5
26
102
{ACAD_REACTORS
330
1A
102
}
330
1A
100
AcDbPlotSettings
  1

  2
none_device
  4

  6

 40
0.0
 41
0.0
 42
0.0
 43
0.0
 44
0.0
 45
0.0
 46
0.0
 47
0.0
 48
0.0
 49
0.0
140
0.0
141
0.0
142
1.0
143
1.0
 70
   688
 72
     1
 73
     0
 74
     5
  7

 75
    16
 76
     0
 77
     2
 78
   300
147
1.0
148
0.0
149
0.0
100
AcDbLayout
  1
Layout2
 70
     1
 71
     2
 10
0.0
 20
0.0
 11
0.0
 21
0.0
 12
0.0
 22
0.0
 32
0.0
 14
0.0
 24
0.0
 34
0.0
 15
0.0
 25
0.0
 35
0.0
146
0.0
 13
0.0
 23
0.0
 33
0.0
 16
1.0
 26
0.0
 36
0.0
 17
0.0
 27
1.0
 37
0.0
 76
     0
330
23
  0
LAYOUT
  5
22
102
{ACAD_REACTORS
330
1A
102
}
330
1A
100
AcDbPlotSettings
  1

  2
none_device
  4
Letter_(8.50_x_11.00_Inches)
  6

 40
6.35
 41
6.35
 42
6.35000508
 43
6.35000508
 44
215.9
 45
279.4
 46
0.0
 47
0.0
 48
0.0
 49
0.0
140
0.0
141
0.0
142
1.0
143
1.0
 70
  1712
 72
     1
 73
     0
 74
     0
  7

 75
     0
 76
     0
 77
     2
 78
   300
147
1.0
148
0.0
149
0.0
100
AcDbLayout
  1
Model
 70
     1
 71
     0
 10
0.0
 20
0.0
 11
420.0
 21
297.0
 12
0.0
 22
0.0
 32
0.0
 14
1.000000000000000E+20
 24
1.000000000000000E+20
 34
1.000000000000000E+20
 15
-1.000000000000000E+20
 25
-1.000000000000000E+20
 35
-1.000000000000000E+20
146
0.0
 13
0.0
 23
0.0
 33
0.0
 16
1.0
 26
0.0
 36
0.0
 17
0.0
 27
1.0
 37
0.0
 76
     0
330
1F
331
29
  0
MATERIAL
  5
45
102
{ACAD_REACTORS
330
43
102
}
330
43
100
AcDbMaterial
  1
ByBlock
 72
     1
 94
      127
  0
MATERIAL
  5
44
102
{ACAD_REACTORS
330
43
102
}
330
43
100
AcDbMaterial
  1
ByLayer
 72
     1
 94
      127
  0
MATERIAL
  5
46
102
{ACAD_REACTORS
330
43
102
}
330
43
100
AcDbMaterial
  1
Global
 72
     1
 94
      127
  0
MLEADERSTYLE
  5
6C
102
{ACAD_REACTORS
330
6B
102
}
330
6B
100
AcDbMLeaderStyle
179
     2
170
     2
171
     1
172
     0
 90
        2
 40
0.0
 41
0.0
173
     1
 91
-1056964608
340
14
 92
       -2
290
     1
 42
2.0
291
     1
 43
8.0
  3
Standard
341
0
 44
4.0
300

342
11
174
     1
178
     6
175
     1
176
     0
 93
-1056964608
 45
4.0
292
     0
297
     0
 46
4.0
343
0
 94
-1056964608
 47
1.0
 49
1.0
140
1.0
293
     1
141
0.0
294
     1
177
     0
142
1.0
295
     0
296
     0
143
3.75
271
     0
272
     9
273
     9
298
     0
  0
MLINESTYLE
  5
18
102
{ACAD_REACTORS
330
17
102
}
330
17
100
AcDbMlineStyle
  2
Standard
 70
     0
  3

 62
   256
 51
90.0
 52
90.0
 71
     2
 49
0.5
 62
   256
  6
BYLAYER
 49
-0.5
 62
   256
  6
BYLAYER
  0
ACDBPLACEHOLDER
  5
F
102
{ACAD_REACTORS
330
E
102
}
330
E
  0
SCALE
  5
48
102
{ACAD_REACTORS
330
47
102
}
330
47
100
AcDbScale
 70
     0
300
1:1
140
1.0
141
1.0
290
     1
  0
SCALE
  5
49
102
{ACAD_REACTORS
330
47
102
}
330
47
100
AcDbScale
 70
     0
300
1:2
140
1.0
141
2.0
290
     0
  0
SCALE
  5
4A
102
{ACAD_REACTORS
330
47
102
}
330
47
100
AcDbScale
 70
     0
300
1:4
140
1.0
141
4.0
290
     0
  0
SCALE
  5
4B
102
{ACAD_REACTORS
330
47
102
}
330
47
100
AcDbScale
 70
     0
300
1:5
140
1.0
141
5.0
290
     0
  0
SCALE
  5
4C
102
{ACAD_REACTORS
330
47
102
}
330
47
100
AcDbScale
 70
     0
300
1:8
140
1.0
141
8.0
290
     0
  0
SCALE
  5
4D
102
{ACAD_REACTORS
330
47
102
}
330
47
100
AcDbScale
 70
     0
300
1:10
140
1.0
141
10.0
290
     0
  0
SCALE
  5
4E
102
{ACAD_REACTORS
330
47
102
}
330
47
100
AcDbScale
 70
     0
300
1:16
140
1.0
141
16.0
290
     0
  0
SCALE
  5
4F
102
{ACAD_REACTORS
330
47
102
}
330
47
100
AcDbScale
 70
     0
300
1:20
140
1.0
141
20.0
290
     0
  0
SCALE
  5
50
102
{ACAD_REACTORS
330
47
102
}
330
47
100
AcDbScale
 70
     0
300
1:30
140
1.0
141
30.0
290
     0
  0
SCALE
  5
51
102
{ACAD_REACTORS
330
47
102
}
330
47
100
AcDbScale
 70
     0
300
1:40
140
1.0
141
40.0
290
     0
  0
SCALE
  5
52
102
{ACAD_REACTORS
330
47
102
}
330
47
100
AcDbScale
 70
     0
300
1:50
140
1.0
141
50.0
290
     0
  0
SCALE
  5
53
102
{ACAD_REACTORS
330
47
102
}
330
47
100
AcDbScale
 70
     0
300
1:100
140
1.0
141
100.0
290
     0
  0
SCALE
  5
54
102
{ACAD_REACTORS
330
47
102
}
330
47
100
AcDbScale
 70
     0
300
2:1
140
2.0
141
1.0
290
     0
  0
SCALE
  5
55
102
{ACAD_REACTORS
330
47
102
}
330
47
100
AcDbScale
 70
     0
300
4:1
140
4.0
141
1.0
290
     0
  0
SCALE
  5
56
102
{ACAD_REACTORS
330
47
102
}
330
47
100
AcDbScale
 70
     0
300
8:1
140
8.0
141
1.0
290
     0
  0
SCALE
  5
57
102
{ACAD_REACTORS
330
47
102
}
330
47
100
AcDbScale
 70
     0
300
10:1
140
10.0
141
1.0
290
     0
  0
SCALE
  5
58
102
{ACAD_REACTORS
330
47
102
}
330
47
100
AcDbScale
 70
     0
300
100:1
140
100.0
141
1.0
290
     0
  0
SCALE
  5
59
102
{ACAD_REACTORS
330
47
102
}
330
47
100
AcDbScale
 70
     0
300
1/128" = 1'-0"
140
0.0078125
141
12.0
290
     0
  0
SCALE
  5
5A
102
{ACAD_REACTORS
330
47
102
}
330
47
100
AcDbScale
 70
     0
300
1/64" = 1'-0"
140
0.015625
141
12.0
290
     0
  0
SCALE
  5
5B
102
{ACAD_REACTORS
330
47
102
}
330
47
100
AcDbScale
 70
     0
300
1/32" = 1'-0"
140
0.03125
141
12.0
290
     0
  0
SCALE
  5
5C
102
{ACAD_REACTORS
330
47
102
}
330
47
100
AcDbScale
 70
     0
300
1/16" = 1'-0"
140
0.0625
141
12.0
290
     0
  0
SCALE
  5
5D
102
{ACAD_REACTORS
330
47
102
}
330
47
100
AcDbScale
 70
     0
300
3/32" = 1'-0"
140
0.09375
141
12.0
290
     0
  0
SCALE
  5
5E
102
{ACAD_REACTORS
330
47
102
}
330
47
100
AcDbScale
 70
     0
300
1/8" = 1'-0"
140
0.125
141
12.0
290
     0
  0
SCALE
  5
5F
102
{ACAD_REACTORS
330
47
102
}
330
47
100
AcDbScale
 70
     0
300
3/16" = 1'-0"
140
0.1875
141
12.0
290
     0
  0
SCALE
  5
60
102
{ACAD_REACTORS
330
47
102
}
330
47
100
AcDbScale
 70
     0
300
1/4" = 1'-0"
140
0.25
141
12.0
290
     0
  0
SCALE
  5
61
102
{ACAD_REACTORS
330
47
102
}
330
47
100
AcDbScale
 70
     0
300
3/8" = 1'-0"
140
0.375
141
12.0
290
     0
  0
SCALE
  5
62
102
{ACAD_REACTORS
330
47
102
}
330
47
100
AcDbScale
 70
     0
300
1/2" = 1'-0"
140
0.5
141
12.0
290
     0
  0
SCALE
  5
63
102
{ACAD_REACTORS
330
47
102
}
330
47
100
AcDbScale
 70
     0
300
3/4" = 1'-0"
140
0.75
141
12.0
290
     0
  0
SCALE
  5
64
102
{ACAD_REACTORS
330
47
102
}
330
47
100
AcDbScale
 70
     0
300
1" = 1'-0"
140
1.0
141
12.0
290
     0
  0
SCALE
  5
65
102
{ACAD_REACTORS
330
47
102
}
330
47
100
AcDbScale
 70
     0
300
1-1/2" = 1'-0"
140
1.5
141
12.0
290
     0
  0
SCALE
  5
66
102
{ACAD_REACTORS
330
47
102
}
330
47
100
AcDbScale
 70
     0
300
3" = 1'-0"
140
3.0
141
12.0
290
     0
  0
SCALE
  5
67
102
{ACAD_REACTORS
330
47
102
}
330
47
100
AcDbScale
 70
     0
300
6" = 1'-0"
140
6.0
141
12.0
290
     0
  0
SCALE
  5
68
102
{ACAD_REACTORS
330
47
102
}
330
47
100
AcDbScale
 70
     0
300
1'-0" = 1'-0"
140
12.0
141
12.0
290
     0
  0
TABLESTYLE
  5
6A
102
{ACAD_REACTORS
330
69
102
}
102
{ACAD_XDICTIONARY
360
15C
102
}
330
69
100
AcDbTableStyle
  3
Standard
 70
     0
 71
     0
 40
0.06
 41
0.06
280
     0
281
     0
  7
Standard
140
4.5
170
     2
 62
     0
 63
   257
283
     0
 90
        4
 91
        0
  1

274
    -2
284
     1
 64
     0
275
    -2
285
     1
 65
     0
276
    -2
286
     1
 66
     0
277
    -2
287
     1
 67
     0
278
    -2
288
     1
 68
     0
279
    -2
289
     1
 69
     0
  7
Standard
140
6.0
170
     5
 62
     0
 63
   257
283
     0
 90
        4
 91
        0
  1

274
    -2
284
     1
 64
     0
275
    -2
285
     1
 65
     0
276
    -2
286
     1
 66
     0
277
    -2
287
     1
 67
     0
278
    -2
288
     1
 68
     0
279
    -2
289
     1
 69
     0
  7
Standard
140
4.5
170
     5
 62
     0
 63
   257
283
     0
 90
        4
 91
        0
  1

274
    -2
284
     1
 64
     0
275
    -2
285
     1
 65
     0
276
    -2
286
     1
 66
     0
277
    -2
287
     1
 67
     0
278
    -2
288
     1
 68
     0
279
    -2
289
     1
 69
     0
  0
VISUALSTYLE
  5
2F
102
{ACAD_REACTORS
330
2A
102
}
330
2A
100
AcDbVisualStyle
  2
2dWireframe
 70
     4
177
     3
291
     0
 70
    58
 90
        0
176
     1
 90
        2
176
     1
 90
        0
176
     1
 90
        0
176
     1
 40
0.6
176
     1
 40
30.0
176
     1
 62
     7
420
 16777215
176
     1
 90
        1
176
     1
 90
        4
176
     1
 62
     7
176
     1
 62
   257
176
     1
 90
        1
176
     1
 90
        1
176
     1
 40
1.0
176
     1
 90
        0
176
     1
 62
   257
176
     1
 40
1.0
176
     1
 90
        1
176
     1
 90
        6
176
     1
 90
        2
176
     1
 62
     7
176
     1
 90
        5
176
     1
 90
        0
176
     1
 90
        0
176
     1
290
     0
176
     1
 90
        1
176
     1
 40
0.0
176
     1
 90
        0
176
     1
290
     1
176
     1
290
     1
176
     1
290
     0
176
     1
290
     0
176
     1
290
     0
176
     1
290
     0
176
     1
290
     0
176
     1
290
     0
176
     1
290
     0
176
     1
 90
       50
176
     1
 40
0.0
176
     1
 40
1.0
176
     1
 90
        0
176
     1
 62
    18
420
        0
176
     1
 90
       50
176
     1
 90
        3
176
     1
 62
     5
420
      255
176
     1
290
     0
176
     1
 90
       50
176
     1
 90
       50
176
     1
 90
       50
176
     1
290
     0
176
     1
 90
       50
176
     1
 62
   256
176
     0
 40
1.0
176
     0
 90
        2
176
     1
  1
strokes_ogs.tif
176
     1
290
     0
176
     1
 40
1.0
176
     1
 40
1.0
176
     1
  0
VISUALSTYLE
  5
32
102
{ACAD_REACTORS
330
2A
102
}
330
2A
100
AcDbVisualStyle
  2
Basic
 70
     7
177
     3
291
     1
 70
    58
 90
        1
176
     1
 90
        0
176
     1
 90
        1
176
     1
 90
        0
176
     1
 40
0.6
176
     1
 40
30.0
176
     1
 62
     7
420
 16777215
176
     1
 90
        0
176
     1
 90
        4
176
     1
 62
     7
176
     1
 62
   257
176
     1
 90
        1
176
     1
 90
        1
176
     1
 40
1.0
176
     1
 90
        8
176
     1
 62
     7
176
     1
 40
1.0
176
     1
 90
        1
176
     1
 90
        6
176
     1
 90
        2
176
     1
 62
     7
176
     1
 90
        5
176
     1
 90
        0
176
     1
 90
        0
176
     1
290
     0
176
     1
 90
        1
176
     1
 40
0.0
176
     1
 90
        0
176
     1
290
     0
176
     1
290
     1
176
     1
290
     1
176
     1
290
     0
176
     1
290
     0
176
     1
290
     0
176
     1
290
     0
176
     1
290
     0
176
     1
290
     0
176
     1
 90
       50
176
     1
 40
0.0
176
     1
 40
1.0
176
     1
 90
        0
176
     1
 62
    18
420
        0
176
     1
 90
       50
176
     1
 90
        3
176
     1
 62
     5
420
      255
176
     1
290
     0
176
     1
 90
       50
176
     1
 90
       50
176
     1
 90
       50
176
     1
290
     0
176
     1
 90
       50
176
     1
 62
   256
176
     0
 40
1.0
176
     0
 90
        2
176
     1
  1
strokes_ogs.tif
176
     1
290
     0
176
     1
 40
1.0
176
     1
 40
1.0
176
     1
  0
VISUALSTYLE
  5
36
102
{ACAD_REACTORS
330
2A
102
}
330
2A
100
AcDbVisualStyle
  2
Brighten
 70
    12
177
     3
291
     1
 70
    58
 90
        2
176
     1
 90
        2
176
     1
 90
        0
176
     1
 90
        0
176
     1
 40
0.6
176
     1
 40
30.0
176
     1
 62
     7
420
 16777215
176
     1
 90
        1
176
     1
 90
        4
176
     1
 62
     7
176
     1
 62
   257
176
     1
 90
        1
176
     1
 90
        1
176
     1
 40
1.0
176
     1
 90
        8
176
     1
 62
     7
176
     1
 40
1.0
176
     1
 90
        1
176
     1
 90
        6
176
     1
 90
        2
176
     1
 62
     7
176
     1
 90
        5
176
     1
 90
        0
176
     1
 90
        0
176
     1
290
     0
176
     1
 90
        1
176
     1
 40
50.0
176
     1
 90
        0
176
     1
290
     0
176
     1
290
     1
176
     1
290
     1
176
     1
290
     0
176
     1
290
     0
176
     1
290
     0
176
     1
290
     0
176
     1
290
     0
176
     1
290
     0
176
     1
 90
       50
176
     1
 40
0.0
176
     1
 40
1.0
176
     1
 90
        0
176
     1
 62
    18
420
        0
176
     1
 90
       50
176
     1
 90
        3
176
     1
 62
     5
420
      255
176
     1
290
     0
176
     1
 90
       50
176
     1
 90
       50
176
     1
 90
       50
176
     1
290
     0
176
     1
 90
       50
176
     1
 62
   256
176
     0
 40
1.0
176
     0
 90
        2
176
     1
  1
strokes_ogs.tif
176
     1
290
     0
176
     1
 40
1.0
176
     1
 40
1.0
176
     1
  0
VISUALSTYLE
  5
3A
102
{ACAD_REACTORS
330
2A
102
}
330
2A
100
AcDbVisualStyle
  2
ColorChange
 70
    16
177
     3
291
     1
 70
    58
 90
        2
176
     1
 90
        2
176
     1
 90
        3
176
     1
 90
        0
176
     1
 40
0.6
176
     1
 40
30.0
176
     1
 62
     8
420
  8421504
176
     1
 90
        1
176
     1
 90
        4
176
     1
 62
     7
176
     1
 62
   257
176
     1
 90
        1
176
     1
 90
        1
176
     1
 40
1.0
176
     1
 90
        8
176
     1
 62
     8
420
  8421504
176
     1
 40
1.0
176
     1
 90
        1
176
     1
 90
        6
176
     1
 90
        2
176
     1
 62
     7
176
     1
 90
        5
176
     1
 90
        0
176
     1
 90
        0
176
     1
290
     0
176
     1
 90
        1
176
     1
 40
0.0
176
     1
 90
        0
176
     1
290
     0
176
     1
290
     1
176
     1
290
     1
176
     1
290
     0
176
     1
290
     0
176
     1
290
     0
176
     1
290
     0
176
     1
290
     0
176
     1
290
     0
176
     1
 90
       50
176
     1
 40
0.0
176
     1
 40
1.0
176
     1
 90
        0
176
     1
 62
    18
420
        0
176
     1
 90
       50
176
     1
 90
        3
176
     1
 62
     5
420
      255
176
     1
290
     0
176
     1
 90
       50
176
     1
 90
       50
176
     1
 90
       50
176
     1
290
     0
176
     1
 90
       50
176
     1
 62
   256
176
     0
 40
1.0
176
     0
 90
        2
176
     1
  1
strokes_ogs.tif
176
     1
290
     0
176
     1
 40
1.0
176
     1
 40
1.0
176
     1
  0
VISUALSTYLE
  5
34
102
{ACAD_REACTORS
330
2A
102
}
330
2A
100
AcDbVisualStyle
  2
Conceptual
 70
     9
177
     3
291
     0
 70
    58
 90
        3
176
     1
 90
        2
176
     1
 90
        0
176
     1
 90
        0
176
     1
 40
0.6
176
     1
 40
30.0
176
     1
 62
     7
420
 16777215
176
     1
 90
        2
176
     1
 90
        2
176
     1
 62
     7
176
     1
 62
   257
176
     1
 90
        1
176
     1
 90
        1
176
     1
 40
179.0
176
     1
 90
        8
176
     1
 62
     7
176
     1
 40
1.0
176
     1
 90
        1
176
     1
 90
        6
176
     1
 90
        2
176
     1
 62
     7
176
     1
 90
        3
176
     1
 90
        0
176
     1
 90
        0
176
     1
290
     0
176
     1
 90
        1
176
     1
 40
0.0
176
     1
 90
        0
176
     1
290
     0
176
     1
290
     1
176
     1
290
     1
176
     1
290
     0
176
     1
290
     0
176
     1
290
     0
176
     1
290
     0
176
     1
290
     0
176
     1
290
     0
176
     1
 90
       50
176
     1
 40
0.0
176
     1
 40
1.0
176
     1
 90
        0
176
     1
 62
    18
420
        0
176
     1
 90
       50
176
     1
 90
        3
176
     1
 62
     5
420
      255
176
     1
290
     0
176
     1
 90
       50
176
     1
 90
       50
176
     1
 90
       50
176
     1
290
     0
176
     1
 90
       50
176
     1
 62
   256
176
     0
 40
1.0
176
     0
 90
        2
176
     1
  1
strokes_ogs.tif
176
     1
290
     0
176
     1
 40
1.0
176
     1
 40
1.0
176
     1
  0
VISUALSTYLE
  5
35
102
{ACAD_REACTORS
330
2A
102
}
330
2A
100
AcDbVisualStyle
  2
Dim
 70
    11
177
     3
291
     1
 70
    58
 90
        2
176
     1
 90
        2
176
     1
 90
        0
176
     1
 90
        0
176
     1
 40
0.6
176
     1
 40
30.0
176
     1
 62
     7
420
 16777215
176
     1
 90
        1
176
     1
 90
        4
176
     1
 62
     7
176
     1
 62
   257
176
     1
 90
        1
176
     1
 90
        1
176
     1
 40
1.0
176
     1
 90
        8
176
     1
 62
     7
176
     1
 40
1.0
176
     1
 90
        1
176
     1
 90
        6
176
     1
 90
        2
176
     1
 62
     7
176
     1
 90
        5
176
     1
 90
        0
176
     1
 90
        0
176
     1
290
     0
176
     1
 90
        1
176
     1
 40
-50.0
176
     1
 90
        0
176
     1
290
     0
176
     1
290
     1
176
     1
290
     1
176
     1
290
     0
176
     1
290
     0
176
     1
290
     0
176
     1
290
     0
176
     1
290
     0
176
     1
290
     0
176
     1
 90
       50
176
     1
 40
0.0
176
     1
 40
1.0
176
     1
 90
        0
176
     1
 62
    18
420
        0
176
     1
 90
       50
176
     1
 90
        3
176
     1
 62
     5
420
      255
176
     1
290
     0
176
     1
 90
       50
176
     1
 90
       50
176
     1
 90
       50
176
     1
290
     0
176
     1
 90
       50
176
     1
 62
   256
176
     0
 40
1.0
176
     0
 90
        2
176
     1
  1
strokes_ogs.tif
176
     1
290
     0
176
     1
 40
1.0
176
     1
 40
1.0
176
     1
  0
VISUALSTYLE
  5
3D
102
{ACAD_REACTORS
330
2A
102
}
330
2A
100
AcDbVisualStyle
  2
EdgeColorOff
 70
    22
177
     3
291
     1
 70
    58
 90
        2
176
     0
 90
        2
176
     0
 90
        0
176
     0
 90
        0
176
     0
 40
0.6
176
     0
 40
30.0
176
     0
 62
     7
420
 16777215
176
     0
 90
        1
176
     0
 90
        4
176
     0
 62
     7
176
     0
 62
   257
176
     0
 90
        1
176
     0
 90
        1
176
     0
 40
1.0
176
     0
 90
        8
176
     2
 62
     7
176
     0
 40
1.0
176
     0
 90
        1
176
     0
 90
        6
176
     0
 90
        2
176
     0
 62
     7
176
     0
 90
        5
176
     0
 90
        0
176
     0
 90
        0
176
     0
290
     0
176
     0
 90
        1
176
     0
 40
0.0
176
     0
 90
        0
176
     0
290
     0
176
     0
290
     1
176
     0
290
     1
176
     0
290
     0
176
     0
290
     0
176
     0
290
     0
176
     0
290
     0
176
     0
290
     0
176
     0
290
     0
176
     0
 90
       50
176
     0
 40
0.0
176
     0
 40
1.0
176
     0
 90
        0
176
     0
 62
    18
420
        0
176
     0
 90
       50
176
     0
 90
        3
176
     0
 62
     5
420
      255
176
     0
290
     0
176
     0
 90
       50
176
     0
 90
       50
176
     0
 90
       50
176
     0
290
     0
176
     0
 90
       50
176
     0
 62
   256
176
     0
 40
1.0
176
     0
 90
        2
176
     0
  1
strokes_ogs.tif
176
     0
290
     0
176
     0
 40
1.0
176
     0
 40
1.0
176
     0
  0
VISUALSTYLE
  5
39
102
{ACAD_REACTORS
330
2A
102
}
330
2A
100
AcDbVisualStyle
  2
Facepattern
 70
    15
177
     3
291
     1
 70
    58
 90
        2
176
     1
 90
        2
176
     1
 90
        0
176
     1
 90
        0
176
     1
 40
0.6
176
     1
 40
30.0
176
     1
 62
     7
420
 16777215
176
     1
 90
        1
176
     1
 90
        4
176
     1
 62
     7
176
     1
 62
   257
176
     1
 90
        1
176
     1
 90
        1
176
     1
 40
1.0
176
     1
 90
        8
176
     1
 62
     7
176
     1
 40
1.0
176
     1
 90
        1
176
     1
 90
        6
176
     1
 90
        2
176
     1
 62
     7
176
     1
 90
        5
176
     1
 90
        0
176
     1
 90
        0
176
     1
290
     0
176
     1
 90
        1
176
     1
 40
0.0
176
     1
 90
        0
176
     1
290
     0
176
     1
290
     1
176
     1
290
     1
176
     1
290
     0
176
     1
290
     0
176
     1
290
     0
176
     1
290
     0
176
     1
290
     0
176
     1
290
     0
176
     1
 90
       50
176
     1
 40
0.0
176
     1
 40
1.0
176
     1
 90
        0
176
     1
 62
    18
420
        0
176
     1
 90
       50
176
     1
 90
        3
176
     1
 62
     5
420
      255
176
     1
290
     0
176
     1
 90
       50
176
     1
 90
       50
176
     1
 90
       50
176
     1
290
     0
176
     1
 90
       50
176
     1
 62
   256
176
     0
 40
1.0
176
     0
 90
        2
176
     1
  1
strokes_ogs.tif
176
     1
290
     0
176
     1
 40
1.0
176
     1
 40
1.0
176
     1
  0
VISUALSTYLE
  5
2B
102
{ACAD_REACTORS
330
2A
102
}
330
2A
100
AcDbVisualStyle
  2
Flat
 70
     0
177
     3
291
     1
 70
    58
 90
        2
176
     1
 90
        1
176
     1
 90
        1
176
     1
 90
        2
176
     1
 40
0.6
176
     1
 40
30.0
176
     1
 62
     7
420
 16777215
176
     1
 90
        0
176
     1
 90
        0
176
     1
 62
     7
176
     1
 62
   257
176
     1
 90
        1
176
     1
 90
        1
176
     1
 40
1.0
176
     1
 90
        8
176
     1
 62
     7
176
     1
 40
1.0
176
     1
 90
        1
176
     1
 90
        6
176
     1
 90
        2
176
     1
 62
     7
176
     1
 90
        5
176
     1
 90
        0
176
     1
 90
        0
176
     1
290
     0
176
     1
 90
       13
176
     1
 40
0.0
176
     1
 90
        0
176
     1
290
     0
176
     1
290
     1
176
     1
290
     1
176
     1
290
     0
176
     1
290
     0
176
     1
290
     0
176
     1
290
     0
176
     1
290
     0
176
     1
290
     0
176
     1
 90
       50
176
     1
 40
0.0
176
     1
 40
1.0
176
     1
 90
        0
176
     1
 62
    18
420
        0
176
     1
 90
       50
176
     1
 90
        3
176
     1
 62
     5
420
      255
176
     1
290
     0
176
     1
 90
       50
176
     1
 90
       50
176
     1
 90
       50
176
     1
290
     0
176
     1
 90
       50
176
     1
 62
   256
176
     0
 40
1.0
176
     0
 90
        2
176
     1
  1
strokes_ogs.tif
176
     1
290
     0
176
     1
 40
1.0
176
     1
 40
1.0
176
     1
  0
VISUALSTYLE
  5
2C
102
{ACAD_REACTORS
330
2A
102
}
330
2A
100
AcDbVisualStyle
  2
FlatWithEdges
 70
     1
177
     3
291
     1
 70
    58
 90
        2
176
     1
 90
        1
176
     1
 90
        1
176
     1
 90
        2
176
     1
 40
0.6
176
     1
 40
30.0
176
     1
 62
     7
420
 16777215
176
     1
 90
        1
176
     1
 90
        0
176
     1
 62
     7
176
     1
 62
   257
176
     1
 90
        1
176
     1
 90
        1
176
     1
 40
1.0
176
     1
 90
        0
176
     1
 62
   257
176
     1
 40
1.0
176
     1
 90
        1
176
     1
 90
        6
176
     1
 90
        2
176
     1
 62
     7
176
     1
 90
        5
176
     1
 90
        0
176
     1
 90
        0
176
     1
290
     0
176
     1
 90
       13
176
     1
 40
0.0
176
     1
 90
        0
176
     1
290
     0
176
     1
290
     1
176
     1
290
     1
176
     1
290
     0
176
     1
290
     0
176
     1
290
     0
176
     1
290
     0
176
     1
290
     0
176
     1
290
     0
176
     1
 90
       50
176
     1
 40
0.0
176
     1
 40
1.0
176
     1
 90
        0
176
     1
 62
    18
420
        0
176
     1
 90
       50
176
     1
 90
        3
176
     1
 62
     5
420
      255
176
     1
290
     0
176
     1
 90
       50
176
     1
 90
       50
176
     1
 90
       50
176
     1
290
     0
176
     1
 90
       50
176
     1
 62
   256
176
     0
 40
1.0
176
     0
 90
        2
176
     1
  1
strokes_ogs.tif
176
     1
290
     0
176
     1
 40
1.0
176
     1
 40
1.0
176
     1
  0
VISUALSTYLE
  5
2D
102
{ACAD_REACTORS
330
2A
102
}
330
2A
100
AcDbVisualStyle
  2
Gouraud
 70
     2
177
     3
291
     1
 70
    58
 90
        2
176
     1
 90
        2
176
     1
 90
        1
176
     1
 90
        2
176
     1
 40
0.6
176
     1
 40
30.0
176
     1
 62
     7
420
 16777215
176
     1
 90
        0
176
     1
 90
        0
176
     1
 62
     7
176
     1
 62
   257
176
     1
 90
        1
176
     1
 90
        1
176
     1
 40
1.0
176
     1
 90
        0
176
     1
 62
     7
176
     1
 40
1.0
176
     1
 90
        1
176
     1
 90
        6
176
     1
 90
        2
176
     1
 62
     7
176
     1
 90
        5
176
     1
 90
        0
176
     1
 90
        0
176
     1
290
     0
176
     1
 90
       13
176
     1
 40
0.0
176
     1
 90
        0
176
     1
290
     0
176
     1
290
     1
176
     1
290
     1
176
     1
290
     0
176
     1
290
     0
176
     1
290
     0
176
     1
290
     0
176
     1
290
     0
176
     1
290
     0
176
     1
 90
       50
176
     1
 40
0.0
176
     1
 40
1.0
176
     1
 90
        0
176
     1
 62
    18
420
        0
176
     1
 90
       50
176
     1
 90
        3
176
     1
 62
     5
420
      255
176
     1
290
     0
176
     1
 90
       50
176
     1
 90
       50
176
     1
 90
       50
176
     1
290
     0
176
     1
 90
       50
176
     1
 62
   256
176
     0
 40
1.0
176
     0
 90
        2
176
     1
  1
strokes_ogs.tif
176
     1
290
     0
176
     1
 40
1.0
176
     1
 40
1.0
176
     1
  0
VISUALSTYLE
  5
2E
102
{ACAD_REACTORS
330
2A
102
}
330
2A
100
AcDbVisualStyle
  2
GouraudWithEdges
 70
     3
177
     3
291
     1
 70
    58
 90
        2
176
     1
 90
        2
176
     1
 90
        1
176
     1
 90
        2
176
     1
 40
0.6
176
     1
 40
30.0
176
     1
 62
     7
420
 16777215
176
     1
 90
        1
176
     1
 90
        0
176
     1
 62
     7
176
     1
 62
   257
176
     1
 90
        1
176
     1
 90
        1
176
     1
 40
1.0
176
     1
 90
        0
176
     1
 62
   257
176
     1
 40
1.0
176
     1
 90
        1
176
     1
 90
        6
176
     1
 90
        2
176
     1
 62
     7
176
     1
 90
        5
176
     1
 90
        0
176
     1
 90
        0
176
     1
290
     0
176
     1
 90
       13
176
     1
 40
0.0
176
     1
 90
        0
176
     1
290
     0
176
     1
290
     1
176
     1
290
     1
176
     1
290
     0
176
     1
290
     0
176
     1
290
     0
176
     1
290
     0
176
     1
290
     0
176
     1
290
     0
176
     1
 90
       50
176
     1
 40
0.0
176
     1
 40
1.0
176
     1
 90
        0
176
     1
 62
    18
420
        0
176
     1
 90
       50
176
     1
 90
        3
176
     1
 62
     5
420
      255
176
     1
290
     0
176
     1
 90
       50
176
     1
 90
       50
176
     1
 90
       50
176
     1
290
     0
176
     1
 90
       50
176
     1
 62
   256
176
     0
 40
1.0
176
     0
 90
        2
176
     1
  1
strokes_ogs.tif
176
     1
290
     0
176
     1
 40
1.0
176
     1
 40
1.0
176
     1
  0
VISUALSTYLE
  5
31
102
{ACAD_REACTORS
330
2A
102
}
330
2A
100
AcDbVisualStyle
  2
Hidden
 70
     6
177
     3
291
     0
 70
    58
 90
        1
176
     1
 90
        2
176
     1
 90
        2
176
     1
 90
        0
176
     1
 40
0.6
176
     1
 40
30.0
176
     1
 62
     7
420
 16777215
176
     1
 90
        2
176
     1
 90
        2
176
     1
 62
     7
176
     1
 62
   257
176
     1
 90
        2
176
     1
 90
        1
176
     1
 40
40.0
176
     1
 90
        0
176
     1
 62
   257
176
     1
 40
1.0
176
     1
 90
        1
176
     1
 90
        6
176
     1
 90
        2
176
     1
 62
     7
176
     1
 90
        3
176
     1
 90
        0
176
     1
 90
        0
176
     1
290
     0
176
     1
 90
        1
176
     1
 40
0.0
176
     1
 90
        0
176
     1
290
     0
176
     1
290
     1
176
     1
290
     1
176
     1
290
     0
176
     1
290
     0
176
     1
290
     0
176
     1
290
     0
176
     1
290
     0
176
     1
290
     0
176
     1
 90
       50
176
     1
 40
0.0
176
     1
 40
1.0
176
     1
 90
        0
176
     1
 62
    18
420
        0
176
     1
 90
       50
176
     1
 90
        3
176
     1
 62
     5
420
      255
176
     1
290
     0
176
     1
 90
       50
176
     1
 90
       50
176
     1
 90
       50
176
     1
290
     0
176
     1
 90
       50
176
     1
 62
   256
176
     0
 40
1.0
176
     0
 90
        2
176
     1
  1
strokes_ogs.tif
176
     1
290
     0
176
     1
 40
1.0
176
     1
 40
1.0
176
     1
  0
VISUALSTYLE
  5
3B
102
{ACAD_REACTORS
330
2A
102
}
330
2A
100
AcDbVisualStyle
  2
JitterOff
 70
    20
177
     3
291
     1
 70
    58
 90
        2
176
     0
 90
        2
176
     0
 90
        0
176
     0
 90
        0
176
     0
 40
0.6
176
     0
 40
30.0
176
     0
 62
     7
420
 16777215
176
     0
 90
        1
176
     0
 90
        4
176
     0
 62
     7
176
     0
 62
   257
176
     0
 90
        1
176
     0
 90
        1
176
     0
 40
1.0
176
     0
 90
       10
176
     2
 62
     7
176
     0
 40
1.0
176
     0
 90
        1
176
     0
 90
        6
176
     0
 90
        2
176
     0
 62
     7
176
     0
 90
        5
176
     0
 90
        0
176
     0
 90
        0
176
     0
290
     0
176
     0
 90
        1
176
     0
 40
0.0
176
     0
 90
        0
176
     0
290
     0
176
     0
290
     1
176
     0
290
     1
176
     0
290
     0
176
     0
290
     0
176
     0
290
     0
176
     0
290
     0
176
     0
290
     0
176
     0
290
     0
176
     0
 90
       50
176
     0
 40
0.0
176
     0
 40
1.0
176
     0
 90
        0
176
     0
 62
    18
420
        0
176
     0
 90
       50
176
     0
 90
        3
176
     0
 62
     5
420
      255
176
     0
290
     0
176
     0
 90
       50
176
     0
 90
       50
176
     0
 90
       50
176
     0
290
     0
176
     0
 90
       50
176
     0
 62
   256
176
     0
 40
1.0
176
     0
 90
        2
176
     0
  1
strokes_ogs.tif
176
     0
290
     0
176
     0
 40
1.0
176
     0
 40
1.0
176
     0
  0
VISUALSTYLE
  5
38
102
{ACAD_REACTORS
330
2A
102
}
330
2A
100
AcDbVisualStyle
  2
Linepattern
 70
    14
177
     3
291
     1
 70
    58
 90
        2
176
     1
 90
        2
176
     1
 90
        0
176
     1
 90
        0
176
     1
 40
0.6
176
     1
 40
30.0
176
     1
 62
     7
420
 16777215
176
     1
 90
        1
176
     1
 90
        4
176
     1
 62
     7
176
     1
 62
   257
176
     1
 90
        7
176
     1
 90
        7
176
     1
 40
1.0
176
     1
 90
        8
176
     1
 62
     7
176
     1
 40
1.0
176
     1
 90
        1
176
     1
 90
        6
176
     1
 90
        2
176
     1
 62
     7
176
     1
 90
        5
176
     1
 90
        0
176
     1
 90
        0
176
     1
290
     0
176
     1
 90
        1
176
     1
 40
0.0
176
     1
 90
        0
176
     1
290
     0
176
     1
290
     1
176
     1
290
     1
176
     1
290
     0
176
     1
290
     0
176
     1
290
     0
176
     1
290
     0
176
     1
290
     0
176
     1
290
     0
176
     1
 90
       50
176
     1
 40
0.0
176
     1
 40
1.0
176
     1
 90
        0
176
     1
 62
    18
420
        0
176
     1
 90
       50
176
     1
 90
        3
176
     1
 62
     5
420
      255
176
     1
290
     0
176
     1
 90
       50
176
     1
 90
       50
176
     1
 90
       50
176
     1
290
     0
176
     1
 90
       50
176
     1
 62
   256
176
     0
 40
1.0
176
     0
 90
        2
176
     1
  1
strokes_ogs.tif
176
     1
290
     0
176
     1
 40
1.0
176
     1
 40
1.0
176
     1
  0
VISUALSTYLE
  5
3C
102
{ACAD_REACTORS
330
2A
102
}
330
2A
100
AcDbVisualStyle
  2
OverhangOff
 70
    21
177
     3
291
     1
 70
    58
 90
        2
176
     0
 90
        2
176
     0
 90
        0
176
     0
 90
        0
176
     0
 40
0.6
176
     0
 40
30.0
176
     0
 62
     7
420
 16777215
176
     0
 90
        1
176
     0
 90
        4
176
     0
 62
     7
176
     0
 62
   257
176
     0
 90
        1
176
     0
 90
        1
176
     0
 40
1.0
176
     0
 90
        9
176
     2
 62
     7
176
     0
 40
1.0
176
     0
 90
        1
176
     0
 90
        6
176
     0
 90
        2
176
     0
 62
     7
176
     0
 90
        5
176
     0
 90
        0
176
     0
 90
        0
176
     0
290
     0
176
     0
 90
        1
176
     0
 40
0.0
176
     0
 90
        0
176
     0
290
     0
176
     0
290
     1
176
     0
290
     1
176
     0
290
     0
176
     0
290
     0
176
     0
290
     0
176
     0
290
     0
176
     0
290
     0
176
     0
290
     0
176
     0
 90
       50
176
     0
 40
0.0
176
     0
 40
1.0
176
     0
 90
        0
176
     0
 62
    18
420
        0
176
     0
 90
       50
176
     0
 90
        3
176
     0
 62
     5
420
      255
176
     0
290
     0
176
     0
 90
       50
176
     0
 90
       50
176
     0
 90
       50
176
     0
290
     0
176
     0
 90
       50
176
     0
 62
   256
176
     0
 40
1.0
176
     0
 90
        2
176
     0
  1
strokes_ogs.tif
176
     0
290
     0
176
     0
 40
1.0
176
     0
 40
1.0
176
     0
  0
VISUALSTYLE
  5
33
102
{ACAD_REACTORS
330
2A
102
}
330
2A
100
AcDbVisualStyle
  2
Realistic
 70
     8
177
     3
291
     0
 70
    58
 90
        2
176
     1
 90
        3
176
     1
 90
        0
176
     1
 90
        2
176
     1
 40
0.6
176
     1
 40
30.0
176
     1
 62
     7
420
 16777215
176
     1
 90
        0
176
     1
 90
        0
176
     1
 62
     7
176
     1
 62
   257
176
     1
 90
        1
176
     1
 90
        1
176
     1
 40
1.0
176
     1
 90
        8
176
     1
 62
   257
176
     1
 40
1.0
176
     1
 90
        1
176
     1
 90
        6
176
     1
 90
        2
176
     1
 62
     7
176
     1
 90
        3
176
     1
 90
        0
176
     1
 90
        0
176
     1
290
     0
176
     1
 90
       13
176
     1
 40
0.0
176
     1
 90
        0
176
     1
290
     0
176
     1
290
     1
176
     1
290
     1
176
     1
290
     0
176
     1
290
     0
176
     1
290
     0
176
     1
290
     0
176
     1
290
     0
176
     1
290
     0
176
     1
 90
       50
176
     1
 40
0.0
176
     1
 40
1.0
176
     1
 90
        0
176
     1
 62
    18
420
        0
176
     1
 90
       50
176
     1
 90
        3
176
     1
 62
     5
420
      255
176
     1
290
     0
176
     1
 90
       50
176
     1
 90
       50
176
     1
 90
       50
176
     1
290
     0
176
     1
 90
       50
176
     1
 62
   256
176
     0
 40
1.0
176
     0
 90
        2
176
     1
  1
strokes_ogs.tif
176
     1
290
     0
176
     1
 40
1.0
176
     1
 40
1.0
176
     1
  0
VISUALSTYLE
  5
42
102
{ACAD_REACTORS
330
2A
102
}
330
2A
100
AcDbVisualStyle
  2
Shaded
 70
    27
177
     3
291
     0
 70
    58
 90
        2
176
     1
 90
        2
176
     1
 90
        1
176
     1
 90
        2
176
     1
 40
0.6
176
     1
 40
30.0
176
     1
 62
     7
420
 16777215
176
     1
 90
        0
176
     1
 90
        4
176
     1
 62
     7
176
     1
 62
   257
176
     1
 90
        1
176
     1
 90
        1
176
     1
 40
1.0
176
     1
 90
        8
176
     1
 62
   257
176
     1
 40
1.0
176
     1
 90
        1
176
     1
 90
        6
176
     1
 90
        2
176
     1
 62
     8
420
  7895160
176
     1
 90
        3
176
     1
 90
        0
176
     1
 90
        0
176
     1
290
     0
176
     1
 90
        5
176
     1
 40
0.0
176
     1
 90
        0
176
     1
290
     0
176
     1
290
     1
176
     1
290
     1
176
     1
290
     0
176
     1
290
     0
176
     1
290
     0
176
     1
290
     0
176
     1
290
     0
176
     1
290
     0
176
     1
 90
       50
176
     1
 40
0.0
176
     1
 40
1.0
176
     1
 90
        0
176
     1
 62
    18
420
        0
176
     1
 90
       50
176
     1
 90
        3
176
     1
 62
     5
420
      255
176
     1
290
     0
176
     1
 90
       50
176
     1
 90
       50
176
     1
 90
       50
176
     1
290
     0
176
     1
 90
       50
176
     1
 62
   256
176
     0
 40
1.0
176
     0
 90
        2
176
     1
  1
strokes_ogs.tif
176
     1
290
     0
176
     1
 40
1.0
176
     1
 40
1.0
176
     1
  0
VISUALSTYLE
  5
41
102
{ACAD_REACTORS
330
2A
102
}
330
2A
100
AcDbVisualStyle
  2
Shaded with edges
 70
    26
177
     3
291
     0
 70
    58
 90
        2
176
     1
 90
        2
176
     1
 90
        1
176
     1
 90
        2
176
     1
 40
0.6
176
     1
 40
30.0
176
     1
 62
     7
420
 16777215
176
     1
 90
        1
176
     1
 90
       10
176
     1
 62
     7
176
     1
 62
   257
176
     1
 90
        2
176
     1
 90
        1
176
     1
 40
1.0
176
     1
 90
        8
176
     1
 62
   257
176
     1
 40
1.0
176
     1
 90
        1
176
     1
 90
        6
176
     1
 90
        2
176
     1
 62
     7
176
     1
 90
        3
176
     1
 90
        0
176
     1
 90
        0
176
     1
290
     0
176
     1
 90
        5
176
     1
 40
0.0
176
     1
 90
        0
176
     1
290
     0
176
     1
290
     1
176
     1
290
     1
176
     1
290
     0
176
     1
290
     0
176
     1
290
     0
176
     1
290
     0
176
     1
290
     0
176
     1
290
     0
176
     1
 90
       50
176
     1
 40
0.0
176
     1
 40
1.0
176
     1
 90
        0
176
     1
 62
    18
420
        0
176
     1
 90
       50
176
     1
 90
        3
176
     1
 62
     5
420
      255
176
     1
290
     0
176
     1
 90
       50
176
     1
 90
       50
176
     1
 90
       50
176
     1
290
     0
176
     1
 90
       50
176
     1
 62
   256
176
     0
 40
1.0
176
     0
 90
        2
176
     1
  1
strokes_ogs.tif
176
     1
290
     0
176
     1
 40
1.0
176
     1
 40
1.0
176
     1
  0
VISUALSTYLE
  5
3E
102
{ACAD_REACTORS
330
2A
102
}
330
2A
100
AcDbVisualStyle
  2
Shades of Gray
 70
    23
177
     3
291
     0
 70
    58
 90
        2
176
     1
 90
        2
176
     1
 90
        3
176
     1
 90
        0
176
     1
 40
0.6
176
     1
 40
30.0
176
     1
 62
     7
420
 16777215
176
     1
 90
        2
176
     1
 90
        2
176
     1
 62
     7
176
     1
 62
     7
176
     1
 90
        1
176
     1
 90
        1
176
     1
 40
40.0
176
     1
 90
        8
176
     1
 62
     7
176
     1
 40
1.0
176
     1
 90
        1
176
     1
 90
        6
176
     1
 90
        2
176
     1
 62
     7
176
     1
 90
        3
176
     1
 90
        0
176
     1
 90
        0
176
     1
290
     0
176
     1
 90
        1
176
     1
 40
0.0
176
     1
 90
        0
176
     1
290
     0
176
     1
290
     1
176
     1
290
     1
176
     1
290
     0
176
     1
290
     0
176
     1
290
     0
176
     1
290
     0
176
     1
290
     0
176
     1
290
     0
176
     1
 90
       50
176
     1
 40
0.0
176
     1
 40
1.0
176
     1
 90
        0
176
     1
 62
    18
420
        0
176
     1
 90
       50
176
     1
 90
        3
176
     1
 62
     5
420
      255
176
     1
290
     0
176
     1
 90
       50
176
     1
 90
       50
176
     1
 90
       50
176
     1
290
     0
176
     1
 90
       50
176
     1
 62
   256
176
     0
 40
1.0
176
     0
 90
        2
176
     1
  1
strokes_ogs.tif
176
     1
290
     0
176
     1
 40
1.0
176
     1
 40
1.0
176
     1
  0
VISUALSTYLE
  5
3F
102
{ACAD_REACTORS
330
2A
102
}
330
2A
100
AcDbVisualStyle
  2
Sketchy
 70
    24
177
     3
291
     0
 70
    58
 90
        1
176
     1
 90
        2
176
     1
 90
        2
176
     1
 90
        0
176
     1
 40
0.6
176
     1
 40
30.0
176
     1
 62
     7
420
 16777215
176
     1
 90
        2
176
     1
 90
        2
176
     1
 62
     7
176
     1
 62
     7
176
     1
 90
        1
176
     1
 90
        1
176
     1
 40
40.0
176
     1
 90
       11
176
     1
 62
     7
176
     1
 40
1.0
176
     1
 90
        1
176
     1
 90
        6
176
     1
 90
        2
176
     1
 62
     7
176
     1
 90
        6
176
     1
 90
        0
176
     1
 90
        0
176
     1
290
     0
176
     1
 90
        1
176
     1
 40
0.0
176
     1
 90
        0
176
     1
290
     0
176
     1
290
     1
176
     1
290
     1
176
     1
290
     0
176
     1
290
     0
176
     1
290
     0
176
     1
290
     0
176
     1
290
     0
176
     1
290
     0
176
     1
 90
       50
176
     1
 40
0.0
176
     1
 40
1.0
176
     1
 90
        0
176
     1
 62
    18
420
        0
176
     1
 90
       50
176
     1
 90
        3
176
     1
 62
     5
420
      255
176
     1
290
     0
176
     1
 90
       50
176
     1
 90
       50
176
     1
 90
       50
176
     1
290
     0
176
     1
 90
       50
176
     1
 62
   256
176
     0
 40
1.0
176
     0
 90
        2
176
     1
  1
strokes_ogs.tif
176
     1
290
     0
176
     1
 40
1.0
176
     1
 40
1.0
176
     1
  0
VISUALSTYLE
  5
37
102
{ACAD_REACTORS
330
2A
102
}
330
2A
100
AcDbVisualStyle
  2
Thicken
 70
    13
177
     3
291
     1
 70
    58
 90
        2
176
     1
 90
        2
176
     1
 90
        0
176
     1
 90
        0
176
     1
 40
0.6
176
     1
 40
30.0
176
     1
 62
     7
420
 16777215
176
     1
 90
        1
176
     1
 90
        4
176
     1
 62
     7
176
     1
 62
   257
176
     1
 90
        1
176
     1
 90
        1
176
     1
 40
1.0
176
     1
 90
       12
176
     1
 62
     7
176
     1
 40
1.0
176
     1
 90
        1
176
     1
 90
        6
176
     1
 90
        2
176
     1
 62
     7
176
     1
 90
        5
176
     1
 90
        0
176
     1
 90
        0
176
     1
290
     0
176
     1
 90
        1
176
     1
 40
0.0
176
     1
 90
        0
176
     1
290
     0
176
     1
290
     1
176
     1
290
     1
176
     1
290
     0
176
     1
290
     0
176
     1
290
     0
176
     1
290
     0
176
     1
290
     0
176
     1
290
     0
176
     1
 90
       50
176
     1
 40
0.0
176
     1
 40
1.0
176
     1
 90
        0
176
     1
 62
    18
420
        0
176
     1
 90
       50
176
     1
 90
        3
176
     1
 62
     5
420
      255
176
     1
290
     0
176
     1
 90
       50
176
     1
 90
       50
176
     1
 90
       50
176
     1
290
     0
176
     1
 90
       50
176
     1
 62
   256
176
     0
 40
1.0
176
     0
 90
        2
176
     1
  1
strokes_ogs.tif
176
     1
290
     0
176
     1
 40
1.0
176
     1
 40
1.0
176
     1
  0
VISUALSTYLE
  5
30
102
{ACAD_REACTORS
330
2A
102
}
330
2A
100
AcDbVisualStyle
  2
Wireframe
 70
     5
177
     3
291
     0
 70
    58
 90
        0
176
     1
 90
        2
176
     1
 90
        0
176
     1
 90
        0
176
     1
 40
0.6
176
     1
 40
30.0
176
     1
 62
     7
420
 16777215
176
     1
 90
        1
176
     1
 90
        4
176
     1
 62
     7
176
     1
 62
   257
176
     1
 90
        1
176
     1
 90
        1
176
     1
 40
1.0
176
     1
 90
        0
176
     1
 62
   257
176
     1
 40
1.0
176
     1
 90
        1
176
     1
 90
        6
176
     1
 90
        2
176
     1
 62
     7
176
     1
 90
        3
176
     1
 90
        0
176
     1
 90
        0
176
     1
290
     0
176
     1
 90
        1
176
     1
 40
0.0
176
     1
 90
        0
176
     1
290
     0
176
     1
290
     1
176
     1
290
     1
176
     1
290
     0
176
     1
290
     0
176
     1
290
     0
176
     1
290
     0
176
     1
290
     0
176
     1
290
     0
176
     1
 90
       50
176
     1
 40
0.0
176
     1
 40
1.0
176
     1
 90
        0
176
     1
 62
    18
420
        0
176
     1
 90
       50
176
     1
 90
        3
176
     1
 62
     5
420
      255
176
     1
290
     0
176
     1
 90
       50
176
     1
 90
       50
176
     1
 90
       50
176
     1
290
     0
176
     1
 90
       50
176
     1
 62
   256
176
     0
 40
1.0
176
     0
 90
        2
176
     1
  1
strokes_ogs.tif
176
     1
290
     0
176
     1
 40
1.0
176
     1
 40
1.0
176
     1
  0
VISUALSTYLE
  5
40
102
{ACAD_REACTORS
330
2A
102
}
330
2A
100
AcDbVisualStyle
  2
X-Ray
 70
    25
177
     3
291
     0
 70
    58
 90
        2
176
     1
 90
        2
176
     1
 90
        1
176
     1
 90
        1
176
     1
 40
0.5
176
     1
 40
30.0
176
     1
 62
     7
420
 16777215
176
     1
 90
        1
176
     1
 90
        0
176
     1
 62
     7
176
     1
 62
   257
176
     1
 90
        1
176
     1
 90
        1
176
     1
 40
1.0
176
     1
 90
        8
176
     1
 62
     7
176
     1
 40
1.0
176
     1
 90
        1
176
     1
 90
        6
176
     1
 90
        2
176
     1
 62
     7
176
     1
 90
        3
176
     1
 90
        0
176
     1
 90
        0
176
     1
290
     0
176
     1
 90
       13
176
     1
 40
0.0
176
     1
 90
        0
176
     1
290
     0
176
     1
290
     1
176
     1
290
     1
176
     1
290
     0
176
     1
290
     0
176
     1
290
     0
176
     1
290
     0
176
     1
290
     0
176
     1
290
     0
176
     1
 90
       50
176
     1
 40
0.0
176
     1
 40
1.0
176
     1
 90
        0
176
     1
 62
    18
420
        0
176
     1
 90
       50
176
     1
 90
        3
176
     1
 62
     5
420
      255
176
     1
290
     0
176
     1
 90
       50
176
     1
 90
       50
176
     1
 90
       50
176
     1
290
     0
176
     1
 90
       50
176
     1
 62
   256
176
     0
 40
1.0
176
     0
 90
        2
176
     1
  1
strokes_ogs.tif
176
     1
290
     0
176
     1
 40
1.0
176
     1
 40
1.0
176
     1
  0
DICTIONARYVAR
  5
15B
102
{ACAD_REACTORS
330
15A
102
}
330
15A
100
DictionaryVariables
280
     0
  1
1:1
  0
DICTIONARYVAR
  5
160
102
{ACAD_REACTORS
330
15A
102
}
330
15A
100
DictionaryVariables
280
     0
  1
Standard
  0
DICTIONARYVAR
  5
15F
102
{ACAD_REACTORS
330
15A
102
}
330
15A
100
DictionaryVariables
280
     0
  1
Standard
  0
DICTIONARY
  5
15C
330
6A
100
AcDbDictionary
280
     1
281
     1
  3
ACAD_ROUNDTRIP_2008_TABLESTYLE_CELLSTYLEMAP
360
15D
  0
CELLSTYLEMAP
  5
15D
102
{ACAD_REACTORS
330
15C
102
}
330
15C
100
AcDbCellStyleMap
 90
        3
300
CELLSTYLE
  1
TABLEFORMAT_BEGIN
 90
        5
170
     1
 91
        0
 92
    32768
 62
   257
 93
        1
300
CONTENTFORMAT
  1
CONTENTFORMAT_BEGIN
 90
        0
 91
        0
 92
        4
 93
        0
300

 40
0.0
140
1.0
 94
        5
 62
     0
340
11
144
6.0
309
CONTENTFORMAT_END
171
     1
301
MARGIN
  1
CELLMARGIN_BEGIN
 40
1.5
 40
1.5
 40
1.5
 40
1.5
 40
1.5
 40
1.5
309
CELLMARGIN_END
 94
        6
 95
        1
302
GRIDFORMAT
  1
GRIDFORMAT_BEGIN
 90
        0
 91
        1
 62
     0
 92
       -2
340
14
 93
        0
 40
0.045
309
GRIDFORMAT_END
 95
        2
302
GRIDFORMAT
  1
GRIDFORMAT_BEGIN
 90
        0
 91
        1
 62
     0
 92
       -2
340
14
 93
        0
 40
0.045
309
GRIDFORMAT_END
 95
        4
302
GRIDFORMAT
  1
GRIDFORMAT_BEGIN
 90
        0
 91
        1
 62
     0
 92
       -2
340
14
 93
        0
 40
0.045
309
GRIDFORMAT_END
 95
        8
302
GRIDFORMAT
  1
GRIDFORMAT_BEGIN
 90
        0
 91
        1
 62
     0
 92
       -2
340
14
 93
        0
 40
0.045
309
GRIDFORMAT_END
 95
       16
302
GRIDFORMAT
  1
GRIDFORMAT_BEGIN
 90
        0
 91
        1
 62
     0
 92
       -2
340
14
 93
        0
 40
0.045
309
GRIDFORMAT_END
 95
       32
302
GRIDFORMAT
  1
GRIDFORMAT_BEGIN
 90
        0
 91
        1
 62
     0
 92
       -2
340
14
 93
        0
 40
0.045
309
GRIDFORMAT_END
309
TABLEFORMAT_END
  1
CELLSTYLE_BEGIN
 90
        1
 91
        1
300
_TITLE
309
CELLSTYLE_END
300
CELLSTYLE
  1
TABLEFORMAT_BEGIN
 90
        5
170
     1
 91
        0
 92
        0
 62
   257
 93
        1
300
CONTENTFORMAT
  1
CONTENTFORMAT_BEGIN
 90
        0
 91
        0
 92
        4
 93
        0
300

 40
0.0
140
1.0
 94
        5
 62
     0
340
11
144
4.5
309
CONTENTFORMAT_END
171
     1
301
MARGIN
  1
CELLMARGIN_BEGIN
 40
1.5
 40
1.5
 40
1.5
 40
1.5
 40
1.5
 40
1.5
309
CELLMARGIN_END
 94
        6
 95
        1
302
GRIDFORMAT
  1
GRIDFORMAT_BEGIN
 90
        0
 91
        1
 62
     0
 92
       -2
340
14
 93
        0
 40
0.045
309
GRIDFORMAT_END
 95
        2
302
GRIDFORMAT
  1
GRIDFORMAT_BEGIN
 90
        0
 91
        1
 62
     0
 92
       -2
340
14
 93
        0
 40
0.045
309
GRIDFORMAT_END
 95
        4
302
GRIDFORMAT
  1
GRIDFORMAT_BEGIN
 90
        0
 91
        1
 62
     0
 92
       -2
340
14
 93
        0
 40
0.045
309
GRIDFORMAT_END
 95
        8
302
GRIDFORMAT
  1
GRIDFORMAT_BEGIN
 90
        0
 91
        1
 62
     0
 92
       -2
340
14
 93
        0
 40
0.045
309
GRIDFORMAT_END
 95
       16
302
GRIDFORMAT
  1
GRIDFORMAT_BEGIN
 90
        0
 91
        1
 62
     0
 92
       -2
340
14
 93
        0
 40
0.045
309
GRIDFORMAT_END
 95
       32
302
GRIDFORMAT
  1
GRIDFORMAT_BEGIN
 90
        0
 91
        1
 62
     0
 92
       -2
340
14
 93
        0
 40
0.045
309
GRIDFORMAT_END
309
TABLEFORMAT_END
  1
CELLSTYLE_BEGIN
 90
        2
 91
        1
300
_HEADER
309
CELLSTYLE_END
300
CELLSTYLE
  1
TABLEFORMAT_BEGIN
 90
        5
170
     1
 91
        0
 92
        0
 62
   257
 93
        1
300
CONTENTFORMAT
  1
CONTENTFORMAT_BEGIN
 90
        0
 91
        0
 92
        4
 93
        0
300

 40
0.0
140
1.0
 94
        2
 62
     0
340
11
144
4.5
309
CONTENTFORMAT_END
171
     1
301
MARGIN
  1
CELLMARGIN_BEGIN
 40
1.5
 40
1.5
 40
1.5
 40
1.5
 40
1.5
 40
1.5
309
CELLMARGIN_END
 94
        6
 95
        1
302
GRIDFORMAT
  1
GRIDFORMAT_BEGIN
 90
        0
 91
        1
 62
     0
 92
       -2
340
14
 93
        0
 40
0.045
309
GRIDFORMAT_END
 95
        2
302
GRIDFORMAT
  1
GRIDFORMAT_BEGIN
 90
        0
 91
        1
 62
     0
 92
       -2
340
14
 93
        0
 40
0.045
309
GRIDFORMAT_END
 95
        4
302
GRIDFORMAT
  1
GRIDFORMAT_BEGIN
 90
        0
 91
        1
 62
     0
 92
       -2
340
14
 93
        0
 40
0.045
309
GRIDFORMAT_END
 95
        8
302
GRIDFORMAT
  1
GRIDFORMAT_BEGIN
 90
        0
 91
        1
 62
     0
 92
       -2
340
14
 93
        0
 40
0.045
309
GRIDFORMAT_END
 95
       16
302
GRIDFORMAT
  1
GRIDFORMAT_BEGIN
 90
        0
 91
        1
 62
     0
 92
       -2
340
14
 93
        0
 40
0.045
309
GRIDFORMAT_END
 95
       32
302
GRIDFORMAT
  1
GRIDFORMAT_BEGIN
 90
        0
 91
        1
 62
     0
 92
       -2
340
14
 93
        0
 40
0.045
309
GRIDFORMAT_END
309
TABLEFORMAT_END
  1
CELLSTYLE_BEGIN
 90
        3
 91
        2
300
_DATA
309
CELLSTYLE_END
  0
ENDSEC
  0
EOF