0
SECTION
  2
HEADER
  9
$ACADVER
  1
AC1027
  9
$ACADMAINTVER
 70
     8
  9
$DWGCODEPAGE
  3
ANSI_1252
  9
$REQUIREDVERSIONS
160
                 0
  9
$COMMENTS
  1
File was created by Cadenas
  9
$CUSTOMPROPERTYTAG
  1
NN
  9
$CUSTOMPROPERTY
  1
Set Screw Medium Duty Air-Handling Two-Bolt Pillow Block Metric Bore
  9
$CUSTOMPROPERTYTAG
  1
NT
  9
$CUSTOMPROPERTY
  1
SC Pillow Block Bearings -(Medium Duty) -Air Handling
  9
$CUSTOMPROPERTYTAG
  1
NB
  9
$CUSTOMPROPERTY
  1
064136
  9
$CUSTOMPROPERTYTAG
  1
NBSYN
  9
$CUSTOMPROPERTY
  1
$PN.
  9
$CUSTOMPROPERTYTAG
  1
LINA
  9
$CUSTOMPROPERTY
  1
064136
  9
$CUSTOMPROPERTYTAG
  1
SERIES
  9
$CUSTOMPROPERTY
  1
209
  9
$CUSTOMPROPERTYTAG
  1
SS
  9
$CUSTOMPROPERTY
  1
40
  9
$CUSTOMPROPERTYTAG
  1
PN
  9
$CUSTOMPROPERTY
  1
064136
  9
$CUSTOMPROPERTYTAG
  1
DESCRIPTION
  9
$CUSTOMPROPERTY
  1
P2B-SCMAH-40M
  9
$CUSTOMPROPERTYTAG
  1
WEIGHT
  9
$CUSTOMPROPERTY
  1
2.7
  9
$CUSTOMPROPERTYTAG
  1
A
  9
$CUSTOMPROPERTY
  1
49.3
  9
$CUSTOMPROPERTYTAG
  1
B
  9
$CUSTOMPROPERTY
  1
189.0
  9
$CUSTOMPROPERTYTAG
  1
C
  9
$CUSTOMPROPERTY
  1
50.8
  9
$CUSTOMPROPERTYTAG
  1
DMIN
  9
$CUSTOMPROPERTY
  1
139.7
  9
$CUSTOMPROPERTYTAG
  1
DMAX
  9
$CUSTOMPROPERTY
  1
157.2
  9
$CUSTOMPROPERTYTAG
  1
F
  9
$CUSTOMPROPERTY
  1
M12
  9
$CUSTOMPROPERTYTAG
  1
G
  9
$CUSTOMPROPERTY
  1
22.9
  9
$CUSTOMPROPERTYTAG
  1
H
  9
$CUSTOMPROPERTY
  1
19.1
  9
$CUSTOMPROPERTYTAG
  1
J
  9
$CUSTOMPROPERTY
  1
108.7
  9
$CUSTOMPROPERTYTAG
  1
L
  9
$CUSTOMPROPERTY
  1
56.4
  9
$CUSTOMPROPERTYTAG
  1
M
  9
$CUSTOMPROPERTY
  1
54.1
  9
$CUSTOMPROPERTYTAG
  1
R
  9
$CUSTOMPROPERTY
  1
19.1
  9
$CUSTOMPROPERTYTAG
  1
S
  9
$CUSTOMPROPERTY
  1
30.2
  9
$CUSTOMPROPERTYTAG
  1
U
  9
$CUSTOMPROPERTY
  1
85.9
  9
$CUSTOMPROPERTYTAG
  1
V
  9
$CUSTOMPROPERTY
  1
171.7
  9
$CUSTOMPROPERTYTAG
  1
W
  9
$CUSTOMPROPERTY
  1
17.5
  9
$CUSTOMPROPERTYTAG
  1
X
  9
$CUSTOMPROPERTY
  1
3.0
  9
$CUSTOMPROPERTYTAG
  1
COMPANY
  9
$CUSTOMPROPERTY
  1
baldor
  9
$INSBASE
 10
0.0
 20
0.0
 30
0.0
  9
$EXTMIN
 10
1.000000000000000E+20
 20
1.000000000000000E+20
 30
1.000000000000000E+20
  9
$EXTMAX
 10
-1.000000000000000E+20
 20
-1.000000000000000E+20
 30
-1.000000000000000E+20
  9
$LIMMIN
 10
0.0
 20
0.0
  9
$LIMMAX
 10
420.0
 20
297.0
  9
$ORTHOMODE
 70
     0
  9
$REGENMODE
 70
     1
  9
$FILLMODE
 70
     1
  9
$QTEXTMODE
 70
     0
  9
$MIRRTEXT
 70
     1
  9
$LTSCALE
 40
1.0
  9
$ATTMODE
 70
     1
  9
$TEXTSIZE
 40
2.5
  9
$TRACEWID
 40
1.0
  9
$TEXTSTYLE
  7
Standard
  9
$CLAYER
  8
0
  9
$CELTYPE
  6
ByLayer
  9
$CECOLOR
 62
   256
  9
$CELTSCALE
 40
1.0
  9
$DISPSILH
 70
     0
  9
$DIMSCALE
 40
1.0
  9
$DIMASZ
 40
2.5
  9
$DIMEXO
 40
0.625
  9
$DIMDLI
 40
3.75
  9
$DIMRND
 40
0.0
  9
$DIMDLE
 40
0.0
  9
$DIMEXE
 40
1.25
  9
$DIMTP
 40
0.0
  9
$DIMTM
 40
0.0
  9
$DIMTXT
 40
2.5
  9
$DIMCEN
 40
2.5
  9
$DIMTSZ
 40
0.0
  9
$DIMTOL
 70
     0
  9
$DIMLIM
 70
     0
  9
$DIMTIH
 70
     0
  9
$DIMTOH
 70
     0
  9
$DIMSE1
 70
     0
  9
$DIMSE2
 70
     0
  9
$DIMTAD
 70
     1
  9
$DIMZIN
 70
     8
  9
$DIMBLK
  1

  9
$DIMASO
 70
     1
  9
$DIMSHO
 70
     1
  9
$DIMPOST
  1

  9
$DIMAPOST
  1

  9
$DIMALT
 70
     0
  9
$DIMALTD
 70
     3
  9
$DIMALTF
 40
0.03937007874016
  9
$DIMLFAC
 40
1.0
  9
$DIMTOFL
 70
     1
  9
$DIMTVP
 40
0.0
  9
$DIMTIX
 70
     0
  9
$DIMSOXD
 70
     0
  9
$DIMSAH
 70
     0
  9
$DIMBLK1
  1

  9
$DIMBLK2
  1

  9
$DIMSTYLE
  2
ISO-25
  9
$DIMCLRD
 70
     0
  9
$DIMCLRE
 70
     0
  9
$DIMCLRT
 70
     0
  9
$DIMTFAC
 40
1.0
  9
$DIMGAP
 40
0.625
  9
$DIMJUST
 70
     0
  9
$DIMSD1
 70
     0
  9
$DIMSD2
 70
     0
  9
$DIMTOLJ
 70
     0
  9
$DIMTZIN
 70
     8
  9
$DIMALTZ
 70
     0
  9
$DIMALTTZ
 70
     0
  9
$DIMUPT
 70
     0
  9
$DIMDEC
 70
     2
  9
$DIMTDEC
 70
     2
  9
$DIMALTU
 70
     2
  9
$DIMALTTD
 70
     3
  9
$DIMTXSTY
  7
Standard
  9
$DIMAUNIT
 70
     0
  9
$DIMADEC
 70
     0
  9
$DIMALTRND
 40
0.0
  9
$DIMAZIN
 70
     0
  9
$DIMDSEP
 70
    44
  9
$DIMATFIT
 70
     3
  9
$DIMFRAC
 70
     0
  9
$DIMLDRBLK
  1

  9
$DIMLUNIT
 70
     2
  9
$DIMLWD
 70
    -2
  9
$DIMLWE
 70
    -2
  9
$DIMTMOVE
 70
     0
  9
$DIMFXL
 40
1.0
  9
$DIMFXLON
 70
     0
  9
$DIMJOGANG
 40
0.7853981633974483
  9
$DIMTFILL
 70
     0
  9
$DIMTFILLCLR
 70
     0
  9
$DIMARCSYM
 70
     0
  9
$DIMLTYPE
  6

  9
$DIMLTEX1
  6

  9
$DIMLTEX2
  6

  9
$DIMTXTDIRECTION
 70
     0
  9
$LUNITS
 70
     2
  9
$LUPREC
 70
     4
  9
$SKETCHINC
 40
1.0
  9
$FILLETRAD
 40
10.0
  9
$AUNITS
 70
     0
  9
$AUPREC
 70
     0
  9
$MENU
  1
.
  9
$ELEVATION
 40
0.0
  9
$PELEVATION
 40
0.0
  9
$THICKNESS
 40
0.0
  9
$LIMCHECK
 70
     0
  9
$CHAMFERA
 40
0.0
  9
$CHAMFERB
 40
0.0
  9
$CHAMFERC
 40
0.0
  9
$CHAMFERD
 40
0.0
  9
$SKPOLY
 70
     0
  9
$TDCREATE
 40
2458168.986961968
  9
$TDUCREATE
 40
2458168.945295301
  9
$TDUPDATE
 40
2458168.986962153
  9
$TDUUPDATE
 40
2458168.945295486
  9
$TDINDWG
 40
0.0000000116
  9
$TDUSRTIMER
 40
0.0000000116
  9
$USRTIMER
 70
     1
  9
$ANGBASE
 50
0.0
  9
$ANGDIR
 70
     0
  9
$PDMODE
 70
     0
  9
$PDSIZE
 40
0.0
  9
$PLINEWID
 40
0.0
  9
$SPLFRAME
 70
     0
  9
$SPLINETYPE
 70
     6
  9
$SPLINESEGS
 70
     8
  9
$HANDSEED
  5
1E2
  9
$SURFTAB1
 70
     6
  9
$SURFTAB2
 70
     6
  9
$SURFTYPE
 70
     6
  9
$SURFU
 70
     6
  9
$SURFV
 70
     6
  9
$UCSBASE
  2

  9
$UCSNAME
  2

  9
$UCSORG
 10
0.0
 20
0.0
 30
0.0
  9
$UCSXDIR
 10
1.0
 20
0.0
 30
0.0
  9
$UCSYDIR
 10
0.0
 20
1.0
 30
0.0
  9
$UCSORTHOREF
  2

  9
$UCSORTHOVIEW
 70
     0
  9
$UCSORGTOP
 10
0.0
 20
0.0
 30
0.0
  9
$UCSORGBOTTOM
 10
0.0
 20
0.0
 30
0.0
  9
$UCSORGLEFT
 10
0.0
 20
0.0
 30
0.0
  9
$UCSORGRIGHT
 10
0.0
 20
0.0
 30
0.0
  9
$UCSORGFRONT
 10
0.0
 20
0.0
 30
0.0
  9
$UCSORGBACK
 10
0.0
 20
0.0
 30
0.0
  9
$PUCSBASE
  2

  9
$PUCSNAME
  2

  9
$PUCSORG
 10
0.0
 20
0.0
 30
0.0
  9
$PUCSXDIR
 10
1.0
 20
0.0
 30
0.0
  9
$PUCSYDIR
 10
0.0
 20
1.0
 30
0.0
  9
$PUCSORTHOREF
  2

  9
$PUCSORTHOVIEW
 70
     0
  9
$PUCSORGTOP
 10
0.0
 20
0.0
 30
0.0
  9
$PUCSORGBOTTOM
 10
0.0
 20
0.0
 30
0.0
  9
$PUCSORGLEFT
 10
0.0
 20
0.0
 30
0.0
  9
$PUCSORGRIGHT
 10
0.0
 20
0.0
 30
0.0
  9
$PUCSORGFRONT
 10
0.0
 20
0.0
 30
0.0
  9
$PUCSORGBACK
 10
0.0
 20
0.0
 30
0.0
  9
$USERI1
 70
     0
  9
$USERI2
 70
     0
  9
$USERI3
 70
     0
  9
$USERI4
 70
     0
  9
$USERI5
 70
     0
  9
$USERR1
 40
0.0
  9
$USERR2
 40
0.0
  9
$USERR3
 40
0.0
  9
$USERR4
 40
0.0
  9
$USERR5
 40
0.0
  9
$WORLDVIEW
 70
     1
  9
$SHADEDGE
 70
     3
  9
$SHADEDIF
 70
    70
  9
$TILEMODE
 70
     1
  9
$MAXACTVP
 70
    64
  9
$PINSBASE
 10
0.0
 20
0.0
 30
0.0
  9
$PLIMCHECK
 70
     0
  9
$PEXTMIN
 10
1.000000000000000E+20
 20
1.000000000000000E+20
 30
1.000000000000000E+20
  9
$PEXTMAX
 10
-1.000000000000000E+20
 20
-1.000000000000000E+20
 30
-1.000000000000000E+20
  9
$PLIMMIN
 10
0.0
 20
0.0
  9
$PLIMMAX
 10
420.0
 20
297.0
  9
$UNITMODE
 70
     0
  9
$VISRETAIN
 70
     1
  9
$PLINEGEN
 70
     0
  9
$PSLTSCALE
 70
     1
  9
$TREEDEPTH
 70
  3020
  9
$CMLSTYLE
  2
Standard
  9
$CMLJUST
 70
     0
  9
$CMLSCALE
 40
20.0
  9
$PROXYGRAPHICS
 70
     1
  9
$MEASUREMENT
 70
     1
  9
$CELWEIGHT
370
    -1
  9
$ENDCAPS
280
     0
  9
$JOINSTYLE
280
     0
  9
$LWDISPLAY
290
     0
  9
$INSUNITS
 70
     4
  9
$HYPERLINKBASE
  1

  9
$STYLESHEET
  1

  9
$XEDIT
290
     1
  9
$CEPSNTYPE
380
     0
  9
$PSTYLEMODE
290
     1
  9
$FINGERPRINTGUID
  2
{352E806E-AA4B-42EB-B866-8DC24EFD66D8}
  9
$VERSIONGUID
  2
{FAEB1C32-E019-11D5-929B-00C0DF256EC4}
  9
$EXTNAMES
290
     1
  9
$PSVPSCALE
 40
0.0
  9
$OLESTARTUP
290
     0
  9
$SORTENTS
280
   127
  9
$INDEXCTL
280
     0
  9
$HIDETEXT
280
     1
  9
$XCLIPFRAME
280
     2
  9
$HALOGAP
280
     0
  9
$OBSCOLOR
 70
   257
  9
$OBSLTYPE
280
     0
  9
$INTERSECTIONDISPLAY
280
     0
  9
$INTERSECTIONCOLOR
 70
   257
  9
$DIMASSOC
280
     2
  9
$PROJECTNAME
  1

  9
$CAMERADISPLAY
290
     0
  9
$LENSLENGTH
 40
50.0
  9
$CAMERAHEIGHT
 40
0.0
  9
$STEPSPERSEC
 40
2.0
  9
$STEPSIZE
 40
6.0
  9
$3DDWFPREC
 40
2.0
  9
$PSOLWIDTH
 40
5.0
  9
$PSOLHEIGHT
 40
80.0
  9
$LOFTANG1
 40
1.570796326794897
  9
$LOFTANG2
 40
1.570796326794897
  9
$LOFTMAG1
 40
0.0
  9
$LOFTMAG2
 40
0.0
  9
$LOFTPARAM
 70
     7
  9
$LOFTNORMALS
280
     1
  9
$LATITUDE
 40
37.795
  9
$LONGITUDE
 40
-122.394
  9
$NORTHDIRECTION
 40
0.0
  9
$TIMEZONE
 70
 -8000
  9
$LIGHTGLYPHDISPLAY
280
     1
  9
$TILEMODELIGHTSYNCH
280
     1
  9
$CMATERIAL
347
44
  9
$SOLIDHIST
280
     0
  9
$SHOWHIST
280
     1
  9
$DWFFRAME
280
     2
  9
$DGNFRAME
280
     2
  9
$REALWORLDSCALE
290
     1
  9
$INTERFERECOLOR
 62
   256
  9
$CSHADOW
280
     0
  9
$SHADOWPLANELOCATION
 40
0.0
  0
ENDSEC
  0
SECTION
  2
CLASSES
  0
CLASS
  1
ACDBDICTIONARYWDFLT
  2
AcDbDictionaryWithDefault
  3
ObjectDBX Classes
 90
        0
 91
        4
280
     0
281
     0
  0
CLASS
  1
VISUALSTYLE
  2
AcDbVisualStyle
  3
ObjectDBX Classes
 90
     4095
 91
        4
280
     0
281
     0
  0
CLASS
  1
MATERIAL
  2
AcDbMaterial
  3
ObjectDBX Classes
 90
     1153
 91
        4
280
     0
281
     0
  0
CLASS
  1
SCALE
  2
AcDbScale
  3
ObjectDBX Classes
 90
     1153
 91
        4
280
     0
281
     0
  0
CLASS
  1
TABLESTYLE
  2
AcDbTableStyle
  3
ObjectDBX Classes
 90
     4095
 91
        4
280
     0
281
     0
  0
CLASS
  1
MLEADERSTYLE
  2
AcDbMLeaderStyle
  3
ACDB_MLEADERSTYLE_CLASS
 90
     4095
 91
        4
280
     0
281
     0
  0
CLASS
  1
SUN
  2
AcDbSun
  3
SCENEOE
 90
     1153
 91
        4
280
     0
281
     0
  0
CLASS
  1
DICTIONARYVAR
  2
AcDbDictionaryVar
  3
ObjectDBX Classes
 90
        0
 91
        4
280
     0
281
     0
  0
CLASS
  1
CELLSTYLEMAP
  2
AcDbCellStyleMap
  3
ObjectDBX Classes
 90
     1152
 91
        4
280
     0
281
     0
  0
ENDSEC
  0
SECTION
  2
TABLES
  0
TABLE
  2
VPORT
  5
8
330
0
100
AcDbSymbolTable
 70
     1
  0
VPORT
  5
29
330
8
100
AcDbSymbolTableRecord
100
AcDbViewportTableRecord
  2
*Active
 70
     0
 10
0.0
 20
0.0
 11
1.0
 21
1.0
 12
0.0
 22
-2.362499999999955
 13
0.0
 23
0.0
 14
10.0
 24
10.0
 15
10.0
 25
10.0
 16
0.0
 26
0.0
 36
1.0
 17
0.0
 27
0.0
 37
0.0
 40
61.81709999999992
 41
3.118554574705061
 42
50.0
 43
0.0
 44
0.0
 50
0.0
 51
0.0
 71
     0
 72
   100
 73
     1
 74
     3
 75
     0
 76
     0
 77
     0
 78
     0
281
     0
 65
     1
110
0.0
120
0.0
130
0.0
111
1.0
121
0.0
131
0.0
112
0.0
122
1.0
132
0.0
 79
     0
146
0.0
348
2F
 60
     3
 61
     5
292
     1
282
     1
141
0.0
142
0.0
 63
   250
361
6D
  0
ENDTAB
  0
TABLE
  2
LTYPE
  5
5
330
0
100
AcDbSymbolTable
 70
     3
  0
LTYPE
  5
14
330
5
100
AcDbSymbolTableRecord
100
AcDbLinetypeTableRecord
  2
ByBlock
 70
     0
  3

 72
    65
 73
     0
 40
0.0
  0
LTYPE
  5
15
330
5
100
AcDbSymbolTableRecord
100
AcDbLinetypeTableRecord
  2
ByLayer
 70
     0
  3

 72
    65
 73
     0
 40
0.0
  0
LTYPE
  5
16
330
5
100
AcDbSymbolTableRecord
100
AcDbLinetypeTableRecord
  2
Continuous
 70
     0
  3
Solid line
 72
    65
 73
     0
 40
0.0
  0
LTYPE
  5
9B
330
5
100
AcDbSymbolTableRecord
100
AcDbLinetypeTableRecord
  2
Dashed
 70
     0
  3

 72
    65
 73
     2
 40
2.0
 49
1.0
 74
     0
 49
-1.0
 74
     0
  0
LTYPE
  5
118
330
5
100
AcDbSymbolTableRecord
100
AcDbLinetypeTableRecord
  2
Center
 70
     0
  3

 72
    65
 73
     4
 40
1.5
 49
0.45
 74
     0
 49
-0.5
 74
     0
 49
0.05
 74
     0
 49
-0.5
 74
     0
  0
ENDTAB
  0
TABLE
  2
LAYER
  5
2
330
0
100
AcDbSymbolTable
 70
     7
  0
LAYER
  5
10
330
2
100
AcDbSymbolTableRecord
100
AcDbLayerTableRecord
  2
0
 70
     0
 62
     7
  6
Continuous
370
    -3
390
F
347
46
348
0
  0
LAYER
  5
72
330
2
100
AcDbSymbolTableRecord
100
AcDbLayerTableRecord
  2
AM_6
 70
     0
 62
    -2
  6
Continuous
370
    35
390
F
347
46
348
0
  0
LAYER
  5
9C
330
2
100
AcDbSymbolTableRecord
100
AcDbLayerTableRecord
  2
AM_9
 70
     0
 62
     6
  6
Dashed
370
    25
390
F
347
46
348
0
  0
LAYER
  5
B9
330
2
100
AcDbSymbolTableRecord
100
AcDbLayerTableRecord
  2
AM_4
 70
     0
 62
     7
  6
Continuous
370
    50
390
F
347
46
348
0
  0
LAYER
  5
119
330
2
100
AcDbSymbolTableRecord
100
AcDbLayerTableRecord
  2
AM_7
 70
     0
 62
     7
  6
Center
370
    25
390
F
347
46
348
0
  0
LAYER
  5
12E
330
2
100
AcDbSymbolTableRecord
100
AcDbLayerTableRecord
  2
AM_5
 70
     0
 62
     3
  6
Continuous
370
    25
390
F
347
46
348
0
  0
LAYER
  5
1D5
330
2
100
AcDbSymbolTableRecord
100
AcDbLayerTableRecord
  2
ConnectionPoints
 70
     0
 62
     7
  6
Continuous
370
    50
390
F
347
46
348
0
  0
ENDTAB
  0
TABLE
  2
STYLE
  5
3
330
0
100
AcDbSymbolTable
 70
     1
  0
STYLE
  5
11
330
3
100
AcDbSymbolTableRecord
100
AcDbTextStyleTableRecord
  2
Standard
 70
     0
 40
0.0
 41
1.0
 50
0.0
 71
     0
 42
2.5
  3
txt
  4

  0
ENDTAB
  0
TABLE
  2
VIEW
  5
6
330
0
100
AcDbSymbolTable
 70
     0
  0
ENDTAB
  0
TABLE
  2
UCS
  5
7
330
0
100
AcDbSymbolTable
 70
     0
  0
ENDTAB
  0
TABLE
  2
APPID
  5
9
330
0
100
AcDbSymbolTable
 70
     1
  0
APPID
  5
12
330
9
100
AcDbSymbolTableRecord
100
AcDbRegAppTableRecord
  2
ACAD
 70
     0
  0
ENDTAB
  0
TABLE
  2
DIMSTYLE
  5
A
330
0
100
AcDbSymbolTable
 70
     1
100
AcDbDimStyleTable
  0
DIMSTYLE
105
27
330
A
100
AcDbSymbolTableRecord
100
AcDbDimStyleTableRecord
  2
ISO-25
 70
     0
 41
2.5
 42
0.625
 43
3.75
 44
1.25
 73
     0
 74
     0
 77
     1
 78
     8
140
2.5
141
2.5
143
0.03937007874016
147
0.625
171
     3
172
     1
178
     0
271
     2
272
     2
274
     3
278
    44
283
     0
284
     8
340
11
  0
ENDTAB
  0
TABLE
  2
BLOCK_RECORD
  5
1
330
0
100
AcDbSymbolTable
 70
     5
  0
BLOCK_RECORD
  5
1F
330
1
100
AcDbSymbolTableRecord
100
AcDbBlockTableRecord
  2
*Model_Space
340
22
 70
     0
280
     1
281
     0
  0
BLOCK_RECORD
  5
1B
330
1
100
AcDbSymbolTableRecord
100
AcDbBlockTableRecord
  2
*Paper_Space
340
1E
 70
     0
280
     1
281
     0
  0
BLOCK_RECORD
  5
23
330
1
100
AcDbSymbolTableRecord
100
AcDbBlockTableRecord
  2
*Paper_Space0
340
26
 70
     0
280
     1
281
     0
  0
BLOCK_RECORD
  5
6E
330
1
100
AcDbSymbolTableRecord
100
AcDbBlockTableRecord
  2
1_064136_4
340
0
102
{BLKREFS
331
6F
102
}
 70
     0
280
     1
281
     0
  0
BLOCK_RECORD
  5
8F
330
1
100
AcDbSymbolTableRecord
100
AcDbBlockTableRecord
  2
2_405015E_Metric_0_in_064136_4
340
0
102
{BLKREFS
331
90
102
}
 70
     0
280
     1
281
     0
  0
BLOCK_RECORD
  5
D7
330
1
100
AcDbSymbolTableRecord
100
AcDbBlockTableRecord
  2
3_125830_0_in_064136_4
340
0
102
{BLKREFS
331
D8
102
}
 70
     0
280
     1
281
     0
  0
BLOCK_RECORD
  5
131
330
1
100
AcDbSymbolTableRecord
100
AcDbBlockTableRecord
  2
4_064136H_0_in_064136_4
340
0
102
{BLKREFS
331
132
102
}
 70
     0
280
     1
281
     0
  0
ENDTAB
  0
ENDSEC
  0
SECTION
  2
BLOCKS
  0
BLOCK
  5
20
330
1F
100
AcDbEntity
  8
0
100
AcDbBlockBegin
  2
*Model_Space
 70
     0
 10
0.0
 20
0.0
 30
0.0
  3
*Model_Space
  1

  0
ENDBLK
  5
21
330
1F
100
AcDbEntity
  8
0
100
AcDbBlockEnd
  0
BLOCK
  5
1C
330
1B
100
AcDbEntity
 67
     1
  8
0
100
AcDbBlockBegin
  2
*Paper_Space
 70
     0
 10
0.0
 20
0.0
 30
0.0
  3
*Paper_Space
  1

  0
ENDBLK
  5
1D
330
1B
100
AcDbEntity
 67
     1
  8
0
100
AcDbBlockEnd
  0
BLOCK
  5
24
330
23
100
AcDbEntity
  8
0
100
AcDbBlockBegin
  2
*Paper_Space0
 70
     0
 10
0.0
 20
0.0
 30
0.0
  3
*Paper_Space0
  1

  0
ENDBLK
  5
25
330
23
100
AcDbEntity
  8
0
100
AcDbBlockEnd
  0
BLOCK
  5
70
330
6E
100
AcDbEntity
  8
0
100
AcDbBlockBegin
  2
1_064136_4
 70
     2
 10
0.0
 20
0.0
 30
0.0
  3
1_064136_4
  1

  0
ATTDEF
  5
73
330
6E
100
AcDbEntity
  8
AM_6
100
AcDbText
 10
99.5
 20
27.94
 30
0.0
 40
0.5
  1
Set Screw Medium Duty Air-Handling Two-Bolt Pillow Block Metric Bore
100
AcDbAttributeDefinition
  3

  2
NN
 70
     8
280
     0
  0
ATTDEF
  5
74
330
6E
100
AcDbEntity
  8
AM_6
100
AcDbText
 10
99.5
 20
27.44
 30
0.0
 40
0.5
  1
SC Pillow Block Bearings -(Medium Duty) -Air Handling
100
AcDbAttributeDefinition
  3

  2
NT
 70
     8
280
     0
  0
ATTDEF
  5
75
330
6E
100
AcDbEntity
  8
AM_6
100
AcDbText
 10
99.5
 20
26.94
 30
0.0
 40
0.5
  1
064136
100
AcDbAttributeDefinition
  3

  2
NB
 70
     8
280
     0
  0
ATTDEF
  5
76
330
6E
100
AcDbEntity
  8
AM_6
100
AcDbText
 10
99.5
 20
26.44
 30
0.0
 40
0.5
  1
$PN.
100
AcDbAttributeDefinition
  3

  2
NBSYN
 70
     8
280
     0
  0
ATTDEF
  5
77
330
6E
100
AcDbEntity
  8
AM_6
100
AcDbText
 10
99.5
 20
25.94
 30
0.0
 40
0.5
  1
064136
100
AcDbAttributeDefinition
  3

  2
LINA
 70
     8
280
     0
  0
ATTDEF
  5
78
330
6E
100
AcDbEntity
  8
AM_6
100
AcDbText
 10
99.5
 20
25.44
 30
0.0
 40
0.5
  1
209
100
AcDbAttributeDefinition
  3

  2
SERIES
 70
     8
280
     0
  0
ATTDEF
  5
79
330
6E
100
AcDbEntity
  8
AM_6
100
AcDbText
 10
99.5
 20
24.94
 30
0.0
 40
0.5
  1
40
100
AcDbAttributeDefinition
  3

  2
SS
 70
     8
280
     0
  0
ATTDEF
  5
7A
330
6E
100
AcDbEntity
  8
AM_6
100
AcDbText
 10
99.5
 20
24.44
 30
0.0
 40
0.5
  1
064136
100
AcDbAttributeDefinition
  3

  2
PN
 70
     8
280
     0
  0
ATTDEF
  5
7B
330
6E
100
AcDbEntity
  8
AM_6
100
AcDbText
 10
99.5
 20
23.94
 30
0.0
 40
0.5
  1
P2B-SCMAH-40M
100
AcDbAttributeDefinition
  3

  2
DESCRIPTION
 70
     8
280
     0
  0
ATTDEF
  5
7C
330
6E
100
AcDbEntity
  8
AM_6
100
AcDbText
 10
99.5
 20
23.44
 30
0.0
 40
0.5
  1
2.7
100
AcDbAttributeDefinition
  3

  2
WEIGHT
 70
     8
280
     0
  0
ATTDEF
  5
7D
330
6E
100
AcDbEntity
  8
AM_6
100
AcDbText
 10
99.5
 20
22.94
 30
0.0
 40
0.5
  1
49.3
100
AcDbAttributeDefinition
  3

  2
A
 70
     8
280
     0
  0
ATTDEF
  5
7E
330
6E
100
AcDbEntity
  8
AM_6
100
AcDbText
 10
99.5
 20
22.44
 30
0.0
 40
0.5
  1
189.0
100
AcDbAttributeDefinition
  3

  2
B
 70
     8
280
     0
  0
ATTDEF
  5
7F
330
6E
100
AcDbEntity
  8
AM_6
100
AcDbText
 10
99.5
 20
21.94
 30
0.0
 40
0.5
  1
50.8
100
AcDbAttributeDefinition
  3

  2
C
 70
     8
280
     0
  0
ATTDEF
  5
80
330
6E
100
AcDbEntity
  8
AM_6
100
AcDbText
 10
99.5
 20
21.44
 30
0.0
 40
0.5
  1
139.7
100
AcDbAttributeDefinition
  3

  2
DMIN
 70
     8
280
     0
  0
ATTDEF
  5
81
330
6E
100
AcDbEntity
  8
AM_6
100
AcDbText
 10
99.5
 20
20.94
 30
0.0
 40
0.5
  1
157.2
100
AcDbAttributeDefinition
  3

  2
DMAX
 70
     8
280
     0
  0
ATTDEF
  5
82
330
6E
100
AcDbEntity
  8
AM_6
100
AcDbText
 10
99.5
 20
20.44
 30
0.0
 40
0.5
  1
M12
100
AcDbAttributeDefinition
  3

  2
F
 70
     8
280
     0
  0
ATTDEF
  5
83
330
6E
100
AcDbEntity
  8
AM_6
100
AcDbText
 10
99.5
 20
19.94
 30
0.0
 40
0.5
  1
22.9
100
AcDbAttributeDefinition
  3

  2
G
 70
     8
280
     0
  0
ATTDEF
  5
84
330
6E
100
AcDbEntity
  8
AM_6
100
AcDbText
 10
99.5
 20
19.44
 30
0.0
 40
0.5
  1
19.1
100
AcDbAttributeDefinition
  3

  2
H
 70
     8
280
     0
  0
ATTDEF
  5
85
330
6E
100
AcDbEntity
  8
AM_6
100
AcDbText
 10
99.5
 20
18.94
 30
0.0
 40
0.5
  1
108.7
100
AcDbAttributeDefinition
  3

  2
J
 70
     8
280
     0
  0
ATTDEF
  5
86
330
6E
100
AcDbEntity
  8
AM_6
100
AcDbText
 10
99.5
 20
18.44
 30
0.0
 40
0.5
  1
56.4
100
AcDbAttributeDefinition
  3

  2
L
 70
     8
280
     0
  0
ATTDEF
  5
87
330
6E
100
AcDbEntity
  8
AM_6
100
AcDbText
 10
99.5
 20
17.94
 30
0.0
 40
0.5
  1
54.1
100
AcDbAttributeDefinition
  3

  2
M
 70
     8
280
     0
  0
ATTDEF
  5
88
330
6E
100
AcDbEntity
  8
AM_6
100
AcDbText
 10
99.5
 20
17.44
 30
0.0
 40
0.5
  1
19.1
100
AcDbAttributeDefinition
  3

  2
R
 70
     8
280
     0
  0
ATTDEF
  5
89
330
6E
100
AcDbEntity
  8
AM_6
100
AcDbText
 10
99.5
 20
16.94
 30
0.0
 40
0.5
  1
30.2
100
AcDbAttributeDefinition
  3

  2
S
 70
     8
280
     0
  0
ATTDEF
  5
8A
330
6E
100
AcDbEntity
  8
AM_6
100
AcDbText
 10
99.5
 20
16.44
 30
0.0
 40
0.5
  1
85.9
100
AcDbAttributeDefinition
  3

  2
U
 70
     8
280
     0
  0
ATTDEF
  5
8B
330
6E
100
AcDbEntity
  8
AM_6
100
AcDbText
 10
99.5
 20
15.94
 30
0.0
 40
0.5
  1
171.7
100
AcDbAttributeDefinition
  3

  2
V
 70
     8
280
     0
  0
ATTDEF
  5
8C
330
6E
100
AcDbEntity
  8
AM_6
100
AcDbText
 10
99.5
 20
15.44
 30
0.0
 40
0.5
  1
17.5
100
AcDbAttributeDefinition
  3

  2
W
 70
     8
280
     0
  0
ATTDEF
  5
8D
330
6E
100
AcDbEntity
  8
AM_6
100
AcDbText
 10
99.5
 20
14.94
 30
0.0
 40
0.5
  1
3.0
100
AcDbAttributeDefinition
  3

  2
X
 70
     8
280
     0
  0
ATTDEF
  5
8E
330
6E
100
AcDbEntity
  8
AM_6
100
AcDbText
 10
99.5
 20
14.44
 30
0.0
 40
0.5
  1
baldor
100
AcDbAttributeDefinition
  3

  2
COMPANY
 70
     8
280
     0
  0
INSERT
  5
90
330
6E
100
AcDbEntity
  8
0
100
AcDbBlockReference
  2
2_405015E_Metric_0_in_064136_4
 10
0.0
 20
0.0
 30
0.0
  0
INSERT
  5
D8
330
6E
100
AcDbEntity
  8
0
100
AcDbBlockReference
  2
3_125830_0_in_064136_4
 10
0.0
 20
0.0
 30
0.0
  0
INSERT
  5
132
330
6E
100
AcDbEntity
  8
0
100
AcDbBlockReference
  2
4_064136H_0_in_064136_4
 10
0.0
 20
0.0
 30
0.0
  0
ENDBLK
  5
71
330
6E
100
AcDbEntity
  8
0
100
AcDbBlockEnd
  0
BLOCK
  5
91
330
8F
100
AcDbEntity
  8
0
100
AcDbBlockBegin
  2
2_405015E_Metric_0_in_064136_4
 70
     2
 10
0.0
 20
0.0
 30
0.0
  3
2_405015E_Metric_0_in_064136_4
  1

  0
ATTDEF
  5
93
330
8F
100
AcDbEntity
  8
AM_6
100
AcDbText
 10
52.01690700572415
 20
5.000000000000005
 30
0.0
 40
0.5
  1
405015E -Metric
100
AcDbAttributeDefinition
  3

  2
NN
 70
     8
280
     0
  0
ATTDEF
  5
94
330
8F
100
AcDbEntity
  8
AM_6
100
AcDbText
 10
52.01690700572415
 20
4.500000000000005
 30
0.0
 40
0.5
  1
Grease Fitting
100
AcDbAttributeDefinition
  3

  2
NT
 70
     8
280
     0
  0
ATTDEF
  5
95
330
8F
100
AcDbEntity
  8
AM_6
100
AcDbText
 10
52.01690700572415
 20
4.000000000000005
 30
0.0
 40
0.5
  1
405015E-Metric
100
AcDbAttributeDefinition
  3

  2
NB
 70
     8
280
     0
  0
ATTDEF
  5
96
330
8F
100
AcDbEntity
  8
AM_6
100
AcDbText
 10
52.01690700572415
 20
3.500000000000005
 30
0.0
 40
0.5
  1
$MN.-Metric
100
AcDbAttributeDefinition
  3

  2
NBSYN
 70
     8
280
     0
  0
ATTDEF
  5
97
330
8F
100
AcDbEntity
  8
AM_6
100
AcDbText
 10
52.01690700572415
 20
3.000000000000005
 30
0.0
 40
0.5
  1
405015E
100
AcDbAttributeDefinition
  3

  2
LINA
 70
     8
280
     0
  0
ATTDEF
  5
98
330
8F
100
AcDbEntity
  8
AM_6
100
AcDbText
 10
52.01690700572415
 20
2.500000000000005
 30
0.0
 40
0.5
  1
405015E
100
AcDbAttributeDefinition
  3

  2
MN
 70
     8
280
     0
  0
ATTDEF
  5
99
330
8F
100
AcDbEntity
  8
AM_6
100
AcDbText
 10
52.01690700572415
 20
2.000000000000005
 30
0.0
 40
0.5
  1
1/8 x 27PTF
100
AcDbAttributeDefinition
  3

  2
T
 70
     8
280
     0
  0
ATTDEF
  5
9A
330
8F
100
AcDbEntity
  8
AM_6
100
AcDbText
 10
52.01690700572415
 20
1.500000000000005
 30
0.0
 40
0.5
  1
baldor
100
AcDbAttributeDefinition
  3

  2
COMPANY
 70
     8
280
     0
  0
LWPOLYLINE
  5
9D
330
8F
100
AcDbEntity
  8
AM_9
100
AcDbPolyline
 90
        3
 70
     0
 43
0.0
 10
42.83706769992837
 20
0.0000000000000021
 10
42.22152190349724
 20
-1.24437966340913
 10
41.66989243126446
 20
-2.499999999999997
  0
LWPOLYLINE
  5
9E
330
8F
100
AcDbEntity
  8
AM_9
100
AcDbPolyline
 90
        3
 70
     0
 43
0.0
 10
41.66989243126446
 20
2.500000000000002
 10
42.21888566938565
 20
1.250000000000002
 10
42.83706769992837
 20
0.0000000000000021
  0
ELLIPSE
  5
9F
330
8F
100
AcDbEntity
  8
AM_9
100
AcDbEllipse
 10
33.84849450861884
 20
0.0000000000000021
 30
0.0
 11
2.546036870355444E-16
 21
4.15799375318352
 31
0.0
210
0.0
220
0.0
230
1.0
 40
0.7071067811865476
 41
0.0
 42
6.283185307179586
  0
LWPOLYLINE
  5
A0
330
8F
100
AcDbEntity
  8
AM_9
100
AcDbPolyline
 90
        3
 70
     0
 43
0.0
 10
43.7912127748241
 20
-2.499999999999996
 10
44.26284026286257
 20
-1.249999999999996
 10
44.6652789584795
 20
0.0000000000000024
  0
LWPOLYLINE
  5
A1
330
8F
100
AcDbEntity
  8
AM_9
100
AcDbPolyline
 90
        3
 70
     0
 43
0.0
 10
44.6652789584795
 20
0.0000000000000024
 10
44.26479301436109
 20
1.244379663409137
 10
43.7912127748241
 20
2.500000000000002
  0
LWPOLYLINE
  5
A2
330
8F
100
AcDbEntity
  8
AM_9
100
AcDbPolyline
 90
        3
 70
     0
 43
0.0
 10
40.79582624760906
 20
5.000000000000003
 10
41.19631219172747
 20
3.755620336590868
 10
41.66989243126446
 20
2.500000000000002
  0
LINE
  5
A3
330
8F
100
AcDbEntity
  8
AM_9
100
AcDbLine
 10
44.6652789584795
 20
0.0000000000000024
 30
0.0
 11
42.83706769992837
 21
0.0000000000000021
 31
0.0
  0
LWPOLYLINE
  5
A4
330
8F
100
AcDbEntity
  8
AM_9
100
AcDbPolyline
 90
        3
 70
     0
 43
0.0
 10
41.66989243126446
 20
-2.499999999999997
 10
41.19826494322599
 20
-3.749999999999997
 10
40.79582624760906
 20
-4.999999999999997
  0
LINE
  5
A5
330
8F
100
AcDbEntity
  8
AM_9
100
AcDbLine
 10
43.5314923388682
 20
-3.113042066040661
 30
0.0
 11
43.7912127748241
 21
-2.499999999999996
 31
0.0
  0
LINE
  5
A6
330
8F
100
AcDbEntity
  8
AM_9
100
AcDbLine
 10
43.7912127748241
 20
2.500000000000002
 30
0.0
 11
43.53615645490058
 21
3.102409314047781
 31
0.0
  0
LINE
  5
A7
330
8F
100
AcDbEntity
  8
AM_9
100
AcDbLine
 10
34.16763997871367
 20
-4.755705400136177
 30
0.0
 11
38.49849756156238
 21
-4.947207176936948
 31
0.0
  0
LINE
  5
A8
330
8F
100
AcDbEntity
  8
AM_9
100
AcDbLine
 10
38.49849756156238
 20
4.947207176936955
 30
0.0
 11
34.16763997871367
 21
4.755705400136183
 31
0.0
  0
ELLIPSE
  5
A9
330
8F
100
AcDbEntity
  8
AM_9
100
AcDbEllipse
 10
40.7293505963464
 20
0.0000000000012084
 30
0.0
 11
-9.184850993601184E-16
 21
-4.999999999997842
 31
0.0
210
0.0
220
0.0
230
1.0
 40
0.7071067811865472
 41
0.8982051386268202
 42
2.243387514962596
  0
LINE
  5
AA
330
8F
100
AcDbEntity
  8
AM_9
100
AcDbLine
 10
43.50903962675508
 20
1.989928832732516
 30
0.0
 11
43.24522015486819
 21
2.406586417453949
 31
0.0
  0
LINE
  5
AB
330
8F
100
AcDbEntity
  8
AM_9
100
AcDbLine
 10
43.24522015486819
 20
-2.406586417453943
 30
0.0
 11
43.50903962675508
 21
-1.989928832732511
 31
0.0
  0
ELLIPSE
  5
AC
330
8F
100
AcDbEntity
  8
AM_9
100
AcDbEllipse
 10
41.93766406587654
 20
-0.0000000000000059
 30
0.0
 11
-5.479672885901638E-16
 21
-2.982994982562482
 31
0.0
210
0.0
220
0.0
230
1.0
 40
0.7071067811865392
 41
0.3869422381883743
 42
2.754650415401421
  0
ELLIPSE
  5
AD
330
8F
100
AcDbEntity
  8
AM_9
100
AcDbEllipse
 10
41.34482501544507
 20
-0.0000000000180425
 30
0.0
 11
-6.627024103719739E-16
 21
-3.607583894574736
 31
0.0
210
0.0
220
0.0
230
1.0
 40
0.7071067811886139
 41
0.6633833151895567
 42
2.478209338406402
  0
LINE
  5
AE
330
8F
100
AcDbEntity
  8
AM_9
100
AcDbLine
 10
43.22857281871816
 20
2.477229919855584
 30
0.0
 11
42.75701116785316
 21
2.748977116714938
 31
0.0
  0
LINE
  5
AF
330
8F
100
AcDbEntity
  8
AM_9
100
AcDbLine
 10
42.75701116785316
 20
-2.748977116714933
 30
0.0
 11
43.22857281871816
 21
-2.477229919855578
 31
0.0
  0
ELLIPSE
  5
B0
330
8F
100
AcDbEntity
  8
AM_9
100
AcDbEllipse
 10
42.51479521884117
 20
-0.0000000000000098
 30
0.0
 11
-4.913895281578725E-16
 21
-2.674999999999984
 31
0.0
210
0.0
220
0.0
230
1.0
 40
0.7071067811865474
 41
0.0
 42
3.141592653589793
  0
ELLIPSE
  5
B1
330
8F
100
AcDbEntity
  8
AM_9
100
AcDbEllipse
 10
40.72935059634512
 20
0.0000000000000124
 30
0.0
 11
-8.725608443924917E-16
 21
-4.750000000000014
 31
0.0
210
0.0
220
0.0
230
1.0
 40
0.7071067811865481
 41
0.8736482899485889
 42
2.267944363641202
  0
LINE
  5
B2
330
8F
100
AcDbEntity
  8
AM_9
100
AcDbLine
 10
42.63146783773694
 20
-2.674999999999997
 30
0.0
 11
43.00976996567174
 21
-2.674999999999997
 31
0.0
  0
LINE
  5
B3
330
8F
100
AcDbEntity
  8
AM_9
100
AcDbLine
 10
43.00976996567174
 20
2.675000000000002
 30
0.0
 11
42.63146783773694
 21
2.675000000000002
 31
0.0
  0
ELLIPSE
  5
B4
330
8F
100
AcDbEntity
  8
AM_9
100
AcDbEllipse
 10
43.00976996567174
 20
0.0000000000000077
 30
0.0
 11
-4.913895281578777E-16
 21
-2.675000000000012
 31
0.0
210
0.0
220
0.0
230
1.0
 40
0.7071067811865479
 41
5.888394187479832
 42
9.819569080469137
  0
ELLIPSE
  5
B5
330
8F
100
AcDbEntity
  8
AM_9
100
AcDbEllipse
 10
43.92900878121425
 20
0.000000000000008
 30
0.0
 11
-5.832380380939272E-16
 21
-3.175000000000002
 31
0.0
210
0.0
220
0.0
230
1.0
 40
0.7071067811865511
 41
0.4159140521025497
 42
2.725678601487245
  0
ELLIPSE
  5
B6
330
8F
100
AcDbEntity
  8
AM_9
100
AcDbEllipse
 10
38.6080302527855
 20
-0.0000000000000107
 30
0.0
 11
-9.184850993605178E-16
 21
-5.000000000000016
 31
0.0
210
0.0
220
0.0
230
1.0
 40
0.7071067811865467
 41
0.0
 42
6.283185307179586
  0
ELLIPSE
  5
B7
330
8F
100
AcDbEntity
  8
AM_9
100
AcDbEllipse
 10
38.60803025278548
 20
-0.0000000000000009
 30
0.0
 11
-9.092325864233689E-16
 21
-4.949631665534977
 31
0.0
210
0.0
220
0.0
230
1.0
 40
0.7071067811865469
 41
0.0
 42
6.283185307179586
  0
ELLIPSE
  5
B8
330
8F
100
AcDbEntity
  8
AM_9
100
AcDbEllipse
 10
34.27278382339627
 20
-0.0000000000000053
 30
0.0
 11
-8.740358316248963E-16
 21
-4.758029456511784
 31
0.0
210
0.0
220
0.0
230
1.0
 40
0.7071067811865475
 41
0.0
 42
6.283185307179586
  0
LWPOLYLINE
  5
BA
330
8F
100
AcDbEntity
  8
AM_4
100
AcDbPolyline
 90
        3
 70
     0
 43
0.0
 10
42.62403750616019
 20
-4.999999999999997
 10
43.23958330259133
 20
-3.755620336590864
 10
43.5314923388682
 20
-3.113042066040661
  0
LWPOLYLINE
  5
BB
330
8F
100
AcDbEntity
  8
AM_4
100
AcDbPolyline
 90
        3
 70
     0
 43
0.0
 10
43.53615645490058
 20
3.102409314047781
 10
43.24221953670292
 20
3.750000000000003
 10
42.62403750616019
 20
5.000000000000003
  0
ELLIPSE
  5
BC
330
8F
100
AcDbEntity
  8
AM_4
100
AcDbEllipse
 10
40.72935059634511
 20
0.0000000000000098
 30
0.0
 11
-9.184850993605138E-16
 21
-4.999999999999995
 31
0.0
210
0.0
220
0.0
230
1.0
 40
0.7071067811865497
 41
2.243387514962557
 42
7.181390445806819
  0
ELLIPSE
  5
BD
330
8F
100
AcDbEntity
  8
AM_4
100
AcDbEllipse
 10
41.34482501544172
 20
-0.0000000000000031
 30
0.0
 11
-6.627024103768187E-16
 21
-3.60758389460111
 31
0.0
210
0.0
220
0.0
230
1.0
 40
0.7071067811865485
 41
2.478209338400871
 42
6.946568622368515
  0
LINE
  5
BE
330
8F
100
AcDbEntity
  8
AM_4
100
AcDbLine
 10
42.75701116785316
 20
2.748977116714938
 30
0.0
 11
42.73362481320306
 21
2.762453989376798
 31
0.0
  0
LINE
  5
BF
330
8F
100
AcDbEntity
  8
AM_4
100
AcDbLine
 10
42.73362481320306
 20
-2.762453989376794
 30
0.0
 11
42.75701116785316
 21
-2.748977116714933
 31
0.0
  0
ELLIPSE
  5
C0
330
8F
100
AcDbEntity
  8
AM_4
100
AcDbEllipse
 10
41.9376640658765
 20
0.0000000000000027
 30
0.0
 11
-5.479672885901685E-16
 21
-2.982994982562508
 31
0.0
210
0.0
220
0.0
230
1.0
 40
0.7071067811865475
 41
2.754650415401406
 42
6.670127545367974
  0
ELLIPSE
  5
C1
330
8F
100
AcDbEntity
  8
AM_4
100
AcDbEllipse
 10
40.72935059634513
 20
0.0000000000000027
 30
0.0
 11
-8.725608443924878E-16
 21
-4.749999999999993
 31
0.0
210
0.0
220
0.0
230
1.0
 40
0.7071067811865483
 41
2.267944363641203
 42
7.156833597128173
  0
LWPOLYLINE
  5
C2
330
8F
100
AcDbEntity
  8
AM_4
100
AcDbPolyline
 90
        3
 70
     0
 43
0.0
 10
38.54155460152156
 20
5.000000000000003
 10
38.14106865740315
 20
3.755620336590869
 10
37.66748841786616
 20
2.500000000000002
  0
LINE
  5
C3
330
8F
100
AcDbEntity
  8
AM_4
100
AcDbLine
 10
42.62403750616019
 20
5.000000000000003
 30
0.0
 11
36.71334334297043
 21
5.000000000000003
 31
0.0
  0
LWPOLYLINE
  5
C4
330
8F
100
AcDbEntity
  8
AM_4
100
AcDbPolyline
 90
        3
 70
     0
 43
0.0
 10
35.54616807430651
 20
2.500000000000002
 10
36.0951613124277
 20
3.750000000000002
 10
36.71334334297043
 20
5.000000000000003
  0
LWPOLYLINE
  5
C5
330
8F
100
AcDbEntity
  8
AM_4
100
AcDbPolyline
 90
        3
 70
     0
 43
0.0
 10
34.67210189065111
 20
0.0000000000000026
 10
35.07258783476953
 20
1.244379663409135
 10
35.54616807430651
 20
2.500000000000002
  0
LWPOLYLINE
  5
C6
330
8F
100
AcDbEntity
  8
AM_4
100
AcDbPolyline
 90
        3
 70
     0
 43
0.0
 10
37.66748841786616
 20
2.500000000000002
 10
37.11849517974496
 20
1.250000000000003
 10
36.50031314920225
 20
0.0000000000000027
  0
LINE
  5
C7
330
8F
100
AcDbEntity
  8
AM_4
100
AcDbLine
 10
42.62403750616019
 20
-4.999999999999997
 30
0.0
 11
36.71334334297043
 21
-4.999999999999997
 31
0.0
  0
LWPOLYLINE
  5
C8
330
8F
100
AcDbEntity
  8
AM_4
100
AcDbPolyline
 90
        3
 70
     0
 43
0.0
 10
37.66748841786616
 20
-2.499999999999996
 10
38.13911590590462
 20
-3.749999999999997
 10
38.54155460152156
 20
-4.999999999999997
  0
LWPOLYLINE
  5
C9
330
8F
100
AcDbEntity
  8
AM_4
100
AcDbPolyline
 90
        3
 70
     0
 43
0.0
 10
36.50031314920225
 20
0.0000000000000027
 10
37.11585894563338
 20
-1.24437966340913
 10
37.66748841786616
 20
-2.499999999999996
  0
LINE
  5
CA
330
8F
100
AcDbEntity
  8
AM_4
100
AcDbLine
 10
36.50031314920225
 20
0.0000000000000027
 30
0.0
 11
34.67210189065111
 21
0.0000000000000026
 31
0.0
  0
LWPOLYLINE
  5
CB
330
8F
100
AcDbEntity
  8
AM_4
100
AcDbPolyline
 90
        3
 70
     0
 43
0.0
 10
35.54616807430651
 20
-2.499999999999997
 10
35.07454058626805
 20
-1.249999999999997
 10
34.67210189065111
 20
0.0000000000000026
  0
LWPOLYLINE
  5
CC
330
8F
100
AcDbEntity
  8
AM_4
100
AcDbPolyline
 90
        3
 70
     0
 43
0.0
 10
36.71334334297043
 20
-4.999999999999997
 10
36.09779754653929
 20
-3.755620336590864
 10
35.54616807430651
 20
-2.499999999999997
  0
LINE
  5
CD
330
8F
100
AcDbEntity
  8
AM_4
100
AcDbLine
 10
42.51479521884116
 20
-2.674999999999997
 30
0.0
 11
42.63146783773694
 21
-2.674999999999997
 31
0.0
  0
LINE
  5
CE
330
8F
100
AcDbEntity
  8
AM_4
100
AcDbLine
 10
42.63146783773694
 20
2.675000000000002
 30
0.0
 11
42.51479521884116
 21
2.675000000000002
 31
0.0
  0
ELLIPSE
  5
CF
330
8F
100
AcDbEntity
  8
AM_4
100
AcDbEllipse
 10
42.51479521884116
 20
0.0000000000000024
 30
0.0
 11
-4.913895281578753E-16
 21
-2.674999999999999
 31
0.0
210
0.0
220
0.0
230
1.0
 40
0.707106781186546
 41
3.141592653589793
 42
6.283185307179586
  0
LINE
  5
D0
330
8F
100
AcDbEntity
  8
AM_4
100
AcDbLine
 10
42.28226587348944
 20
-2.469230769230767
 30
0.0
 11
43.06552261572684
 21
-2.930769230769228
 31
0.0
  0
LINE
  5
D1
330
8F
100
AcDbEntity
  8
AM_4
100
AcDbLine
 10
43.06552261572684
 20
2.930769230769233
 30
0.0
 11
42.28226587348944
 21
2.469230769230772
 31
0.0
  0
ELLIPSE
  5
D2
330
8F
100
AcDbEntity
  8
AM_4
100
AcDbEllipse
 10
43.92900878121427
 20
0.0000000000000024
 30
0.0
 11
-5.832380380939274E-16
 21
-3.175000000000002
 31
0.0
210
0.0
220
0.0
230
1.0
 40
0.7071067811865487
 41
2.725678601487253
 42
6.699099359282126
  0
ELLIPSE
  5
D3
330
8F
100
AcDbEntity
  8
AM_4
100
AcDbEllipse
 10
43.00976996567174
 20
0.0000000000000024
 30
0.0
 11
-4.913895281578733E-16
 21
-2.674999999999988
 31
0.0
210
0.0
220
0.0
230
1.0
 40
0.7071067811865489
 41
3.536383773289549
 42
5.888394187479832
  0
LINE
  5
D4
330
8F
100
AcDbEntity
  8
AM_4
100
AcDbLine
 10
46.01943484086867
 20
2.16515911969191
 30
0.0
 11
44.83607352812142
 21
2.904323000259529
 31
0.0
  0
LINE
  5
D5
330
8F
100
AcDbEntity
  8
AM_4
100
AcDbLine
 10
44.83607352812142
 20
-2.904323000259525
 30
0.0
 11
46.01943484086867
 21
-2.165159119691905
 31
0.0
  0
ELLIPSE
  5
D6
330
8F
100
AcDbEntity
  8
AM_4
100
AcDbEllipse
 10
45.34322234358739
 20
0.0000000000000226
 30
0.0
 11
-4.348012108217378E-16
 21
-2.366947548329654
 31
0.0
210
0.0
220
0.0
230
1.0
 40
0.7071067811865446
 41
0.0
 42
6.283185307179586
  0
ENDBLK
  5
92
330
8F
100
AcDbEntity
  8
0
100
AcDbBlockEnd
  0
BLOCK
  5
D9
330
D7
100
AcDbEntity
  8
0
100
AcDbBlockBegin
  2
3_125830_0_in_064136_4
 70
     2
 10
0.0
 20
0.0
 30
0.0
  3
3_125830_0_in_064136_4
  1

  0
ATTDEF
  5
DB
330
D7
100
AcDbEntity
  8
AM_6
100
AcDbText
 10
47.49121541230438
 20
19.09999999999999
 30
0.0
 40
0.5
  1
Set Screw Medium Duty Insert Metric Bore
100
AcDbAttributeDefinition
  3

  2
NN
 70
     8
280
     0
  0
ATTDEF
  5
DC
330
D7
100
AcDbEntity
  8
AM_6
100
AcDbText
 10
47.49121541230438
 20
18.59999999999999
 30
0.0
 40
0.5
  1
SC Medium Duty Bearing Inserts
100
AcDbAttributeDefinition
  3

  2
NT
 70
     8
280
     0
  0
ATTDEF
  5
DD
330
D7
100
AcDbEntity
  8
AM_6
100
AcDbText
 10
47.49121541230438
 20
18.09999999999999
 30
0.0
 40
0.5
  1
125830
100
AcDbAttributeDefinition
  3

  2
NB
 70
     8
280
     0
  0
ATTDEF
  5
DE
330
D7
100
AcDbEntity
  8
AM_6
100
AcDbText
 10
47.49121541230438
 20
17.59999999999999
 30
0.0
 40
0.5
  1
$PN.
100
AcDbAttributeDefinition
  3

  2
NBSYN
 70
     8
280
     0
  0
ATTDEF
  5
DF
330
D7
100
AcDbEntity
  8
AM_6
100
AcDbText
 10
47.49121541230438
 20
17.09999999999999
 30
0.0
 40
0.5
  1
125830
100
AcDbAttributeDefinition
  3

  2
LINA
 70
     8
280
     0
  0
ATTDEF
  5
E0
330
D7
100
AcDbEntity
  8
AM_6
100
AcDbText
 10
47.49121541230438
 20
16.59999999999999
 30
0.0
 40
0.5
  1
209
100
AcDbAttributeDefinition
  3

  2
SERIES
 70
     8
280
     0
  0
ATTDEF
  5
E1
330
D7
100
AcDbEntity
  8
AM_6
100
AcDbText
 10
47.49121541230438
 20
16.09999999999999
 30
0.0
 40
0.5
  1
40
100
AcDbAttributeDefinition
  3

  2
SS
 70
     8
280
     0
  0
ATTDEF
  5
E2
330
D7
100
AcDbEntity
  8
AM_6
100
AcDbText
 10
47.49121541230438
 20
15.59999999999999
 30
0.0
 40
0.5
  1
125830
100
AcDbAttributeDefinition
  3

  2
PN
 70
     8
280
     0
  0
ATTDEF
  5
E3
330
D7
100
AcDbEntity
  8
AM_6
100
AcDbText
 10
47.49121541230438
 20
15.09999999999999
 30
0.0
 40
0.5
  1
INS-SCM-40M
100
AcDbAttributeDefinition
  3

  2
DESCRIPTION
 70
     8
280
     0
  0
ATTDEF
  5
E4
330
D7
100
AcDbEntity
  8
AM_6
100
AcDbText
 10
47.49121541230438
 20
14.59999999999999
 30
0.0
 40
0.5
  1
0.71
100
AcDbAttributeDefinition
  3

  2
WEIGHT
 70
     8
280
     0
  0
ATTDEF
  5
E5
330
D7
100
AcDbEntity
  8
AM_6
100
AcDbText
 10
47.49121541230438
 20
14.09999999999999
 30
0.0
 40
0.5
  1
49.3
100
AcDbAttributeDefinition
  3

  2
A
 70
     8
280
     0
  0
ATTDEF
  5
E6
330
D7
100
AcDbEntity
  8
AM_6
100
AcDbText
 10
47.49121541230438
 20
13.59999999999999
 30
0.0
 40
0.5
  1
22.1
100
AcDbAttributeDefinition
  3

  2
C
 70
     8
280
     0
  0
ATTDEF
  5
E7
330
D7
100
AcDbEntity
  8
AM_6
100
AcDbText
 10
47.49121541230438
 20
13.09999999999999
 30
0.0
 40
0.5
  1
85.0
100
AcDbAttributeDefinition
  3

  2
D
 70
     8
280
     0
  0
ATTDEF
  5
E8
330
D7
100
AcDbEntity
  8
AM_6
100
AcDbText
 10
47.49121541230438
 20
12.59999999999999
 30
0.0
 40
0.5
  1
6.4
100
AcDbAttributeDefinition
  3

  2
J
 70
     8
280
     0
  0
ATTDEF
  5
E9
330
D7
100
AcDbEntity
  8
AM_6
100
AcDbText
 10
47.49121541230438
 20
12.09999999999999
 30
0.0
 40
0.5
  1
56.4
100
AcDbAttributeDefinition
  3

  2
L
 70
     8
280
     0
  0
ATTDEF
  5
EA
330
D7
100
AcDbEntity
  8
AM_6
100
AcDbText
 10
47.49121541230438
 20
11.59999999999999
 30
0.0
 40
0.5
  1
M8 x 1.25
100
AcDbAttributeDefinition
  3

  2
N
 70
     8
280
     0
  0
ATTDEF
  5
EB
330
D7
100
AcDbEntity
  8
AM_6
100
AcDbText
 10
47.49121541230438
 20
11.09999999999999
 30
0.0
 40
0.5
  1
19.1
100
AcDbAttributeDefinition
  3

  2
W
 70
     8
280
     0
  0
ATTDEF
  5
EC
330
D7
100
AcDbEntity
  8
AM_6
100
AcDbText
 10
47.49121541230438
 20
10.59999999999999
 30
0.0
 40
0.5
  1
30.2
100
AcDbAttributeDefinition
  3

  2
Y
 70
     8
280
     0
  0
ATTDEF
  5
ED
330
D7
100
AcDbEntity
  8
AM_6
100
AcDbText
 10
47.49121541230438
 20
10.09999999999999
 30
0.0
 40
0.5
  1
baldor
100
AcDbAttributeDefinition
  3

  2
COMPANY
 70
     8
280
     0
  0
LINE
  5
EE
330
D7
100
AcDbEntity
  8
AM_9
100
AcDbLine
 10
-44.5
 20
6.600909090909095
 30
0.0
 11
-44.5
 21
6.199090909090906
 31
0.0
  0
ARC
  5
EF
330
D7
100
AcDbEntity
  8
AM_9
100
AcDbCircle
 10
-42.49090909090908
 20
6.199090909090916
 30
0.0
 40
2.009090909090922
100
AcDbArc
 50
180.0
 51
270.0
  0
ARC
  5
F0
330
D7
100
AcDbEntity
  8
AM_9
100
AcDbCircle
 10
-42.49090909090908
 20
6.600909090909084
 30
0.0
 40
2.00909090909092
100
AcDbArc
 50
90.0
 51
180.0
  0
LINE
  5
F1
330
D7
100
AcDbEntity
  8
AM_9
100
AcDbLine
 10
-42.49090909090909
 20
8.610000000000003
 30
0.0
 11
-42.49090909090909
 21
4.189999999999997
 31
0.0
  0
LINE
  5
F2
330
D7
100
AcDbEntity
  8
AM_9
100
AcDbLine
 10
-42.49090909090909
 20
4.189999999999997
 30
0.0
 11
-42.19124095258576
 21
4.189999999999997
 31
0.0
  0
LINE
  5
F3
330
D7
100
AcDbEntity
  8
AM_9
100
AcDbLine
 10
-41.18051901873837
 20
8.610000000000003
 30
0.0
 11
-42.49090909090909
 21
8.610000000000003
 31
0.0
  0
LINE
  5
F4
330
D7
100
AcDbEntity
  8
AM_9
100
AcDbLine
 10
18.12448364751883
 20
-23.9485
 30
0.0
 11
25.29946458892104
 21
-23.9485
 31
0.0
  0
LINE
  5
F5
330
D7
100
AcDbEntity
  8
AM_9
100
AcDbLine
 10
25.29946458892104
 20
-17.3015
 30
0.0
 11
18.12574054777208
 21
-17.3015
 31
0.0
  0
LWPOLYLINE
  5
F6
330
D7
100
AcDbEntity
  8
AM_9
100
AcDbPolyline
 90
       21
 70
     0
 43
0.0
 10
18.1260421246815
 20
-23.94849998912712
 10
18.27653403805873
 20
-23.92862921684328
 10
18.4872752865506
 20
-23.82496422379309
 10
18.68129210006214
 20
-23.62886332198548
 10
18.84545959918562
 20
-23.35533688328377
 10
18.98661512844376
 20
-22.99749743208018
 10
19.09774701436281
 20
-22.57933571498986
 10
19.18377897245285
 20
-22.09251097626999
 10
19.2406503898593
 20
-21.57714606343201
 10
19.27238794336776
 20
-21.01838786458472
 10
19.27773987830302
 20
-20.470771753997
 10
19.25766138055424
 20
-19.91168026533477
 10
19.21331442280169
 20
-19.39152988808306
 10
19.14146000452442
 20
-18.89169397602915
 10
19.04431615448101
 20
-18.44919649313104
 10
18.91626022495888
 20
-18.0560429153915
 10
18.76268141579479
 20
-17.7416543430119
 10
18.57680061450554
 20
-17.50149299870851
 10
18.37260273335037
 20
-17.35658983181692
 10
18.14142915909458
 20
-17.30169726545804
 10
18.12623954722678
 20
-17.3015000059162
  0
LWPOLYLINE
  5
F7
330
D7
100
AcDbEntity
  8
AM_9
100
AcDbPolyline
 90
       11
 70
     0
 43
0.0
 10
18.12623954722678
 20
-17.3015000059162
 10
17.90536415783001
 20
-17.34064158920057
 10
17.65534220286347
 20
-17.47319028257666
 10
17.41402980747233
 20
-17.68780852404532
 10
17.17668741722996
 20
-17.99042884352522
 10
16.96337798419364
 20
-18.36074708912684
 10
16.77433864127988
 20
-18.80638100021212
 10
16.62781810094393
 20
-19.29383651006255
 10
16.52417556978701
 20
-19.83484993436846
 10
16.48351501494432
 20
-20.22405056719105
 10
16.46956291647477
 20
-20.625
  0
ELLIPSE
  5
F8
330
D7
100
AcDbEntity
  8
AM_9
100
AcDbEllipse
 10
25.29946458892102
 20
-20.625
 30
0.0
 11
-6.105170455449354E-16
 21
-3.323500000000006
 31
0.0
210
0.0
220
0.0
230
1.0
 40
0.4226182617406945
 41
3.566043774804898
 42
5.849014194128838
  0
LINE
  5
F9
330
D7
100
AcDbEntity
  8
AM_9
100
AcDbLine
 10
24.64450200546551
 20
-23.56504325527303
 30
0.0
 11
24.80807169335747
 21
-23.76906153280736
 31
0.0
  0
LINE
  5
FA
330
D7
100
AcDbEntity
  8
AM_9
100
AcDbLine
 10
24.8119533721115
 20
-17.47609690135275
 30
0.0
 11
24.64450200546551
 21
-17.68495674472697
 31
0.0
  0
LWPOLYLINE
  5
FB
330
D7
100
AcDbEntity
  8
AM_9
100
AcDbPolyline
 90
       11
 70
     0
 43
0.0
 10
16.46956291647477
 20
-20.625
 10
16.49546962634357
 20
-21.17072978653418
 10
16.57481688902361
 20
-21.71645957306835
 10
16.69908588360092
 20
-22.21619247185297
 10
16.86904450071839
 20
-22.68473897034339
 10
17.06936303930173
 20
-23.08700281199561
 10
17.3009127673037
 20
-23.4303196368321
 10
17.54264214166734
 20
-23.68741349864729
 10
17.79741915493884
 20
-23.86326433774657
 10
18.03922784878912
 20
-23.94226581560186
 10
18.1260421246815
 20
-23.94849998912712
  0
LINE
  5
FC
330
D7
100
AcDbEntity
  8
AM_9
100
AcDbLine
 10
20.0
 20
-29.072
 30
0.0
 11
20.0
 21
17.972
 31
0.0
  0
LINE
  5
FD
330
D7
100
AcDbEntity
  8
AM_9
100
AcDbLine
 10
-20.0
 20
17.972
 30
0.0
 11
-20.0
 21
-29.072
 31
0.0
  0
LINE
  5
FE
330
D7
100
AcDbEntity
  8
AM_9
100
AcDbLine
 10
20.0
 20
17.972
 30
0.0
 11
21.12799999999997
 21
19.09999999999999
 31
0.0
  0
LINE
  5
FF
330
D7
100
AcDbEntity
  8
AM_9
100
AcDbLine
 10
-21.12799999999997
 20
19.09999999999999
 30
0.0
 11
-20.0
 21
17.972
 31
0.0
  0
LINE
  5
100
330
D7
100
AcDbEntity
  8
AM_9
100
AcDbLine
 10
-20.0
 20
-29.072
 30
0.0
 11
-21.12799999999997
 21
-30.2
 31
0.0
  0
LINE
  5
101
330
D7
100
AcDbEntity
  8
AM_9
100
AcDbLine
 10
21.12799999999997
 20
-30.2
 30
0.0
 11
20.0
 21
-29.072
 31
0.0
  0
LINE
  5
102
330
D7
100
AcDbEntity
  8
AM_9
100
AcDbLine
 10
28.20000000000001
 20
11.05
 30
0.0
 11
28.20000000000001
 21
15.93220904335648
 31
0.0
  0
LINE
  5
103
330
D7
100
AcDbEntity
  8
AM_9
100
AcDbLine
 10
-28.20000000000001
 20
15.93220904335648
 30
0.0
 11
-28.20000000000001
 21
11.05
 31
0.0
  0
LINE
  5
104
330
D7
100
AcDbEntity
  8
AM_9
100
AcDbLine
 10
28.2
 20
-15.93220904335648
 30
0.0
 11
28.2
 21
-11.05
 31
0.0
  0
LINE
  5
105
330
D7
100
AcDbEntity
  8
AM_9
100
AcDbLine
 10
-28.2
 20
-11.05
 30
0.0
 11
-28.2
 21
-15.93220904335648
 31
0.0
  0
LINE
  5
106
330
D7
100
AcDbEntity
  8
AM_9
100
AcDbLine
 10
40.29000000000001
 20
-7.233333333333334
 30
0.0
 11
40.29000000000001
 21
-4.286666666666664
 31
0.0
  0
LINE
  5
107
330
D7
100
AcDbEntity
  8
AM_9
100
AcDbLine
 10
-40.29000000000001
 20
-4.286666666666664
 30
0.0
 11
-40.29000000000001
 21
-7.233333333333334
 31
0.0
  0
LINE
  5
108
330
D7
100
AcDbEntity
  8
AM_9
100
AcDbLine
 10
-39.69396883195166
 20
11.05
 30
0.0
 11
39.69396883190618
 21
11.05
 31
0.0
  0
ARC
  5
109
330
D7
100
AcDbEntity
  8
AM_9
100
AcDbCircle
 10
39.69396883195168
 20
10.16600000000001
 30
0.0
 40
0.8839999999999867
100
AcDbArc
 50
21.4124811754265
 51
90.0
  0
ARC
  5
10A
330
D7
100
AcDbEntity
  8
AM_9
100
AcDbCircle
 10
-39.69396883195168
 20
10.16600000000001
 30
0.0
 40
0.8839999999999932
100
AcDbArc
 50
90.0
 51
158.5875188245735
  0
LINE
  5
10B
330
D7
100
AcDbEntity
  8
AM_9
100
AcDbLine
 10
-39.69396884512427
 20
-11.05
 30
0.0
 11
39.69396884507879
 21
-11.05
 31
0.0
  0
ARC
  5
10C
330
D7
100
AcDbEntity
  8
AM_9
100
AcDbCircle
 10
39.69396883195164
 20
-10.16599999999998
 30
0.0
 40
0.8840000000000199
100
AcDbArc
 50
270.0
 51
338.587532953115
  0
ARC
  5
10D
330
D7
100
AcDbEntity
  8
AM_9
100
AcDbCircle
 10
-39.69396883195164
 20
-10.16599999999998
 30
0.0
 40
0.8840000000000182
100
AcDbArc
 50
201.412467046885
 51
270.0
  0
LINE
  5
10E
330
D7
100
AcDbEntity
  8
AM_9
100
AcDbLine
 10
-41.57452820834926
 20
-7.233333333333334
 30
0.0
 11
41.57452820834926
 21
-7.233333333333334
 31
0.0
  0
LINE
  5
10F
330
D7
100
AcDbEntity
  8
AM_9
100
AcDbLine
 10
-40.51695196947392
 20
-10.48873015873016
 30
0.0
 11
40.51695196947392
 21
-10.48873015873016
 31
0.0
  0
ARC
  5
110
330
D7
100
AcDbEntity
  8
AM_9
100
AcDbCircle
 10
13.77000000000566
 20
-0.0000000000017479
 30
0.0
 40
28.7299999999941
100
AcDbArc
 50
338.587532953115
 51
345.4177622541458
  0
ARC
  5
111
330
D7
100
AcDbEntity
  8
AM_9
100
AcDbCircle
 10
-13.77000000000461
 20
-0.0000000000014104
 30
0.0
 40
28.7299999999952
100
AcDbArc
 50
194.5822377458543
 51
201.4124670468848
  0
LINE
  5
112
330
D7
100
AcDbEntity
  8
AM_9
100
AcDbLine
 10
-42.17840349067314
 20
-4.286666666666668
 30
0.0
 11
42.17840349067315
 21
-4.286666666666668
 31
0.0
  0
LINE
  5
113
330
D7
100
AcDbEntity
  8
AM_9
100
AcDbLine
 10
-40.51695188989202
 20
10.48873036166922
 30
0.0
 11
40.51695188989202
 21
10.48873036166922
 31
0.0
  0
ARC
  5
114
330
D7
100
AcDbEntity
  8
AM_9
100
AcDbCircle
 10
13.7700000000001
 20
-0.0000000000000347
 30
0.0
 40
28.72999999999992
100
AcDbArc
 50
351.4191278814028
 51
21.41246748160856
  0
ARC
  5
115
330
D7
100
AcDbEntity
  8
AM_9
100
AcDbCircle
 10
-13.77000000001665
 20
0.0000000000058247
 30
0.0
 40
28.72999999998238
100
AcDbArc
 50
158.5875325183902
 51
162.569129683837
  0
ARC
  5
116
330
D7
100
AcDbEntity
  8
AM_9
100
AcDbCircle
 10
-13.76999999999913
 20
-0.0000000000000346
 30
0.0
 40
28.73000000000088
100
AcDbArc
 50
171.5978368699141
 51
188.5808721185969
  0
LWPOLYLINE
  5
117
330
D7
100
AcDbEntity
  8
AM_9
100
AcDbPolyline
 90
       21
 70
     0
 43
0.0
 10
-41.17950200204628
 20
8.609999999987485
 10
-41.17969528788531
 20
8.6092578818581
 10
-41.19021561746369
 20
8.568817142980288
 10
-41.2150562669197
 20
8.472951390500716
 10
-41.2545766045977
 20
8.319328760113482
 10
-41.30578860808706
 20
8.118202302067798
 10
-41.3690946706676
 20
7.866287158766442
 10
-41.44097832597258
 20
7.575684767504202
 10
-41.52122862756648
 20
7.245316469163916
 10
-41.60540306810768
 20
6.891761253165313
 10
-41.69337138484816
 20
6.514200107566567
 10
-41.77906590638899
 20
6.138052615140664
 10
-41.86366680867975
 20
5.758184109602275
 10
-41.93992648170224
 20
5.408116811217113
 10
-42.01065729062111
 20
5.076596827450627
 10
-42.06909500707057
 20
4.797489331744452
 10
-42.11863974499811
 20
4.557001765829387
 10
-42.15459705975255
 20
4.380170069586315
 10
-42.17953292004959
 20
4.256372689996271
 10
-42.19136505234365
 20
4.197289595273228
 10
-42.19282181627976
 20
4.190000000001027
  0
LINE
  5
11A
330
D7
100
AcDbEntity
  8
AM_7
100
AcDbLine
 10
-3.489675
 20
-20.625
 30
0.0
 11
3.489674999999997
 21
-20.625
 31
0.0
  0
LINE
  5
11B
330
D7
100
AcDbEntity
  8
AM_7
100
AcDbLine
 10
-45.315
 20
6.4
 30
0.0
 11
-27.385
 21
6.4
 31
0.0
  0
ELLIPSE
  5
11C
330
D7
100
AcDbEntity
  8
AM_4
100
AcDbEllipse
 10
25.29946458892103
 20
-20.625
 30
0.0
 11
-6.105170455449354E-16
 21
-3.323500000000006
 31
0.0
210
0.0
220
0.0
230
1.0
 40
0.4226182617406998
 41
5.849014194128833
 42
9.849229081984486
  0
LWPOLYLINE
  5
11D
330
D7
100
AcDbEntity
  8
AM_4
100
AcDbPolyline
 90
       14
 70
     0
 43
0.0
 10
24.81178584692905
 20
-23.77369408211741
 10
24.72329443128065
 20
-23.65566706533288
 10
24.51260028631053
 20
-23.30538347493493
 10
24.32674578719046
 20
-22.89147880239478
 10
24.16419356459778
 20
-22.39655382295125
 10
24.04172828163975
 20
-21.85733377355803
 10
23.96149038564123
 20
-21.25793533631085
 10
23.93317134979715
 20
-20.64162711622513
 10
23.96008447552208
 20
-20.00825032321384
 10
24.04180327889648
 20
-19.39225114508618
 10
24.17611435554825
 20
-18.81111962654662
 10
24.35671740928776
 20
-18.28306319277116
 10
24.57074375177509
 20
-17.83742015746282
 10
24.81204609136309
 20
-17.47598125387376
  0
LWPOLYLINE
  5
11E
330
D7
100
AcDbEntity
  8
AM_4
100
AcDbPolyline
 90
        5
 70
     0
 43
0.0
 10
24.81204609136309
 20
-17.47598125387376
 10
24.81317163145894
 20
-17.47457857724962
 10
25.06007259144138
 20
-17.22191624695042
 10
25.3142262345481
 20
-17.06650316836522
 10
25.62557610775247
 20
-17.02043259679276
  0
LINE
  5
11F
330
D7
100
AcDbEntity
  8
AM_4
100
AcDbLine
 10
-27.07200000000001
 20
-30.2
 30
0.0
 11
27.07200000000001
 21
-30.2
 31
0.0
  0
LINE
  5
120
330
D7
100
AcDbEntity
  8
AM_4
100
AcDbLine
 10
27.07200000000001
 20
-30.2
 30
0.0
 11
28.19999999999998
 21
-29.072
 31
0.0
  0
LINE
  5
121
330
D7
100
AcDbEntity
  8
AM_4
100
AcDbLine
 10
-28.19999999999998
 20
-29.072
 30
0.0
 11
-27.07200000000001
 21
-30.2
 31
0.0
  0
CIRCLE
  5
122
330
D7
100
AcDbEntity
  8
AM_4
100
AcDbCircle
 10
-0.0000000000000016
 20
-20.625
 30
0.0
 40
3.323499999999998
  0
LINE
  5
123
330
D7
100
AcDbEntity
  8
AM_4
100
AcDbLine
 10
-27.07200000000001
 20
19.09999999999999
 30
0.0
 11
27.07200000000001
 21
19.09999999999999
 31
0.0
  0
LINE
  5
124
330
D7
100
AcDbEntity
  8
AM_4
100
AcDbLine
 10
-27.07200000000001
 20
19.09999999999999
 30
0.0
 11
-28.20000000000001
 21
17.97199999999999
 31
0.0
  0
LINE
  5
125
330
D7
100
AcDbEntity
  8
AM_4
100
AcDbLine
 10
28.20000000000001
 20
17.97199999999999
 30
0.0
 11
27.07200000000001
 21
19.09999999999999
 31
0.0
  0
LINE
  5
126
330
D7
100
AcDbEntity
  8
AM_4
100
AcDbLine
 10
-28.20000000000001
 20
17.97199999999999
 30
0.0
 11
28.20000000000001
 21
17.97199999999999
 31
0.0
  0
LINE
  5
127
330
D7
100
AcDbEntity
  8
AM_4
100
AcDbLine
 10
28.20000000000001
 20
15.93220904335648
 30
0.0
 11
28.20000000000001
 21
17.97199999999999
 31
0.0
  0
LINE
  5
128
330
D7
100
AcDbEntity
  8
AM_4
100
AcDbLine
 10
-28.20000000000001
 20
17.97199999999999
 30
0.0
 11
-28.20000000000001
 21
15.93220904335648
 31
0.0
  0
LINE
  5
129
330
D7
100
AcDbEntity
  8
AM_4
100
AcDbLine
 10
-28.19999999999998
 20
-29.072
 30
0.0
 11
28.2
 21
-29.072
 31
0.0
  0
LWPOLYLINE
  5
12A
330
D7
100
AcDbEntity
  8
AM_4
100
AcDbPolyline
 90
       39
 70
     0
 43
0.0
 10
-2.441591872421116
 20
-18.11347373331683
 10
-2.068198180498091
 20
-17.76101216530141
 10
-1.636206672050146
 20
-17.46202415396872
 10
-1.118652174550763
 20
-17.21749075459865
 10
-0.5478009937864831
 20
-17.06357552118915
 10
-0.0072166751231419
 20
-17.01637872850085
 10
0.5500167613887168
 20
-17.06396069471441
 10
1.06182828699306
 20
-17.19705643164087
 10
1.558182060303779
 20
-17.41794500449903
 10
2.009841889063654
 20
-17.71461960609227
 10
2.418852106933348
 20
-18.08884679583436
 10
2.772655841151487
 20
-18.5352355560409
 10
3.058414360289627
 20
-19.04529779813616
 10
3.264989914684638
 20
-19.61046690850602
 10
3.380811886371273
 20
-20.21786479364518
 10
3.396497393325498
 20
-20.84070055142454
 10
3.306588233656703
 20
-21.47503776294602
 10
3.115835586184006
 20
-22.07324982670351
 10
2.817331598021407
 20
-22.6465089579975
 10
2.442682913068984
 20
-23.13533281652439
 10
1.973193662092097
 20
-23.56347679456355
 10
1.475746362090478
 20
-23.8756913079427
 10
0.9122571500361525
 20
-24.10116001470245
 10
0.3713138972810147
 20
-24.21201746572496
 10
-0.1981967582821709
 20
-24.22748496954819
 10
-0.7231830623432822
 20
-24.15095551510192
 10
-1.242478706289464
 20
-23.98380329273783
 10
-1.717256925964852
 20
-23.73920239039647
 10
-2.157961954727113
 20
-23.41345096501819
 10
-2.548751300630724
 20
-23.01380886249743
 10
-2.879644358382976
 20
-22.54533037975779
 10
-3.139884791800403
 20
-22.01372070757822
 10
-3.316221227943872
 20
-21.4318397635929
 10
-3.397642572184811
 20
-20.81942313908126
 10
-3.377089741839094
 20
-20.18457677510563
 10
-3.25318663420955
 20
-19.5687775744664
 10
-3.020676003315126
 20
-18.96576560878855
 10
-2.764538969650725
 20
-18.52318620236283
 10
-2.441591872515057
 20
-18.11347373325527
  0
LWPOLYLINE
  5
12B
330
D7
100
AcDbEntity
  8
AM_4
100
AcDbPolyline
 90
       23
 70
     0
 43
0.0
 10
25.62557610775247
 20
-17.02043259679276
 10
25.84337994103177
 20
-17.09279507745524
 10
26.04475930990822
 20
-17.25185760593594
 10
26.2263082209924
 20
-17.49467095486156
 10
26.38452418086044
 20
-17.81119775398682
 10
26.52316546773511
 20
-18.21129624189749
 10
26.63427906115691
 20
-18.66943587394139
 10
26.72177529356318
 20
-19.20445963671913
 10
26.77906181080527
 20
-19.77578799492785
 10
26.80693072298012
 20
-20.39521666053312
 10
26.80270985712192
 20
-21.02090416510911
 10
26.76511676267259
 20
-21.64690482384299
 10
26.69376210437886
 20
-22.24371132094526
 10
26.58856222251211
 20
-22.7890974338618
 10
26.44902966668315
 20
-23.27060891959828
 10
26.28164008313468
 20
-23.65746232164664
 10
26.08395046762556
 20
-23.95472396139136
 10
25.87261460728266
 20
-24.1399674132244
 10
25.64188465886568
 20
-24.22735385651684
 10
25.41088609991444
 20
-24.21479776894054
 10
25.17496821650451
 20
-24.11143081950773
 10
24.9442408805482
 20
-23.92264585343933
 10
24.81178584692905
 20
-23.77369408211741
  0
LINE
  5
12C
330
D7
100
AcDbEntity
  8
AM_4
100
AcDbLine
 10
28.2
 20
-29.072
 30
0.0
 11
28.2
 21
-15.93220904335648
 31
0.0
  0
LINE
  5
12D
330
D7
100
AcDbEntity
  8
AM_4
100
AcDbLine
 10
-28.2
 20
-15.93220904335648
 30
0.0
 11
-28.2
 21
-29.072
 31
0.0
  0
ARC
  5
12F
330
D7
100
AcDbEntity
  8
AM_5
100
AcDbCircle
 10
-0.0000000000000002
 20
-22.2
 30
0.0
 40
4.000000000000004
100
AcDbArc
 50
75.00000000000003
 51
14.99999999999997
  0
ARC
  5
130
330
D7
100
AcDbEntity
  8
AM_5
100
AcDbCircle
 10
-0.000000000000001
 20
-20.625
 30
0.0
 40
3.999999999999998
100
AcDbArc
 50
74.99999999999996
 51
15.0
  0
ENDBLK
  5
DA
330
D7
100
AcDbEntity
  8
0
100
AcDbBlockEnd
  0
BLOCK
  5
133
330
131
100
AcDbEntity
  8
0
100
AcDbBlockBegin
  2
4_064136H_0_in_064136_4
 70
     2
 10
0.0
 20
0.0
 30
0.0
  3
4_064136H_0_in_064136_4
  1

  0
ATTDEF
  5
135
330
131
100
AcDbEntity
  8
AM_6
100
AcDbText
 10
99.5
 20
27.94
 30
0.0
 40
0.5
  1
P2B-SCMAH -housing- Metric
100
AcDbAttributeDefinition
  3

  2
NN
 70
     8
280
     0
  0
ATTDEF
  5
136
330
131
100
AcDbEntity
  8
AM_6
100
AcDbText
 10
99.5
 20
27.44
 30
0.0
 40
0.5
  1
SC Pillow Block Bearings -(Medium Duty) -Air Handling
100
AcDbAttributeDefinition
  3

  2
NT
 70
     8
280
     0
  0
ATTDEF
  5
137
330
131
100
AcDbEntity
  8
AM_6
100
AcDbText
 10
99.5
 20
26.94
 30
0.0
 40
0.5
  1
064136H
100
AcDbAttributeDefinition
  3

  2
NB
 70
     8
280
     0
  0
ATTDEF
  5
138
330
131
100
AcDbEntity
  8
AM_6
100
AcDbText
 10
99.5
 20
26.44
 30
0.0
 40
0.5
  1
$PN.H
100
AcDbAttributeDefinition
  3

  2
NBSYN
 70
     8
280
     0
  0
ATTDEF
  5
139
330
131
100
AcDbEntity
  8
AM_6
100
AcDbText
 10
99.5
 20
25.94
 30
0.0
 40
0.5
  1
064136
100
AcDbAttributeDefinition
  3

  2
LINA
 70
     8
280
     0
  0
ATTDEF
  5
13A
330
131
100
AcDbEntity
  8
AM_6
100
AcDbText
 10
99.5
 20
25.44
 30
0.0
 40
0.5
  1
209
100
AcDbAttributeDefinition
  3

  2
SERIES
 70
     8
280
     0
  0
ATTDEF
  5
13B
330
131
100
AcDbEntity
  8
AM_6
100
AcDbText
 10
99.5
 20
24.94
 30
0.0
 40
0.5
  1
40
100
AcDbAttributeDefinition
  3

  2
SS
 70
     8
280
     0
  0
ATTDEF
  5
13C
330
131
100
AcDbEntity
  8
AM_6
100
AcDbText
 10
99.5
 20
24.44
 30
0.0
 40
0.5
  1
064136
100
AcDbAttributeDefinition
  3

  2
PN
 70
     8
280
     0
  0
ATTDEF
  5
13D
330
131
100
AcDbEntity
  8
AM_6
100
AcDbText
 10
99.5
 20
23.94
 30
0.0
 40
0.5
  1
P2B-SCMAH-40M
100
AcDbAttributeDefinition
  3

  2
DESCRIPTION
 70
     8
280
     0
  0
ATTDEF
  5
13E
330
131
100
AcDbEntity
  8
AM_6
100
AcDbText
 10
99.5
 20
23.44
 30
0.0
 40
0.5
  1
2.7
100
AcDbAttributeDefinition
  3

  2
WEIGHT
 70
     8
280
     0
  0
ATTDEF
  5
13F
330
131
100
AcDbEntity
  8
AM_6
100
AcDbText
 10
99.5
 20
22.94
 30
0.0
 40
0.5
  1
49.3
100
AcDbAttributeDefinition
  3

  2
A
 70
     8
280
     0
  0
ATTDEF
  5
140
330
131
100
AcDbEntity
  8
AM_6
100
AcDbText
 10
99.5
 20
22.44
 30
0.0
 40
0.5
  1
189.0
100
AcDbAttributeDefinition
  3

  2
B
 70
     8
280
     0
  0
ATTDEF
  5
141
330
131
100
AcDbEntity
  8
AM_6
100
AcDbText
 10
99.5
 20
21.94
 30
0.0
 40
0.5
  1
50.8
100
AcDbAttributeDefinition
  3

  2
C
 70
     8
280
     0
  0
ATTDEF
  5
142
330
131
100
AcDbEntity
  8
AM_6
100
AcDbText
 10
99.5
 20
21.44
 30
0.0
 40
0.5
  1
139.7
100
AcDbAttributeDefinition
  3

  2
DMIN
 70
     8
280
     0
  0
ATTDEF
  5
143
330
131
100
AcDbEntity
  8
AM_6
100
AcDbText
 10
99.5
 20
20.94
 30
0.0
 40
0.5
  1
157.2
100
AcDbAttributeDefinition
  3

  2
DMAX
 70
     8
280
     0
  0
ATTDEF
  5
144
330
131
100
AcDbEntity
  8
AM_6
100
AcDbText
 10
99.5
 20
20.44
 30
0.0
 40
0.5
  1
M12
100
AcDbAttributeDefinition
  3

  2
F
 70
     8
280
     0
  0
ATTDEF
  5
145
330
131
100
AcDbEntity
  8
AM_6
100
AcDbText
 10
99.5
 20
19.94
 30
0.0
 40
0.5
  1
22.9
100
AcDbAttributeDefinition
  3

  2
G
 70
     8
280
     0
  0
ATTDEF
  5
146
330
131
100
AcDbEntity
  8
AM_6
100
AcDbText
 10
99.5
 20
19.44
 30
0.0
 40
0.5
  1
19.1
100
AcDbAttributeDefinition
  3

  2
H
 70
     8
280
     0
  0
ATTDEF
  5
147
330
131
100
AcDbEntity
  8
AM_6
100
AcDbText
 10
99.5
 20
18.94
 30
0.0
 40
0.5
  1
108.7
100
AcDbAttributeDefinition
  3

  2
J
 70
     8
280
     0
  0
ATTDEF
  5
148
330
131
100
AcDbEntity
  8
AM_6
100
AcDbText
 10
99.5
 20
18.44
 30
0.0
 40
0.5
  1
56.4
100
AcDbAttributeDefinition
  3

  2
L
 70
     8
280
     0
  0
ATTDEF
  5
149
330
131
100
AcDbEntity
  8
AM_6
100
AcDbText
 10
99.5
 20
17.94
 30
0.0
 40
0.5
  1
54.1
100
AcDbAttributeDefinition
  3

  2
M
 70
     8
280
     0
  0
ATTDEF
  5
14A
330
131
100
AcDbEntity
  8
AM_6
100
AcDbText
 10
99.5
 20
17.44
 30
0.0
 40
0.5
  1
19.1
100
AcDbAttributeDefinition
  3

  2
R
 70
     8
280
     0
  0
ATTDEF
  5
14B
330
131
100
AcDbEntity
  8
AM_6
100
AcDbText
 10
99.5
 20
16.94
 30
0.0
 40
0.5
  1
30.2
100
AcDbAttributeDefinition
  3

  2
S
 70
     8
280
     0
  0
ATTDEF
  5
14C
330
131
100
AcDbEntity
  8
AM_6
100
AcDbText
 10
99.5
 20
16.44
 30
0.0
 40
0.5
  1
85.9
100
AcDbAttributeDefinition
  3

  2
U
 70
     8
280
     0
  0
ATTDEF
  5
14D
330
131
100
AcDbEntity
  8
AM_6
100
AcDbText
 10
99.5
 20
15.94
 30
0.0
 40
0.5
  1
171.7
100
AcDbAttributeDefinition
  3

  2
V
 70
     8
280
     0
  0
ATTDEF
  5
14E
330
131
100
AcDbEntity
  8
AM_6
100
AcDbText
 10
99.5
 20
15.44
 30
0.0
 40
0.5
  1
17.5
100
AcDbAttributeDefinition
  3

  2
W
 70
     8
280
     0
  0
ATTDEF
  5
14F
330
131
100
AcDbEntity
  8
AM_6
100
AcDbText
 10
99.5
 20
14.94
 30
0.0
 40
0.5
  1
3.0
100
AcDbAttributeDefinition
  3

  2
X
 70
     8
280
     0
  0
ATTDEF
  5
150
330
131
100
AcDbEntity
  8
AM_6
100
AcDbText
 10
99.5
 20
14.44
 30
0.0
 40
0.5
  1
4450
100
AcDbAttributeDefinition
  3

  2
CAPS
 70
     8
280
     0
  0
ATTDEF
  5
151
330
131
100
AcDbEntity
  8
AM_6
100
AcDbText
 10
99.5
 20
13.94
 30
0.0
 40
0.5
  1
7891
100
AcDbAttributeDefinition
  3

  2
CAPD
 70
     8
280
     0
  0
ATTDEF
  5
152
330
131
100
AcDbEntity
  8
AM_6
100
AcDbText
 10
99.5
 20
13.44
 30
0.0
 40
0.5
  1
baldor
100
AcDbAttributeDefinition
  3

  2
COMPANY
 70
     8
280
     0
  0
LINE
  5
153
330
131
100
AcDbEntity
  8
AM_9
100
AcDbLine
 10
44.5
 20
-20.32
 30
0.0
 11
44.5
 21
-12.7
 31
0.0
  0
LINE
  5
154
330
131
100
AcDbEntity
  8
AM_9
100
AcDbLine
 10
42.59000000000002
 20
-20.32
 30
0.0
 11
42.59000000000002
 21
-12.7
 31
0.0
  0
LINE
  5
155
330
131
100
AcDbEntity
  8
AM_9
100
AcDbLine
 10
44.5
 20
-7.619999999999995
 30
0.0
 11
44.5
 21
20.57399999999992
 31
0.0
  0
LINE
  5
156
330
131
100
AcDbEntity
  8
AM_9
100
AcDbLine
 10
42.59000000000002
 20
12.69999999999999
 30
0.0
 11
42.59000000000002
 21
20.31999999999999
 31
0.0
  0
LINE
  5
157
330
131
100
AcDbEntity
  8
AM_9
100
AcDbLine
 10
-44.5
 20
6.600909090909095
 30
0.0
 11
-44.5
 21
20.574
 31
0.0
  0
LINE
  5
158
330
131
100
AcDbEntity
  8
AM_9
100
AcDbLine
 10
-42.59
 20
12.69999999999999
 30
0.0
 11
-42.59
 21
20.32
 31
0.0
  0
LINE
  5
159
330
131
100
AcDbEntity
  8
AM_9
100
AcDbLine
 10
-44.5
 20
-20.32000000000003
 30
0.0
 11
-44.50000000000001
 21
-12.7
 31
0.0
  0
LINE
  5
15A
330
131
100
AcDbEntity
  8
AM_9
100
AcDbLine
 10
-42.59
 20
-20.32
 30
0.0
 11
-42.59
 21
-12.7
 31
0.0
  0
LINE
  5
15B
330
131
100
AcDbEntity
  8
AM_9
100
AcDbLine
 10
60.70956270391927
 20
-12.7
 30
0.0
 11
60.70956270391927
 21
12.7
 31
0.0
  0
LINE
  5
15C
330
131
100
AcDbEntity
  8
AM_9
100
AcDbLine
 10
81.855
 20
6.281767267258484
 30
0.0
 11
81.855
 21
12.7
 31
0.0
  0
LINE
  5
15D
330
131
100
AcDbEntity
  8
AM_9
100
AcDbLine
 10
85.675
 20
-12.7
 30
0.0
 11
85.675
 21
12.7
 31
0.0
  0
LINE
  5
15E
330
131
100
AcDbEntity
  8
AM_9
100
AcDbLine
 10
-60.70956270391929
 20
-12.7
 30
0.0
 11
-60.70956270391929
 21
12.7
 31
0.0
  0
LINE
  5
15F
330
131
100
AcDbEntity
  8
AM_9
100
AcDbLine
 10
-81.855
 20
-12.7
 30
0.0
 11
-81.855
 21
-6.281767267258473
 31
0.0
  0
LINE
  5
160
330
131
100
AcDbEntity
  8
AM_9
100
AcDbLine
 10
-85.675
 20
-12.7
 30
0.0
 11
-85.675
 21
12.7
 31
0.0
  0
LINE
  5
161
330
131
100
AcDbEntity
  8
AM_9
100
AcDbLine
 10
81.855
 20
-12.7
 30
0.0
 11
81.855
 21
-6.281767267258484
 31
0.0
  0
LINE
  5
162
330
131
100
AcDbEntity
  8
AM_9
100
AcDbLine
 10
-81.855
 20
6.281767267258489
 30
0.0
 11
-81.855
 21
12.7
 31
0.0
  0
LINE
  5
163
330
131
100
AcDbEntity
  8
AM_9
100
AcDbLine
 10
-55.76611894246112
 20
-12.7
 30
0.0
 11
-55.76611894246112
 21
12.7
 31
0.0
  0
LINE
  5
164
330
131
100
AcDbEntity
  8
AM_9
100
AcDbLine
 10
55.76611894246111
 20
-12.7
 30
0.0
 11
55.76611894246111
 21
12.7
 31
0.0
  0
LINE
  5
165
330
131
100
AcDbEntity
  8
AM_9
100
AcDbLine
 10
-28.51114279921062
 20
-12.7
 30
0.0
 11
-28.51114279921062
 21
12.7
 31
0.0
  0
LINE
  5
166
330
131
100
AcDbEntity
  8
AM_9
100
AcDbLine
 10
28.51114318470067
 20
-12.7
 30
0.0
 11
28.51114318470067
 21
12.7
 31
0.0
  0
LINE
  5
167
330
131
100
AcDbEntity
  8
AM_9
100
AcDbLine
 10
-36.25074510743939
 20
-12.7
 30
0.0
 11
-36.25074510743939
 21
12.7
 31
0.0
  0
LINE
  5
168
330
131
100
AcDbEntity
  8
AM_9
100
AcDbLine
 10
85.675
 20
12.7
 30
0.0
 11
-85.675
 21
12.7
 31
0.0
  0
LINE
  5
169
330
131
100
AcDbEntity
  8
AM_9
100
AcDbLine
 10
85.675
 20
-12.7
 30
0.0
 11
-85.675
 21
-12.7
 31
0.0
  0
LINE
  5
16A
330
131
100
AcDbEntity
  8
AM_9
100
AcDbLine
 10
36.25074510743939
 20
-12.7
 30
0.0
 11
36.25074510743939
 21
12.7
 31
0.0
  0
LINE
  5
16B
330
131
100
AcDbEntity
  8
AM_9
100
AcDbLine
 10
-37.50000000000001
 20
-7.619999999999994
 30
0.0
 11
-44.5
 21
-7.619999999999995
 31
0.0
  0
LINE
  5
16C
330
131
100
AcDbEntity
  8
AM_9
100
AcDbLine
 10
-39.75235842060192
 20
-7.619999999999994
 30
0.0
 11
-39.75235842060192
 21
17.60424107142856
 31
0.0
  0
LINE
  5
16D
330
131
100
AcDbEntity
  8
AM_9
100
AcDbLine
 10
-44.5
 20
6.199090909090906
 30
0.0
 11
-44.5
 21
-7.619999999999995
 31
0.0
  0
LINE
  5
16E
330
131
100
AcDbEntity
  8
AM_9
100
AcDbLine
 10
44.5
 20
-7.619999999999995
 30
0.0
 11
37.50000000000001
 21
-7.619999999999994
 31
0.0
  0
LINE
  5
16F
330
131
100
AcDbEntity
  8
AM_9
100
AcDbLine
 10
39.7523584206019
 20
-7.619999999999994
 30
0.0
 11
39.7523584206019
 21
17.60424107142856
 31
0.0
  0
LINE
  5
170
330
131
100
AcDbEntity
  8
AM_9
100
AcDbLine
 10
-37.50000000000001
 20
-7.619999999999994
 30
0.0
 11
-37.50000000000001
 21
17.60424107142856
 31
0.0
  0
LINE
  5
171
330
131
100
AcDbEntity
  8
AM_9
100
AcDbLine
 10
37.50000000000001
 20
17.60424107142856
 30
0.0
 11
37.50000000000001
 21
-7.619999999999994
 31
0.0
  0
LINE
  5
172
330
131
100
AcDbEntity
  8
AM_9
100
AcDbLine
 10
42.5
 20
-20.32
 30
0.0
 11
42.5
 21
-7.619999999999995
 31
0.0
  0
LINE
  5
173
330
131
100
AcDbEntity
  8
AM_9
100
AcDbLine
 10
-42.5
 20
-7.619999999999995
 30
0.0
 11
-42.5
 21
-20.32
 31
0.0
  0
LINE
  5
174
330
131
100
AcDbEntity
  8
AM_9
100
AcDbLine
 10
28.2
 20
-20.32
 30
0.0
 11
-28.2
 21
-20.32
 31
0.0
  0
LINE
  5
175
330
131
100
AcDbEntity
  8
AM_7
100
AcDbLine
 10
-87.47500000000001
 20
-17.5
 30
0.0
 11
-84.325
 21
-17.5
 31
0.0
  0
LINE
  5
176
330
131
100
AcDbEntity
  8
AM_7
100
AcDbLine
 10
-85.9
 20
-19.075
 30
0.0
 11
-85.9
 21
-15.925
 31
0.0
  0
LINE
  5
177
330
131
100
AcDbEntity
  8
AM_7
100
AcDbLine
 10
84.325
 20
-17.5
 30
0.0
 11
87.47500000000001
 21
-17.5
 31
0.0
  0
LINE
  5
178
330
131
100
AcDbEntity
  8
AM_7
100
AcDbLine
 10
85.9
 20
-19.075
 30
0.0
 11
85.9
 21
-15.925
 31
0.0
  0
LINE
  5
179
330
131
100
AcDbEntity
  8
AM_7
100
AcDbLine
 10
0.0
 20
27.94
 30
0.0
 11
0.0
 21
-32.66500000000001
 31
0.0
  0
LINE
  5
17A
330
131
100
AcDbEntity
  8
AM_7
100
AcDbLine
 10
62.42124999999999
 20
-0.0000000000000044
 30
0.0
 11
86.02875000000002
 21
0.0000000000000036
 31
0.0
  0
LINE
  5
17B
330
131
100
AcDbEntity
  8
AM_7
100
AcDbLine
 10
78.59999999999998
 20
-7.428750000000029
 30
0.0
 11
78.59999999999998
 21
7.428750000000036
 31
0.0
  0
LINE
  5
17C
330
131
100
AcDbEntity
  8
AM_7
100
AcDbLine
 10
-86.02875
 20
0.0000000000000098
 30
0.0
 11
-62.42124999999998
 21
0.0000000000000084
 31
0.0
  0
LINE
  5
17D
330
131
100
AcDbEntity
  8
AM_7
100
AcDbLine
 10
-78.59999999999997
 20
-7.428750000000023
 30
0.0
 11
-78.59999999999997
 21
7.428750000000043
 31
0.0
  0
LINE
  5
17E
330
131
100
AcDbEntity
  8
AM_7
100
AcDbLine
 10
69.85000000000004
 20
-7.428750000000045
 30
0.0
 11
69.85000000000004
 21
7.428750000000036
 31
0.0
  0
LINE
  5
17F
330
131
100
AcDbEntity
  8
AM_7
100
AcDbLine
 10
-69.85000000000002
 20
-7.428750000000033
 30
0.0
 11
-69.85000000000002
 21
7.428750000000049
 31
0.0
  0
LINE
  5
180
330
131
100
AcDbEntity
  8
AM_4
100
AcDbLine
 10
-94.5
 20
-25.4
 30
0.0
 11
-94.5
 21
25.4
 31
0.0
  0
LINE
  5
181
330
131
100
AcDbEntity
  8
AM_4
100
AcDbLine
 10
90.67999999999998
 20
-25.4
 30
0.0
 11
90.67999999999998
 21
-18.97894314327794
 31
0.0
  0
LINE
  5
182
330
131
100
AcDbEntity
  8
AM_4
100
AcDbLine
 10
-90.68000000000004
 20
18.9789418312779
 30
0.0
 11
-90.68000000000004
 21
25.4
 31
0.0
  0
LINE
  5
183
330
131
100
AcDbEntity
  8
AM_4
100
AcDbLine
 10
94.5
 20
-25.4
 30
0.0
 11
94.5
 21
25.4
 31
0.0
  0
LINE
  5
184
330
131
100
AcDbEntity
  8
AM_4
100
AcDbLine
 10
90.67999999999998
 20
18.97894183127794
 30
0.0
 11
90.67999999999998
 21
25.4
 31
0.0
  0
LINE
  5
185
330
131
100
AcDbEntity
  8
AM_4
100
AcDbLine
 10
-90.68000000000004
 20
-25.4
 30
0.0
 11
-90.68000000000004
 21
-18.97894314327791
 31
0.0
  0
LINE
  5
186
330
131
100
AcDbEntity
  8
AM_4
100
AcDbLine
 10
-74.55091082646503
 20
-25.4
 30
0.0
 11
-74.55091082646503
 21
-20.50000131200001
 31
0.0
  0
LINE
  5
187
330
131
100
AcDbEntity
  8
AM_4
100
AcDbLine
 10
-74.55091082646503
 20
20.49999999999999
 30
0.0
 11
-74.55091082646503
 21
25.4
 31
0.0
  0
LINE
  5
188
330
131
100
AcDbEntity
  8
AM_4
100
AcDbLine
 10
74.550910826465
 20
-25.4
 30
0.0
 11
74.550910826465
 21
-20.50000131200001
 31
0.0
  0
LINE
  5
189
330
131
100
AcDbEntity
  8
AM_4
100
AcDbLine
 10
74.550910826465
 20
20.49999999999999
 30
0.0
 11
74.550910826465
 21
25.4
 31
0.0
  0
CIRCLE
  5
18A
330
131
100
AcDbEntity
  8
AM_4
100
AcDbCircle
 10
-85.9
 20
-17.5
 30
0.0
 40
1.5
  0
LINE
  5
18B
330
131
100
AcDbEntity
  8
AM_4
100
AcDbLine
 10
-69.85
 20
-7.074999999999998
 30
0.0
 11
-78.60000000000001
 21
-7.074999999999995
 31
0.0
  0
ARC
  5
18C
330
131
100
AcDbEntity
  8
AM_4
100
AcDbCircle
 10
-85.74999999999997
 20
11.74999999999997
 30
0.0
 40
8.750000000000028
100
AcDbArc
 50
90.0
 51
180.0
  0
LINE
  5
18D
330
131
100
AcDbEntity
  8
AM_4
100
AcDbLine
 10
-85.75000000000001
 20
-20.50000131199999
 30
0.0
 11
-69.85
 21
-20.50000131200001
 31
0.0
  0
ARC
  5
18E
330
131
100
AcDbEntity
  8
AM_4
100
AcDbCircle
 10
-69.84999999999998
 20
0.0000000000000093
 30
0.0
 40
7.075000000000006
100
AcDbArc
 50
270.0
 51
90.0
  0
LINE
  5
18F
330
131
100
AcDbEntity
  8
AM_4
100
AcDbLine
 10
-78.60000000000001
 20
7.075000000000012
 30
0.0
 11
-69.85
 21
7.075000000000014
 31
0.0
  0
LINE
  5
190
330
131
100
AcDbEntity
  8
AM_4
100
AcDbLine
 10
-69.85
 20
20.49999999999999
 30
0.0
 11
-85.74999999999999
 21
20.5
 31
0.0
  0
ARC
  5
191
330
131
100
AcDbEntity
  8
AM_4
100
AcDbCircle
 10
-78.6
 20
0.0000000000000098
 30
0.0
 40
7.075000000000002
100
AcDbArc
 50
90.0
 51
270.0
  0
ARC
  5
192
330
131
100
AcDbEntity
  8
AM_4
100
AcDbCircle
 10
-85.75
 20
-11.75000131199999
 30
0.0
 40
8.75
100
AcDbArc
 50
180.0
 51
270.0
  0
LINE
  5
193
330
131
100
AcDbEntity
  8
AM_4
100
AcDbLine
 10
69.85
 20
7.075000000000001
 30
0.0
 11
78.60000000000001
 21
7.075000000000007
 31
0.0
  0
ARC
  5
194
330
131
100
AcDbEntity
  8
AM_4
100
AcDbCircle
 10
69.85000000000001
 20
-0.000000000000004
 30
0.0
 40
7.075000000000005
100
AcDbArc
 50
90.0
 51
270.0
  0
LINE
  5
195
330
131
100
AcDbEntity
  8
AM_4
100
AcDbLine
 10
69.85000000000001
 20
-20.50000131200001
 30
0.0
 11
85.75
 21
-20.50000131200001
 31
0.0
  0
ARC
  5
196
330
131
100
AcDbEntity
  8
AM_4
100
AcDbCircle
 10
78.60000000000001
 20
0.0000000000000013
 30
0.0
 40
7.075000000000006
100
AcDbArc
 50
270.0
 51
90.0
  0
ARC
  5
197
330
131
100
AcDbEntity
  8
AM_4
100
AcDbCircle
 10
85.75
 20
-11.750001312
 30
0.0
 40
8.750000000000007
100
AcDbArc
 50
270.0
 51
0.0
  0
CIRCLE
  5
198
330
131
100
AcDbEntity
  8
AM_4
100
AcDbCircle
 10
85.9
 20
-17.5
 30
0.0
 40
1.5
  0
LINE
  5
199
330
131
100
AcDbEntity
  8
AM_4
100
AcDbLine
 10
78.60000000000001
 20
-7.075000000000006
 30
0.0
 11
69.85
 21
-7.075000000000008
 31
0.0
  0
ARC
  5
19A
330
131
100
AcDbEntity
  8
AM_4
100
AcDbCircle
 10
85.75000000000001
 20
11.75000000000001
 30
0.0
 40
8.749999999999986
100
AcDbArc
 50
0.0
 51
90.0
  0
LINE
  5
19B
330
131
100
AcDbEntity
  8
AM_4
100
AcDbLine
 10
85.75000000000001
 20
20.49999999999998
 30
0.0
 11
69.85
 21
20.49999999999999
 31
0.0
  0
LWPOLYLINE
  5
19C
330
131
100
AcDbEntity
  8
AM_4
100
AcDbPolyline
 90
       14
 70
     0
 43
0.0
 10
69.75
 20
20.4
 10
67.97202284794778
 20
20.32237184107161
 10
66.20757717559462
 20
20.09007816144905
 10
64.47009147990859
 20
19.704886856297
 10
62.77278907615637
 20
19.16972946403254
 10
61.12858746048974
 20
18.48867885554767
 10
59.55000000000002
 20
17.66691823720256
 10
58.04904069843868
 20
16.71070170349545
 10
56.63713276239461
 20
15.62730663962717
 10
55.32502166379445
 20
14.42497833620559
 10
54.12269336037287
 20
13.11286723760542
 10
53.03929829650458
 20
11.70095930156136
 10
52.08308176279747
 20
10.20000000000003
 10
51.6095135869672
 20
9.331814009000196
  0
LINE
  5
19D
330
131
100
AcDbEntity
  8
AM_4
100
AcDbLine
 10
69.85
 20
20.4
 30
0.0
 11
69.75
 21
20.4
 31
0.0
  0
LINE
  5
19E
330
131
100
AcDbEntity
  8
AM_4
100
AcDbLine
 10
69.85
 20
20.4
 30
0.0
 11
69.85
 21
20.49999999999999
 31
0.0
  0
LINE
  5
19F
330
131
100
AcDbEntity
  8
AM_4
100
AcDbLine
 10
70.94013533375045
 20
20.49999999999999
 30
0.0
 11
70.94013533375046
 21
25.4
 31
0.0
  0
LWPOLYLINE
  5
1A0
330
131
100
AcDbEntity
  8
AM_4
100
AcDbPolyline
 90
       14
 70
     0
 43
0.0
 10
-69.75000000000001
 20
-20.4
 10
-67.9720228479478
 20
-20.32237184107161
 10
-66.20757717559464
 20
-20.09007816144905
 10
-64.4700914799086
 20
-19.704886856297
 10
-62.77278907615639
 20
-19.16972946403254
 10
-61.12858746048975
 20
-18.48867885554766
 10
-59.55000000000003
 20
-17.66691823720256
 10
-58.04904069843869
 20
-16.71070170349545
 10
-56.63713276239462
 20
-15.62730663962717
 10
-55.32502166379445
 20
-14.42497833620559
 10
-54.12269336037287
 20
-13.11286723760542
 10
-53.03929829650458
 20
-11.70095930156136
 10
-52.08308176279747
 20
-10.20000000000002
 10
-51.6095135869672
 20
-9.331814009000185
  0
LINE
  5
1A1
330
131
100
AcDbEntity
  8
AM_4
100
AcDbLine
 10
-69.85
 20
-20.4
 30
0.0
 11
-69.75000000000001
 21
-20.4
 31
0.0
  0
LINE
  5
1A2
330
131
100
AcDbEntity
  8
AM_4
100
AcDbLine
 10
-69.85
 20
-20.4
 30
0.0
 11
-69.85
 21
-20.50000131200001
 31
0.0
  0
LINE
  5
1A3
330
131
100
AcDbEntity
  8
AM_4
100
AcDbLine
 10
-70.94013533375045
 20
-25.4
 30
0.0
 11
-70.94013533375045
 21
-20.50000131200001
 31
0.0
  0
LWPOLYLINE
  5
1A4
330
131
100
AcDbEntity
  8
AM_4
100
AcDbPolyline
 90
       14
 70
     0
 43
0.0
 10
-51.6095135869672
 20
9.331814009000198
 10
-52.49186479566879
 20
10.87735120647595
 10
-53.50556083402229
 20
12.34010519334618
 10
-54.64288686308942
 20
13.70894352853582
 10
-55.89518714505276
 20
14.97344852578687
 10
-57.25293091860699
 20
16.12399653854127
 10
-58.70578493380723
 20
17.15183120170207
 10
-60.24269209434058
 20
18.04913007285909
 10
-61.85195560870547
 20
18.80906416579893
 10
-63.52132800985771
 20
19.42584992321359
 10
-65.23810436582991
 20
19.8947932330637
 10
-66.98921897193522
 20
20.21232515360561
 10
-68.76134478866925
 20
20.37602907519296
 10
-69.75
 20
20.40000000000001
  0
LINE
  5
1A5
330
131
100
AcDbEntity
  8
AM_4
100
AcDbLine
 10
-70.94013533375045
 20
20.49999999999999
 30
0.0
 11
-70.94013533375045
 21
25.4
 31
0.0
  0
LINE
  5
1A6
330
131
100
AcDbEntity
  8
AM_4
100
AcDbLine
 10
-69.85
 20
20.49999999999999
 30
0.0
 11
-69.85
 21
20.40000000000001
 31
0.0
  0
LINE
  5
1A7
330
131
100
AcDbEntity
  8
AM_4
100
AcDbLine
 10
-69.75
 20
20.40000000000001
 30
0.0
 11
-69.85
 21
20.40000000000001
 31
0.0
  0
LWPOLYLINE
  5
1A8
330
131
100
AcDbEntity
  8
AM_4
100
AcDbPolyline
 90
       14
 70
     0
 43
0.0
 10
51.6095135869672
 20
-9.331814009000196
 10
52.4918647956688
 20
-10.87735120647594
 10
53.50556083402229
 20
-12.34010519334618
 10
54.64288686308943
 20
-13.70894352853582
 10
55.89518714505277
 20
-14.97344852578687
 10
57.252930918607
 20
-16.12399653854128
 10
58.70578493380724
 20
-17.15183120170208
 10
60.2426920943406
 20
-18.04913007285909
 10
61.85195560870549
 20
-18.80906416579893
 10
63.52132800985773
 20
-19.42584992321358
 10
65.23810436582993
 20
-19.8947932330637
 10
66.98921897193523
 20
-20.2123251536056
 10
68.76134478866926
 20
-20.37602907519296
 10
69.75
 20
-20.40000000000001
  0
LINE
  5
1A9
330
131
100
AcDbEntity
  8
AM_4
100
AcDbLine
 10
70.94013533375046
 20
-25.4
 30
0.0
 11
70.94013533375045
 21
-20.50000131200001
 31
0.0
  0
LINE
  5
1AA
330
131
100
AcDbEntity
  8
AM_4
100
AcDbLine
 10
69.85000000000001
 20
-20.50000131200001
 30
0.0
 11
69.85
 21
-20.40000000000001
 31
0.0
  0
LINE
  5
1AB
330
131
100
AcDbEntity
  8
AM_4
100
AcDbLine
 10
69.75
 20
-20.40000000000001
 30
0.0
 11
69.85
 21
-20.40000000000001
 31
0.0
  0
LINE
  5
1AC
330
131
100
AcDbEntity
  8
AM_4
100
AcDbLine
 10
44.24600000000001
 20
20.32
 30
0.0
 11
-44.246
 21
20.32
 31
0.0
  0
LWPOLYLINE
  5
1AD
330
131
100
AcDbEntity
  8
AM_4
100
AcDbPolyline
 90
        4
 70
     0
 43
0.0
 10
-44.45514644385359
 20
20.42986893109606
 10
-44.44476010576486
 20
20.41585316836451
 10
-44.29731632027845
 20
20.32523779372043
 10
-44.246
 20
20.32
  0
LINE
  5
1AE
330
131
100
AcDbEntity
  8
AM_4
100
AcDbLine
 10
-44.49565390371466
 20
20.52721401533999
 30
0.0
 11
-44.45514644385359
 21
20.42986893109606
 31
0.0
  0
LINE
  5
1AF
330
131
100
AcDbEntity
  8
AM_4
100
AcDbLine
 10
-39.75235842060191
 20
17.60424107142856
 30
0.0
 11
-39.75235842060191
 21
20.32
 31
0.0
  0
LWPOLYLINE
  5
1B0
330
131
100
AcDbEntity
  8
AM_4
100
AcDbPolyline
 90
        7
 70
     0
 43
0.0
 10
-44.5
 20
20.4390625
 10
-44.33066406508267
 20
19.88932959805983
 10
-43.82394500904326
 20
19.34378049544123
 10
-42.98369926986354
 20
18.80656715022667
 10
-41.81632162497292
 20
18.28177808035154
 10
-40.33069652313092
 20
17.77340724751388
 10
-39.75235842060192
 20
17.60424107142857
  0
LINE
  5
1B1
330
131
100
AcDbEntity
  8
AM_4
100
AcDbLine
 10
39.75235842060192
 20
17.60424107142855
 30
0.0
 11
39.75235842060192
 21
20.32
 31
0.0
  0
LINE
  5
1B2
330
131
100
AcDbEntity
  8
AM_4
100
AcDbLine
 10
44.46851555085644
 20
20.45151396150147
 30
0.0
 11
44.49565390371465
 21
20.52721401533993
 31
0.0
  0
LWPOLYLINE
  5
1B3
330
131
100
AcDbEntity
  8
AM_4
100
AcDbPolyline
 90
        4
 70
     0
 43
0.0
 10
44.24600000000001
 20
20.32
 10
44.29731632027845
 20
20.32523779372043
 10
44.44476010576486
 20
20.41585316836449
 10
44.46851555085644
 20
20.45151396150147
  0
LINE
  5
1B4
330
131
100
AcDbEntity
  8
AM_4
100
AcDbLine
 10
44.5
 20
20.4390625
 30
0.0
 11
44.49565390371465
 21
20.52721401534602
 31
0.0
  0
LINE
  5
1B5
330
131
100
AcDbEntity
  8
AM_4
100
AcDbLine
 10
37.50000000000001
 20
17.60424107142856
 30
0.0
 11
37.50000000000001
 21
20.32
 31
0.0
  0
LINE
  5
1B6
330
131
100
AcDbEntity
  8
AM_4
100
AcDbLine
 10
-37.50000000000001
 20
20.32
 30
0.0
 11
-37.50000000000001
 21
17.60424107142856
 31
0.0
  0
LINE
  5
1B7
330
131
100
AcDbEntity
  8
AM_4
100
AcDbLine
 10
-28.2
 20
-20.32
 30
0.0
 11
-44.5
 21
-20.32000000000005
 31
0.0
  0
LINE
  5
1B8
330
131
100
AcDbEntity
  8
AM_4
100
AcDbLine
 10
44.5
 20
-20.32
 30
0.0
 11
28.2
 21
-20.32
 31
0.0
  0
LINE
  5
1B9
330
131
100
AcDbEntity
  8
AM_4
100
AcDbLine
 10
-51.6095135869672
 20
-17.91297530120196
 30
0.0
 11
-51.6095135869672
 21
-9.33181400900019
 31
0.0
  0
LINE
  5
1BA
330
131
100
AcDbEntity
  8
AM_4
100
AcDbLine
 10
51.6095135869672
 20
-17.91297530120196
 30
0.0
 11
51.6095135869672
 21
-9.331814009000198
 31
0.0
  0
LWPOLYLINE
  5
1BB
330
131
100
AcDbEntity
  8
AM_4
100
AcDbPolyline
 90
       27
 70
     0
 43
0.0
 10
51.6095135869672
 20
9.331814009000201
 10
51.33837435438861
 20
8.784783843793258
 10
51.06734648700485
 20
8.192585532868712
 10
50.79567867969018
 20
7.542797246500638
 10
50.53194272969059
 20
6.842972654856208
 10
50.28416707527116
 20
6.10251324602988
 10
50.05398927890239
 20
5.312924023022361
 10
49.84108747220109
 20
4.448910578429031
 10
49.65921223976157
 20
3.538396130035967
 10
49.54783466755424
 20
2.833935851679776
 10
49.45946722710254
 20
2.11051647517236
 10
49.3948495403239
 20
1.351252804441389
 10
49.35829485220136
 20
0.5816882027707656
 10
49.35077043711311
 20
-0.1718170552743014
 10
49.37093902896358
 20
-0.9240529956554624
 10
49.42035961037107
 20
-1.692282544830759
 10
49.49737498288277
 20
-2.447688688546269
 10
49.59418185821522
 20
-3.146726925971017
 10
49.71201252384709
 20
-3.826102181795314
 10
49.85197529241054
 20
-4.497543397605498
 10
50.00893303596465
 20
-5.1429830955849
 10
50.2519027830846
 20
-5.998600234671237
 10
50.51596497017069
 20
-6.797933249988477
 10
50.8025944155552
 20
-7.560155441559374
 10
51.09849164258519
 20
-8.263246092988313
 10
51.35403930946546
 20
-8.817535860362046
 10
51.6095135869672
 20
-9.33181400900019
  0
LINE
  5
1BC
330
131
100
AcDbEntity
  8
AM_4
100
AcDbLine
 10
51.6095135869672
 20
9.331814009000185
 30
0.0
 11
51.6095135869672
 21
17.91297530120195
 31
0.0
  0
LINE
  5
1BD
330
131
100
AcDbEntity
  8
AM_4
100
AcDbLine
 10
-51.6095135869672
 20
9.331814009000206
 30
0.0
 11
-51.6095135869672
 21
17.91297530120195
 31
0.0
  0
LWPOLYLINE
  5
1BE
330
131
100
AcDbEntity
  8
AM_4
100
AcDbPolyline
 90
       27
 70
     0
 43
0.0
 10
-51.6095135869672
 20
-9.33181400900019
 10
-51.33837435438861
 20
-8.784783843793248
 10
-51.06734648700485
 20
-8.192585532868701
 10
-50.79567867969018
 20
-7.542797246500628
 10
-50.53194272969059
 20
-6.842972654856199
 10
-50.28416707527116
 20
-6.102513246029869
 10
-50.05398927890239
 20
-5.312924023022351
 10
-49.84108747220109
 20
-4.448910578429021
 10
-49.65921223976157
 20
-3.538396130035957
 10
-49.54783466755424
 20
-2.833935851679767
 10
-49.45946722710254
 20
-2.11051647517235
 10
-49.3948495403239
 20
-1.351252804441379
 10
-49.35829485220136
 20
-0.5816882027707558
 10
-49.35077043711311
 20
0.1718170552743112
 10
-49.37093902896358
 20
0.9240529956554722
 10
-49.42035961037107
 20
1.692282544830769
 10
-49.49737498288277
 20
2.447688688546278
 10
-49.59418185821522
 20
3.146726925971026
 10
-49.71201252384709
 20
3.826102181795324
 10
-49.85197529241054
 20
4.497543397605509
 10
-50.00893303596465
 20
5.14298309558491
 10
-50.2519027830846
 20
5.998600234671247
 10
-50.51596497017069
 20
6.797933249988486
 10
-50.8025944155552
 20
7.560155441559383
 10
-51.09849164258519
 20
8.263246092988323
 10
-51.35403930946546
 20
8.817535860362057
 10
-51.6095135869672
 20
9.331814009000201
  0
LINE
  5
1BF
330
131
100
AcDbEntity
  8
AM_4
100
AcDbLine
 10
44.5
 20
-20.32
 30
0.0
 11
44.5
 21
-25.4
 31
0.0
  0
LINE
  5
1C0
330
131
100
AcDbEntity
  8
AM_4
100
AcDbLine
 10
44.5
 20
-25.4
 30
0.0
 11
94.5
 21
-25.4
 31
0.0
  0
LINE
  5
1C1
330
131
100
AcDbEntity
  8
AM_4
100
AcDbLine
 10
51.6095135869672
 20
-17.91297530120196
 30
0.0
 11
69.84999999999997
 21
-25.4
 31
0.0
  0
LWPOLYLINE
  5
1C2
330
131
100
AcDbEntity
  8
AM_4
100
AcDbPolyline
 90
       30
 70
     0
 43
0.0
 10
-51.6095135869672
 20
-17.91297530120197
 10
-49.85984779519672
 20
-17.28502720379988
 10
-47.73071845550556
 20
-16.68108321946046
 10
-45.23832952777221
 20
-16.10573972657588
 10
-42.4016495966823
 20
-15.56337543652888
 10
-39.24226750934562
 20
-15.05811806905523
 10
-35.78422807113385
 20
-14.59381293780416
 10
-32.05384905019307
 20
-14.17399368517958
 10
-28.0795208833371
 20
-13.80185538918777
 10
-23.89149060768066
 20
-13.48023024696446
 10
-19.52163166242332
 20
-13.21156602004455
 10
-15.00320131273146
 20
-12.9979074054188
 10
-10.37058754186908
 20
-12.8408804741551
 10
-5.659047337881104
 20
-12.74168029601582
 10
-0.904438366625646
 20
-12.70106184425531
 10
3.85705392671465
 20
-12.71933424981757
 10
8.589191710719811
 20
-12.79635844866307
 10
13.25596055951064
 20
-12.93154824013012
 10
17.82184354427577
 20
-13.12387474827584
 10
22.2520915385456
 20
-13.37187425224331
 10
26.51298768002688
 20
-13.67365932606114
 10
30.57210397628348
 20
-14.02693320309478
 10
34.39854810133948
 20
-14.42900725582738
 10
37.96319850493306
 20
-14.87682145793872
 10
41.23892604509812
 20
-15.36696767295311
 10
44.20080045731561
 20
-15.89571559221592
 10
46.8262800888799
 20
-16.45904112479484
 10
49.09538345448686
 20
-17.05265702324168
 10
50.99084130740214
 20
-17.67204551213418
 10
51.6095135869672
 20
-17.91297530120196
  0
LINE
  5
1C3
330
131
100
AcDbEntity
  8
AM_4
100
AcDbLine
 10
-69.84999999999998
 20
-25.4
 30
0.0
 11
-51.6095135869672
 21
-17.91297530120196
 31
0.0
  0
LINE
  5
1C4
330
131
100
AcDbEntity
  8
AM_4
100
AcDbLine
 10
-94.5
 20
-25.4
 30
0.0
 11
-44.5
 21
-25.4
 31
0.0
  0
LINE
  5
1C5
330
131
100
AcDbEntity
  8
AM_4
100
AcDbLine
 10
-44.5
 20
-25.4
 30
0.0
 11
-44.5
 21
-20.32000000000005
 31
0.0
  0
LWPOLYLINE
  5
1C6
330
131
100
AcDbEntity
  8
AM_4
100
AcDbPolyline
 90
       37
 70
     0
 43
0.0
 10
42.49169801267067
 20
-20.32
 10
42.25679344923005
 20
-19.79552982253664
 10
41.70028917229128
 20
-19.27595731732443
 10
40.82642051542835
 20
-18.76523674485449
 10
39.64183814677632
 20
-18.26725499706483
 10
38.15555745343099
 20
-17.78580201574574
 10
36.37888992890955
 20
-17.3245419487943
 10
34.3253570858548
 20
-16.88698526383646
 10
32.01058754915941
 20
-16.4764620314487
 10
29.4521981126937
 20
-16.09609658131021
 10
26.66965966486694
 20
-15.74878372416746
 10
23.68414900340975
 20
-15.43716672057655
 10
20.51838766715645
 20
-15.1636171640943
 10
17.19646901141487
 20
-14.93021693201928
 10
13.74367484298455
 20
-14.73874234104849
 10
10.18628301034135
 20
-14.59065062843474
 10
6.551367413343598
 20
-14.48706886153124
 10
2.866591954506507
 20
-14.42878536012851
 10
-0.8399999999999247
 20
-14.41624369686476
 10
-4.54019904730049
 20
-14.44953932137029
 10
-8.20584443840396
 20
-14.52841883383817
 10
-11.80903839850683
 20
-14.65228191354977
 10
-15.32235844590473
 20
-14.82018588767791
 10
-18.71906609363631
 20
-15.03085290559627
 10
-21.97331034551418
 20
-15.28267966409429
 10
-25.06032443781514
 20
-15.57374960948263
 10
-27.95661432930671
 20
-15.90184752372405
 10
-30.64013750508699
 20
-16.26447638358024
 10
-33.09047073343271
 20
-16.6588763644664
 10
-35.28896549892448
 20
-17.08204584438276
 10
-37.21888992890948
 20
-17.53076424807045
 10
-38.8655561331553
 20
-18.00161655753382
 10
-40.2164319875634
 20
-18.49101930238946
 10
-41.26123651120056
 20
-18.99524783223956
 10
-41.9920181107717
 20
-19.51046466351044
 10
-42.4032150970461
 20
-20.03274868501972
 10
-42.49169801267067
 20
-20.32
  0
LINE
  5
1C7
330
131
100
AcDbEntity
  8
AM_4
100
AcDbLine
 10
-39.75235842060192
 20
17.60424107142856
 30
0.0
 11
-37.50000000000001
 21
17.60424107142856
 31
0.0
  0
LINE
  5
1C8
330
131
100
AcDbEntity
  8
AM_4
100
AcDbLine
 10
-44.49565390371465
 20
20.52721401534603
 30
0.0
 11
-44.5
 21
20.4390625
 31
0.0
  0
LWPOLYLINE
  5
1C9
330
131
100
AcDbEntity
  8
AM_4
100
AcDbPolyline
 90
        4
 70
     0
 43
0.0
 10
-44.49999999999999
 20
20.574
 10
-44.49903345331529
 20
20.5518624413421
 10
-44.4961411692651
 20
20.5298933628726
 10
-44.49565390371463
 20
20.52721401534604
  0
LINE
  5
1CA
330
131
100
AcDbEntity
  8
AM_4
100
AcDbLine
 10
-44.5
 20
20.574
 30
0.0
 11
-44.5
 21
25.4
 31
0.0
  0
LINE
  5
1CB
330
131
100
AcDbEntity
  8
AM_4
100
AcDbLine
 10
-94.5
 20
25.4
 30
0.0
 11
-44.5
 21
25.4
 31
0.0
  0
LINE
  5
1CC
330
131
100
AcDbEntity
  8
AM_4
100
AcDbLine
 10
-51.6095135869672
 20
17.91297530120195
 30
0.0
 11
-69.85
 21
25.4
 31
0.0
  0
LWPOLYLINE
  5
1CD
330
131
100
AcDbEntity
  8
AM_4
100
AcDbPolyline
 90
       30
 70
     0
 43
0.0
 10
51.6095135869672
 20
17.91297530120196
 10
49.85984779519671
 20
17.28502720379987
 10
47.73071845550552
 20
16.68108321946045
 10
45.23832952777217
 20
16.10573972657587
 10
42.40164959668228
 20
15.56337543652887
 10
39.24226750934558
 20
15.05811806905523
 10
35.7842280711338
 20
14.59381293780415
 10
32.05384905019303
 20
14.17399368517957
 10
28.07952088333706
 20
13.80185538918776
 10
23.89149060768062
 20
13.48023024696446
 10
19.52163166242327
 20
13.21156602004455
 10
15.00320131273141
 20
12.9979074054188
 10
10.37058754186902
 20
12.84088047415509
 10
5.659047337881048
 20
12.74168029601582
 10
0.904438366625591
 20
12.70106184425531
 10
-3.857053926714705
 20
12.71933424981757
 10
-8.589191710719865
 20
12.79635844866307
 10
-13.25596055951069
 20
12.93154824013013
 10
-17.82184354427582
 20
13.12387474827585
 10
-22.25209153854565
 20
13.37187425224331
 10
-26.51298768002692
 20
13.67365932606114
 10
-30.57210397628353
 20
14.02693320309478
 10
-34.39854810133952
 20
14.42900725582739
 10
-37.9631985049331
 20
14.87682145793872
 10
-41.23892604509814
 20
15.36696767295312
 10
-44.20080045731564
 20
15.89571559221593
 10
-46.82628008887993
 20
16.45904112479484
 10
-49.09538345448689
 20
17.05265702324168
 10
-50.99084130740216
 20
17.67204551213418
 10
-51.6095135869672
 20
17.91297530120196
  0
LINE
  5
1CE
330
131
100
AcDbEntity
  8
AM_4
100
AcDbLine
 10
69.85
 20
25.4
 30
0.0
 11
51.6095135869672
 21
17.91297530120195
 31
0.0
  0
LINE
  5
1CF
330
131
100
AcDbEntity
  8
AM_4
100
AcDbLine
 10
44.5
 20
25.39999999999999
 30
0.0
 11
94.5
 21
25.4
 31
0.0
  0
LINE
  5
1D0
330
131
100
AcDbEntity
  8
AM_4
100
AcDbLine
 10
44.5
 20
25.39999999999999
 30
0.0
 11
44.5
 21
20.57399999999985
 31
0.0
  0
LWPOLYLINE
  5
1D1
330
131
100
AcDbEntity
  8
AM_4
100
AcDbPolyline
 90
        4
 70
     0
 43
0.0
 10
44.49565390371464
 20
20.52721401534603
 10
44.49878156248113
 20
20.54915082155081
 10
44.49998540092345
 20
20.57127674500794
 10
44.5
 20
20.5739999999997
  0
LWPOLYLINE
  5
1D2
330
131
100
AcDbEntity
  8
AM_4
100
AcDbPolyline
 90
        7
 70
     0
 43
0.0
 10
39.75235842060189
 20
17.60424107142856
 10
41.34420355019953
 20
18.1061111049219
 10
42.6213943264675
 20
18.62573630720636
 10
43.57421055640951
 20
19.15916201673427
 10
44.19540073318955
 20
19.70232854176487
 10
44.48023722447744
 20
20.25110205706977
 10
44.5
 20
20.4390625
  0
LINE
  5
1D3
330
131
100
AcDbEntity
  8
AM_4
100
AcDbLine
 10
37.50000000000001
 20
17.60424107142856
 30
0.0
 11
39.7523584206019
 21
17.60424107142856
 31
0.0
  0
LWPOLYLINE
  5
1D4
330
131
100
AcDbEntity
  8
AM_4
100
AcDbPolyline
 90
       26
 70
     0
 43
0.0
 10
-37.5
 20
17.60424107142856
 10
-35.6141863234873
 20
17.15177035938754
 10
-33.4573271846192
 20
16.72431792545785
 10
-31.04583758378966
 20
16.32513694076452
 10
-28.3980704129582
 20
15.95726541363314
 10
-25.5341767790604
 20
15.62350306851208
 10
-22.47595264191647
 20
15.32639003837893
 10
-19.2466729338163
 20
15.06818753279475
 10
-15.87091442323092
 20
14.85086062873398
 10
-12.37436867076462
 20
14.67606331516209
 10
-8.783646500865704
 20
14.54512590518086
 10
-5.126075477384436
 20
14.45904491154243
 10
-1.429491924311276
 20
14.4184754625855
 10
2.277970925456718
 20
14.42372631631314
 10
5.968097041005534
 20
14.47475751055793
 10
9.612802334436779
 20
14.57118066711819
 10
13.18434839773421
 20
14.71226194755061
 10
16.65555360879766
 20
14.89692763812388
 10
19.99999999999994
 20
15.12377232142856
 10
23.19223431487203
 20
15.39106957245212
 10
26.20796172275398
 20
15.69678509771579
 10
29.02423071712583
 20
16.03859221747623
 10
31.61960779043069
 20
16.41388957316327
 10
33.97434055600917
 20
16.81982092528941
 10
36.07050807568872
 20
17.25329689115691
 10
37.5
 20
17.60424107142856
  0
ENDBLK
  5
134
330
131
100
AcDbEntity
  8
0
100
AcDbBlockEnd
  0
ENDSEC
  0
SECTION
  2
ENTITIES
  0
INSERT
  5
6F
330
1F
100
AcDbEntity
  8
0
100
AcDbBlockReference
  2
1_064136_4
 10
0.0
 20
0.0
 30
0.0
  0
POINT
  5
1D6
330
1F
100
AcDbEntity
  8
ConnectionPoints
100
AcDbPoint
 10
0.0
 20
-30.2
 30
0.0000000000000018
  0
POINT
  5
1D7
330
1F
100
AcDbEntity
  8
ConnectionPoints
100
AcDbPoint
 10
38.60803025278549
 20
0.0000000000000024
 30
38.6080302527855
  0
POINT
  5
1D8
330
1F
100
AcDbEntity
  8
ConnectionPoints
100
AcDbPoint
 10
0.0
 20
-30.2
 30
0.0000000000000018
  0
ENDSEC
  0
SECTION
  2
OBJECTS
  0
DICTIONARY
  5
C
330
0
100
AcDbDictionary
281
     1
  3
ACAD_DETAILVIEWSTYLE
350
1E0
  3
ACAD_GROUP
350
D
  3
ACAD_LAYOUT
350
1A
  3
ACAD_MATERIAL
350
43
  3
ACAD_MLEADERSTYLE
350
6B
  3
ACAD_MLINESTYLE
350
17
  3
ACAD_PLOTSETTINGS
350
19
  3
ACAD_PLOTSTYLENAME
350
E
  3
ACAD_SCALELIST
350
47
  3
ACAD_SECTIONVIEWSTYLE
350
1E1
  3
ACAD_TABLESTYLE
350
69
  3
ACAD_VISUALSTYLE
350
2A
  3
ACDB_RECOMPOSE_DATA
350
1DD
  3
AcDbVariableDictionary
350
1D9
  0
SUN
  5
6D
330
29
100
AcDbSun
 90
        1
290
     0
 63
     7
421
 16777215
 40
1.0
291
     1
 91
  2455826
 92
 54000000
292
     0
 70
     2
 71
   256
280
     1
  0
DICTIONARY
  5
1E0
102
{ACAD_REACTORS
330
C
102
}
330
C
100
AcDbDictionary
281
     1
  0
DICTIONARY
  5
D
102
{ACAD_REACTORS
330
C
102
}
330
C
100
AcDbDictionary
281
     1
  0
DICTIONARY
  5
1A
102
{ACAD_REACTORS
330
C
102
}
330
C
100
AcDbDictionary
281
     1
  3
Layout1
350
1E
  3
Layout2
350
26
  3
Model
350
22
  0
DICTIONARY
  5
43
102
{ACAD_REACTORS
330
C
102
}
330
C
100
AcDbDictionary
281
     1
  3
ByBlock
350
45
  3
ByLayer
350
44
  3
Global
350
46
  0
DICTIONARY
  5
6B
102
{ACAD_REACTORS
330
C
102
}
330
C
100
AcDbDictionary
281
     1
  3
Standard
350
6C
  0
DICTIONARY
  5
17
102
{ACAD_REACTORS
330
C
102
}
330
C
100
AcDbDictionary
281
     1
  3
Standard
350
18
  0
DICTIONARY
  5
19
102
{ACAD_REACTORS
330
C
102
}
330
C
100
AcDbDictionary
281
     1
  0
ACDBDICTIONARYWDFLT
  5
E
102
{ACAD_REACTORS
330
C
102
}
330
C
100
AcDbDictionary
281
     1
  3
Normal
350
F
100
AcDbDictionaryWithDefault
340
F
  0
DICTIONARY
  5
47
102
{ACAD_REACTORS
330
C
102
}
330
C
100
AcDbDictionary
281
     1
  3
A0
350
48
  3
A1
350
49
  3
A2
350
4A
  3
A3
350
4B
  3
A4
350
4C
  3
A5
350
4D
  3
A6
350
4E
  3
A7
350
4F
  3
A8
350
50
  3
A9
350
51
  3
B0
350
52
  3
B1
350
53
  3
B2
350
54
  3
B3
350
55
  3
B4
350
56
  3
B5
350
57
  3
B6
350
58
  3
B7
350
59
  3
B8
350
5A
  3
B9
350
5B
  3
C0
350
5C
  3
C1
350
5D
  3
C2
350
5E
  3
C3
350
5F
  3
C4
350
60
  3
C5
350
61
  3
C6
350
62
  3
C7
350
63
  3
C8
350
64
  3
C9
350
65
  3
D0
350
66
  3
D1
350
67
  3
D2
350
68
  0
DICTIONARY
  5
1E1
102
{ACAD_REACTORS
330
C
102
}
330
C
100
AcDbDictionary
281
     1
  0
DICTIONARY
  5
69
102
{ACAD_REACTORS
330
C
102
}
330
C
100
AcDbDictionary
281
     1
  3
Standard
350
6A
  0
DICTIONARY
  5
2A
102
{ACAD_REACTORS
330
C
102
}
330
C
100
AcDbDictionary
281
     1
  3
2dWireframe
350
2F
  3
Basic
350
32
  3
Brighten
350
36
  3
ColorChange
350
3A
  3
Conceptual
350
34
  3
Dim
350
35
  3
EdgeColorOff
350
3D
  3
Facepattern
350
39
  3
Flat
350
2B
  3
FlatWithEdges
350
2C
  3
Gouraud
350
2D
  3
GouraudWithEdges
350
2E
  3
Hidden
350
31
  3
JitterOff
350
3B
  3
Linepattern
350
38
  3
OverhangOff
350
3C
  3
Realistic
350
33
  3
Shaded
350
42
  3
Shaded with edges
350
41
  3
Shades of Gray
350
3E
  3
Sketchy
350
3F
  3
Thicken
350
37
  3
Wireframe
350
30
  3
X-Ray
350
40
  0
XRECORD
  5
1DD
102
{ACAD_REACTORS
330
C
102
}
330
C
100
AcDbXrecord
280
     1
 90
        1
330
6A
  0
DICTIONARY
  5
1D9
102
{ACAD_REACTORS
330
C
102
}
330
C
100
AcDbDictionary
281
     1
  3
CANNOSCALE
350
1DA
  3
CMLEADERSTYLE
350
1DF
  3
CTABLESTYLE
350
1DE
  0
LAYOUT
  5
1E
102
{ACAD_REACTORS
330
1A
102
}
330
1A
100
AcDbPlotSettings
  1

  2
none_device
  4

  6

 40
0.0
 41
0.0
 42
0.0
 43
0.0
 44
0.0
 45
0.0
 46
0.0
 47
0.0
 48
0.0
 49
0.0
140
0.0
141
0.0
142
1.0
143
1.0
 70
   688
 72
     1
 73
     0
 74
     5
  7

 75
    16
 76
     0
 77
     2
 78
   300
147
1.0
148
0.0
149
0.0
100
AcDbLayout
  1
Layout1
 70
     1
 71
     1
 10
0.0
 20
0.0
 11
420.0
 21
297.0
 12
0.0
 22
0.0
 32
0.0
 14
1.000000000000000E+20
 24
1.000000000000000E+20
 34
1.000000000000000E+20
 15
-1.000000000000000E+20
 25
-1.000000000000000E+20
 35
-1.000000000000000E+20
146
0.0
 13
0.0
 23
0.0
 33
0.0
 16
1.0
 26
0.0
 36
0.0
 17
0.0
 27
1.0
 37
0.0
 76
     0
330
1B
  0
LAYOUT
  5
26
102
{ACAD_REACTORS
330
1A
102
}
330
1A
100
AcDbPlotSettings
  1

  2
none_device
  4

  6

 40
0.0
 41
0.0
 42
0.0
 43
0.0
 44
0.0
 45
0.0
 46
0.0
 47
0.0
 48
0.0
 49
0.0
140
0.0
141
0.0
142
1.0
143
1.0
 70
   688
 72
     1
 73
     0
 74
     5
  7

 75
    16
 76
     0
 77
     2
 78
   300
147
1.0
148
0.0
149
0.0
100
AcDbLayout
  1
Layout2
 70
     1
 71
     2
 10
0.0
 20
0.0
 11
0.0
 21
0.0
 12
0.0
 22
0.0
 32
0.0
 14
0.0
 24
0.0
 34
0.0
 15
0.0
 25
0.0
 35
0.0
146
0.0
 13
0.0
 23
0.0
 33
0.0
 16
1.0
 26
0.0
 36
0.0
 17
0.0
 27
1.0
 37
0.0
 76
     0
330
23
  0
LAYOUT
  5
22
102
{ACAD_REACTORS
330
1A
102
}
330
1A
100
AcDbPlotSettings
  1

  2
none_device
  4
Letter_(8.50_x_11.00_Inches)
  6

 40
6.35
 41
6.35
 42
6.35000508
 43
6.35000508
 44
215.9
 45
279.4
 46
0.0
 47
0.0
 48
0.0
 49
0.0
140
0.0
141
0.0
142
1.0
143
1.0
 70
  1712
 72
     1
 73
     0
 74
     0
  7

 75
     0
 76
     0
 77
     2
 78
   300
147
1.0
148
0.0
149
0.0
100
AcDbLayout
  1
Model
 70
     1
 71
     0
 10
0.0
 20
0.0
 11
420.0
 21
297.0
 12
0.0
 22
0.0
 32
0.0
 14
1.000000000000000E+20
 24
1.000000000000000E+20
 34
1.000000000000000E+20
 15
-1.000000000000000E+20
 25
-1.000000000000000E+20
 35
-1.000000000000000E+20
146
0.0
 13
0.0
 23
0.0
 33
0.0
 16
1.0
 26
0.0
 36
0.0
 17
0.0
 27
1.0
 37
0.0
 76
     0
330
1F
331
29
  0
MATERIAL
  5
45
102
{ACAD_REACTORS
330
43
102
}
330
43
100
AcDbMaterial
  1
ByBlock
 72
     1
 94
      127
  0
MATERIAL
  5
44
102
{ACAD_REACTORS
330
43
102
}
330
43
100
AcDbMaterial
  1
ByLayer
 72
     1
 94
      127
  0
MATERIAL
  5
46
102
{ACAD_REACTORS
330
43
102
}
330
43
100
AcDbMaterial
  1
Global
 72
     1
 94
      127
  0
MLEADERSTYLE
  5
6C
102
{ACAD_REACTORS
330
6B
102
}
330
6B
100
AcDbMLeaderStyle
179
     2
170
     2
171
     1
172
     0
 90
        2
 40
0.0
 41
0.0
173
     1
 91
-1056964608
340
14
 92
       -2
290
     1
 42
2.0
291
     1
 43
8.0
  3
Standard
341
0
 44
4.0
300

342
11
174
     1
178
     6
175
     1
176
     0
 93
-1056964608
 45
4.0
292
     0
297
     0
 46
4.0
343
0
 94
-1056964608
 47
1.0
 49
1.0
140
1.0
293
     1
141
0.0
294
     1
177
     0
142
1.0
295
     0
296
     0
143
3.75
271
     0
272
     9
273
     9
298
     0
  0
MLINESTYLE
  5
18
102
{ACAD_REACTORS
330
17
102
}
330
17
100
AcDbMlineStyle
  2
Standard
 70
     0
  3

 62
   256
 51
90.0
 52
90.0
 71
     2
 49
0.5
 62
   256
  6
BYLAYER
 49
-0.5
 62
   256
  6
BYLAYER
  0
ACDBPLACEHOLDER
  5
F
102
{ACAD_REACTORS
330
E
102
}
330
E
  0
SCALE
  5
48
102
{ACAD_REACTORS
330
47
102
}
330
47
100
AcDbScale
 70
     0
300
1:1
140
1.0
141
1.0
290
     1
  0
SCALE
  5
49
102
{ACAD_REACTORS
330
47
102
}
330
47
100
AcDbScale
 70
     0
300
1:2
140
1.0
141
2.0
290
     0
  0
SCALE
  5
4A
102
{ACAD_REACTORS
330
47
102
}
330
47
100
AcDbScale
 70
     0
300
1:4
140
1.0
141
4.0
290
     0
  0
SCALE
  5
4B
102
{ACAD_REACTORS
330
47
102
}
330
47
100
AcDbScale
 70
     0
300
1:5
140
1.0
141
5.0
290
     0
  0
SCALE
  5
4C
102
{ACAD_REACTORS
330
47
102
}
330
47
100
AcDbScale
 70
     0
300
1:8
140
1.0
141
8.0
290
     0
  0
SCALE
  5
4D
102
{ACAD_REACTORS
330
47
102
}
330
47
100
AcDbScale
 70
     0
300
1:10
140
1.0
141
10.0
290
     0
  0
SCALE
  5
4E
102
{ACAD_REACTORS
330
47
102
}
330
47
100
AcDbScale
 70
     0
300
1:16
140
1.0
141
16.0
290
     0
  0
SCALE
  5
4F
102
{ACAD_REACTORS
330
47
102
}
330
47
100
AcDbScale
 70
     0
300
1:20
140
1.0
141
20.0
290
     0
  0
SCALE
  5
50
102
{ACAD_REACTORS
330
47
102
}
330
47
100
AcDbScale
 70
     0
300
1:30
140
1.0
141
30.0
290
     0
  0
SCALE
  5
51
102
{ACAD_REACTORS
330
47
102
}
330
47
100
AcDbScale
 70
     0
300
1:40
140
1.0
141
40.0
290
     0
  0
SCALE
  5
52
102
{ACAD_REACTORS
330
47
102
}
330
47
100
AcDbScale
 70
     0
300
1:50
140
1.0
141
50.0
290
     0
  0
SCALE
  5
53
102
{ACAD_REACTORS
330
47
102
}
330
47
100
AcDbScale
 70
     0
300
1:100
140
1.0
141
100.0
290
     0
  0
SCALE
  5
54
102
{ACAD_REACTORS
330
47
102
}
330
47
100
AcDbScale
 70
     0
300
2:1
140
2.0
141
1.0
290
     0
  0
SCALE
  5
55
102
{ACAD_REACTORS
330
47
102
}
330
47
100
AcDbScale
 70
     0
300
4:1
140
4.0
141
1.0
290
     0
  0
SCALE
  5
56
102
{ACAD_REACTORS
330
47
102
}
330
47
100
AcDbScale
 70
     0
300
8:1
140
8.0
141
1.0
290
     0
  0
SCALE
  5
57
102
{ACAD_REACTORS
330
47
102
}
330
47
100
AcDbScale
 70
     0
300
10:1
140
10.0
141
1.0
290
     0
  0
SCALE
  5
58
102
{ACAD_REACTORS
330
47
102
}
330
47
100
AcDbScale
 70
     0
300
100:1
140
100.0
141
1.0
290
     0
  0
SCALE
  5
59
102
{ACAD_REACTORS
330
47
102
}
330
47
100
AcDbScale
 70
     0
300
1/128" = 1'-0"
140
0.0078125
141
12.0
290
     0
  0
SCALE
  5
5A
102
{ACAD_REACTORS
330
47
102
}
330
47
100
AcDbScale
 70
     0
300
1/64" = 1'-0"
140
0.015625
141
12.0
290
     0
  0
SCALE
  5
5B
102
{ACAD_REACTORS
330
47
102
}
330
47
100
AcDbScale
 70
     0
300
1/32" = 1'-0"
140
0.03125
141
12.0
290
     0
  0
SCALE
  5
5C
102
{ACAD_REACTORS
330
47
102
}
330
47
100
AcDbScale
 70
     0
300
1/16" = 1'-0"
140
0.0625
141
12.0
290
     0
  0
SCALE
  5
5D
102
{ACAD_REACTORS
330
47
102
}
330
47
100
AcDbScale
 70
     0
300
3/32" = 1'-0"
140
0.09375
141
12.0
290
     0
  0
SCALE
  5
5E
102
{ACAD_REACTORS
330
47
102
}
330
47
100
AcDbScale
 70
     0
300
1/8" = 1'-0"
140
0.125
141
12.0
290
     0
  0
SCALE
  5
5F
102
{ACAD_REACTORS
330
47
102
}
330
47
100
AcDbScale
 70
     0
300
3/16" = 1'-0"
140
0.1875
141
12.0
290
     0
  0
SCALE
  5
60
102
{ACAD_REACTORS
330
47
102
}
330
47
100
AcDbScale
 70
     0
300
1/4" = 1'-0"
140
0.25
141
12.0
290
     0
  0
SCALE
  5
61
102
{ACAD_REACTORS
330
47
102
}
330
47
100
AcDbScale
 70
     0
300
3/8" = 1'-0"
140
0.375
141
12.0
290
     0
  0
SCALE
  5
62
102
{ACAD_REACTORS
330
47
102
}
330
47
100
AcDbScale
 70
     0
300
1/2" = 1'-0"
140
0.5
141
12.0
290
     0
  0
SCALE
  5
63
102
{ACAD_REACTORS
330
47
102
}
330
47
100
AcDbScale
 70
     0
300
3/4" = 1'-0"
140
0.75
141
12.0
290
     0
  0
SCALE
  5
64
102
{ACAD_REACTORS
330
47
102
}
330
47
100
AcDbScale
 70
     0
300
1" = 1'-0"
140
1.0
141
12.0
290
     0
  0
SCALE
  5
65
102
{ACAD_REACTORS
330
47
102
}
330
47
100
AcDbScale
 70
     0
300
1-1/2" = 1'-0"
140
1.5
141
12.0
290
     0
  0
SCALE
  5
66
102
{ACAD_REACTORS
330
47
102
}
330
47
100
AcDbScale
 70
     0
300
3" = 1'-0"
140
3.0
141
12.0
290
     0
  0
SCALE
  5
67
102
{ACAD_REACTORS
330
47
102
}
330
47
100
AcDbScale
 70
     0
300
6" = 1'-0"
140
6.0
141
12.0
290
     0
  0
SCALE
  5
68
102
{ACAD_REACTORS
330
47
102
}
330
47
100
AcDbScale
 70
     0
300
1'-0" = 1'-0"
140
12.0
141
12.0
290
     0
  0
TABLESTYLE
  5
6A
102
{ACAD_REACTORS
330
69
102
}
102
{ACAD_XDICTIONARY
360
1DB
102
}
330
69
100
AcDbTableStyle
  3
Standard
 70
     0
 71
     0
 40
0.06
 41
0.06
280
     0
281
     0
  7
Standard
140
4.5
170
     2
 62
     0
 63
   257
283
     0
 90
        4
 91
        0
  1

274
    -2
284
     1
 64
     0
275
    -2
285
     1
 65
     0
276
    -2
286
     1
 66
     0
277
    -2
287
     1
 67
     0
278
    -2
288
     1
 68
     0
279
    -2
289
     1
 69
     0
  7
Standard
140
6.0
170
     5
 62
     0
 63
   257
283
     0
 90
        4
 91
        0
  1

274
    -2
284
     1
 64
     0
275
    -2
285
     1
 65
     0
276
    -2
286
     1
 66
     0
277
    -2
287
     1
 67
     0
278
    -2
288
     1
 68
     0
279
    -2
289
     1
 69
     0
  7
Standard
140
4.5
170
     5
 62
     0
 63
   257
283
     0
 90
        4
 91
        0
  1

274
    -2
284
     1
 64
     0
275
    -2
285
     1
 65
     0
276
    -2
286
     1
 66
     0
277
    -2
287
     1
 67
     0
278
    -2
288
     1
 68
     0
279
    -2
289
     1
 69
     0
  0
VISUALSTYLE
  5
2F
102
{ACAD_REACTORS
330
2A
102
}
330
2A
100
AcDbVisualStyle
  2
2dWireframe
 70
     4
177
     3
291
     0
 70
    58
 90
        0
176
     1
 90
        2
176
     1
 90
        0
176
     1
 90
        0
176
     1
 40
0.6
176
     1
 40
30.0
176
     1
 62
     7
420
 16777215
176
     1
 90
        1
176
     1
 90
        4
176
     1
 62
     7
176
     1
 62
   257
176
     1
 90
        1
176
     1
 90
        1
176
     1
 40
1.0
176
     1
 90
        0
176
     1
 62
   257
176
     1
 40
1.0
176
     1
 90
        1
176
     1
 90
        6
176
     1
 90
        2
176
     1
 62
     7
176
     1
 90
        5
176
     1
 90
        0
176
     1
 90
        0
176
     1
290
     0
176
     1
 90
        1
176
     1
 40
0.0
176
     1
 90
        0
176
     1
290
     1
176
     1
290
     1
176
     1
290
     0
176
     1
290
     0
176
     1
290
     0
176
     1
290
     0
176
     1
290
     0
176
     1
290
     0
176
     1
290
     0
176
     1
 90
       50
176
     1
 40
0.0
176
     1
 40
1.0
176
     1
 90
        0
176
     1
 62
    18
420
        0
176
     1
 90
       50
176
     1
 90
        3
176
     1
 62
     5
420
      255
176
     1
290
     0
176
     1
 90
       50
176
     1
 90
       50
176
     1
 90
       50
176
     1
290
     0
176
     1
 90
       50
176
     1
 62
   256
176
     0
 40
1.0
176
     0
 90
        2
176
     1
  1
strokes_ogs.tif
176
     1
290
     0
176
     1
 40
1.0
176
     1
 40
1.0
176
     1
  0
VISUALSTYLE
  5
32
102
{ACAD_REACTORS
330
2A
102
}
330
2A
100
AcDbVisualStyle
  2
Basic
 70
     7
177
     3
291
     1
 70
    58
 90
        1
176
     1
 90
        0
176
     1
 90
        1
176
     1
 90
        0
176
     1
 40
0.6
176
     1
 40
30.0
176
     1
 62
     7
420
 16777215
176
     1
 90
        0
176
     1
 90
        4
176
     1
 62
     7
176
     1
 62
   257
176
     1
 90
        1
176
     1
 90
        1
176
     1
 40
1.0
176
     1
 90
        8
176
     1
 62
     7
176
     1
 40
1.0
176
     1
 90
        1
176
     1
 90
        6
176
     1
 90
        2
176
     1
 62
     7
176
     1
 90
        5
176
     1
 90
        0
176
     1
 90
        0
176
     1
290
     0
176
     1
 90
        1
176
     1
 40
0.0
176
     1
 90
        0
176
     1
290
     0
176
     1
290
     1
176
     1
290
     1
176
     1
290
     0
176
     1
290
     0
176
     1
290
     0
176
     1
290
     0
176
     1
290
     0
176
     1
290
     0
176
     1
 90
       50
176
     1
 40
0.0
176
     1
 40
1.0
176
     1
 90
        0
176
     1
 62
    18
420
        0
176
     1
 90
       50
176
     1
 90
        3
176
     1
 62
     5
420
      255
176
     1
290
     0
176
     1
 90
       50
176
     1
 90
       50
176
     1
 90
       50
176
     1
290
     0
176
     1
 90
       50
176
     1
 62
   256
176
     0
 40
1.0
176
     0
 90
        2
176
     1
  1
strokes_ogs.tif
176
     1
290
     0
176
     1
 40
1.0
176
     1
 40
1.0
176
     1
  0
VISUALSTYLE
  5
36
102
{ACAD_REACTORS
330
2A
102
}
330
2A
100
AcDbVisualStyle
  2
Brighten
 70
    12
177
     3
291
     1
 70
    58
 90
        2
176
     1
 90
        2
176
     1
 90
        0
176
     1
 90
        0
176
     1
 40
0.6
176
     1
 40
30.0
176
     1
 62
     7
420
 16777215
176
     1
 90
        1
176
     1
 90
        4
176
     1
 62
     7
176
     1
 62
   257
176
     1
 90
        1
176
     1
 90
        1
176
     1
 40
1.0
176
     1
 90
        8
176
     1
 62
     7
176
     1
 40
1.0
176
     1
 90
        1
176
     1
 90
        6
176
     1
 90
        2
176
     1
 62
     7
176
     1
 90
        5
176
     1
 90
        0
176
     1
 90
        0
176
     1
290
     0
176
     1
 90
        1
176
     1
 40
50.0
176
     1
 90
        0
176
     1
290
     0
176
     1
290
     1
176
     1
290
     1
176
     1
290
     0
176
     1
290
     0
176
     1
290
     0
176
     1
290
     0
176
     1
290
     0
176
     1
290
     0
176
     1
 90
       50
176
     1
 40
0.0
176
     1
 40
1.0
176
     1
 90
        0
176
     1
 62
    18
420
        0
176
     1
 90
       50
176
     1
 90
        3
176
     1
 62
     5
420
      255
176
     1
290
     0
176
     1
 90
       50
176
     1
 90
       50
176
     1
 90
       50
176
     1
290
     0
176
     1
 90
       50
176
     1
 62
   256
176
     0
 40
1.0
176
     0
 90
        2
176
     1
  1
strokes_ogs.tif
176
     1
290
     0
176
     1
 40
1.0
176
     1
 40
1.0
176
     1
  0
VISUALSTYLE
  5
3A
102
{ACAD_REACTORS
330
2A
102
}
330
2A
100
AcDbVisualStyle
  2
ColorChange
 70
    16
177
     3
291
     1
 70
    58
 90
        2
176
     1
 90
        2
176
     1
 90
        3
176
     1
 90
        0
176
     1
 40
0.6
176
     1
 40
30.0
176
     1
 62
     8
420
  8421504
176
     1
 90
        1
176
     1
 90
        4
176
     1
 62
     7
176
     1
 62
   257
176
     1
 90
        1
176
     1
 90
        1
176
     1
 40
1.0
176
     1
 90
        8
176
     1
 62
     8
420
  8421504
176
     1
 40
1.0
176
     1
 90
        1
176
     1
 90
        6
176
     1
 90
        2
176
     1
 62
     7
176
     1
 90
        5
176
     1
 90
        0
176
     1
 90
        0
176
     1
290
     0
176
     1
 90
        1
176
     1
 40
0.0
176
     1
 90
        0
176
     1
290
     0
176
     1
290
     1
176
     1
290
     1
176
     1
290
     0
176
     1
290
     0
176
     1
290
     0
176
     1
290
     0
176
     1
290
     0
176
     1
290
     0
176
     1
 90
       50
176
     1
 40
0.0
176
     1
 40
1.0
176
     1
 90
        0
176
     1
 62
    18
420
        0
176
     1
 90
       50
176
     1
 90
        3
176
     1
 62
     5
420
      255
176
     1
290
     0
176
     1
 90
       50
176
     1
 90
       50
176
     1
 90
       50
176
     1
290
     0
176
     1
 90
       50
176
     1
 62
   256
176
     0
 40
1.0
176
     0
 90
        2
176
     1
  1
strokes_ogs.tif
176
     1
290
     0
176
     1
 40
1.0
176
     1
 40
1.0
176
     1
  0
VISUALSTYLE
  5
34
102
{ACAD_REACTORS
330
2A
102
}
330
2A
100
AcDbVisualStyle
  2
Conceptual
 70
     9
177
     3
291
     0
 70
    58
 90
        3
176
     1
 90
        2
176
     1
 90
        0
176
     1
 90
        0
176
     1
 40
0.6
176
     1
 40
30.0
176
     1
 62
     7
420
 16777215
176
     1
 90
        2
176
     1
 90
        2
176
     1
 62
     7
176
     1
 62
   257
176
     1
 90
        1
176
     1
 90
        1
176
     1
 40
179.0
176
     1
 90
        8
176
     1
 62
     7
176
     1
 40
1.0
176
     1
 90
        1
176
     1
 90
        6
176
     1
 90
        2
176
     1
 62
     7
176
     1
 90
        3
176
     1
 90
        0
176
     1
 90
        0
176
     1
290
     0
176
     1
 90
        1
176
     1
 40
0.0
176
     1
 90
        0
176
     1
290
     0
176
     1
290
     1
176
     1
290
     1
176
     1
290
     0
176
     1
290
     0
176
     1
290
     0
176
     1
290
     0
176
     1
290
     0
176
     1
290
     0
176
     1
 90
       50
176
     1
 40
0.0
176
     1
 40
1.0
176
     1
 90
        0
176
     1
 62
    18
420
        0
176
     1
 90
       50
176
     1
 90
        3
176
     1
 62
     5
420
      255
176
     1
290
     0
176
     1
 90
       50
176
     1
 90
       50
176
     1
 90
       50
176
     1
290
     0
176
     1
 90
       50
176
     1
 62
   256
176
     0
 40
1.0
176
     0
 90
        2
176
     1
  1
strokes_ogs.tif
176
     1
290
     0
176
     1
 40
1.0
176
     1
 40
1.0
176
     1
  0
VISUALSTYLE
  5
35
102
{ACAD_REACTORS
330
2A
102
}
330
2A
100
AcDbVisualStyle
  2
Dim
 70
    11
177
     3
291
     1
 70
    58
 90
        2
176
     1
 90
        2
176
     1
 90
        0
176
     1
 90
        0
176
     1
 40
0.6
176
     1
 40
30.0
176
     1
 62
     7
420
 16777215
176
     1
 90
        1
176
     1
 90
        4
176
     1
 62
     7
176
     1
 62
   257
176
     1
 90
        1
176
     1
 90
        1
176
     1
 40
1.0
176
     1
 90
        8
176
     1
 62
     7
176
     1
 40
1.0
176
     1
 90
        1
176
     1
 90
        6
176
     1
 90
        2
176
     1
 62
     7
176
     1
 90
        5
176
     1
 90
        0
176
     1
 90
        0
176
     1
290
     0
176
     1
 90
        1
176
     1
 40
-50.0
176
     1
 90
        0
176
     1
290
     0
176
     1
290
     1
176
     1
290
     1
176
     1
290
     0
176
     1
290
     0
176
     1
290
     0
176
     1
290
     0
176
     1
290
     0
176
     1
290
     0
176
     1
 90
       50
176
     1
 40
0.0
176
     1
 40
1.0
176
     1
 90
        0
176
     1
 62
    18
420
        0
176
     1
 90
       50
176
     1
 90
        3
176
     1
 62
     5
420
      255
176
     1
290
     0
176
     1
 90
       50
176
     1
 90
       50
176
     1
 90
       50
176
     1
290
     0
176
     1
 90
       50
176
     1
 62
   256
176
     0
 40
1.0
176
     0
 90
        2
176
     1
  1
strokes_ogs.tif
176
     1
290
     0
176
     1
 40
1.0
176
     1
 40
1.0
176
     1
  0
VISUALSTYLE
  5
3D
102
{ACAD_REACTORS
330
2A
102
}
330
2A
100
AcDbVisualStyle
  2
EdgeColorOff
 70
    22
177
     3
291
     1
 70
    58
 90
        2
176
     0
 90
        2
176
     0
 90
        0
176
     0
 90
        0
176
     0
 40
0.6
176
     0
 40
30.0
176
     0
 62
     7
420
 16777215
176
     0
 90
        1
176
     0
 90
        4
176
     0
 62
     7
176
     0
 62
   257
176
     0
 90
        1
176
     0
 90
        1
176
     0
 40
1.0
176
     0
 90
        8
176
     2
 62
     7
176
     0
 40
1.0
176
     0
 90
        1
176
     0
 90
        6
176
     0
 90
        2
176
     0
 62
     7
176
     0
 90
        5
176
     0
 90
        0
176
     0
 90
        0
176
     0
290
     0
176
     0
 90
        1
176
     0
 40
0.0
176
     0
 90
        0
176
     0
290
     0
176
     0
290
     1
176
     0
290
     1
176
     0
290
     0
176
     0
290
     0
176
     0
290
     0
176
     0
290
     0
176
     0
290
     0
176
     0
290
     0
176
     0
 90
       50
176
     0
 40
0.0
176
     0
 40
1.0
176
     0
 90
        0
176
     0
 62
    18
420
        0
176
     0
 90
       50
176
     0
 90
        3
176
     0
 62
     5
420
      255
176
     0
290
     0
176
     0
 90
       50
176
     0
 90
       50
176
     0
 90
       50
176
     0
290
     0
176
     0
 90
       50
176
     0
 62
   256
176
     0
 40
1.0
176
     0
 90
        2
176
     0
  1
strokes_ogs.tif
176
     0
290
     0
176
     0
 40
1.0
176
     0
 40
1.0
176
     0
  0
VISUALSTYLE
  5
39
102
{ACAD_REACTORS
330
2A
102
}
330
2A
100
AcDbVisualStyle
  2
Facepattern
 70
    15
177
     3
291
     1
 70
    58
 90
        2
176
     1
 90
        2
176
     1
 90
        0
176
     1
 90
        0
176
     1
 40
0.6
176
     1
 40
30.0
176
     1
 62
     7
420
 16777215
176
     1
 90
        1
176
     1
 90
        4
176
     1
 62
     7
176
     1
 62
   257
176
     1
 90
        1
176
     1
 90
        1
176
     1
 40
1.0
176
     1
 90
        8
176
     1
 62
     7
176
     1
 40
1.0
176
     1
 90
        1
176
     1
 90
        6
176
     1
 90
        2
176
     1
 62
     7
176
     1
 90
        5
176
     1
 90
        0
176
     1
 90
        0
176
     1
290
     0
176
     1
 90
        1
176
     1
 40
0.0
176
     1
 90
        0
176
     1
290
     0
176
     1
290
     1
176
     1
290
     1
176
     1
290
     0
176
     1
290
     0
176
     1
290
     0
176
     1
290
     0
176
     1
290
     0
176
     1
290
     0
176
     1
 90
       50
176
     1
 40
0.0
176
     1
 40
1.0
176
     1
 90
        0
176
     1
 62
    18
420
        0
176
     1
 90
       50
176
     1
 90
        3
176
     1
 62
     5
420
      255
176
     1
290
     0
176
     1
 90
       50
176
     1
 90
       50
176
     1
 90
       50
176
     1
290
     0
176
     1
 90
       50
176
     1
 62
   256
176
     0
 40
1.0
176
     0
 90
        2
176
     1
  1
strokes_ogs.tif
176
     1
290
     0
176
     1
 40
1.0
176
     1
 40
1.0
176
     1
  0
VISUALSTYLE
  5
2B
102
{ACAD_REACTORS
330
2A
102
}
330
2A
100
AcDbVisualStyle
  2
Flat
 70
     0
177
     3
291
     1
 70
    58
 90
        2
176
     1
 90
        1
176
     1
 90
        1
176
     1
 90
        2
176
     1
 40
0.6
176
     1
 40
30.0
176
     1
 62
     7
420
 16777215
176
     1
 90
        0
176
     1
 90
        0
176
     1
 62
     7
176
     1
 62
   257
176
     1
 90
        1
176
     1
 90
        1
176
     1
 40
1.0
176
     1
 90
        8
176
     1
 62
     7
176
     1
 40
1.0
176
     1
 90
        1
176
     1
 90
        6
176
     1
 90
        2
176
     1
 62
     7
176
     1
 90
        5
176
     1
 90
        0
176
     1
 90
        0
176
     1
290
     0
176
     1
 90
       13
176
     1
 40
0.0
176
     1
 90
        0
176
     1
290
     0
176
     1
290
     1
176
     1
290
     1
176
     1
290
     0
176
     1
290
     0
176
     1
290
     0
176
     1
290
     0
176
     1
290
     0
176
     1
290
     0
176
     1
 90
       50
176
     1
 40
0.0
176
     1
 40
1.0
176
     1
 90
        0
176
     1
 62
    18
420
        0
176
     1
 90
       50
176
     1
 90
        3
176
     1
 62
     5
420
      255
176
     1
290
     0
176
     1
 90
       50
176
     1
 90
       50
176
     1
 90
       50
176
     1
290
     0
176
     1
 90
       50
176
     1
 62
   256
176
     0
 40
1.0
176
     0
 90
        2
176
     1
  1
strokes_ogs.tif
176
     1
290
     0
176
     1
 40
1.0
176
     1
 40
1.0
176
     1
  0
VISUALSTYLE
  5
2C
102
{ACAD_REACTORS
330
2A
102
}
330
2A
100
AcDbVisualStyle
  2
FlatWithEdges
 70
     1
177
     3
291
     1
 70
    58
 90
        2
176
     1
 90
        1
176
     1
 90
        1
176
     1
 90
        2
176
     1
 40
0.6
176
     1
 40
30.0
176
     1
 62
     7
420
 16777215
176
     1
 90
        1
176
     1
 90
        0
176
     1
 62
     7
176
     1
 62
   257
176
     1
 90
        1
176
     1
 90
        1
176
     1
 40
1.0
176
     1
 90
        0
176
     1
 62
   257
176
     1
 40
1.0
176
     1
 90
        1
176
     1
 90
        6
176
     1
 90
        2
176
     1
 62
     7
176
     1
 90
        5
176
     1
 90
        0
176
     1
 90
        0
176
     1
290
     0
176
     1
 90
       13
176
     1
 40
0.0
176
     1
 90
        0
176
     1
290
     0
176
     1
290
     1
176
     1
290
     1
176
     1
290
     0
176
     1
290
     0
176
     1
290
     0
176
     1
290
     0
176
     1
290
     0
176
     1
290
     0
176
     1
 90
       50
176
     1
 40
0.0
176
     1
 40
1.0
176
     1
 90
        0
176
     1
 62
    18
420
        0
176
     1
 90
       50
176
     1
 90
        3
176
     1
 62
     5
420
      255
176
     1
290
     0
176
     1
 90
       50
176
     1
 90
       50
176
     1
 90
       50
176
     1
290
     0
176
     1
 90
       50
176
     1
 62
   256
176
     0
 40
1.0
176
     0
 90
        2
176
     1
  1
strokes_ogs.tif
176
     1
290
     0
176
     1
 40
1.0
176
     1
 40
1.0
176
     1
  0
VISUALSTYLE
  5
2D
102
{ACAD_REACTORS
330
2A
102
}
330
2A
100
AcDbVisualStyle
  2
Gouraud
 70
     2
177
     3
291
     1
 70
    58
 90
        2
176
     1
 90
        2
176
     1
 90
        1
176
     1
 90
        2
176
     1
 40
0.6
176
     1
 40
30.0
176
     1
 62
     7
420
 16777215
176
     1
 90
        0
176
     1
 90
        0
176
     1
 62
     7
176
     1
 62
   257
176
     1
 90
        1
176
     1
 90
        1
176
     1
 40
1.0
176
     1
 90
        0
176
     1
 62
     7
176
     1
 40
1.0
176
     1
 90
        1
176
     1
 90
        6
176
     1
 90
        2
176
     1
 62
     7
176
     1
 90
        5
176
     1
 90
        0
176
     1
 90
        0
176
     1
290
     0
176
     1
 90
       13
176
     1
 40
0.0
176
     1
 90
        0
176
     1
290
     0
176
     1
290
     1
176
     1
290
     1
176
     1
290
     0
176
     1
290
     0
176
     1
290
     0
176
     1
290
     0
176
     1
290
     0
176
     1
290
     0
176
     1
 90
       50
176
     1
 40
0.0
176
     1
 40
1.0
176
     1
 90
        0
176
     1
 62
    18
420
        0
176
     1
 90
       50
176
     1
 90
        3
176
     1
 62
     5
420
      255
176
     1
290
     0
176
     1
 90
       50
176
     1
 90
       50
176
     1
 90
       50
176
     1
290
     0
176
     1
 90
       50
176
     1
 62
   256
176
     0
 40
1.0
176
     0
 90
        2
176
     1
  1
strokes_ogs.tif
176
     1
290
     0
176
     1
 40
1.0
176
     1
 40
1.0
176
     1
  0
VISUALSTYLE
  5
2E
102
{ACAD_REACTORS
330
2A
102
}
330
2A
100
AcDbVisualStyle
  2
GouraudWithEdges
 70
     3
177
     3
291
     1
 70
    58
 90
        2
176
     1
 90
        2
176
     1
 90
        1
176
     1
 90
        2
176
     1
 40
0.6
176
     1
 40
30.0
176
     1
 62
     7
420
 16777215
176
     1
 90
        1
176
     1
 90
        0
176
     1
 62
     7
176
     1
 62
   257
176
     1
 90
        1
176
     1
 90
        1
176
     1
 40
1.0
176
     1
 90
        0
176
     1
 62
   257
176
     1
 40
1.0
176
     1
 90
        1
176
     1
 90
        6
176
     1
 90
        2
176
     1
 62
     7
176
     1
 90
        5
176
     1
 90
        0
176
     1
 90
        0
176
     1
290
     0
176
     1
 90
       13
176
     1
 40
0.0
176
     1
 90
        0
176
     1
290
     0
176
     1
290
     1
176
     1
290
     1
176
     1
290
     0
176
     1
290
     0
176
     1
290
     0
176
     1
290
     0
176
     1
290
     0
176
     1
290
     0
176
     1
 90
       50
176
     1
 40
0.0
176
     1
 40
1.0
176
     1
 90
        0
176
     1
 62
    18
420
        0
176
     1
 90
       50
176
     1
 90
        3
176
     1
 62
     5
420
      255
176
     1
290
     0
176
     1
 90
       50
176
     1
 90
       50
176
     1
 90
       50
176
     1
290
     0
176
     1
 90
       50
176
     1
 62
   256
176
     0
 40
1.0
176
     0
 90
        2
176
     1
  1
strokes_ogs.tif
176
     1
290
     0
176
     1
 40
1.0
176
     1
 40
1.0
176
     1
  0
VISUALSTYLE
  5
31
102
{ACAD_REACTORS
330
2A
102
}
330
2A
100
AcDbVisualStyle
  2
Hidden
 70
     6
177
     3
291
     0
 70
    58
 90
        1
176
     1
 90
        2
176
     1
 90
        2
176
     1
 90
        0
176
     1
 40
0.6
176
     1
 40
30.0
176
     1
 62
     7
420
 16777215
176
     1
 90
        2
176
     1
 90
        2
176
     1
 62
     7
176
     1
 62
   257
176
     1
 90
        2
176
     1
 90
        1
176
     1
 40
40.0
176
     1
 90
        0
176
     1
 62
   257
176
     1
 40
1.0
176
     1
 90
        1
176
     1
 90
        6
176
     1
 90
        2
176
     1
 62
     7
176
     1
 90
        3
176
     1
 90
        0
176
     1
 90
        0
176
     1
290
     0
176
     1
 90
        1
176
     1
 40
0.0
176
     1
 90
        0
176
     1
290
     0
176
     1
290
     1
176
     1
290
     1
176
     1
290
     0
176
     1
290
     0
176
     1
290
     0
176
     1
290
     0
176
     1
290
     0
176
     1
290
     0
176
     1
 90
       50
176
     1
 40
0.0
176
     1
 40
1.0
176
     1
 90
        0
176
     1
 62
    18
420
        0
176
     1
 90
       50
176
     1
 90
        3
176
     1
 62
     5
420
      255
176
     1
290
     0
176
     1
 90
       50
176
     1
 90
       50
176
     1
 90
       50
176
     1
290
     0
176
     1
 90
       50
176
     1
 62
   256
176
     0
 40
1.0
176
     0
 90
        2
176
     1
  1
strokes_ogs.tif
176
     1
290
     0
176
     1
 40
1.0
176
     1
 40
1.0
176
     1
  0
VISUALSTYLE
  5
3B
102
{ACAD_REACTORS
330
2A
102
}
330
2A
100
AcDbVisualStyle
  2
JitterOff
 70
    20
177
     3
291
     1
 70
    58
 90
        2
176
     0
 90
        2
176
     0
 90
        0
176
     0
 90
        0
176
     0
 40
0.6
176
     0
 40
30.0
176
     0
 62
     7
420
 16777215
176
     0
 90
        1
176
     0
 90
        4
176
     0
 62
     7
176
     0
 62
   257
176
     0
 90
        1
176
     0
 90
        1
176
     0
 40
1.0
176
     0
 90
       10
176
     2
 62
     7
176
     0
 40
1.0
176
     0
 90
        1
176
     0
 90
        6
176
     0
 90
        2
176
     0
 62
     7
176
     0
 90
        5
176
     0
 90
        0
176
     0
 90
        0
176
     0
290
     0
176
     0
 90
        1
176
     0
 40
0.0
176
     0
 90
        0
176
     0
290
     0
176
     0
290
     1
176
     0
290
     1
176
     0
290
     0
176
     0
290
     0
176
     0
290
     0
176
     0
290
     0
176
     0
290
     0
176
     0
290
     0
176
     0
 90
       50
176
     0
 40
0.0
176
     0
 40
1.0
176
     0
 90
        0
176
     0
 62
    18
420
        0
176
     0
 90
       50
176
     0
 90
        3
176
     0
 62
     5
420
      255
176
     0
290
     0
176
     0
 90
       50
176
     0
 90
       50
176
     0
 90
       50
176
     0
290
     0
176
     0
 90
       50
176
     0
 62
   256
176
     0
 40
1.0
176
     0
 90
        2
176
     0
  1
strokes_ogs.tif
176
     0
290
     0
176
     0
 40
1.0
176
     0
 40
1.0
176
     0
  0
VISUALSTYLE
  5
38
102
{ACAD_REACTORS
330
2A
102
}
330
2A
100
AcDbVisualStyle
  2
Linepattern
 70
    14
177
     3
291
     1
 70
    58
 90
        2
176
     1
 90
        2
176
     1
 90
        0
176
     1
 90
        0
176
     1
 40
0.6
176
     1
 40
30.0
176
     1
 62
     7
420
 16777215
176
     1
 90
        1
176
     1
 90
        4
176
     1
 62
     7
176
     1
 62
   257
176
     1
 90
        7
176
     1
 90
        7
176
     1
 40
1.0
176
     1
 90
        8
176
     1
 62
     7
176
     1
 40
1.0
176
     1
 90
        1
176
     1
 90
        6
176
     1
 90
        2
176
     1
 62
     7
176
     1
 90
        5
176
     1
 90
        0
176
     1
 90
        0
176
     1
290
     0
176
     1
 90
        1
176
     1
 40
0.0
176
     1
 90
        0
176
     1
290
     0
176
     1
290
     1
176
     1
290
     1
176
     1
290
     0
176
     1
290
     0
176
     1
290
     0
176
     1
290
     0
176
     1
290
     0
176
     1
290
     0
176
     1
 90
       50
176
     1
 40
0.0
176
     1
 40
1.0
176
     1
 90
        0
176
     1
 62
    18
420
        0
176
     1
 90
       50
176
     1
 90
        3
176
     1
 62
     5
420
      255
176
     1
290
     0
176
     1
 90
       50
176
     1
 90
       50
176
     1
 90
       50
176
     1
290
     0
176
     1
 90
       50
176
     1
 62
   256
176
     0
 40
1.0
176
     0
 90
        2
176
     1
  1
strokes_ogs.tif
176
     1
290
     0
176
     1
 40
1.0
176
     1
 40
1.0
176
     1
  0
VISUALSTYLE
  5
3C
102
{ACAD_REACTORS
330
2A
102
}
330
2A
100
AcDbVisualStyle
  2
OverhangOff
 70
    21
177
     3
291
     1
 70
    58
 90
        2
176
     0
 90
        2
176
     0
 90
        0
176
     0
 90
        0
176
     0
 40
0.6
176
     0
 40
30.0
176
     0
 62
     7
420
 16777215
176
     0
 90
        1
176
     0
 90
        4
176
     0
 62
     7
176
     0
 62
   257
176
     0
 90
        1
176
     0
 90
        1
176
     0
 40
1.0
176
     0
 90
        9
176
     2
 62
     7
176
     0
 40
1.0
176
     0
 90
        1
176
     0
 90
        6
176
     0
 90
        2
176
     0
 62
     7
176
     0
 90
        5
176
     0
 90
        0
176
     0
 90
        0
176
     0
290
     0
176
     0
 90
        1
176
     0
 40
0.0
176
     0
 90
        0
176
     0
290
     0
176
     0
290
     1
176
     0
290
     1
176
     0
290
     0
176
     0
290
     0
176
     0
290
     0
176
     0
290
     0
176
     0
290
     0
176
     0
290
     0
176
     0
 90
       50
176
     0
 40
0.0
176
     0
 40
1.0
176
     0
 90
        0
176
     0
 62
    18
420
        0
176
     0
 90
       50
176
     0
 90
        3
176
     0
 62
     5
420
      255
176
     0
290
     0
176
     0
 90
       50
176
     0
 90
       50
176
     0
 90
       50
176
     0
290
     0
176
     0
 90
       50
176
     0
 62
   256
176
     0
 40
1.0
176
     0
 90
        2
176
     0
  1
strokes_ogs.tif
176
     0
290
     0
176
     0
 40
1.0
176
     0
 40
1.0
176
     0
  0
VISUALSTYLE
  5
33
102
{ACAD_REACTORS
330
2A
102
}
330
2A
100
AcDbVisualStyle
  2
Realistic
 70
     8
177
     3
291
     0
 70
    58
 90
        2
176
     1
 90
        3
176
     1
 90
        0
176
     1
 90
        2
176
     1
 40
0.6
176
     1
 40
30.0
176
     1
 62
     7
420
 16777215
176
     1
 90
        0
176
     1
 90
        0
176
     1
 62
     7
176
     1
 62
   257
176
     1
 90
        1
176
     1
 90
        1
176
     1
 40
1.0
176
     1
 90
        8
176
     1
 62
   257
176
     1
 40
1.0
176
     1
 90
        1
176
     1
 90
        6
176
     1
 90
        2
176
     1
 62
     7
176
     1
 90
        3
176
     1
 90
        0
176
     1
 90
        0
176
     1
290
     0
176
     1
 90
       13
176
     1
 40
0.0
176
     1
 90
        0
176
     1
290
     0
176
     1
290
     1
176
     1
290
     1
176
     1
290
     0
176
     1
290
     0
176
     1
290
     0
176
     1
290
     0
176
     1
290
     0
176
     1
290
     0
176
     1
 90
       50
176
     1
 40
0.0
176
     1
 40
1.0
176
     1
 90
        0
176
     1
 62
    18
420
        0
176
     1
 90
       50
176
     1
 90
        3
176
     1
 62
     5
420
      255
176
     1
290
     0
176
     1
 90
       50
176
     1
 90
       50
176
     1
 90
       50
176
     1
290
     0
176
     1
 90
       50
176
     1
 62
   256
176
     0
 40
1.0
176
     0
 90
        2
176
     1
  1
strokes_ogs.tif
176
     1
290
     0
176
     1
 40
1.0
176
     1
 40
1.0
176
     1
  0
VISUALSTYLE
  5
42
102
{ACAD_REACTORS
330
2A
102
}
330
2A
100
AcDbVisualStyle
  2
Shaded
 70
    27
177
     3
291
     0
 70
    58
 90
        2
176
     1
 90
        2
176
     1
 90
        1
176
     1
 90
        2
176
     1
 40
0.6
176
     1
 40
30.0
176
     1
 62
     7
420
 16777215
176
     1
 90
        0
176
     1
 90
        4
176
     1
 62
     7
176
     1
 62
   257
176
     1
 90
        1
176
     1
 90
        1
176
     1
 40
1.0
176
     1
 90
        8
176
     1
 62
   257
176
     1
 40
1.0
176
     1
 90
        1
176
     1
 90
        6
176
     1
 90
        2
176
     1
 62
     8
420
  7895160
176
     1
 90
        3
176
     1
 90
        0
176
     1
 90
        0
176
     1
290
     0
176
     1
 90
        5
176
     1
 40
0.0
176
     1
 90
        0
176
     1
290
     0
176
     1
290
     1
176
     1
290
     1
176
     1
290
     0
176
     1
290
     0
176
     1
290
     0
176
     1
290
     0
176
     1
290
     0
176
     1
290
     0
176
     1
 90
       50
176
     1
 40
0.0
176
     1
 40
1.0
176
     1
 90
        0
176
     1
 62
    18
420
        0
176
     1
 90
       50
176
     1
 90
        3
176
     1
 62
     5
420
      255
176
     1
290
     0
176
     1
 90
       50
176
     1
 90
       50
176
     1
 90
       50
176
     1
290
     0
176
     1
 90
       50
176
     1
 62
   256
176
     0
 40
1.0
176
     0
 90
        2
176
     1
  1
strokes_ogs.tif
176
     1
290
     0
176
     1
 40
1.0
176
     1
 40
1.0
176
     1
  0
VISUALSTYLE
  5
41
102
{ACAD_REACTORS
330
2A
102
}
330
2A
100
AcDbVisualStyle
  2
Shaded with edges
 70
    26
177
     3
291
     0
 70
    58
 90
        2
176
     1
 90
        2
176
     1
 90
        1
176
     1
 90
        2
176
     1
 40
0.6
176
     1
 40
30.0
176
     1
 62
     7
420
 16777215
176
     1
 90
        1
176
     1
 90
       10
176
     1
 62
     7
176
     1
 62
   257
176
     1
 90
        2
176
     1
 90
        1
176
     1
 40
1.0
176
     1
 90
        8
176
     1
 62
   257
176
     1
 40
1.0
176
     1
 90
        1
176
     1
 90
        6
176
     1
 90
        2
176
     1
 62
     7
176
     1
 90
        3
176
     1
 90
        0
176
     1
 90
        0
176
     1
290
     0
176
     1
 90
        5
176
     1
 40
0.0
176
     1
 90
        0
176
     1
290
     0
176
     1
290
     1
176
     1
290
     1
176
     1
290
     0
176
     1
290
     0
176
     1
290
     0
176
     1
290
     0
176
     1
290
     0
176
     1
290
     0
176
     1
 90
       50
176
     1
 40
0.0
176
     1
 40
1.0
176
     1
 90
        0
176
     1
 62
    18
420
        0
176
     1
 90
       50
176
     1
 90
        3
176
     1
 62
     5
420
      255
176
     1
290
     0
176
     1
 90
       50
176
     1
 90
       50
176
     1
 90
       50
176
     1
290
     0
176
     1
 90
       50
176
     1
 62
   256
176
     0
 40
1.0
176
     0
 90
        2
176
     1
  1
strokes_ogs.tif
176
     1
290
     0
176
     1
 40
1.0
176
     1
 40
1.0
176
     1
  0
VISUALSTYLE
  5
3E
102
{ACAD_REACTORS
330
2A
102
}
330
2A
100
AcDbVisualStyle
  2
Shades of Gray
 70
    23
177
     3
291
     0
 70
    58
 90
        2
176
     1
 90
        2
176
     1
 90
        3
176
     1
 90
        0
176
     1
 40
0.6
176
     1
 40
30.0
176
     1
 62
     7
420
 16777215
176
     1
 90
        2
176
     1
 90
        2
176
     1
 62
     7
176
     1
 62
     7
176
     1
 90
        1
176
     1
 90
        1
176
     1
 40
40.0
176
     1
 90
        8
176
     1
 62
     7
176
     1
 40
1.0
176
     1
 90
        1
176
     1
 90
        6
176
     1
 90
        2
176
     1
 62
     7
176
     1
 90
        3
176
     1
 90
        0
176
     1
 90
        0
176
     1
290
     0
176
     1
 90
        1
176
     1
 40
0.0
176
     1
 90
        0
176
     1
290
     0
176
     1
290
     1
176
     1
290
     1
176
     1
290
     0
176
     1
290
     0
176
     1
290
     0
176
     1
290
     0
176
     1
290
     0
176
     1
290
     0
176
     1
 90
       50
176
     1
 40
0.0
176
     1
 40
1.0
176
     1
 90
        0
176
     1
 62
    18
420
        0
176
     1
 90
       50
176
     1
 90
        3
176
     1
 62
     5
420
      255
176
     1
290
     0
176
     1
 90
       50
176
     1
 90
       50
176
     1
 90
       50
176
     1
290
     0
176
     1
 90
       50
176
     1
 62
   256
176
     0
 40
1.0
176
     0
 90
        2
176
     1
  1
strokes_ogs.tif
176
     1
290
     0
176
     1
 40
1.0
176
     1
 40
1.0
176
     1
  0
VISUALSTYLE
  5
3F
102
{ACAD_REACTORS
330
2A
102
}
330
2A
100
AcDbVisualStyle
  2
Sketchy
 70
    24
177
     3
291
     0
 70
    58
 90
        1
176
     1
 90
        2
176
     1
 90
        2
176
     1
 90
        0
176
     1
 40
0.6
176
     1
 40
30.0
176
     1
 62
     7
420
 16777215
176
     1
 90
        2
176
     1
 90
        2
176
     1
 62
     7
176
     1
 62
     7
176
     1
 90
        1
176
     1
 90
        1
176
     1
 40
40.0
176
     1
 90
       11
176
     1
 62
     7
176
     1
 40
1.0
176
     1
 90
        1
176
     1
 90
        6
176
     1
 90
        2
176
     1
 62
     7
176
     1
 90
        6
176
     1
 90
        0
176
     1
 90
        0
176
     1
290
     0
176
     1
 90
        1
176
     1
 40
0.0
176
     1
 90
        0
176
     1
290
     0
176
     1
290
     1
176
     1
290
     1
176
     1
290
     0
176
     1
290
     0
176
     1
290
     0
176
     1
290
     0
176
     1
290
     0
176
     1
290
     0
176
     1
 90
       50
176
     1
 40
0.0
176
     1
 40
1.0
176
     1
 90
        0
176
     1
 62
    18
420
        0
176
     1
 90
       50
176
     1
 90
        3
176
     1
 62
     5
420
      255
176
     1
290
     0
176
     1
 90
       50
176
     1
 90
       50
176
     1
 90
       50
176
     1
290
     0
176
     1
 90
       50
176
     1
 62
   256
176
     0
 40
1.0
176
     0
 90
        2
176
     1
  1
strokes_ogs.tif
176
     1
290
     0
176
     1
 40
1.0
176
     1
 40
1.0
176
     1
  0
VISUALSTYLE
  5
37
102
{ACAD_REACTORS
330
2A
102
}
330
2A
100
AcDbVisualStyle
  2
Thicken
 70
    13
177
     3
291
     1
 70
    58
 90
        2
176
     1
 90
        2
176
     1
 90
        0
176
     1
 90
        0
176
     1
 40
0.6
176
     1
 40
30.0
176
     1
 62
     7
420
 16777215
176
     1
 90
        1
176
     1
 90
        4
176
     1
 62
     7
176
     1
 62
   257
176
     1
 90
        1
176
     1
 90
        1
176
     1
 40
1.0
176
     1
 90
       12
176
     1
 62
     7
176
     1
 40
1.0
176
     1
 90
        1
176
     1
 90
        6
176
     1
 90
        2
176
     1
 62
     7
176
     1
 90
        5
176
     1
 90
        0
176
     1
 90
        0
176
     1
290
     0
176
     1
 90
        1
176
     1
 40
0.0
176
     1
 90
        0
176
     1
290
     0
176
     1
290
     1
176
     1
290
     1
176
     1
290
     0
176
     1
290
     0
176
     1
290
     0
176
     1
290
     0
176
     1
290
     0
176
     1
290
     0
176
     1
 90
       50
176
     1
 40
0.0
176
     1
 40
1.0
176
     1
 90
        0
176
     1
 62
    18
420
        0
176
     1
 90
       50
176
     1
 90
        3
176
     1
 62
     5
420
      255
176
     1
290
     0
176
     1
 90
       50
176
     1
 90
       50
176
     1
 90
       50
176
     1
290
     0
176
     1
 90
       50
176
     1
 62
   256
176
     0
 40
1.0
176
     0
 90
        2
176
     1
  1
strokes_ogs.tif
176
     1
290
     0
176
     1
 40
1.0
176
     1
 40
1.0
176
     1
  0
VISUALSTYLE
  5
30
102
{ACAD_REACTORS
330
2A
102
}
330
2A
100
AcDbVisualStyle
  2
Wireframe
 70
     5
177
     3
291
     0
 70
    58
 90
        0
176
     1
 90
        2
176
     1
 90
        0
176
     1
 90
        0
176
     1
 40
0.6
176
     1
 40
30.0
176
     1
 62
     7
420
 16777215
176
     1
 90
        1
176
     1
 90
        4
176
     1
 62
     7
176
     1
 62
   257
176
     1
 90
        1
176
     1
 90
        1
176
     1
 40
1.0
176
     1
 90
        0
176
     1
 62
   257
176
     1
 40
1.0
176
     1
 90
        1
176
     1
 90
        6
176
     1
 90
        2
176
     1
 62
     7
176
     1
 90
        3
176
     1
 90
        0
176
     1
 90
        0
176
     1
290
     0
176
     1
 90
        1
176
     1
 40
0.0
176
     1
 90
        0
176
     1
290
     0
176
     1
290
     1
176
     1
290
     1
176
     1
290
     0
176
     1
290
     0
176
     1
290
     0
176
     1
290
     0
176
     1
290
     0
176
     1
290
     0
176
     1
 90
       50
176
     1
 40
0.0
176
     1
 40
1.0
176
     1
 90
        0
176
     1
 62
    18
420
        0
176
     1
 90
       50
176
     1
 90
        3
176
     1
 62
     5
420
      255
176
     1
290
     0
176
     1
 90
       50
176
     1
 90
       50
176
     1
 90
       50
176
     1
290
     0
176
     1
 90
       50
176
     1
 62
   256
176
     0
 40
1.0
176
     0
 90
        2
176
     1
  1
strokes_ogs.tif
176
     1
290
     0
176
     1
 40
1.0
176
     1
 40
1.0
176
     1
  0
VISUALSTYLE
  5
40
102
{ACAD_REACTORS
330
2A
102
}
330
2A
100
AcDbVisualStyle
  2
X-Ray
 70
    25
177
     3
291
     0
 70
    58
 90
        2
176
     1
 90
        2
176
     1
 90
        1
176
     1
 90
        1
176
     1
 40
0.5
176
     1
 40
30.0
176
     1
 62
     7
420
 16777215
176
     1
 90
        1
176
     1
 90
        0
176
     1
 62
     7
176
     1
 62
   257
176
     1
 90
        1
176
     1
 90
        1
176
     1
 40
1.0
176
     1
 90
        8
176
     1
 62
     7
176
     1
 40
1.0
176
     1
 90
        1
176
     1
 90
        6
176
     1
 90
        2
176
     1
 62
     7
176
     1
 90
        3
176
     1
 90
        0
176
     1
 90
        0
176
     1
290
     0
176
     1
 90
       13
176
     1
 40
0.0
176
     1
 90
        0
176
     1
290
     0
176
     1
290
     1
176
     1
290
     1
176
     1
290
     0
176
     1
290
     0
176
     1
290
     0
176
     1
290
     0
176
     1
290
     0
176
     1
290
     0
176
     1
 90
       50
176
     1
 40
0.0
176
     1
 40
1.0
176
     1
 90
        0
176
     1
 62
    18
420
        0
176
     1
 90
       50
176
     1
 90
        3
176
     1
 62
     5
420
      255
176
     1
290
     0
176
     1
 90
       50
176
     1
 90
       50
176
     1
 90
       50
176
     1
290
     0
176
     1
 90
       50
176
     1
 62
   256
176
     0
 40
1.0
176
     0
 90
        2
176
     1
  1
strokes_ogs.tif
176
     1
290
     0
176
     1
 40
1.0
176
     1
 40
1.0
176
     1
  0
DICTIONARYVAR
  5
1DA
102
{ACAD_REACTORS
330
1D9
102
}
330
1D9
100
DictionaryVariables
280
     0
  1
1:1
  0
DICTIONARYVAR
  5
1DF
102
{ACAD_REACTORS
330
1D9
102
}
330
1D9
100
DictionaryVariables
280
     0
  1
Standard
  0
DICTIONARYVAR
  5
1DE
102
{ACAD_REACTORS
330
1D9
102
}
330
1D9
100
DictionaryVariables
280
     0
  1
Standard
  0
DICTIONARY
  5
1DB
330
6A
100
AcDbDictionary
280
     1
281
     1
  3
ACAD_ROUNDTRIP_2008_TABLESTYLE_CELLSTYLEMAP
360
1DC
  0
CELLSTYLEMAP
  5
1DC
102
{ACAD_REACTORS
330
1DB
102
}
330
1DB
100
AcDbCellStyleMap
 90
        3
300
CELLSTYLE
  1
TABLEFORMAT_BEGIN
 90
        5
170
     1
 91
        0
 92
    32768
 62
   257
 93
        1
300
CONTENTFORMAT
  1
CONTENTFORMAT_BEGIN
 90
        0
 91
        0
 92
        4
 93
        0
300

 40
0.0
140
1.0
 94
        5
 62
     0
340
11
144
6.0
309
CONTENTFORMAT_END
171
     1
301
MARGIN
  1
CELLMARGIN_BEGIN
 40
1.5
 40
1.5
 40
1.5
 40
1.5
 40
1.5
 40
1.5
309
CELLMARGIN_END
 94
        6
 95
        1
302
GRIDFORMAT
  1
GRIDFORMAT_BEGIN
 90
        0
 91
        1
 62
     0
 92
       -2
340
14
 93
        0
 40
0.045
309
GRIDFORMAT_END
 95
        2
302
GRIDFORMAT
  1
GRIDFORMAT_BEGIN
 90
        0
 91
        1
 62
     0
 92
       -2
340
14
 93
        0
 40
0.045
309
GRIDFORMAT_END
 95
        4
302
GRIDFORMAT
  1
GRIDFORMAT_BEGIN
 90
        0
 91
        1
 62
     0
 92
       -2
340
14
 93
        0
 40
0.045
309
GRIDFORMAT_END
 95
        8
302
GRIDFORMAT
  1
GRIDFORMAT_BEGIN
 90
        0
 91
        1
 62
     0
 92
       -2
340
14
 93
        0
 40
0.045
309
GRIDFORMAT_END
 95
       16
302
GRIDFORMAT
  1
GRIDFORMAT_BEGIN
 90
        0
 91
        1
 62
     0
 92
       -2
340
14
 93
        0
 40
0.045
309
GRIDFORMAT_END
 95
       32
302
GRIDFORMAT
  1
GRIDFORMAT_BEGIN
 90
        0
 91
        1
 62
     0
 92
       -2
340
14
 93
        0
 40
0.045
309
GRIDFORMAT_END
309
TABLEFORMAT_END
  1
CELLSTYLE_BEGIN
 90
        1
 91
        1
300
_TITLE
309
CELLSTYLE_END
300
CELLSTYLE
  1
TABLEFORMAT_BEGIN
 90
        5
170
     1
 91
        0
 92
        0
 62
   257
 93
        1
300
CONTENTFORMAT
  1
CONTENTFORMAT_BEGIN
 90
        0
 91
        0
 92
        4
 93
        0
300

 40
0.0
140
1.0
 94
        5
 62
     0
340
11
144
4.5
309
CONTENTFORMAT_END
171
     1
301
MARGIN
  1
CELLMARGIN_BEGIN
 40
1.5
 40
1.5
 40
1.5
 40
1.5
 40
1.5
 40
1.5
309
CELLMARGIN_END
 94
        6
 95
        1
302
GRIDFORMAT
  1
GRIDFORMAT_BEGIN
 90
        0
 91
        1
 62
     0
 92
       -2
340
14
 93
        0
 40
0.045
309
GRIDFORMAT_END
 95
        2
302
GRIDFORMAT
  1
GRIDFORMAT_BEGIN
 90
        0
 91
        1
 62
     0
 92
       -2
340
14
 93
        0
 40
0.045
309
GRIDFORMAT_END
 95
        4
302
GRIDFORMAT
  1
GRIDFORMAT_BEGIN
 90
        0
 91
        1
 62
     0
 92
       -2
340
14
 93
        0
 40
0.045
309
GRIDFORMAT_END
 95
        8
302
GRIDFORMAT
  1
GRIDFORMAT_BEGIN
 90
        0
 91
        1
 62
     0
 92
       -2
340
14
 93
        0
 40
0.045
309
GRIDFORMAT_END
 95
       16
302
GRIDFORMAT
  1
GRIDFORMAT_BEGIN
 90
        0
 91
        1
 62
     0
 92
       -2
340
14
 93
        0
 40
0.045
309
GRIDFORMAT_END
 95
       32
302
GRIDFORMAT
  1
GRIDFORMAT_BEGIN
 90
        0
 91
        1
 62
     0
 92
       -2
340
14
 93
        0
 40
0.045
309
GRIDFORMAT_END
309
TABLEFORMAT_END
  1
CELLSTYLE_BEGIN
 90
        2
 91
        1
300
_HEADER
309
CELLSTYLE_END
300
CELLSTYLE
  1
TABLEFORMAT_BEGIN
 90
        5
170
     1
 91
        0
 92
        0
 62
   257
 93
        1
300
CONTENTFORMAT
  1
CONTENTFORMAT_BEGIN
 90
        0
 91
        0
 92
        4
 93
        0
300

 40
0.0
140
1.0
 94
        2
 62
     0
340
11
144
4.5
309
CONTENTFORMAT_END
171
     1
301
MARGIN
  1
CELLMARGIN_BEGIN
 40
1.5
 40
1.5
 40
1.5
 40
1.5
 40
1.5
 40
1.5
309
CELLMARGIN_END
 94
        6
 95
        1
302
GRIDFORMAT
  1
GRIDFORMAT_BEGIN
 90
        0
 91
        1
 62
     0
 92
       -2
340
14
 93
        0
 40
0.045
309
GRIDFORMAT_END
 95
        2
302
GRIDFORMAT
  1
GRIDFORMAT_BEGIN
 90
        0
 91
        1
 62
     0
 92
       -2
340
14
 93
        0
 40
0.045
309
GRIDFORMAT_END
 95
        4
302
GRIDFORMAT
  1
GRIDFORMAT_BEGIN
 90
        0
 91
        1
 62
     0
 92
       -2
340
14
 93
        0
 40
0.045
309
GRIDFORMAT_END
 95
        8
302
GRIDFORMAT
  1
GRIDFORMAT_BEGIN
 90
        0
 91
        1
 62
     0
 92
       -2
340
14
 93
        0
 40
0.045
309
GRIDFORMAT_END
 95
       16
302
GRIDFORMAT
  1
GRIDFORMAT_BEGIN
 90
        0
 91
        1
 62
     0
 92
       -2
340
14
 93
        0
 40
0.045
309
GRIDFORMAT_END
 95
       32
302
GRIDFORMAT
  1
GRIDFORMAT_BEGIN
 90
        0
 91
        1
 62
     0
 92
       -2
340
14
 93
        0
 40
0.045
309
GRIDFORMAT_END
309
TABLEFORMAT_END
  1
CELLSTYLE_BEGIN
 90
        3
 91
        2
300
_DATA
309
CELLSTYLE_END
  0
ENDSEC
  0
EOF