0
SECTION
  2
HEADER
  9
$ACADVER
  1
AC1027
  9
$ACADMAINTVER
 70
     8
  9
$DWGCODEPAGE
  3
ANSI_1252
  9
$REQUIREDVERSIONS
160
                 0
  9
$COMMENTS
  1
File was created by Cadenas
  9
$CUSTOMPROPERTYTAG
  1
NN
  9
$CUSTOMPROPERTY
  1
Eccentric Collar Intermediate Duty Two-Bolt Piloted Flange Inch Bore
  9
$CUSTOMPROPERTYTAG
  1
NT
  9
$CUSTOMPROPERTY
  1
Eccentric Collar 2-Bolt Piloted Flange Bearings -(Normal Duty)
  9
$CUSTOMPROPERTYTAG
  1
NB
  9
$CUSTOMPROPERTY
  1
062893
  9
$CUSTOMPROPERTYTAG
  1
NBSYN
  9
$CUSTOMPROPERTY
  1
$PN.
  9
$CUSTOMPROPERTYTAG
  1
LINA
  9
$CUSTOMPROPERTY
  1
062893
  9
$CUSTOMPROPERTYTAG
  1
SERIES
  9
$CUSTOMPROPERTY
  1
207
  9
$CUSTOMPROPERTYTAG
  1
SS
  9
$CUSTOMPROPERTY
  1
1-1/4
  9
$CUSTOMPROPERTYTAG
  1
PN
  9
$CUSTOMPROPERTY
  1
062893
  9
$CUSTOMPROPERTYTAG
  1
DESCRIPTION
  9
$CUSTOMPROPERTY
  1
F2BZ-SXV-104
  9
$CUSTOMPROPERTYTAG
  1
W
  9
$CUSTOMPROPERTY
  1
2.9
  9
$CUSTOMPROPERTYTAG
  1
A
  9
$CUSTOMPROPERTY
  1
1.53
  9
$CUSTOMPROPERTYTAG
  1
B
  9
$CUSTOMPROPERTY
  1
6.13
  9
$CUSTOMPROPERTYTAG
  1
C
  9
$CUSTOMPROPERTY
  1
2.03
  9
$CUSTOMPROPERTYTAG
  1
D
  9
$CUSTOMPROPERTY
  1
5.12
  9
$CUSTOMPROPERTYTAG
  1
E
  9
$CUSTOMPROPERTY
  1
0.16
  9
$CUSTOMPROPERTYTAG
  1
F
  9
$CUSTOMPROPERTY
  1
1/2
  9
$CUSTOMPROPERTYTAG
  1
G
  9
$CUSTOMPROPERTY
  1
1.87
  9
$CUSTOMPROPERTYTAG
  1
H
  9
$CUSTOMPROPERTY
  1
0.56
  9
$CUSTOMPROPERTYTAG
  1
J
  9
$CUSTOMPROPERTY
  1
0.65
  9
$CUSTOMPROPERTYTAG
  1
K
  9
$CUSTOMPROPERTY
  1
3.543/3.541
  9
$CUSTOMPROPERTYTAG
  1
L
  9
$CUSTOMPROPERTY
  1
2.13
  9
$CUSTOMPROPERTYTAG
  1
M
  9
$CUSTOMPROPERTY
  1
3.75
  9
$CUSTOMPROPERTYTAG
  1
N
  9
$CUSTOMPROPERTY
  1
1.84
  9
$CUSTOMPROPERTYTAG
  1
COMPANY
  9
$CUSTOMPROPERTY
  1
baldor
  9
$INSBASE
 10
0.0
 20
0.0
 30
0.0
  9
$EXTMIN
 10
1.000000000000000E+20
 20
1.000000000000000E+20
 30
1.000000000000000E+20
  9
$EXTMAX
 10
-1.000000000000000E+20
 20
-1.000000000000000E+20
 30
-1.000000000000000E+20
  9
$LIMMIN
 10
0.0
 20
0.0
  9
$LIMMAX
 10
12.0
 20
9.0
  9
$ORTHOMODE
 70
     0
  9
$REGENMODE
 70
     1
  9
$FILLMODE
 70
     1
  9
$QTEXTMODE
 70
     0
  9
$MIRRTEXT
 70
     1
  9
$LTSCALE
 40
1.0
  9
$ATTMODE
 70
     1
  9
$TEXTSIZE
 40
0.2
  9
$TRACEWID
 40
0.05
  9
$TEXTSTYLE
  7
Standard
  9
$CLAYER
  8
0
  9
$CELTYPE
  6
ByLayer
  9
$CECOLOR
 62
   256
  9
$CELTSCALE
 40
1.0
  9
$DISPSILH
 70
     0
  9
$DIMSCALE
 40
1.0
  9
$DIMASZ
 40
0.18
  9
$DIMEXO
 40
0.0625
  9
$DIMDLI
 40
0.38
  9
$DIMRND
 40
0.0
  9
$DIMDLE
 40
0.0
  9
$DIMEXE
 40
0.18
  9
$DIMTP
 40
0.0
  9
$DIMTM
 40
0.0
  9
$DIMTXT
 40
0.18
  9
$DIMCEN
 40
0.09
  9
$DIMTSZ
 40
0.0
  9
$DIMTOL
 70
     0
  9
$DIMLIM
 70
     0
  9
$DIMTIH
 70
     1
  9
$DIMTOH
 70
     1
  9
$DIMSE1
 70
     0
  9
$DIMSE2
 70
     0
  9
$DIMTAD
 70
     0
  9
$DIMZIN
 70
     0
  9
$DIMBLK
  1

  9
$DIMASO
 70
     1
  9
$DIMSHO
 70
     1
  9
$DIMPOST
  1

  9
$DIMAPOST
  1

  9
$DIMALT
 70
     0
  9
$DIMALTD
 70
     2
  9
$DIMALTF
 40
25.4
  9
$DIMLFAC
 40
1.0
  9
$DIMTOFL
 70
     0
  9
$DIMTVP
 40
0.0
  9
$DIMTIX
 70
     0
  9
$DIMSOXD
 70
     0
  9
$DIMSAH
 70
     0
  9
$DIMBLK1
  1

  9
$DIMBLK2
  1

  9
$DIMSTYLE
  2
Standard
  9
$DIMCLRD
 70
     0
  9
$DIMCLRE
 70
     0
  9
$DIMCLRT
 70
     0
  9
$DIMTFAC
 40
1.0
  9
$DIMGAP
 40
0.09
  9
$DIMJUST
 70
     0
  9
$DIMSD1
 70
     0
  9
$DIMSD2
 70
     0
  9
$DIMTOLJ
 70
     1
  9
$DIMTZIN
 70
     0
  9
$DIMALTZ
 70
     0
  9
$DIMALTTZ
 70
     0
  9
$DIMUPT
 70
     0
  9
$DIMDEC
 70
     4
  9
$DIMTDEC
 70
     4
  9
$DIMALTU
 70
     2
  9
$DIMALTTD
 70
     2
  9
$DIMTXSTY
  7
Standard
  9
$DIMAUNIT
 70
     0
  9
$DIMADEC
 70
     0
  9
$DIMALTRND
 40
0.0
  9
$DIMAZIN
 70
     0
  9
$DIMDSEP
 70
    46
  9
$DIMATFIT
 70
     3
  9
$DIMFRAC
 70
     0
  9
$DIMLDRBLK
  1

  9
$DIMLUNIT
 70
     2
  9
$DIMLWD
 70
    -2
  9
$DIMLWE
 70
    -2
  9
$DIMTMOVE
 70
     0
  9
$DIMFXL
 40
1.0
  9
$DIMFXLON
 70
     0
  9
$DIMJOGANG
 40
0.7853981633974483
  9
$DIMTFILL
 70
     0
  9
$DIMTFILLCLR
 70
     0
  9
$DIMARCSYM
 70
     0
  9
$DIMLTYPE
  6

  9
$DIMLTEX1
  6

  9
$DIMLTEX2
  6

  9
$DIMTXTDIRECTION
 70
     0
  9
$LUNITS
 70
     2
  9
$LUPREC
 70
     4
  9
$SKETCHINC
 40
0.1
  9
$FILLETRAD
 40
0.5
  9
$AUNITS
 70
     0
  9
$AUPREC
 70
     0
  9
$MENU
  1
.
  9
$ELEVATION
 40
0.0
  9
$PELEVATION
 40
0.0
  9
$THICKNESS
 40
0.0
  9
$LIMCHECK
 70
     0
  9
$CHAMFERA
 40
0.0
  9
$CHAMFERB
 40
0.0
  9
$CHAMFERC
 40
0.0
  9
$CHAMFERD
 40
0.0
  9
$SKPOLY
 70
     0
  9
$TDCREATE
 40
2458168.906337477
  9
$TDUCREATE
 40
2458168.86467081
  9
$TDUPDATE
 40
2458168.90633765
  9
$TDUUPDATE
 40
2458168.864670984
  9
$TDINDWG
 40
0.0000000116
  9
$TDUSRTIMER
 40
0.0000000116
  9
$USRTIMER
 70
     1
  9
$ANGBASE
 50
0.0
  9
$ANGDIR
 70
     0
  9
$PDMODE
 70
     0
  9
$PDSIZE
 40
0.0
  9
$PLINEWID
 40
0.0
  9
$SPLFRAME
 70
     0
  9
$SPLINETYPE
 70
     6
  9
$SPLINESEGS
 70
     8
  9
$HANDSEED
  5
1B3
  9
$SURFTAB1
 70
     6
  9
$SURFTAB2
 70
     6
  9
$SURFTYPE
 70
     6
  9
$SURFU
 70
     6
  9
$SURFV
 70
     6
  9
$UCSBASE
  2

  9
$UCSNAME
  2

  9
$UCSORG
 10
0.0
 20
0.0
 30
0.0
  9
$UCSXDIR
 10
1.0
 20
0.0
 30
0.0
  9
$UCSYDIR
 10
0.0
 20
1.0
 30
0.0
  9
$UCSORTHOREF
  2

  9
$UCSORTHOVIEW
 70
     0
  9
$UCSORGTOP
 10
0.0
 20
0.0
 30
0.0
  9
$UCSORGBOTTOM
 10
0.0
 20
0.0
 30
0.0
  9
$UCSORGLEFT
 10
0.0
 20
0.0
 30
0.0
  9
$UCSORGRIGHT
 10
0.0
 20
0.0
 30
0.0
  9
$UCSORGFRONT
 10
0.0
 20
0.0
 30
0.0
  9
$UCSORGBACK
 10
0.0
 20
0.0
 30
0.0
  9
$PUCSBASE
  2

  9
$PUCSNAME
  2

  9
$PUCSORG
 10
0.0
 20
0.0
 30
0.0
  9
$PUCSXDIR
 10
1.0
 20
0.0
 30
0.0
  9
$PUCSYDIR
 10
0.0
 20
1.0
 30
0.0
  9
$PUCSORTHOREF
  2

  9
$PUCSORTHOVIEW
 70
     0
  9
$PUCSORGTOP
 10
0.0
 20
0.0
 30
0.0
  9
$PUCSORGBOTTOM
 10
0.0
 20
0.0
 30
0.0
  9
$PUCSORGLEFT
 10
0.0
 20
0.0
 30
0.0
  9
$PUCSORGRIGHT
 10
0.0
 20
0.0
 30
0.0
  9
$PUCSORGFRONT
 10
0.0
 20
0.0
 30
0.0
  9
$PUCSORGBACK
 10
0.0
 20
0.0
 30
0.0
  9
$USERI1
 70
     0
  9
$USERI2
 70
     0
  9
$USERI3
 70
     0
  9
$USERI4
 70
     0
  9
$USERI5
 70
     0
  9
$USERR1
 40
0.0
  9
$USERR2
 40
0.0
  9
$USERR3
 40
0.0
  9
$USERR4
 40
0.0
  9
$USERR5
 40
0.0
  9
$WORLDVIEW
 70
     1
  9
$SHADEDGE
 70
     3
  9
$SHADEDIF
 70
    70
  9
$TILEMODE
 70
     1
  9
$MAXACTVP
 70
    64
  9
$PINSBASE
 10
0.0
 20
0.0
 30
0.0
  9
$PLIMCHECK
 70
     0
  9
$PEXTMIN
 10
1.000000000000000E+20
 20
1.000000000000000E+20
 30
1.000000000000000E+20
  9
$PEXTMAX
 10
-1.000000000000000E+20
 20
-1.000000000000000E+20
 30
-1.000000000000000E+20
  9
$PLIMMIN
 10
0.0
 20
0.0
  9
$PLIMMAX
 10
12.0
 20
9.0
  9
$UNITMODE
 70
     0
  9
$VISRETAIN
 70
     1
  9
$PLINEGEN
 70
     0
  9
$PSLTSCALE
 70
     1
  9
$TREEDEPTH
 70
  3020
  9
$CMLSTYLE
  2
Standard
  9
$CMLJUST
 70
     0
  9
$CMLSCALE
 40
1.0
  9
$PROXYGRAPHICS
 70
     1
  9
$MEASUREMENT
 70
     0
  9
$CELWEIGHT
370
    -1
  9
$ENDCAPS
280
     0
  9
$JOINSTYLE
280
     0
  9
$LWDISPLAY
290
     0
  9
$INSUNITS
 70
     1
  9
$HYPERLINKBASE
  1

  9
$STYLESHEET
  1

  9
$XEDIT
290
     1
  9
$CEPSNTYPE
380
     0
  9
$PSTYLEMODE
290
     1
  9
$FINGERPRINTGUID
  2
{8997B314-72B3-4B42-AAC3-AC07ACF3E3E7}
  9
$VERSIONGUID
  2
{FAEB1C32-E019-11D5-929B-00C0DF256EC4}
  9
$EXTNAMES
290
     1
  9
$PSVPSCALE
 40
0.0
  9
$OLESTARTUP
290
     0
  9
$SORTENTS
280
   127
  9
$INDEXCTL
280
     0
  9
$HIDETEXT
280
     1
  9
$XCLIPFRAME
280
     2
  9
$HALOGAP
280
     0
  9
$OBSCOLOR
 70
   257
  9
$OBSLTYPE
280
     0
  9
$INTERSECTIONDISPLAY
280
     0
  9
$INTERSECTIONCOLOR
 70
   257
  9
$DIMASSOC
280
     2
  9
$PROJECTNAME
  1

  9
$CAMERADISPLAY
290
     0
  9
$LENSLENGTH
 40
50.0
  9
$CAMERAHEIGHT
 40
0.0
  9
$STEPSPERSEC
 40
2.0
  9
$STEPSIZE
 40
6.0
  9
$3DDWFPREC
 40
2.0
  9
$PSOLWIDTH
 40
0.25
  9
$PSOLHEIGHT
 40
4.0
  9
$LOFTANG1
 40
1.570796326794897
  9
$LOFTANG2
 40
1.570796326794897
  9
$LOFTMAG1
 40
0.0
  9
$LOFTMAG2
 40
0.0
  9
$LOFTPARAM
 70
     7
  9
$LOFTNORMALS
280
     1
  9
$LATITUDE
 40
37.795
  9
$LONGITUDE
 40
-122.394
  9
$NORTHDIRECTION
 40
0.0
  9
$TIMEZONE
 70
 -8000
  9
$LIGHTGLYPHDISPLAY
280
     1
  9
$TILEMODELIGHTSYNCH
280
     1
  9
$CMATERIAL
347
44
  9
$SOLIDHIST
280
     0
  9
$SHOWHIST
280
     1
  9
$DWFFRAME
280
     2
  9
$DGNFRAME
280
     2
  9
$REALWORLDSCALE
290
     1
  9
$INTERFERECOLOR
 62
   256
  9
$CSHADOW
280
     0
  9
$SHADOWPLANELOCATION
 40
0.0
  0
ENDSEC
  0
SECTION
  2
CLASSES
  0
CLASS
  1
ACDBDICTIONARYWDFLT
  2
AcDbDictionaryWithDefault
  3
ObjectDBX Classes
 90
        0
 91
        4
280
     0
281
     0
  0
CLASS
  1
VISUALSTYLE
  2
AcDbVisualStyle
  3
ObjectDBX Classes
 90
     4095
 91
        4
280
     0
281
     0
  0
CLASS
  1
MATERIAL
  2
AcDbMaterial
  3
ObjectDBX Classes
 90
     1153
 91
        4
280
     0
281
     0
  0
CLASS
  1
SCALE
  2
AcDbScale
  3
ObjectDBX Classes
 90
     1153
 91
        4
280
     0
281
     0
  0
CLASS
  1
TABLESTYLE
  2
AcDbTableStyle
  3
ObjectDBX Classes
 90
     4095
 91
        4
280
     0
281
     0
  0
CLASS
  1
MLEADERSTYLE
  2
AcDbMLeaderStyle
  3
ACDB_MLEADERSTYLE_CLASS
 90
     4095
 91
        4
280
     0
281
     0
  0
CLASS
  1
SUN
  2
AcDbSun
  3
SCENEOE
 90
     1153
 91
        4
280
     0
281
     0
  0
CLASS
  1
DICTIONARYVAR
  2
AcDbDictionaryVar
  3
ObjectDBX Classes
 90
        0
 91
        4
280
     0
281
     0
  0
CLASS
  1
CELLSTYLEMAP
  2
AcDbCellStyleMap
  3
ObjectDBX Classes
 90
     1152
 91
        4
280
     0
281
     0
  0
ENDSEC
  0
SECTION
  2
TABLES
  0
TABLE
  2
VPORT
  5
8
330
0
100
AcDbSymbolTable
 70
     1
  0
VPORT
  5
29
330
8
100
AcDbSymbolTableRecord
100
AcDbViewportTableRecord
  2
*Active
 70
     0
 10
0.0
 20
0.0
 11
1.0
 21
1.0
 12
-0.9777500000000003
 22
-0.0000000000000018
 13
0.0
 23
0.0
 14
0.5
 24
0.5
 15
0.5
 25
0.5
 16
0.0
 26
0.0
 36
1.0
 17
0.0
 27
0.0
 37
0.0
 40
6.252600000000001
 41
0.3764274061990207
 42
50.0
 43
0.0
 44
0.0
 50
0.0
 51
0.0
 71
     0
 72
   100
 73
     1
 74
     3
 75
     0
 76
     0
 77
     0
 78
     0
281
     0
 65
     1
110
0.0
120
0.0
130
0.0
111
1.0
121
0.0
131
0.0
112
0.0
122
1.0
132
0.0
 79
     0
146
0.0
348
2F
 60
     3
 61
     5
292
     1
282
     1
141
0.0
142
0.0
 63
   250
361
6D
  0
ENDTAB
  0
TABLE
  2
LTYPE
  5
5
330
0
100
AcDbSymbolTable
 70
     3
  0
LTYPE
  5
14
330
5
100
AcDbSymbolTableRecord
100
AcDbLinetypeTableRecord
  2
ByBlock
 70
     0
  3

 72
    65
 73
     0
 40
0.0
  0
LTYPE
  5
15
330
5
100
AcDbSymbolTableRecord
100
AcDbLinetypeTableRecord
  2
ByLayer
 70
     0
  3

 72
    65
 73
     0
 40
0.0
  0
LTYPE
  5
16
330
5
100
AcDbSymbolTableRecord
100
AcDbLinetypeTableRecord
  2
Continuous
 70
     0
  3
Solid line
 72
    65
 73
     0
 40
0.0
  0
LTYPE
  5
97
330
5
100
AcDbSymbolTableRecord
100
AcDbLinetypeTableRecord
  2
Dashed
 70
     0
  3

 72
    65
 73
     2
 40
2.0
 49
1.0
 74
     0
 49
-1.0
 74
     0
  0
LTYPE
  5
12C
330
5
100
AcDbSymbolTableRecord
100
AcDbLinetypeTableRecord
  2
Center
 70
     0
  3

 72
    65
 73
     4
 40
1.5
 49
0.45
 74
     0
 49
-0.5
 74
     0
 49
0.05
 74
     0
 49
-0.5
 74
     0
  0
ENDTAB
  0
TABLE
  2
LAYER
  5
2
330
0
100
AcDbSymbolTable
 70
     7
  0
LAYER
  5
10
330
2
100
AcDbSymbolTableRecord
100
AcDbLayerTableRecord
  2
0
 70
     0
 62
     7
  6
Continuous
370
    -3
390
F
347
46
348
0
  0
LAYER
  5
72
330
2
100
AcDbSymbolTableRecord
100
AcDbLayerTableRecord
  2
AM_6
 70
     0
 62
    -2
  6
Continuous
370
    35
390
F
347
46
348
0
  0
LAYER
  5
98
330
2
100
AcDbSymbolTableRecord
100
AcDbLayerTableRecord
  2
AM_9
 70
     0
 62
     6
  6
Dashed
370
    25
390
F
347
46
348
0
  0
LAYER
  5
C9
330
2
100
AcDbSymbolTableRecord
100
AcDbLayerTableRecord
  2
AM_4
 70
     0
 62
     7
  6
Continuous
370
    50
390
F
347
46
348
0
  0
LAYER
  5
129
330
2
100
AcDbSymbolTableRecord
100
AcDbLayerTableRecord
  2
AM_5
 70
     0
 62
     3
  6
Continuous
370
    25
390
F
347
46
348
0
  0
LAYER
  5
12D
330
2
100
AcDbSymbolTableRecord
100
AcDbLayerTableRecord
  2
AM_7
 70
     0
 62
     7
  6
Center
370
    25
390
F
347
46
348
0
  0
LAYER
  5
1A6
330
2
100
AcDbSymbolTableRecord
100
AcDbLayerTableRecord
  2
ConnectionPoints
 70
     0
 62
     7
  6
Continuous
370
    50
390
F
347
46
348
0
  0
ENDTAB
  0
TABLE
  2
STYLE
  5
3
330
0
100
AcDbSymbolTable
 70
     1
  0
STYLE
  5
11
330
3
100
AcDbSymbolTableRecord
100
AcDbTextStyleTableRecord
  2
Standard
 70
     0
 40
0.0
 41
1.0
 50
0.0
 71
     0
 42
0.2
  3
txt
  4

  0
ENDTAB
  0
TABLE
  2
VIEW
  5
6
330
0
100
AcDbSymbolTable
 70
     0
  0
ENDTAB
  0
TABLE
  2
UCS
  5
7
330
0
100
AcDbSymbolTable
 70
     0
  0
ENDTAB
  0
TABLE
  2
APPID
  5
9
330
0
100
AcDbSymbolTable
 70
     1
  0
APPID
  5
12
330
9
100
AcDbSymbolTableRecord
100
AcDbRegAppTableRecord
  2
ACAD
 70
     0
  0
ENDTAB
  0
TABLE
  2
DIMSTYLE
  5
A
330
0
100
AcDbSymbolTable
 70
     1
100
AcDbDimStyleTable
  0
DIMSTYLE
105
27
330
A
100
AcDbSymbolTableRecord
100
AcDbDimStyleTableRecord
  2
Standard
 70
     0
178
     0
340
11
  0
ENDTAB
  0
TABLE
  2
BLOCK_RECORD
  5
1
330
0
100
AcDbSymbolTable
 70
     5
  0
BLOCK_RECORD
  5
1F
330
1
100
AcDbSymbolTableRecord
100
AcDbBlockTableRecord
  2
*Model_Space
340
22
 70
     0
280
     1
281
     0
  0
BLOCK_RECORD
  5
1B
330
1
100
AcDbSymbolTableRecord
100
AcDbBlockTableRecord
  2
*Paper_Space
340
1E
 70
     0
280
     1
281
     0
  0
BLOCK_RECORD
  5
23
330
1
100
AcDbSymbolTableRecord
100
AcDbBlockTableRecord
  2
*Paper_Space0
340
26
 70
     0
280
     1
281
     0
  0
BLOCK_RECORD
  5
6E
330
1
100
AcDbSymbolTableRecord
100
AcDbBlockTableRecord
  2
1_062893_2
340
0
102
{BLKREFS
331
6F
102
}
 70
     0
280
     1
281
     0
  0
BLOCK_RECORD
  5
8B
330
1
100
AcDbSymbolTableRecord
100
AcDbBlockTableRecord
  2
2_405015E_Inch_0_in_062893_2
340
0
102
{BLKREFS
331
8C
102
}
 70
     0
280
     1
281
     0
  0
BLOCK_RECORD
  5
E5
330
1
100
AcDbSymbolTableRecord
100
AcDbBlockTableRecord
  2
3_131443_0_in_062893_2
340
0
102
{BLKREFS
331
E6
102
}
 70
     0
280
     1
281
     0
  0
BLOCK_RECORD
  5
143
330
1
100
AcDbSymbolTableRecord
100
AcDbBlockTableRecord
  2
4_062893HI_0_in_062893_2
340
0
102
{BLKREFS
331
144
102
}
 70
     0
280
     1
281
     0
  0
ENDTAB
  0
ENDSEC
  0
SECTION
  2
BLOCKS
  0
BLOCK
  5
20
330
1F
100
AcDbEntity
  8
0
100
AcDbBlockBegin
  2
*Model_Space
 70
     0
 10
0.0
 20
0.0
 30
0.0
  3
*Model_Space
  1

  0
ENDBLK
  5
21
330
1F
100
AcDbEntity
  8
0
100
AcDbBlockEnd
  0
BLOCK
  5
1C
330
1B
100
AcDbEntity
 67
     1
  8
0
100
AcDbBlockBegin
  2
*Paper_Space
 70
     0
 10
0.0
 20
0.0
 30
0.0
  3
*Paper_Space
  1

  0
ENDBLK
  5
1D
330
1B
100
AcDbEntity
 67
     1
  8
0
100
AcDbBlockEnd
  0
BLOCK
  5
24
330
23
100
AcDbEntity
  8
0
100
AcDbBlockBegin
  2
*Paper_Space0
 70
     0
 10
0.0
 20
0.0
 30
0.0
  3
*Paper_Space0
  1

  0
ENDBLK
  5
25
330
23
100
AcDbEntity
  8
0
100
AcDbBlockEnd
  0
BLOCK
  5
70
330
6E
100
AcDbEntity
  8
0
100
AcDbBlockBegin
  2
1_062893_2
 70
     2
 10
0.0
 20
0.0
 30
0.0
  3
1_062893_2
  1

  0
ATTDEF
  5
73
330
6E
100
AcDbEntity
  8
AM_6
100
AcDbText
 10
5.176
 20
3.065
 30
0.0
 40
0.5
  1
Eccentric Collar Intermediate Duty Two-Bolt Piloted Flange Inch Bore
100
AcDbAttributeDefinition
  3

  2
NN
 70
     8
280
     0
  0
ATTDEF
  5
74
330
6E
100
AcDbEntity
  8
AM_6
100
AcDbText
 10
5.176
 20
2.565
 30
0.0
 40
0.5
  1
Eccentric Collar 2-Bolt Piloted Flange Bearings -(Normal Duty)
100
AcDbAttributeDefinition
  3

  2
NT
 70
     8
280
     0
  0
ATTDEF
  5
75
330
6E
100
AcDbEntity
  8
AM_6
100
AcDbText
 10
5.176
 20
2.065
 30
0.0
 40
0.5
  1
062893
100
AcDbAttributeDefinition
  3

  2
NB
 70
     8
280
     0
  0
ATTDEF
  5
76
330
6E
100
AcDbEntity
  8
AM_6
100
AcDbText
 10
5.176
 20
1.565
 30
0.0
 40
0.5
  1
$PN.
100
AcDbAttributeDefinition
  3

  2
NBSYN
 70
     8
280
     0
  0
ATTDEF
  5
77
330
6E
100
AcDbEntity
  8
AM_6
100
AcDbText
 10
5.176
 20
1.065
 30
0.0
 40
0.5
  1
062893
100
AcDbAttributeDefinition
  3

  2
LINA
 70
     8
280
     0
  0
ATTDEF
  5
78
330
6E
100
AcDbEntity
  8
AM_6
100
AcDbText
 10
5.176
 20
0.5649999999999995
 30
0.0
 40
0.5
  1
207
100
AcDbAttributeDefinition
  3

  2
SERIES
 70
     8
280
     0
  0
ATTDEF
  5
79
330
6E
100
AcDbEntity
  8
AM_6
100
AcDbText
 10
5.176
 20
0.0649999999999995
 30
0.0
 40
0.5
  1
1-1/4
100
AcDbAttributeDefinition
  3

  2
SS
 70
     8
280
     0
  0
ATTDEF
  5
7A
330
6E
100
AcDbEntity
  8
AM_6
100
AcDbText
 10
5.176
 20
-0.4350000000000005
 30
0.0
 40
0.5
  1
062893
100
AcDbAttributeDefinition
  3

  2
PN
 70
     8
280
     0
  0
ATTDEF
  5
7B
330
6E
100
AcDbEntity
  8
AM_6
100
AcDbText
 10
5.176
 20
-0.9350000000000005
 30
0.0
 40
0.5
  1
F2BZ-SXV-104
100
AcDbAttributeDefinition
  3

  2
DESCRIPTION
 70
     8
280
     0
  0
ATTDEF
  5
7C
330
6E
100
AcDbEntity
  8
AM_6
100
AcDbText
 10
5.176
 20
-1.435
 30
0.0
 40
0.5
  1
2.9
100
AcDbAttributeDefinition
  3

  2
W
 70
     8
280
     0
  0
ATTDEF
  5
7D
330
6E
100
AcDbEntity
  8
AM_6
100
AcDbText
 10
5.176
 20
-1.935
 30
0.0
 40
0.5
  1
1.53
100
AcDbAttributeDefinition
  3

  2
A
 70
     8
280
     0
  0
ATTDEF
  5
7E
330
6E
100
AcDbEntity
  8
AM_6
100
AcDbText
 10
5.176
 20
-2.435
 30
0.0
 40
0.5
  1
6.13
100
AcDbAttributeDefinition
  3

  2
B
 70
     8
280
     0
  0
ATTDEF
  5
7F
330
6E
100
AcDbEntity
  8
AM_6
100
AcDbText
 10
5.176
 20
-2.935
 30
0.0
 40
0.5
  1
2.03
100
AcDbAttributeDefinition
  3

  2
C
 70
     8
280
     0
  0
ATTDEF
  5
80
330
6E
100
AcDbEntity
  8
AM_6
100
AcDbText
 10
5.176
 20
-3.435
 30
0.0
 40
0.5
  1
5.12
100
AcDbAttributeDefinition
  3

  2
D
 70
     8
280
     0
  0
ATTDEF
  5
81
330
6E
100
AcDbEntity
  8
AM_6
100
AcDbText
 10
5.176
 20
-3.935
 30
0.0
 40
0.5
  1
0.16
100
AcDbAttributeDefinition
  3

  2
E
 70
     8
280
     0
  0
ATTDEF
  5
82
330
6E
100
AcDbEntity
  8
AM_6
100
AcDbText
 10
5.176
 20
-4.435
 30
0.0
 40
0.5
  1
1/2
100
AcDbAttributeDefinition
  3

  2
F
 70
     8
280
     0
  0
ATTDEF
  5
83
330
6E
100
AcDbEntity
  8
AM_6
100
AcDbText
 10
5.176
 20
-4.935
 30
0.0
 40
0.5
  1
1.87
100
AcDbAttributeDefinition
  3

  2
G
 70
     8
280
     0
  0
ATTDEF
  5
84
330
6E
100
AcDbEntity
  8
AM_6
100
AcDbText
 10
5.176
 20
-5.435
 30
0.0
 40
0.5
  1
0.56
100
AcDbAttributeDefinition
  3

  2
H
 70
     8
280
     0
  0
ATTDEF
  5
85
330
6E
100
AcDbEntity
  8
AM_6
100
AcDbText
 10
5.176
 20
-5.935
 30
0.0
 40
0.5
  1
0.65
100
AcDbAttributeDefinition
  3

  2
J
 70
     8
280
     0
  0
ATTDEF
  5
86
330
6E
100
AcDbEntity
  8
AM_6
100
AcDbText
 10
5.176
 20
-6.435
 30
0.0
 40
0.5
  1
3.543/3.541
100
AcDbAttributeDefinition
  3

  2
K
 70
     8
280
     0
  0
ATTDEF
  5
87
330
6E
100
AcDbEntity
  8
AM_6
100
AcDbText
 10
5.176
 20
-6.935
 30
0.0
 40
0.5
  1
2.13
100
AcDbAttributeDefinition
  3

  2
L
 70
     8
280
     0
  0
ATTDEF
  5
88
330
6E
100
AcDbEntity
  8
AM_6
100
AcDbText
 10
5.176
 20
-7.435
 30
0.0
 40
0.5
  1
3.75
100
AcDbAttributeDefinition
  3

  2
M
 70
     8
280
     0
  0
ATTDEF
  5
89
330
6E
100
AcDbEntity
  8
AM_6
100
AcDbText
 10
5.176
 20
-7.935
 30
0.0
 40
0.5
  1
1.84
100
AcDbAttributeDefinition
  3

  2
N
 70
     8
280
     0
  0
ATTDEF
  5
8A
330
6E
100
AcDbEntity
  8
AM_6
100
AcDbText
 10
5.176
 20
-8.435
 30
0.0
 40
0.5
  1
baldor
100
AcDbAttributeDefinition
  3

  2
COMPANY
 70
     8
280
     0
  0
INSERT
  5
8C
330
6E
100
AcDbEntity
  8
0
100
AcDbBlockReference
  2
2_405015E_Inch_0_in_062893_2
 10
0.0
 20
0.0
 30
0.0
  0
INSERT
  5
E6
330
6E
100
AcDbEntity
  8
0
100
AcDbBlockReference
  2
3_131443_0_in_062893_2
 10
0.0
 20
0.0
 30
0.0
  0
INSERT
  5
144
330
6E
100
AcDbEntity
  8
0
100
AcDbBlockReference
  2
4_062893HI_0_in_062893_2
 10
0.0
 20
0.0
 30
0.0
  0
ENDBLK
  5
71
330
6E
100
AcDbEntity
  8
0
100
AcDbBlockEnd
  0
BLOCK
  5
8D
330
8B
100
AcDbEntity
  8
0
100
AcDbBlockBegin
  2
2_405015E_Inch_0_in_062893_2
 70
     2
 10
0.0
 20
0.0
 30
0.0
  3
2_405015E_Inch_0_in_062893_2
  1

  0
ATTDEF
  5
8F
330
8B
100
AcDbEntity
  8
AM_6
100
AcDbText
 10
4.27875
 20
1.925704381342598
 30
0.0
 40
0.5
  1
405015E -Inch
100
AcDbAttributeDefinition
  3

  2
NN
 70
     8
280
     0
  0
ATTDEF
  5
90
330
8B
100
AcDbEntity
  8
AM_6
100
AcDbText
 10
4.27875
 20
1.425704381342598
 30
0.0
 40
0.5
  1
Grease Fitting
100
AcDbAttributeDefinition
  3

  2
NT
 70
     8
280
     0
  0
ATTDEF
  5
91
330
8B
100
AcDbEntity
  8
AM_6
100
AcDbText
 10
4.27875
 20
0.9257043813425982
 30
0.0
 40
0.5
  1
405015E-Inch
100
AcDbAttributeDefinition
  3

  2
NB
 70
     8
280
     0
  0
ATTDEF
  5
92
330
8B
100
AcDbEntity
  8
AM_6
100
AcDbText
 10
4.27875
 20
0.4257043813425982
 30
0.0
 40
0.5
  1
$MN.-Inch
100
AcDbAttributeDefinition
  3

  2
NBSYN
 70
     8
280
     0
  0
ATTDEF
  5
93
330
8B
100
AcDbEntity
  8
AM_6
100
AcDbText
 10
4.27875
 20
-0.0742956186574018
 30
0.0
 40
0.5
  1
405015E
100
AcDbAttributeDefinition
  3

  2
LINA
 70
     8
280
     0
  0
ATTDEF
  5
94
330
8B
100
AcDbEntity
  8
AM_6
100
AcDbText
 10
4.27875
 20
-0.5742956186574018
 30
0.0
 40
0.5
  1
405015E
100
AcDbAttributeDefinition
  3

  2
MN
 70
     8
280
     0
  0
ATTDEF
  5
95
330
8B
100
AcDbEntity
  8
AM_6
100
AcDbText
 10
4.27875
 20
-1.074295618657402
 30
0.0
 40
0.5
  1
1/8 x 27PTF
100
AcDbAttributeDefinition
  3

  2
T
 70
     8
280
     0
  0
ATTDEF
  5
96
330
8B
100
AcDbEntity
  8
AM_6
100
AcDbText
 10
4.27875
 20
-1.574295618657402
 30
0.0
 40
0.5
  1
baldor
100
AcDbAttributeDefinition
  3

  2
COMPANY
 70
     8
280
     0
  0
ELLIPSE
  5
99
330
8B
100
AcDbEntity
  8
AM_9
100
AcDbEllipse
 10
-0.94
 20
1.587935097662678
 30
0.0
 11
0.2187499999999996
 21
0.0
 31
0.0
210
0.0
220
0.0
230
1.0
 40
0.7071067811865517
 41
1.047197551196597
 42
2.094395102393197
  0
LWPOLYLINE
  5
9A
330
8B
100
AcDbEntity
  8
AM_9
100
AcDbPolyline
 90
        4
 70
     0
 43
0.0
 10
-0.94
 20
1.77295548597518
 10
-0.8855583897258503
 20
1.746025357381318
 10
-0.8581299989092348
 20
1.733554997581338
 10
-0.830625
 20
1.721891567971134
  0
LWPOLYLINE
  5
9B
330
8B
100
AcDbEntity
  8
AM_9
100
AcDbPolyline
 90
        4
 70
     0
 43
0.0
 10
-1.049375
 20
1.721891567971134
 10
-1.007459529757098
 20
1.740005853837619
 10
-0.9655440595141951
 20
1.759992057181071
 10
-0.94
 20
1.77295548597518
  0
ELLIPSE
  5
9C
330
8B
100
AcDbEntity
  8
AM_9
100
AcDbEllipse
 10
-0.94
 20
1.400551800648243
 30
0.0
 11
-0.1619028724722691
 21
1.982738345459265E-17
 31
0.0
210
0.0
220
0.0
230
1.0
 40
0.7071067811865474
 41
0.0
 42
6.283185307179586
  0
LINE
  5
9D
330
8B
100
AcDbEntity
  8
AM_9
100
AcDbLine
 10
-0.94
 20
1.830842641624712
 30
0.0
 11
-0.94
 21
1.77295548597518
 31
0.0
  0
LWPOLYLINE
  5
9E
330
8B
100
AcDbEntity
  8
AM_9
100
AcDbPolyline
 90
        4
 70
     0
 43
0.0
 10
-1.15875
 20
1.68365117243621
 10
-1.10430838972585
 20
1.70117243249139
 10
-1.076879998909235
 20
1.711097260013527
 10
-1.049375
 20
1.721891567971134
  0
LWPOLYLINE
  5
9F
330
8B
100
AcDbEntity
  8
AM_9
100
AcDbPolyline
 90
        4
 70
     0
 43
0.0
 10
-0.830625
 20
1.792602246089789
 10
-0.85796875
 20
1.803335778720944
 10
-0.8853125
 20
1.813235948691471
 10
-0.94
 20
1.830842641624712
  0
LWPOLYLINE
  5
A0
330
8B
100
AcDbEntity
  8
AM_9
100
AcDbPolyline
 90
        4
 70
     0
 43
0.0
 10
-0.9506696008719921
 20
1.827610198099761
 10
-0.9655440595141951
 20
1.822949433162467
 10
-1.007336012717731
 20
1.808756377961123
 10
-1.049375
 20
1.792602246089789
  0
LINE
  5
A1
330
8B
100
AcDbEntity
  8
AM_9
100
AcDbLine
 10
-0.94
 20
1.830842641624712
 30
0.0
 11
-0.9506696008719921
 21
1.827610198099761
 31
0.0
  0
ELLIPSE
  5
A2
330
8B
100
AcDbEntity
  8
AM_9
100
AcDbEllipse
 10
-0.9399999999999987
 20
1.587935097662679
 30
0.0
 11
0.2187499999999988
 21
0.0
 31
0.0
210
0.0
220
0.0
230
1.0
 40
0.707106781186546
 41
5.235987755982983
 42
7.330382858376187
  0
LWPOLYLINE
  5
A3
330
8B
100
AcDbEntity
  8
AM_9
100
AcDbPolyline
 90
        4
 70
     0
 43
0.0
 10
-0.830625
 20
1.721891567971134
 10
-0.80328125
 20
1.711158035339978
 10
-0.7759375
 20
1.701257865369451
 10
-0.72125
 20
1.68365117243621
  0
ELLIPSE
  5
A4
330
8B
100
AcDbEntity
  8
AM_9
100
AcDbEllipse
 10
-0.9400000000000013
 20
1.587935097662679
 30
0.0
 11
0.2187499999999987
 21
0.0
 31
0.0
210
0.0
220
0.0
230
1.0
 40
0.7071067811865464
 41
2.094395102393193
 42
3.141592653589793
  0
LINE
  5
A5
330
8B
100
AcDbEntity
  8
AM_9
100
AcDbLine
 10
-0.8070709691855226
 20
1.782667228993884
 30
0.0
 11
-0.830625
 21
1.792602246089789
 31
0.0
  0
LINE
  5
A6
330
8B
100
AcDbEntity
  8
AM_9
100
AcDbLine
 10
-1.049375
 20
1.792602246089789
 30
0.0
 11
-1.073281251506694
 21
1.782513857772823
 31
0.0
  0
ELLIPSE
  5
A7
330
8B
100
AcDbEntity
  8
AM_9
100
AcDbEllipse
 10
-0.9400000000000013
 20
1.587935097662678
 30
0.0
 11
0.2187499999999987
 21
0.0
 31
0.0
210
0.0
220
0.0
230
1.0
 40
0.7071067811865495
 41
3.141592653589793
 42
4.188790204786394
  0
ELLIPSE
  5
A8
330
8B
100
AcDbEntity
  8
AM_9
100
AcDbEllipse
 10
-0.94
 20
1.587935097662678
 30
0.0
 11
0.2057518972230694
 21
0.0
 31
0.0
210
0.0
220
0.0
230
1.0
 40
0.7071067811865469
 41
3.172849304556552
 42
6.251928656212828
  0
ELLIPSE
  5
A9
330
8B
100
AcDbEntity
  8
AM_9
100
AcDbEllipse
 10
-0.94
 20
1.426513052389698
 30
0.0
 11
0.1986176267812155
 21
0.0
 31
0.0
210
0.0
220
0.0
230
1.0
 40
0.707106781186545
 41
3.665191429188093
 42
6.251928656212824
  0
LINE
  5
AA
330
8B
100
AcDbEntity
  8
AM_9
100
AcDbLine
 10
-0.7414793878686611
 20
1.422123962096671
 30
0.0
 11
-0.7343486021565374
 21
1.583388352897329
 31
0.0
  0
LINE
  5
AB
330
8B
100
AcDbEntity
  8
AM_9
100
AcDbLine
 10
-1.145651397843463
 20
1.583388352897329
 30
0.0
 11
-1.138520612131339
 21
1.422123962096671
 31
0.0
  0
ELLIPSE
  5
AC
330
8B
100
AcDbEntity
  8
AM_9
100
AcDbEllipse
 10
-0.94
 20
1.587935097662678
 30
0.0
 11
0.2057518972230699
 21
0.0
 31
0.0
210
0.0
220
0.0
230
1.0
 40
0.7071067811865476
 41
6.251928656212828
 42
9.456034611736138
  0
ELLIPSE
  5
AD
330
8B
100
AcDbEntity
  8
AM_9
100
AcDbEllipse
 10
-0.94
 20
1.426513052389697
 30
0.0
 11
0.1986176267812154
 21
0.0
 31
0.0
210
0.0
220
0.0
230
1.0
 40
0.7071067811865254
 41
6.251928656212824
 42
9.94837673636769
  0
ELLIPSE
  5
AE
330
8B
100
AcDbEntity
  8
AM_9
100
AcDbEllipse
 10
-0.94
 20
1.587935097662678
 30
0.0
 11
0.2187499999999996
 21
0.0
 31
0.0
210
0.0
220
0.0
230
1.0
 40
0.7071067811865435
 41
4.18879020478639
 42
5.23598775598299
  0
LINE
  5
AF
330
8B
100
AcDbEntity
  8
AM_9
100
AcDbLine
 10
-0.7212499999999998
 20
1.513148500754315
 30
0.0
 11
-0.7212499999999998
 21
1.50504254535827
 31
0.0
  0
LWPOLYLINE
  5
B0
330
8B
100
AcDbEntity
  8
AM_9
100
AcDbPolyline
 90
        4
 70
     0
 43
0.0
 10
-0.830625
 20
1.453978627354224
 10
-0.8579687500000001
 20
1.443245094723068
 10
-0.8853125
 20
1.433344924752541
 10
-0.94
 20
1.4157382318193
  0
LWPOLYLINE
  5
B1
330
8B
100
AcDbEntity
  8
AM_9
100
AcDbPolyline
 90
        4
 70
     0
 43
0.0
 10
-0.7212499999999998
 20
1.50504254535827
 10
-0.7467940595141952
 20
1.49207911656416
 10
-0.7885860127177311
 20
1.472149184864525
 10
-0.830625
 20
1.453978627354224
  0
LINE
  5
B2
330
8B
100
AcDbEntity
  8
AM_9
100
AcDbLine
 10
-1.034868329805051
 20
1.764711792959316
 30
0.0
 11
-1.047354891002899
 21
1.74609792653025
 31
0.0
  0
LINE
  5
B3
330
8B
100
AcDbEntity
  8
AM_9
100
AcDbLine
 10
-0.832645108997101
 20
1.74609792653025
 30
0.0
 11
-0.8451316701949486
 21
1.764711792959315
 31
0.0
  0
ELLIPSE
  5
B4
330
8B
100
AcDbEntity
  8
AM_9
100
AcDbEllipse
 10
-0.9400000000000001
 20
1.732891987805921
 30
0.0
 11
0.1050000000000001
 21
0.0
 31
0.0
210
0.0
220
0.0
230
1.0
 40
0.7071067811865489
 41
0.0
 42
2.698681609516152
  0
ELLIPSE
  5
B5
330
8B
100
AcDbEntity
  8
AM_9
100
AcDbEllipse
 10
-0.9399999999999971
 20
1.732891987805925
 30
0.0
 11
0.1050000000000029
 21
0.0
 31
0.0
210
0.0
220
0.0
230
1.0
 40
0.7071067811865429
 41
2.698681609516212
 42
3.141592653589793
  0
ELLIPSE
  5
B6
330
8B
100
AcDbEntity
  8
AM_9
100
AcDbEllipse
 10
-0.9400000000000001
 20
1.710090001430316
 30
0.0
 11
0.1188200907348976
 21
1.770557325108314E-9
 31
0.0
210
0.0
220
0.0
230
1.0
 40
0.7071067811865439
 41
0.3762206064498264
 42
1.733730584908559
  0
ELLIPSE
  5
B7
330
8B
100
AcDbEntity
  8
AM_9
100
AcDbEllipse
 10
-0.939999999999812
 20
1.710090001430656
 30
0.0
 11
0.118820090735103
 21
0.0
 31
0.0
210
0.0
220
0.0
230
1.0
 40
0.7071067811852338
 41
-3.584503697659812
 42
-3.517813279686996
  0
LINE
  5
B8
330
8B
100
AcDbEntity
  8
AM_9
100
AcDbLine
 10
-0.835
 20
1.734210978688459
 30
0.0
 11
-0.835
 21
1.754105191241517
 31
0.0
  0
LINE
  5
B9
330
8B
100
AcDbEntity
  8
AM_9
100
AcDbLine
 10
-1.045
 20
1.754105191241517
 30
0.0
 11
-1.045
 21
1.734210978688459
 31
0.0
  0
ELLIPSE
  5
BA
330
8B
100
AcDbEntity
  8
AM_9
100
AcDbEllipse
 10
-0.94
 20
1.754105191241518
 30
0.0
 11
0.105
 21
0.0
 31
0.0
210
0.0
220
0.0
230
1.0
 40
0.7071067811865476
 41
5.759586531581283
 42
9.42477796076938
  0
ELLIPSE
  5
BB
330
8B
100
AcDbEntity
  8
AM_9
100
AcDbEllipse
 10
-0.9399999999999977
 20
1.754105191241519
 30
0.0
 11
0.1050000000000022
 21
0.0
 31
0.0
210
0.0
220
0.0
230
1.0
 40
0.7071067811865537
 41
3.141592653589793
 42
3.665191429188098
  0
ELLIPSE
  5
BC
330
8B
100
AcDbEntity
  8
AM_9
100
AcDbEllipse
 10
-0.94
 20
1.658645775781331
 30
0.0
 11
0.2187500000000017
 21
3.259629011154202E-9
 31
0.0
210
0.0
220
0.0
230
1.0
 40
0.7071067811865516
 41
0.915693587267044
 42
2.225899037427382
  0
LINE
  5
BD
330
8B
100
AcDbEntity
  8
AM_9
100
AcDbLine
 10
-0.9592743186691525
 20
1.792995714749994
 30
0.0
 11
-0.9679874918769161
 21
1.791982874559002
 31
0.0
  0
LINE
  5
BE
330
8B
100
AcDbEntity
  8
AM_9
100
AcDbLine
 10
-0.9120125081230838
 20
1.791982874559002
 30
0.0
 11
-0.9207256813308474
 21
1.792995714749994
 31
0.0
  0
ELLIPSE
  5
BF
330
8B
100
AcDbEntity
  8
AM_9
100
AcDbEllipse
 10
-0.94
 20
1.710090001430316
 30
0.0
 11
0.1188200907348974
 21
1.770557325108311E-9
 31
0.0
210
0.0
220
0.0
230
1.0
 40
0.7071067811865434
 41
1.733730584908559
 42
2.698681590378048
  0
ELLIPSE
  5
C0
330
8B
100
AcDbEntity
  8
AM_9
100
AcDbEllipse
 10
-0.94
 20
1.671598698188713
 30
0.0
 11
0.1725340532830038
 21
0.0
 31
0.0
210
0.0
220
0.0
230
1.0
 40
0.7071067811865965
 41
1.407862057867254
 42
1.73373059572254
  0
ELLIPSE
  5
C1
330
8B
100
AcDbEntity
  8
AM_9
100
AcDbEllipse
 10
-0.9400000000000015
 20
1.671598698188716
 30
0.0
 11
0.1725340532830124
 21
2.570957739398068E-9
 31
0.0
210
0.0
220
0.0
230
1.0
 40
0.7071067811865417
 41
1.733730584908553
 42
2.364301294557191
  0
ELLIPSE
  5
C2
330
8B
100
AcDbEntity
  8
AM_9
100
AcDbEllipse
 10
-0.939999999999999
 20
1.671598698188714
 30
0.0
 11
0.1725340532830127
 21
0.0
 31
0.0
210
0.0
220
0.0
230
1.0
 40
0.7071067811865481
 41
0.7772913431421014
 42
1.407862057867268
  0
ELLIPSE
  5
C3
330
8B
100
AcDbEntity
  8
AM_9
100
AcDbEllipse
 10
-0.94
 20
1.658645775781333
 30
0.0
 11
0.21375
 21
3.185123205184937E-9
 31
0.0
210
0.0
220
0.0
230
1.0
 40
0.7071067811865486
 41
0.903655204269751
 42
2.23793742017881
  0
LINE
  5
C4
330
8B
100
AcDbEntity
  8
AM_9
100
AcDbLine
 10
-0.94
 20
1.423844187215345
 30
0.0
 11
-0.94
 21
1.4157382318193
 31
0.0
  0
LINE
  5
C5
330
8B
100
AcDbEntity
  8
AM_9
100
AcDbLine
 10
-1.15875
 20
1.513148500754315
 30
0.0
 11
-1.15875
 21
1.50504254535827
 31
0.0
  0
LWPOLYLINE
  5
C6
330
8B
100
AcDbEntity
  8
AM_9
100
AcDbPolyline
 90
        4
 70
     0
 43
0.0
 10
-1.049375
 20
1.453978627354224
 10
-1.07671875
 20
1.46557117310781
 10
-1.1040625
 20
1.477997081522026
 10
-1.15875
 20
1.50504254535827
  0
LWPOLYLINE
  5
C7
330
8B
100
AcDbEntity
  8
AM_9
100
AcDbPolyline
 90
        4
 70
     0
 43
0.0
 10
-0.94
 20
1.4157382318193
 10
-0.9944416102741496
 20
1.433259491874481
 10
-1.021870001090765
 20
1.443184319396617
 10
-1.049375
 20
1.453978627354224
  0
ELLIPSE
  5
C8
330
8B
100
AcDbEntity
  8
AM_9
100
AcDbEllipse
 10
-0.94
 20
1.79653159811271
 30
0.0
 11
0.1350000000000002
 21
0.0
 31
0.0
210
0.0
220
0.0
230
1.0
 40
0.7071067811865486
 41
0.4159140521025471
 42
2.725678601487246
  0
LWPOLYLINE
  5
CA
330
8B
100
AcDbEntity
  8
AM_4
100
AcDbPolyline
 90
        4
 70
     0
 43
0.0
 10
-0.72125
 20
1.741538328085742
 10
-0.7756916102741496
 20
1.768468456679605
 10
-0.803120001090765
 20
1.780938816479585
 10
-0.8070709691855226
 20
1.782667228993884
  0
LWPOLYLINE
  5
CB
330
8B
100
AcDbEntity
  8
AM_4
100
AcDbPolyline
 90
        4
 70
     0
 43
0.0
 10
-1.073281251506694
 20
1.782513857772823
 10
-1.07671875
 20
1.781009700336202
 10
-1.1040625
 20
1.768583791921986
 10
-1.15875
 20
1.741538328085742
  0
LINE
  5
CC
330
8B
100
AcDbEntity
  8
AM_4
100
AcDbLine
 10
-0.72125
 20
1.741538328085742
 30
0.0
 11
-0.7212499999999998
 21
1.513148500754315
 31
0.0
  0
LWPOLYLINE
  5
CD
330
8B
100
AcDbEntity
  8
AM_4
100
AcDbPolyline
 90
        4
 70
     0
 43
0.0
 10
-0.830625
 20
1.524689305472878
 10
-0.7887095297570975
 20
1.540798857747701
 10
-0.7467940595141951
 20
1.555036492545557
 10
-0.7212499999999998
 20
1.562929701007802
  0
ELLIPSE
  5
CE
330
8B
100
AcDbEntity
  8
AM_4
100
AcDbEllipse
 10
-0.9399999999999983
 20
1.710090001430316
 30
0.0
 11
0.1188200907348992
 21
0.0
 31
0.0
210
0.0
220
0.0
230
1.0
 40
0.7071067811865478
 41
2.765372027488878
 42
6.659405933280512
  0
ELLIPSE
  5
CF
330
8B
100
AcDbEntity
  8
AM_4
100
AcDbEllipse
 10
-0.9399999999999998
 20
1.732891987805921
 30
0.0
 11
0.105
 21
0.0
 31
0.0
210
0.0
220
0.0
230
1.0
 40
0.7071067811865476
 41
3.141592653589793
 42
6.283185307179586
  0
LINE
  5
D0
330
8B
100
AcDbEntity
  8
AM_4
100
AcDbLine
 10
-0.835
 20
1.732891987805921
 30
0.0
 11
-0.835
 21
1.734210978688459
 31
0.0
  0
LINE
  5
D1
330
8B
100
AcDbEntity
  8
AM_4
100
AcDbLine
 10
-1.045
 20
1.734210978688459
 30
0.0
 11
-1.045
 21
1.732891987805921
 31
0.0
  0
LWPOLYLINE
  5
D2
330
8B
100
AcDbEntity
  8
AM_4
100
AcDbPolyline
 90
        4
 70
     0
 43
0.0
 10
-0.94
 20
1.473625387468832
 10
-0.8855583897258503
 20
1.500555516062694
 10
-0.8581299989092348
 20
1.513025875862674
 10
-0.830625
 20
1.524689305472878
  0
ELLIPSE
  5
D3
330
8B
100
AcDbEntity
  8
AM_4
100
AcDbEllipse
 10
-0.940000000000001
 20
1.658645775781334
 30
0.0
 11
0.2187499999999991
 21
0.0
 31
0.0
210
0.0
220
0.0
230
1.0
 40
0.7071067811865468
 41
2.225899051875052
 42
3.141592653589793
  0
ELLIPSE
  5
D4
330
8B
100
AcDbEntity
  8
AM_4
100
AcDbEllipse
 10
-0.9399999999999997
 20
1.658645775781334
 30
0.0
 11
0.2187500000000002
 21
0.0
 31
0.0
210
0.0
220
0.0
230
1.0
 40
0.7071067811865485
 41
3.141592653589793
 42
4.188790204786388
  0
ELLIPSE
  5
D5
330
8B
100
AcDbEntity
  8
AM_4
100
AcDbEllipse
 10
-0.9399999999999998
 20
1.658645775781333
 30
0.0
 11
0.2187500000000002
 21
0.0
 31
0.0
210
0.0
220
0.0
230
1.0
 40
0.7071067811865434
 41
4.18879020478639
 42
6.283185307179586
  0
ELLIPSE
  5
D6
330
8B
100
AcDbEntity
  8
AM_4
100
AcDbEllipse
 10
-0.9400000000000013
 20
1.658645775781332
 30
0.0
 11
0.2187500000000013
 21
0.0
 31
0.0
210
0.0
220
0.0
230
1.0
 40
0.7071067811865489
 41
0.0
 42
0.9156936017147081
  0
ELLIPSE
  5
D7
330
8B
100
AcDbEntity
  8
AM_4
100
AcDbEllipse
 10
-0.9399999999999993
 20
1.671598698188712
 30
0.0
 11
0.172534053283016
 21
0.0
 31
0.0
210
0.0
220
0.0
230
1.0
 40
0.7071067811865478
 41
2.364301310447665
 42
3.665191429188082
  0
ELLIPSE
  5
D8
330
8B
100
AcDbEntity
  8
AM_4
100
AcDbEllipse
 10
-0.94
 20
1.671598698188713
 30
0.0
 11
0.1725340532830154
 21
0.0
 31
0.0
210
0.0
220
0.0
230
1.0
 40
0.70710678118655
 41
3.665191429188091
 42
7.060476650321691
  0
ELLIPSE
  5
D9
330
8B
100
AcDbEntity
  8
AM_4
100
AcDbEllipse
 10
-0.9399999999999997
 20
1.658645775781333
 30
0.0
 11
0.2137500000000002
 21
0.0
 31
0.0
210
0.0
220
0.0
230
1.0
 40
0.7071067811865479
 41
2.237937434749422
 42
7.186840526019949
  0
LINE
  5
DA
330
8B
100
AcDbEntity
  8
AM_4
100
AcDbLine
 10
-0.94
 20
1.473625387468832
 30
0.0
 11
-0.94
 21
1.423844187215345
 31
0.0
  0
LWPOLYLINE
  5
DB
330
8B
100
AcDbEntity
  8
AM_4
100
AcDbPolyline
 90
        4
 70
     0
 43
0.0
 10
-1.049375
 20
1.524689305472878
 10
-1.02203125
 20
1.513096759719292
 10
-0.9946875
 20
1.500670851305076
 10
-0.94
 20
1.473625387468832
  0
LWPOLYLINE
  5
DC
330
8B
100
AcDbEntity
  8
AM_4
100
AcDbPolyline
 90
        4
 70
     0
 43
0.0
 10
-1.15875
 20
1.562929701007802
 10
-1.10430838972585
 20
1.545408440952621
 10
-1.076879998909235
 20
1.535483613430485
 10
-1.049375
 20
1.524689305472878
  0
LINE
  5
DD
330
8B
100
AcDbEntity
  8
AM_4
100
AcDbLine
 10
-1.15875
 20
1.741538328085742
 30
0.0
 11
-1.15875
 21
1.513148500754315
 31
0.0
  0
ELLIPSE
  5
DE
330
8B
100
AcDbEntity
  8
AM_4
100
AcDbEllipse
 10
-0.94
 20
1.754105191241517
 30
0.0
 11
0.1049999999999999
 21
0.0
 31
0.0
210
0.0
220
0.0
230
1.0
 40
0.7071067811865482
 41
3.665191429188086
 42
5.759586531581292
  0
LINE
  5
DF
330
8B
100
AcDbEntity
  8
AM_4
100
AcDbLine
 10
-0.8490673326026339
 20
1.716982085229223
 30
0.0
 11
-0.8230865704891007
 21
1.748801890382618
 31
0.0
  0
LINE
  5
E0
330
8B
100
AcDbEntity
  8
AM_4
100
AcDbLine
 10
-1.056913429510899
 20
1.748801890382618
 30
0.0
 11
-1.030932667397366
 21
1.716982085229224
 31
0.0
  0
LINE
  5
E1
330
8B
100
AcDbEntity
  8
AM_4
100
AcDbLine
 10
-1.033924344000929
 20
1.882434157971409
 30
0.0
 11
-1.063490899223633
 21
1.835099705461519
 31
0.0
  0
LINE
  5
E2
330
8B
100
AcDbEntity
  8
AM_4
100
AcDbLine
 10
-0.8165091007763664
 20
1.835099705461519
 30
0.0
 11
-0.8460756559990712
 21
1.882434157971409
 31
0.0
  0
ELLIPSE
  5
E3
330
8B
100
AcDbEntity
  8
AM_4
100
AcDbEllipse
 10
-0.940000000000002
 20
1.79653159811271
 30
0.0
 11
0.1349999999999981
 21
0.0
 31
0.0
210
0.0
220
0.0
230
1.0
 40
0.707106781186548
 41
2.725678601487241
 42
6.699099359282126
  0
ELLIPSE
  5
E4
330
8B
100
AcDbEntity
  8
AM_4
100
AcDbEllipse
 10
-0.94
 20
1.853100140607634
 30
0.0
 11
0.1026779019331872
 21
0.0
 31
0.0
210
0.0
220
0.0
230
1.0
 40
0.7071067811865466
 41
0.0
 42
6.283185307179586
  0
ENDBLK
  5
8E
330
8B
100
AcDbEntity
  8
0
100
AcDbBlockEnd
  0
BLOCK
  5
E7
330
E5
100
AcDbEntity
  8
0
100
AcDbBlockBegin
  2
3_131443_0_in_062893_2
 70
     2
 10
0.0
 20
0.0
 30
0.0
  3
3_131443_0_in_062893_2
  1

  0
ATTDEF
  5
E9
330
E5
100
AcDbEntity
  8
AM_6
100
AcDbText
 10
4.505000000000001
 20
1.416492197851662
 30
0.0
 40
0.5
  1
Eccentric Collar Intermediate Duty Insert Inch Bore
100
AcDbAttributeDefinition
  3

  2
NN
 70
     8
280
     0
  0
ATTDEF
  5
EA
330
E5
100
AcDbEntity
  8
AM_6
100
AcDbText
 10
4.505000000000001
 20
0.9164921978516622
 30
0.0
 40
0.5
  1
Eccentric Collar Bearing Inserts -(Intermediate Duty)
100
AcDbAttributeDefinition
  3

  2
NT
 70
     8
280
     0
  0
ATTDEF
  5
EB
330
E5
100
AcDbEntity
  8
AM_6
100
AcDbText
 10
4.505000000000001
 20
0.4164921978516622
 30
0.0
 40
0.5
  1
131443
100
AcDbAttributeDefinition
  3

  2
NB
 70
     8
280
     0
  0
ATTDEF
  5
EC
330
E5
100
AcDbEntity
  8
AM_6
100
AcDbText
 10
4.505000000000001
 20
-0.0835078021483378
 30
0.0
 40
0.5
  1
$PN.
100
AcDbAttributeDefinition
  3

  2
NBSYN
 70
     8
280
     0
  0
ATTDEF
  5
ED
330
E5
100
AcDbEntity
  8
AM_6
100
AcDbText
 10
4.505000000000001
 20
-0.5835078021483378
 30
0.0
 40
0.5
  1
131443
100
AcDbAttributeDefinition
  3

  2
LINA
 70
     8
280
     0
  0
ATTDEF
  5
EE
330
E5
100
AcDbEntity
  8
AM_6
100
AcDbText
 10
4.505000000000001
 20
-1.083507802148338
 30
0.0
 40
0.5
  1
207
100
AcDbAttributeDefinition
  3

  2
SERIES
 70
     8
280
     0
  0
ATTDEF
  5
EF
330
E5
100
AcDbEntity
  8
AM_6
100
AcDbText
 10
4.505000000000001
 20
-1.583507802148338
 30
0.0
 40
0.5
  1
1-1/4
100
AcDbAttributeDefinition
  3

  2
SS
 70
     8
280
     0
  0
ATTDEF
  5
F0
330
E5
100
AcDbEntity
  8
AM_6
100
AcDbText
 10
4.505000000000001
 20
-2.083507802148338
 30
0.0
 40
0.5
  1
131443
100
AcDbAttributeDefinition
  3

  2
PN
 70
     8
280
     0
  0
ATTDEF
  5
F1
330
E5
100
AcDbEntity
  8
AM_6
100
AcDbText
 10
4.505000000000001
 20
-2.583507802148338
 30
0.0
 40
0.5
  1
INS-SXV-104
100
AcDbAttributeDefinition
  3

  2
DESCRIPTION
 70
     8
280
     0
  0
ATTDEF
  5
F2
330
E5
100
AcDbEntity
  8
AM_6
100
AcDbText
 10
4.505000000000001
 20
-3.083507802148338
 30
0.0
 40
0.5
  1
1.2
100
AcDbAttributeDefinition
  3

  2
WEIGHT
 70
     8
280
     0
  0
ATTDEF
  5
F3
330
E5
100
AcDbEntity
  8
AM_6
100
AcDbText
 10
4.505000000000001
 20
-3.583507802148338
 30
0.0
 40
0.5
  1
1.53
100
AcDbAttributeDefinition
  3

  2
A
 70
     8
280
     0
  0
ATTDEF
  5
F4
330
E5
100
AcDbEntity
  8
AM_6
100
AcDbText
 10
4.505000000000001
 20
-4.083507802148338
 30
0.0
 40
0.5
  1
0.75
100
AcDbAttributeDefinition
  3

  2
C
 70
     8
280
     0
  0
ATTDEF
  5
F5
330
E5
100
AcDbEntity
  8
AM_6
100
AcDbText
 10
4.505000000000001
 20
-4.583507802148338
 30
0.0
 40
0.5
  1
2.8346
100
AcDbAttributeDefinition
  3

  2
D
 70
     8
280
     0
  0
ATTDEF
  5
F6
330
E5
100
AcDbEntity
  8
AM_6
100
AcDbText
 10
4.505000000000001
 20
-5.083507802148338
 30
0.0
 40
0.5
  1
0.20
100
AcDbAttributeDefinition
  3

  2
J
 70
     8
280
     0
  0
ATTDEF
  5
F7
330
E5
100
AcDbEntity
  8
AM_6
100
AcDbText
 10
4.505000000000001
 20
-5.583507802148338
 30
0.0
 40
0.5
  1
2.13
100
AcDbAttributeDefinition
  3

  2
L
 70
     8
280
     0
  0
ATTDEF
  5
F8
330
E5
100
AcDbEntity
  8
AM_6
100
AcDbText
 10
4.505000000000001
 20
-6.083507802148338
 30
0.0
 40
0.5
  1
5/16 - 24
100
AcDbAttributeDefinition
  3

  2
N
 70
     8
280
     0
  0
ATTDEF
  5
F9
330
E5
100
AcDbEntity
  8
AM_6
100
AcDbText
 10
4.505000000000001
 20
-6.583507802148338
 30
0.0
 40
0.5
  1
0.37
100
AcDbAttributeDefinition
  3

  2
W
 70
     8
280
     0
  0
ATTDEF
  5
FA
330
E5
100
AcDbEntity
  8
AM_6
100
AcDbText
 10
4.505000000000001
 20
-7.083507802148338
 30
0.0
 40
0.5
  1
1.16
100
AcDbAttributeDefinition
  3

  2
Y
 70
     8
280
     0
  0
ATTDEF
  5
FB
330
E5
100
AcDbEntity
  8
AM_6
100
AcDbText
 10
4.505000000000001
 20
-7.583507802148338
 30
0.0
 40
0.5
  1
1.84
100
AcDbAttributeDefinition
  3

  2
Z
 70
     8
280
     0
  0
ATTDEF
  5
FC
330
E5
100
AcDbEntity
  8
AM_6
100
AcDbText
 10
4.505000000000001
 20
-8.083507802148338
 30
0.0
 40
0.5
  1
baldor
100
AcDbAttributeDefinition
  3

  2
COMPANY
 70
     8
280
     0
  0
LINE
  5
FD
330
E5
100
AcDbEntity
  8
AM_9
100
AcDbLine
 10
-1.656275
 20
1.05932564637252
 30
0.0
 11
-1.65060064637252
 21
1.065
 31
0.0
  0
LINE
  5
FE
330
E5
100
AcDbEntity
  8
AM_9
100
AcDbLine
 10
-1.940649353627479
 20
1.065
 30
0.0
 11
-1.934975
 21
1.05932564637252
 31
0.0
  0
LINE
  5
FF
330
E5
100
AcDbEntity
  8
AM_9
100
AcDbLine
 10
-1.709809805759363
 20
1.05932564637252
 30
0.0
 11
-1.656275
 21
1.05932564637252
 31
0.0
  0
LINE
  5
100
330
E5
100
AcDbEntity
  8
AM_9
100
AcDbLine
 10
-1.656275
 20
0.625
 30
0.0
 11
-1.656275
 21
1.05932564637252
 31
0.0
  0
LINE
  5
101
330
E5
100
AcDbEntity
  8
AM_9
100
AcDbLine
 10
-1.934975
 20
1.05932564637252
 30
0.0
 11
-1.934975
 21
0.6249999999999999
 31
0.0
  0
LINE
  5
102
330
E5
100
AcDbEntity
  8
AM_9
100
AcDbLine
 10
-1.934975
 20
1.05932564637252
 30
0.0
 11
-1.881440194240636
 21
1.05932564637252
 31
0.0
  0
LINE
  5
103
330
E5
100
AcDbEntity
  8
AM_9
100
AcDbLine
 10
-1.54875
 20
-0.625
 30
0.0
 11
-0.4999999999999997
 21
-0.625
 31
0.0
  0
LINE
  5
104
330
E5
100
AcDbEntity
  8
AM_9
100
AcDbLine
 10
-0.4999999999999997
 20
0.625
 30
0.0
 11
-1.54875
 21
0.625
 31
0.0
  0
LWPOLYLINE
  5
105
330
E5
100
AcDbEntity
  8
AM_9
100
AcDbPolyline
 90
       20
 70
     0
 43
0.0
 10
-1.934975
 20
0.625
 10
-1.933106371030063
 20
0.6245860268051998
 10
-1.92734152144368
 20
0.6233424576596909
 10
-1.918187017311474
 20
0.621472465671214
 10
-1.905398759472274
 20
0.6190774230810527
 10
-1.889771122330176
 20
0.6164982318302369
 10
-1.871019158767651
 20
0.6139143724301312
 10
-1.850431620593382
 20
0.6117273438067543
 10
-1.82758087605355
 20
0.6101047086479089
 10
-1.804821058360956
 20
0.6093366433995071
 10
-1.781105097520745
 20
0.6094402391276827
 10
-1.75890561859117
 20
0.6103727471562334
 10
-1.737120864876299
 20
0.6120696948277804
 10
-1.717365169884467
 20
0.6142728860284425
 10
-1.69925112564547
 20
0.6168423632972226
 10
-1.683909972079376
 20
0.6194245918296318
 10
-1.671338162577236
 20
0.6218149205805154
 10
-1.662583820775353
 20
0.6236237109583669
 10
-1.657441128501083
 20
0.6247410342233245
 10
-1.656275000001941
 20
0.6249999999995673
  0
LINE
  5
106
330
E5
100
AcDbEntity
  8
AM_9
100
AcDbLine
 10
-2.012322330470336
 20
-0.625
 30
0.0
 11
-1.57375
 21
-0.625
 31
0.0
  0
LINE
  5
107
330
E5
100
AcDbEntity
  8
AM_9
100
AcDbLine
 10
-1.57375
 20
0.625
 30
0.0
 11
-1.656275
 21
0.625
 31
0.0
  0
LINE
  5
108
330
E5
100
AcDbEntity
  8
AM_9
100
AcDbLine
 10
-1.934975
 20
0.625
 30
0.0
 11
-2.012322330470336
 21
0.625
 31
0.0
  0
LINE
  5
109
330
E5
100
AcDbEntity
  8
AM_9
100
AcDbLine
 10
-1.54875
 20
0.625
 30
0.0
 11
-1.56125
 21
0.6375000000000003
 31
0.0
  0
LINE
  5
10A
330
E5
100
AcDbEntity
  8
AM_9
100
AcDbLine
 10
-1.56125
 20
-0.6375000000000003
 30
0.0
 11
-1.54875
 21
-0.625
 31
0.0
  0
LINE
  5
10B
330
E5
100
AcDbEntity
  8
AM_9
100
AcDbLine
 10
-1.54875
 20
0.625
 30
0.0
 11
-1.54875
 21
-0.625
 31
0.0
  0
LINE
  5
10C
330
E5
100
AcDbEntity
  8
AM_9
100
AcDbLine
 10
-1.57375
 20
-0.625
 30
0.0
 11
-1.56125
 21
-0.6375000000000003
 31
0.0
  0
LINE
  5
10D
330
E5
100
AcDbEntity
  8
AM_9
100
AcDbLine
 10
-1.56125
 20
0.6375000000000003
 30
0.0
 11
-1.57375
 21
0.625
 31
0.0
  0
LINE
  5
10E
330
E5
100
AcDbEntity
  8
AM_9
100
AcDbLine
 10
-1.56125
 20
0.6375000000000003
 30
0.0
 11
-1.56125
 21
-0.6375000000000003
 31
0.0
  0
LINE
  5
10F
330
E5
100
AcDbEntity
  8
AM_9
100
AcDbLine
 10
-1.57375
 20
0.625
 30
0.0
 11
-1.57375
 21
-0.625
 31
0.0
  0
LINE
  5
110
330
E5
100
AcDbEntity
  8
AM_9
100
AcDbLine
 10
-2.012322330470336
 20
0.625
 30
0.0
 11
-2.03
 21
0.6426776695296637
 31
0.0
  0
LINE
  5
111
330
E5
100
AcDbEntity
  8
AM_9
100
AcDbLine
 10
-2.03
 20
-0.6426776695296637
 30
0.0
 11
-2.012322330470336
 21
-0.625
 31
0.0
  0
LINE
  5
112
330
E5
100
AcDbEntity
  8
AM_9
100
AcDbLine
 10
-2.012322330470336
 20
0.625
 30
0.0
 11
-2.012322330470336
 21
-0.625
 31
0.0
  0
LINE
  5
113
330
E5
100
AcDbEntity
  8
AM_9
100
AcDbLine
 10
-1.38
 20
-0.92
 30
0.0
 11
-1.244999999999999
 21
-0.92
 31
0.0
  0
LINE
  5
114
330
E5
100
AcDbEntity
  8
AM_9
100
AcDbLine
 10
-1.244999999999999
 20
0.92
 30
0.0
 11
-1.38
 21
0.92
 31
0.0
  0
LINE
  5
115
330
E5
100
AcDbEntity
  8
AM_9
100
AcDbLine
 10
-0.4999999999999996
 20
-0.92
 30
0.0
 11
-0.4949999999999997
 21
-0.92
 31
0.0
  0
LINE
  5
116
330
E5
100
AcDbEntity
  8
AM_9
100
AcDbLine
 10
-0.4949999999999997
 20
0.92
 30
0.0
 11
-0.4999999999999996
 21
0.92
 31
0.0
  0
LINE
  5
117
330
E5
100
AcDbEntity
  8
AM_9
100
AcDbLine
 10
-1.11
 20
-1.349809523809525
 30
0.0
 11
-1.03
 21
-1.349809523809525
 31
0.0
  0
LINE
  5
118
330
E5
100
AcDbEntity
  8
AM_9
100
AcDbLine
 10
-1.03
 20
1.349809523809525
 30
0.0
 11
-1.11
 21
1.349809523809525
 31
0.0
  0
LINE
  5
119
330
E5
100
AcDbEntity
  8
AM_9
100
AcDbLine
 10
-0.4949999999999997
 20
1.347590178800662
 30
0.0
 11
-0.4949999999999997
 21
-1.347590178800662
 31
0.0
  0
ARC
  5
11A
330
E5
100
AcDbEntity
  8
AM_9
100
AcDbCircle
 10
-0.5200000000000007
 20
-1.347590178800661
 30
0.0
 40
0.025000000000001
100
AcDbArc
 50
284.5593493802733
 51
0.0
  0
ARC
  5
11B
330
E5
100
AcDbEntity
  8
AM_9
100
AcDbCircle
 10
-0.5200000000000007
 20
1.347590178800661
 30
0.0
 40
0.025000000000001
100
AcDbArc
 50
0.0
 51
75.44065061972687
  0
LINE
  5
11C
330
E5
100
AcDbEntity
  8
AM_9
100
AcDbLine
 10
-1.244999999999999
 20
1.347590178800662
 30
0.0
 11
-1.244999999999999
 21
-1.347590178800662
 31
0.0
  0
ARC
  5
11D
330
E5
100
AcDbEntity
  8
AM_9
100
AcDbCircle
 10
-1.219999999999999
 20
-1.347590178800661
 30
0.0
 40
0.0250000000000004
100
AcDbArc
 50
180.0
 51
255.4406573270837
  0
ARC
  5
11E
330
E5
100
AcDbEntity
  8
AM_9
100
AcDbCircle
 10
-1.219999999999999
 20
1.347590178800661
 30
0.0
 40
0.0250000000000004
100
AcDbArc
 50
104.5593426729163
 51
180.0
  0
ARC
  5
11F
330
E5
100
AcDbEntity
  8
AM_9
100
AcDbCircle
 10
-0.8699999999998842
 20
-0.0000000000005125
 30
0.0
 40
1.417300000000525
100
AcDbArc
 50
99.74921852491512
 51
104.5593426729154
  0
ARC
  5
120
330
E5
100
AcDbEntity
  8
AM_9
100
AcDbCircle
 10
-0.8700000000029051
 20
-0.0000000000135383
 30
0.0
 40
1.417299999986178
100
AcDbArc
 50
255.4406573270602
 51
260.2507814751091
  0
LINE
  5
121
330
E5
100
AcDbEntity
  8
AM_9
100
AcDbLine
 10
-1.226284565108094
 20
1.37178737370838
 30
0.0
 11
-1.226284565108094
 21
-1.371787373708393
 31
0.0
  0
LINE
  5
122
330
E5
100
AcDbEntity
  8
AM_9
100
AcDbLine
 10
-1.11
 20
1.396831876068126
 30
0.0
 11
-1.11
 21
-1.396831876068139
 31
0.0
  0
ARC
  5
123
330
E5
100
AcDbEntity
  8
AM_9
100
AcDbCircle
 10
-0.8700000000000003
 20
-0.0000000000000042
 30
0.0
 40
1.417300000000004
100
AcDbArc
 50
75.44065720877174
 51
96.48197920051797
  0
ARC
  5
124
330
E5
100
AcDbEntity
  8
AM_9
100
AcDbCircle
 10
-0.8700000000000272
 20
0.0000000000003744
 30
0.0
 40
1.417300000000378
100
AcDbArc
 50
263.5180207994848
 51
284.5593427912254
  0
LINE
  5
125
330
E5
100
AcDbEntity
  8
AM_9
100
AcDbLine
 10
-1.029999999999999
 20
1.40823978426971
 30
0.0
 11
-1.029999999999999
 21
-1.40823978426972
 31
0.0
  0
LINE
  5
126
330
E5
100
AcDbEntity
  8
AM_9
100
AcDbLine
 10
-0.5137154320592501
 20
1.371787372972675
 30
0.0
 11
-0.5137154320592501
 21
-1.371787372972685
 31
0.0
  0
ELLIPSE
  5
127
330
E5
100
AcDbEntity
  8
AM_9
100
AcDbEllipse
 10
-0.6701026107962366
 20
0.0
 30
0.0
 11
-1.435070928659540E-17
 21
-0.07812162274917103
 31
0.0
210
0.0
220
0.0
230
1.0
 40
0.9899731401416373
 41
3.206806667264381
 42
6.217971293505101
  0
ARC
  5
128
330
E5
100
AcDbEntity
  8
AM_9
100
AcDbCircle
 10
-0.6699999999999989
 20
0.0
 30
0.0
 40
0.0781249999999994
100
AcDbArc
 50
266.2257763851921
 51
93.77422361481347
  0
LINE
  5
12A
330
E5
100
AcDbEntity
  8
AM_5
100
AcDbLine
 10
-1.639375
 20
0.625
 30
0.0
 11
-1.639375
 21
1.065
 31
0.0
  0
LINE
  5
12B
330
E5
100
AcDbEntity
  8
AM_5
100
AcDbLine
 10
-1.951875
 20
0.625
 30
0.0
 11
-1.951875
 21
1.065
 31
0.0
  0
LINE
  5
12E
330
E5
100
AcDbEntity
  8
AM_7
100
AcDbLine
 10
-1.795625
 20
1.100916746298901
 30
0.0
 11
-1.795625
 21
0.5577125479185285
 31
0.0
  0
LINE
  5
12F
330
E5
100
AcDbEntity
  8
AM_7
100
AcDbLine
 10
-0.6699999999999983
 20
-0.0820312499999994
 30
0.0
 11
-0.6699999999999983
 21
0.0820312499999981
 31
0.0
  0
LINE
  5
130
330
E5
100
AcDbEntity
  8
AM_4
100
AcDbLine
 10
-1.4675
 20
-0.8761904761904762
 30
0.0
 11
-1.43625
 21
-0.8761904761904762
 31
0.0
  0
LINE
  5
131
330
E5
100
AcDbEntity
  8
AM_4
100
AcDbLine
 10
-1.43625
 20
0.8761904761904762
 30
0.0
 11
-1.4675
 21
0.8761904761904762
 31
0.0
  0
LINE
  5
132
330
E5
100
AcDbEntity
  8
AM_4
100
AcDbLine
 10
-1.43625
 20
-0.92
 30
0.0
 11
-1.38
 21
-0.92
 31
0.0
  0
LINE
  5
133
330
E5
100
AcDbEntity
  8
AM_4
100
AcDbLine
 10
-1.38
 20
0.92
 30
0.0
 11
-1.43625
 21
0.92
 31
0.0
  0
LINE
  5
134
330
E5
100
AcDbEntity
  8
AM_4
100
AcDbLine
 10
-1.43625
 20
0.92
 30
0.0
 11
-1.43625
 21
-0.92
 31
0.0
  0
LINE
  5
135
330
E5
100
AcDbEntity
  8
AM_4
100
AcDbLine
 10
-1.4675
 20
1.015
 30
0.0
 11
-1.4675
 21
-1.015
 31
0.0
  0
ARC
  5
136
330
E5
100
AcDbEntity
  8
AM_4
100
AcDbCircle
 10
-1.5175
 20
-1.015
 30
0.0
 40
0.05
100
AcDbArc
 50
270.0
 51
0.0
  0
ARC
  5
137
330
E5
100
AcDbEntity
  8
AM_4
100
AcDbCircle
 10
-1.5175
 20
1.015
 30
0.0
 40
0.05
100
AcDbArc
 50
0.0
 51
90.0
  0
LWPOLYLINE
  5
138
330
E5
100
AcDbEntity
  8
AM_4
100
AcDbPolyline
 90
        9
 70
     0
 43
0.0
 10
-1.709809805759363
 20
1.05932564637252
 10
-1.729393691379489
 20
1.057921610146198
 10
-1.750844940288401
 20
1.056793182816664
 10
-1.773592209810368
 20
1.056077455030058
 10
-1.796967313407408
 20
1.055844865169729
 10
-1.820177576695478
 20
1.056132914322295
 10
-1.842695979320012
 20
1.056892735614237
 10
-1.862921729566515
 20
1.057988363157618
 10
-1.881440194240636
 20
1.05932564637252
  0
LWPOLYLINE
  5
139
330
E5
100
AcDbEntity
  8
AM_4
100
AcDbPolyline
 90
        8
 70
     0
 43
0.0
 10
-1.881440194240631
 20
1.059325646372513
 10
-1.893660907552733
 20
1.060262112245195
 10
-1.904911440504006
 20
1.061232752943995
 10
-1.919562469865488
 20
1.062651867856834
 10
-1.930982597651649
 20
1.063878990650547
 10
-1.937680485187675
 20
1.064647713501732
 10
-1.940575154573991
 20
1.064991109273103
 10
-1.940649353627315
 20
1.06499999999998
  0
LINE
  5
13A
330
E5
100
AcDbEntity
  8
AM_4
100
AcDbLine
 10
-1.98
 20
-1.065
 30
0.0
 11
-1.517499999999999
 21
-1.065
 31
0.0
  0
LINE
  5
13B
330
E5
100
AcDbEntity
  8
AM_4
100
AcDbLine
 10
-1.517499999999999
 20
1.065
 30
0.0
 11
-1.65060064637252
 21
1.065
 31
0.0
  0
LINE
  5
13C
330
E5
100
AcDbEntity
  8
AM_4
100
AcDbLine
 10
-1.940649353627479
 20
1.065
 30
0.0
 11
-1.98
 21
1.065
 31
0.0
  0
LWPOLYLINE
  5
13D
330
E5
100
AcDbEntity
  8
AM_4
100
AcDbPolyline
 90
        8
 70
     0
 43
0.0
 10
-1.650600646372685
 20
1.06499999999998
 10
-1.651729092955767
 20
1.064865264121535
 10
-1.656482582855827
 20
1.064308937036114
 10
-1.664416915897133
 20
1.063420904138356
 10
-1.67569200514446
 20
1.062246624822131
 10
-1.689975190248681
 20
1.060907654503725
 10
-1.707156601488835
 20
1.059518499038573
 10
-1.709809805759363
 20
1.05932564637252
  0
LINE
  5
13E
330
E5
100
AcDbEntity
  8
AM_4
100
AcDbLine
 10
-1.517499999999999
 20
1.065
 30
0.0
 11
-1.517499999999999
 21
-1.065
 31
0.0
  0
LINE
  5
13F
330
E5
100
AcDbEntity
  8
AM_4
100
AcDbLine
 10
-2.03
 20
1.015
 30
0.0
 11
-2.03
 21
-1.015
 31
0.0
  0
ARC
  5
140
330
E5
100
AcDbEntity
  8
AM_4
100
AcDbCircle
 10
-1.980000000000001
 20
-1.015000000000001
 30
0.0
 40
0.0499999999999992
100
AcDbArc
 50
180.0
 51
270.0
  0
ARC
  5
141
330
E5
100
AcDbEntity
  8
AM_4
100
AcDbCircle
 10
-1.98
 20
1.015
 30
0.0
 40
0.0499999999999996
100
AcDbArc
 50
90.0
 51
180.0
  0
LINE
  5
142
330
E5
100
AcDbEntity
  8
AM_4
100
AcDbLine
 10
-1.98
 20
1.065
 30
0.0
 11
-1.98
 21
-1.065
 31
0.0
  0
ENDBLK
  5
E8
330
E5
100
AcDbEntity
  8
0
100
AcDbBlockEnd
  0
BLOCK
  5
145
330
143
100
AcDbEntity
  8
0
100
AcDbBlockBegin
  2
4_062893HI_0_in_062893_2
 70
     2
 10
0.0
 20
0.0
 30
0.0
  3
4_062893HI_0_in_062893_2
  1

  0
ATTDEF
  5
147
330
143
100
AcDbEntity
  8
AM_6
100
AcDbText
 10
5.176
 20
3.065
 30
0.0
 40
0.5
  1
F2BZ-SXV -I-Housing
100
AcDbAttributeDefinition
  3

  2
NN
 70
     8
280
     0
  0
ATTDEF
  5
148
330
143
100
AcDbEntity
  8
AM_6
100
AcDbText
 10
5.176
 20
2.565
 30
0.0
 40
0.5
  1
Eccentric Collar 2-Bolt Piloted Flange Bearings -(Normal Duty)
100
AcDbAttributeDefinition
  3

  2
NT
 70
     8
280
     0
  0
ATTDEF
  5
149
330
143
100
AcDbEntity
  8
AM_6
100
AcDbText
 10
5.176
 20
2.065
 30
0.0
 40
0.5
  1
062893HI
100
AcDbAttributeDefinition
  3

  2
NB
 70
     8
280
     0
  0
ATTDEF
  5
14A
330
143
100
AcDbEntity
  8
AM_6
100
AcDbText
 10
5.176
 20
1.565
 30
0.0
 40
0.5
  1
$PN.HI
100
AcDbAttributeDefinition
  3

  2
NBSYN
 70
     8
280
     0
  0
ATTDEF
  5
14B
330
143
100
AcDbEntity
  8
AM_6
100
AcDbText
 10
5.176
 20
1.065
 30
0.0
 40
0.5
  1
062893
100
AcDbAttributeDefinition
  3

  2
LINA
 70
     8
280
     0
  0
ATTDEF
  5
14C
330
143
100
AcDbEntity
  8
AM_6
100
AcDbText
 10
5.176
 20
0.5649999999999995
 30
0.0
 40
0.5
  1
207
100
AcDbAttributeDefinition
  3

  2
SERIES
 70
     8
280
     0
  0
ATTDEF
  5
14D
330
143
100
AcDbEntity
  8
AM_6
100
AcDbText
 10
5.176
 20
0.0649999999999995
 30
0.0
 40
0.5
  1
1-1/4
100
AcDbAttributeDefinition
  3

  2
SS
 70
     8
280
     0
  0
ATTDEF
  5
14E
330
143
100
AcDbEntity
  8
AM_6
100
AcDbText
 10
5.176
 20
-0.4350000000000005
 30
0.0
 40
0.5
  1
062893
100
AcDbAttributeDefinition
  3

  2
PN
 70
     8
280
     0
  0
ATTDEF
  5
14F
330
143
100
AcDbEntity
  8
AM_6
100
AcDbText
 10
5.176
 20
-0.9350000000000005
 30
0.0
 40
0.5
  1
F2BZ-SXV-104
100
AcDbAttributeDefinition
  3

  2
DESCRIPTION
 70
     8
280
     0
  0
ATTDEF
  5
150
330
143
100
AcDbEntity
  8
AM_6
100
AcDbText
 10
5.176
 20
-1.435
 30
0.0
 40
0.5
  1
2.9
100
AcDbAttributeDefinition
  3

  2
W
 70
     8
280
     0
  0
ATTDEF
  5
151
330
143
100
AcDbEntity
  8
AM_6
100
AcDbText
 10
5.176
 20
-1.935
 30
0.0
 40
0.5
  1
1.53
100
AcDbAttributeDefinition
  3

  2
A
 70
     8
280
     0
  0
ATTDEF
  5
152
330
143
100
AcDbEntity
  8
AM_6
100
AcDbText
 10
5.176
 20
-2.435
 30
0.0
 40
0.5
  1
6.13
100
AcDbAttributeDefinition
  3

  2
B
 70
     8
280
     0
  0
ATTDEF
  5
153
330
143
100
AcDbEntity
  8
AM_6
100
AcDbText
 10
5.176
 20
-2.935
 30
0.0
 40
0.5
  1
2.03
100
AcDbAttributeDefinition
  3

  2
C
 70
     8
280
     0
  0
ATTDEF
  5
154
330
143
100
AcDbEntity
  8
AM_6
100
AcDbText
 10
5.176
 20
-3.435
 30
0.0
 40
0.5
  1
5.12
100
AcDbAttributeDefinition
  3

  2
D
 70
     8
280
     0
  0
ATTDEF
  5
155
330
143
100
AcDbEntity
  8
AM_6
100
AcDbText
 10
5.176
 20
-3.935
 30
0.0
 40
0.5
  1
0.16
100
AcDbAttributeDefinition
  3

  2
E
 70
     8
280
     0
  0
ATTDEF
  5
156
330
143
100
AcDbEntity
  8
AM_6
100
AcDbText
 10
5.176
 20
-4.435
 30
0.0
 40
0.5
  1
1/2
100
AcDbAttributeDefinition
  3

  2
F
 70
     8
280
     0
  0
ATTDEF
  5
157
330
143
100
AcDbEntity
  8
AM_6
100
AcDbText
 10
5.176
 20
-4.935
 30
0.0
 40
0.5
  1
1.87
100
AcDbAttributeDefinition
  3

  2
G
 70
     8
280
     0
  0
ATTDEF
  5
158
330
143
100
AcDbEntity
  8
AM_6
100
AcDbText
 10
5.176
 20
-5.435
 30
0.0
 40
0.5
  1
0.56
100
AcDbAttributeDefinition
  3

  2
H
 70
     8
280
     0
  0
ATTDEF
  5
159
330
143
100
AcDbEntity
  8
AM_6
100
AcDbText
 10
5.176
 20
-5.935
 30
0.0
 40
0.5
  1
0.65
100
AcDbAttributeDefinition
  3

  2
J
 70
     8
280
     0
  0
ATTDEF
  5
15A
330
143
100
AcDbEntity
  8
AM_6
100
AcDbText
 10
5.176
 20
-6.435
 30
0.0
 40
0.5
  1
3.543/3.541
100
AcDbAttributeDefinition
  3

  2
K
 70
     8
280
     0
  0
ATTDEF
  5
15B
330
143
100
AcDbEntity
  8
AM_6
100
AcDbText
 10
5.176
 20
-6.935
 30
0.0
 40
0.5
  1
2.13
100
AcDbAttributeDefinition
  3

  2
L
 70
     8
280
     0
  0
ATTDEF
  5
15C
330
143
100
AcDbEntity
  8
AM_6
100
AcDbText
 10
5.176
 20
-7.435
 30
0.0
 40
0.5
  1
3.75
100
AcDbAttributeDefinition
  3

  2
M
 70
     8
280
     0
  0
ATTDEF
  5
15D
330
143
100
AcDbEntity
  8
AM_6
100
AcDbText
 10
5.176
 20
-7.935
 30
0.0
 40
0.5
  1
1.84
100
AcDbAttributeDefinition
  3

  2
N
 70
     8
280
     0
  0
ATTDEF
  5
15E
330
143
100
AcDbEntity
  8
AM_6
100
AcDbText
 10
5.176
 20
-8.435
 30
0.0
 40
0.5
  1
0.16
100
AcDbAttributeDefinition
  3

  2
P
 70
     8
280
     0
  0
ATTDEF
  5
15F
330
143
100
AcDbEntity
  8
AM_6
100
AcDbText
 10
5.176
 20
-8.935
 30
0.0
 40
0.5
  1
3065
100
AcDbAttributeDefinition
  3

  2
CAPS
 70
     8
280
     0
  0
ATTDEF
  5
160
330
143
100
AcDbEntity
  8
AM_6
100
AcDbText
 10
5.176
 20
-9.435
 30
0.0
 40
0.5
  1
5759
100
AcDbAttributeDefinition
  3

  2
CAPD
 70
     8
280
     0
  0
ATTDEF
  5
161
330
143
100
AcDbEntity
  8
AM_6
100
AcDbText
 10
5.176
 20
-9.935
 30
0.0
 40
0.5
  1
baldor
100
AcDbAttributeDefinition
  3

  2
COMPANY
 70
     8
280
     0
  0
LINE
  5
162
330
143
100
AcDbEntity
  8
AM_9
100
AcDbLine
 10
-0.8969999999999999
 20
1.474272429459168
 30
0.0
 11
-0.4840847495312231
 21
1.474272429459193
 31
0.0
  0
LINE
  5
163
330
143
100
AcDbEntity
  8
AM_9
100
AcDbLine
 10
-0.8969999999999999
 20
1.212865193905622
 30
0.0
 11
-0.4840847495312418
 21
1.212865193905625
 31
0.0
  0
LINE
  5
164
330
143
100
AcDbEntity
  8
AM_9
100
AcDbLine
 10
-0.4840847495312418
 20
1.4798
 30
0.0
 11
-0.8969999999999999
 21
1.4798
 31
0.0
  0
LINE
  5
165
330
143
100
AcDbEntity
  8
AM_9
100
AcDbLine
 10
-0.7200000000000001
 20
2.31
 30
0.0
 11
-0.16
 21
2.31
 31
0.0
  0
LINE
  5
166
330
143
100
AcDbEntity
  8
AM_9
100
AcDbLine
 10
-0.16
 20
2.81
 30
0.0
 11
-0.7200000000000001
 21
2.81
 31
0.0
  0
LINE
  5
167
330
143
100
AcDbEntity
  8
AM_9
100
AcDbLine
 10
-0.7200000000000001
 20
-2.81
 30
0.0
 11
-0.16
 21
-2.81
 31
0.0
  0
LINE
  5
168
330
143
100
AcDbEntity
  8
AM_9
100
AcDbLine
 10
-0.16
 20
-2.31
 30
0.0
 11
-0.7200000000000001
 21
-2.31
 31
0.0
  0
LINE
  5
169
330
143
100
AcDbEntity
  8
AM_9
100
AcDbLine
 10
-0.8969999999999999
 20
-1.212865193905622
 30
0.0
 11
-0.4840847495312492
 21
-1.212865193905617
 31
0.0
  0
LINE
  5
16A
330
143
100
AcDbEntity
  8
AM_9
100
AcDbLine
 10
-0.8969999999999999
 20
-1.474272429459168
 30
0.0
 11
-0.4840847495312444
 21
-1.474272429459168
 31
0.0
  0
LINE
  5
16B
330
143
100
AcDbEntity
  8
AM_9
100
AcDbLine
 10
-0.8969999999999999
 20
-1.4798
 30
0.0
 11
-0.4840847495312444
 21
-1.4798
 31
0.0
  0
LINE
  5
16C
330
143
100
AcDbEntity
  8
AM_9
100
AcDbLine
 10
-0.8969999999999999
 20
-1.4798
 30
0.0
 11
-0.8969999999999999
 21
-1.148451458068175
 31
0.0
  0
LINE
  5
16D
330
143
100
AcDbEntity
  8
AM_9
100
AcDbLine
 10
-0.7200000000000001
 20
1.661687345570605
 30
0.0
 11
-0.72
 21
1.923407597527796
 31
0.0
  0
LINE
  5
16E
330
143
100
AcDbEntity
  8
AM_9
100
AcDbLine
 10
-0.1599999999999999
 20
1.791661642890162
 30
0.0
 11
-0.664
 21
1.791661642890162
 31
0.0
  0
LINE
  5
16F
330
143
100
AcDbEntity
  8
AM_9
100
AcDbLine
 10
-0.6640000000000003
 20
1.00341796875
 30
0.0
 11
-0.664
 21
1.923407597527796
 31
0.0
  0
LINE
  5
170
330
143
100
AcDbEntity
  8
AM_9
100
AcDbLine
 10
-0.9143782407270608
 20
1.923407597527796
 30
0.0
 11
-0.9656217592729393
 21
1.923407597527796
 31
0.0
  0
LINE
  5
171
330
143
100
AcDbEntity
  8
AM_9
100
AcDbLine
 10
-0.8969999999999999
 20
1.148451458068175
 30
0.0
 11
-0.8969999999999999
 21
1.4798
 31
0.0
  0
LINE
  5
172
330
143
100
AcDbEntity
  8
AM_9
100
AcDbLine
 10
-0.4999999999999998
 20
1.409858693621721
 30
0.0
 11
-0.8969999999999999
 21
1.409858693621721
 31
0.0
  0
LINE
  5
173
330
143
100
AcDbEntity
  8
AM_9
100
AcDbLine
 10
-0.8969999999999999
 20
-1.148451458068175
 30
0.0
 11
-0.4999999999999998
 21
-1.148451458068175
 31
0.0
  0
LINE
  5
174
330
143
100
AcDbEntity
  8
AM_9
100
AcDbLine
 10
-0.4999999999999998
 20
-1.409858693621721
 30
0.0
 11
-0.8969999999999999
 21
-1.409858693621721
 31
0.0
  0
LINE
  5
175
330
143
100
AcDbEntity
  8
AM_9
100
AcDbLine
 10
-0.8969999999999999
 20
1.148451458068175
 30
0.0
 11
-0.4999999999999999
 21
1.148451458068175
 31
0.0
  0
LINE
  5
176
330
143
100
AcDbEntity
  8
AM_9
100
AcDbLine
 10
-1.38
 20
-1.4173
 30
0.0
 11
-0.8969999999999999
 21
-1.4173
 31
0.0
  0
LINE
  5
177
330
143
100
AcDbEntity
  8
AM_9
100
AcDbLine
 10
-0.8969999999999999
 20
1.4173
 30
0.0
 11
-1.38
 21
1.4173
 31
0.0
  0
LINE
  5
178
330
143
100
AcDbEntity
  8
AM_9
100
AcDbLine
 10
-0.4374999999999996
 20
-1.500633333333333
 30
0.0
 11
0.0
 21
-1.500633333333333
 31
0.0
  0
LINE
  5
179
330
143
100
AcDbEntity
  8
AM_9
100
AcDbLine
 10
0.0
 20
1.500633333333333
 30
0.0
 11
-0.4374999999999996
 21
1.500633333333333
 31
0.0
  0
LWPOLYLINE
  5
17A
330
143
100
AcDbEntity
  8
AM_9
100
AcDbPolyline
 90
        5
 70
     0
 43
0.0
 10
-0.4999999999999998
 20
1.431373041223482
 10
-0.4998801043181979
 20
1.435364082724388
 10
-0.4982150065378738
 20
1.446661316488826
 10
-0.494476325137405
 20
1.457842176441417
 10
-0.4840847495312231
 20
1.474272429459193
  0
LINE
  5
17B
330
143
100
AcDbEntity
  8
AM_9
100
AcDbLine
 10
-0.4840847495312418
 20
1.212865193905625
 30
0.0
 11
-0.4840847495312418
 21
1.479800000000004
 31
0.0
  0
LWPOLYLINE
  5
17C
330
143
100
AcDbEntity
  8
AM_9
100
AcDbPolyline
 90
        5
 70
     0
 43
0.0
 10
-0.495090032664366
 20
1.194986901120951
 10
-0.4955499663523727
 20
1.193833017853284
 10
-0.4986346214624267
 20
1.183360819613822
 10
-0.4999606683034974
 20
1.172252619372636
 10
-0.4999999999999998
 20
1.169965805669937
  0
LWPOLYLINE
  5
17D
330
143
100
AcDbEntity
  8
AM_9
100
AcDbPolyline
 90
        3
 70
     0
 43
0.0
 10
-0.4840847495312418
 20
1.212865193905625
 10
-0.4905733544815457
 20
1.203963039888915
 10
-0.495090032664366
 20
1.194986901120951
  0
LWPOLYLINE
  5
17E
330
143
100
AcDbEntity
  8
AM_9
100
AcDbPolyline
 90
        5
 70
     0
 43
0.0
 10
-0.4999999999999998
 20
-1.431373041223482
 10
-0.4998801043181979
 20
-1.435364082724388
 10
-0.4982150065378737
 20
-1.446661316488826
 10
-0.4944763251374049
 20
-1.457842176441417
 10
-0.4840847495312444
 20
-1.474272429459168
  0
LWPOLYLINE
  5
17F
330
143
100
AcDbEntity
  8
AM_9
100
AcDbPolyline
 90
        6
 70
     0
 43
0.0
 10
-0.4840847495312492
 20
-1.212865193905617
 10
-0.4905733544815485
 20
-1.20396303988891
 10
-0.4955499663523725
 20
-1.193833017853284
 10
-0.4986346214624265
 20
-1.183360819613822
 10
-0.4999606683034972
 20
-1.172252619372636
 10
-0.4999999999999997
 20
-1.169965805669937
  0
LINE
  5
180
330
143
100
AcDbEntity
  8
AM_9
100
AcDbLine
 10
-0.4999999999999998
 20
1.431373041223482
 30
0.0
 11
-0.4999999999999998
 21
-1.431373041223482
 31
0.0
  0
ARC
  5
181
330
143
100
AcDbEntity
  8
AM_9
100
AcDbCircle
 10
-0.4374999999999986
 20
-1.438133333333331
 30
0.0
 40
0.062500000000002
100
AcDbArc
 50
221.8103148957803
 51
270.0
  0
ARC
  5
182
330
143
100
AcDbEntity
  8
AM_9
100
AcDbCircle
 10
-0.4374999999999988
 20
1.438133333333332
 30
0.0
 40
0.0625000000000018
100
AcDbArc
 50
90.0
 51
138.1896851042159
  0
LINE
  5
183
330
143
100
AcDbEntity
  8
AM_9
100
AcDbLine
 10
-0.4840847495312444
 20
-1.479800000000001
 30
0.0
 11
-0.4840847495312492
 21
-1.212865193905617
 31
0.0
  0
LINE
  5
184
330
143
100
AcDbEntity
  8
AM_9
100
AcDbLine
 10
-0.4374999999999996
 20
1.500633333333333
 30
0.0
 11
-0.4374999999999996
 21
-1.500633333333333
 31
0.0
  0
LINE
  5
185
330
143
100
AcDbEntity
  8
AM_9
100
AcDbLine
 10
-0.6640000000000003
 20
1.00341796875
 30
0.0
 11
-0.1600000000000001
 21
1.003417968749999
 31
0.0
  0
LINE
  5
186
330
143
100
AcDbEntity
  8
AM_9
100
AcDbLine
 10
-0.664
 20
1.631368909359579
 30
0.0
 11
-1.38
 21
1.631368909359578
 31
0.0
  0
LINE
  5
187
330
143
100
AcDbEntity
  8
AM_9
100
AcDbLine
 10
-0.7200000000000001
 20
1.661687345570605
 30
0.0
 11
-0.664
 21
1.661687345570605
 31
0.0
  0
LINE
  5
188
330
143
100
AcDbEntity
  8
AM_9
100
AcDbLine
 10
-0.7200000000000001
 20
1.874999999999997
 30
0.0
 11
-1.38
 21
1.874999999999997
 31
0.0
  0
LINE
  5
189
330
143
100
AcDbEntity
  8
AM_9
100
AcDbLine
 10
-1.017950937779325
 20
1.900356901207177
 30
0.0
 11
-0.8620490622206752
 21
1.900356901207177
 31
0.0
  0
LINE
  5
18A
330
143
100
AcDbEntity
  8
AM_7
100
AcDbLine
 10
0.036
 20
2.56
 30
0.0
 11
-0.7560000000000001
 21
2.56
 31
0.0
  0
LINE
  5
18B
330
143
100
AcDbEntity
  8
AM_7
100
AcDbLine
 10
0.036
 20
-2.56
 30
0.0
 11
-0.7560000000000001
 21
-2.56
 31
0.0
  0
LINE
  5
18C
330
143
100
AcDbEntity
  8
AM_7
100
AcDbLine
 10
-2.1315
 20
0.0
 30
0.0
 11
0.176
 21
0.0
 31
0.0
  0
LINE
  5
18D
330
143
100
AcDbEntity
  8
AM_4
100
AcDbLine
 10
-0.7200000000000001
 20
-3.065000000000002
 30
0.0
 11
-0.16
 21
-3.065000000000002
 31
0.0
  0
LINE
  5
18E
330
143
100
AcDbEntity
  8
AM_4
100
AcDbLine
 10
-0.7200000000000001
 20
-3.065000000000002
 30
0.0
 11
-0.7200000000000001
 21
-1.661687345570592
 31
0.0
  0
LINE
  5
18F
330
143
100
AcDbEntity
  8
AM_4
100
AcDbLine
 10
-0.72
 20
1.923407597527796
 30
0.0
 11
-0.7200000000000001
 21
3.065
 31
0.0
  0
LINE
  5
190
330
143
100
AcDbEntity
  8
AM_4
100
AcDbLine
 10
-0.16
 20
3.065
 30
0.0
 11
-0.7200000000000001
 21
3.065
 31
0.0
  0
LINE
  5
191
330
143
100
AcDbEntity
  8
AM_4
100
AcDbLine
 10
-0.664
 20
2.734360894097223
 30
0.0
 11
-0.7200000000000001
 21
2.734360894097223
 31
0.0
  0
LINE
  5
192
330
143
100
AcDbEntity
  8
AM_4
100
AcDbLine
 10
-0.664
 20
-2.734360894097231
 30
0.0
 11
-0.7200000000000001
 21
-2.734360894097231
 31
0.0
  0
LINE
  5
193
330
143
100
AcDbEntity
  8
AM_4
100
AcDbLine
 10
-0.664
 20
2.83025390625
 30
0.0
 11
-0.16
 21
2.83025390625
 31
0.0
  0
LINE
  5
194
330
143
100
AcDbEntity
  8
AM_4
100
AcDbLine
 10
-0.664
 20
1.923407597527796
 30
0.0
 11
-0.664
 21
2.83025390625
 31
0.0
  0
LINE
  5
195
330
143
100
AcDbEntity
  8
AM_4
100
AcDbLine
 10
-1.38
 20
-1.875000000000004
 30
0.0
 11
-1.38
 21
1.923407597527796
 31
0.0
  0
LINE
  5
196
330
143
100
AcDbEntity
  8
AM_4
100
AcDbLine
 10
-0.9656217592729393
 20
1.923407597527796
 30
0.0
 11
-1.38
 21
1.923407597527796
 31
0.0
  0
LINE
  5
197
330
143
100
AcDbEntity
  8
AM_4
100
AcDbLine
 10
-0.1599999999999999
 20
1.923407597527796
 30
0.0
 11
-0.9143782407270608
 21
1.923407597527796
 31
0.0
  0
LINE
  5
198
330
143
100
AcDbEntity
  8
AM_4
100
AcDbLine
 10
-0.664
 20
-2.830253906249999
 30
0.0
 11
-0.16
 21
-2.830253906250001
 31
0.0
  0
LINE
  5
199
330
143
100
AcDbEntity
  8
AM_4
100
AcDbLine
 10
-0.664
 20
-2.830253906249999
 30
0.0
 11
-0.6639999999999999
 21
-1.003417968750004
 31
0.0
  0
LINE
  5
19A
330
143
100
AcDbEntity
  8
AM_4
100
AcDbLine
 10
0.0
 20
1.7715
 30
0.0
 11
0.0
 21
-1.7715
 31
0.0
  0
LINE
  5
19B
330
143
100
AcDbEntity
  8
AM_4
100
AcDbLine
 10
-0.16
 20
-1.7715
 30
0.0
 11
0.0
 21
-1.7715
 31
0.0
  0
LINE
  5
19C
330
143
100
AcDbEntity
  8
AM_4
100
AcDbLine
 10
0.0
 20
1.7715
 30
0.0
 11
-0.16
 21
1.7715
 31
0.0
  0
LINE
  5
19D
330
143
100
AcDbEntity
  8
AM_4
100
AcDbLine
 10
-0.664
 20
-1.661687345570592
 30
0.0
 11
-0.7200000000000001
 21
-1.661687345570592
 31
0.0
  0
LINE
  5
19E
330
143
100
AcDbEntity
  8
AM_4
100
AcDbLine
 10
-0.6639999999999999
 20
-1.003417968750004
 30
0.0
 11
-0.1599999999999999
 21
-1.003417968750004
 31
0.0
  0
LINE
  5
19F
330
143
100
AcDbEntity
  8
AM_4
100
AcDbLine
 10
-1.38
 20
-1.875000000000004
 30
0.0
 11
-0.7200000000000001
 21
-1.875000000000004
 31
0.0
  0
LINE
  5
1A0
330
143
100
AcDbEntity
  8
AM_4
100
AcDbLine
 10
-1.38
 20
0.924262128173031
 30
0.0
 11
-0.1599999999999998
 21
0.9242621281730313
 31
0.0
  0
LINE
  5
1A1
330
143
100
AcDbEntity
  8
AM_4
100
AcDbLine
 10
-0.16
 20
-3.065000000000002
 30
0.0
 11
-0.16
 21
3.065
 31
0.0
  0
LINE
  5
1A2
330
143
100
AcDbEntity
  8
AM_4
100
AcDbLine
 10
-0.8620490622206752
 20
1.900356901207177
 30
0.0
 11
-0.1599999999999999
 21
1.900356901207177
 31
0.0
  0
LINE
  5
1A3
330
143
100
AcDbEntity
  8
AM_4
100
AcDbLine
 10
-1.38
 20
1.900356901207177
 30
0.0
 11
-1.017950937779325
 21
1.900356901207177
 31
0.0
  0
LINE
  5
1A4
330
143
100
AcDbEntity
  8
AM_4
100
AcDbLine
 10
-1.38
 20
1.19325012002063
 30
0.0
 11
-0.1599999999999998
 21
1.19325012002063
 31
0.0
  0
LINE
  5
1A5
330
143
100
AcDbEntity
  8
AM_4
100
AcDbLine
 10
-1.38
 20
1.304548727379392
 30
0.0
 11
-0.1599999999999998
 21
1.304548727379392
 31
0.0
  0
ENDBLK
  5
146
330
143
100
AcDbEntity
  8
0
100
AcDbBlockEnd
  0
ENDSEC
  0
SECTION
  2
ENTITIES
  0
INSERT
  5
6F
330
1F
100
AcDbEntity
  8
0
100
AcDbBlockReference
  2
1_062893_2
 10
0.0
 20
0.0
 30
0.0
  0
POINT
  5
1A7
330
1F
100
AcDbEntity
  8
ConnectionPoints
100
AcDbPoint
 10
-2.03
 20
0.0
 30
0.0000000000000001
  0
POINT
  5
1A8
330
1F
100
AcDbEntity
  8
ConnectionPoints
100
AcDbPoint
 10
-0.94
 20
1.587935097662679
 30
1.587935097662679
  0
POINT
  5
1A9
330
1F
100
AcDbEntity
  8
ConnectionPoints
100
AcDbPoint
 10
-2.03
 20
0.0
 30
0.0000000000000001
  0
ENDSEC
  0
SECTION
  2
OBJECTS
  0
DICTIONARY
  5
C
330
0
100
AcDbDictionary
281
     1
  3
ACAD_DETAILVIEWSTYLE
350
1B1
  3
ACAD_GROUP
350
D
  3
ACAD_LAYOUT
350
1A
  3
ACAD_MATERIAL
350
43
  3
ACAD_MLEADERSTYLE
350
6B
  3
ACAD_MLINESTYLE
350
17
  3
ACAD_PLOTSETTINGS
350
19
  3
ACAD_PLOTSTYLENAME
350
E
  3
ACAD_SCALELIST
350
47
  3
ACAD_SECTIONVIEWSTYLE
350
1B2
  3
ACAD_TABLESTYLE
350
69
  3
ACAD_VISUALSTYLE
350
2A
  3
ACDB_RECOMPOSE_DATA
350
1AE
  3
AcDbVariableDictionary
350
1AA
  0
SUN
  5
6D
330
29
100
AcDbSun
 90
        1
290
     0
 63
     7
421
 16777215
 40
1.0
291
     1
 91
  2455826
 92
 54000000
292
     0
 70
     2
 71
   256
280
     1
  0
DICTIONARY
  5
1B1
102
{ACAD_REACTORS
330
C
102
}
330
C
100
AcDbDictionary
281
     1
  0
DICTIONARY
  5
D
102
{ACAD_REACTORS
330
C
102
}
330
C
100
AcDbDictionary
281
     1
  0
DICTIONARY
  5
1A
102
{ACAD_REACTORS
330
C
102
}
330
C
100
AcDbDictionary
281
     1
  3
Layout1
350
1E
  3
Layout2
350
26
  3
Model
350
22
  0
DICTIONARY
  5
43
102
{ACAD_REACTORS
330
C
102
}
330
C
100
AcDbDictionary
281
     1
  3
ByBlock
350
45
  3
ByLayer
350
44
  3
Global
350
46
  0
DICTIONARY
  5
6B
102
{ACAD_REACTORS
330
C
102
}
330
C
100
AcDbDictionary
281
     1
  3
Standard
350
6C
  0
DICTIONARY
  5
17
102
{ACAD_REACTORS
330
C
102
}
330
C
100
AcDbDictionary
281
     1
  3
Standard
350
18
  0
DICTIONARY
  5
19
102
{ACAD_REACTORS
330
C
102
}
330
C
100
AcDbDictionary
281
     1
  0
ACDBDICTIONARYWDFLT
  5
E
102
{ACAD_REACTORS
330
C
102
}
330
C
100
AcDbDictionary
281
     1
  3
Normal
350
F
100
AcDbDictionaryWithDefault
340
F
  0
DICTIONARY
  5
47
102
{ACAD_REACTORS
330
C
102
}
330
C
100
AcDbDictionary
281
     1
  3
A0
350
48
  3
A1
350
49
  3
A2
350
4A
  3
A3
350
4B
  3
A4
350
4C
  3
A5
350
4D
  3
A6
350
4E
  3
A7
350
4F
  3
A8
350
50
  3
A9
350
51
  3
B0
350
52
  3
B1
350
53
  3
B2
350
54
  3
B3
350
55
  3
B4
350
56
  3
B5
350
57
  3
B6
350
58
  3
B7
350
59
  3
B8
350
5A
  3
B9
350
5B
  3
C0
350
5C
  3
C1
350
5D
  3
C2
350
5E
  3
C3
350
5F
  3
C4
350
60
  3
C5
350
61
  3
C6
350
62
  3
C7
350
63
  3
C8
350
64
  3
C9
350
65
  3
D0
350
66
  3
D1
350
67
  3
D2
350
68
  0
DICTIONARY
  5
1B2
102
{ACAD_REACTORS
330
C
102
}
330
C
100
AcDbDictionary
281
     1
  0
DICTIONARY
  5
69
102
{ACAD_REACTORS
330
C
102
}
330
C
100
AcDbDictionary
281
     1
  3
Standard
350
6A
  0
DICTIONARY
  5
2A
102
{ACAD_REACTORS
330
C
102
}
330
C
100
AcDbDictionary
281
     1
  3
2dWireframe
350
2F
  3
Basic
350
32
  3
Brighten
350
36
  3
ColorChange
350
3A
  3
Conceptual
350
34
  3
Dim
350
35
  3
EdgeColorOff
350
3D
  3
Facepattern
350
39
  3
Flat
350
2B
  3
FlatWithEdges
350
2C
  3
Gouraud
350
2D
  3
GouraudWithEdges
350
2E
  3
Hidden
350
31
  3
JitterOff
350
3B
  3
Linepattern
350
38
  3
OverhangOff
350
3C
  3
Realistic
350
33
  3
Shaded
350
42
  3
Shaded with edges
350
41
  3
Shades of Gray
350
3E
  3
Sketchy
350
3F
  3
Thicken
350
37
  3
Wireframe
350
30
  3
X-Ray
350
40
  0
XRECORD
  5
1AE
102
{ACAD_REACTORS
330
C
102
}
330
C
100
AcDbXrecord
280
     1
 90
        1
330
6A
  0
DICTIONARY
  5
1AA
102
{ACAD_REACTORS
330
C
102
}
330
C
100
AcDbDictionary
281
     1
  3
CANNOSCALE
350
1AB
  3
CMLEADERSTYLE
350
1B0
  3
CTABLESTYLE
350
1AF
  0
LAYOUT
  5
1E
102
{ACAD_REACTORS
330
1A
102
}
330
1A
100
AcDbPlotSettings
  1

  2
none_device
  4

  6

 40
0.0
 41
0.0
 42
0.0
 43
0.0
 44
0.0
 45
0.0
 46
0.0
 47
0.0
 48
0.0
 49
0.0
140
0.0
141
0.0
142
1.0
143
1.0
 70
   688
 72
     0
 73
     0
 74
     5
  7

 75
    16
 76
     0
 77
     2
 78
   300
147
1.0
148
0.0
149
0.0
100
AcDbLayout
  1
Layout1
 70
     1
 71
     1
 10
0.0
 20
0.0
 11
12.0
 21
9.0
 12
0.0
 22
0.0
 32
0.0
 14
1.000000000000000E+20
 24
1.000000000000000E+20
 34
1.000000000000000E+20
 15
-1.000000000000000E+20
 25
-1.000000000000000E+20
 35
-1.000000000000000E+20
146
0.0
 13
0.0
 23
0.0
 33
0.0
 16
1.0
 26
0.0
 36
0.0
 17
0.0
 27
1.0
 37
0.0
 76
     0
330
1B
  0
LAYOUT
  5
26
102
{ACAD_REACTORS
330
1A
102
}
330
1A
100
AcDbPlotSettings
  1

  2
none_device
  4

  6

 40
0.0
 41
0.0
 42
0.0
 43
0.0
 44
0.0
 45
0.0
 46
0.0
 47
0.0
 48
0.0
 49
0.0
140
0.0
141
0.0
142
1.0
143
1.0
 70
   688
 72
     0
 73
     0
 74
     5
  7

 75
    16
 76
     0
 77
     2
 78
   300
147
1.0
148
0.0
149
0.0
100
AcDbLayout
  1
Layout2
 70
     1
 71
     2
 10
0.0
 20
0.0
 11
0.0
 21
0.0
 12
0.0
 22
0.0
 32
0.0
 14
0.0
 24
0.0
 34
0.0
 15
0.0
 25
0.0
 35
0.0
146
0.0
 13
0.0
 23
0.0
 33
0.0
 16
1.0
 26
0.0
 36
0.0
 17
0.0
 27
1.0
 37
0.0
 76
     0
330
23
  0
LAYOUT
  5
22
102
{ACAD_REACTORS
330
1A
102
}
330
1A
100
AcDbPlotSettings
  1

  2
none_device
  4
Letter_(8.50_x_11.00_Inches)
  6

 40
6.35
 41
6.35
 42
6.35000508
 43
6.35000508
 44
215.9
 45
279.4
 46
0.0
 47
0.0
 48
0.0
 49
0.0
140
0.0
141
0.0
142
1.0
143
1.0
 70
  1712
 72
     0
 73
     0
 74
     0
  7

 75
     0
 76
     0
 77
     2
 78
   300
147
1.0
148
0.0
149
0.0
100
AcDbLayout
  1
Model
 70
     1
 71
     0
 10
0.0
 20
0.0
 11
12.0
 21
9.0
 12
0.0
 22
0.0
 32
0.0
 14
1.000000000000000E+20
 24
1.000000000000000E+20
 34
1.000000000000000E+20
 15
-1.000000000000000E+20
 25
-1.000000000000000E+20
 35
-1.000000000000000E+20
146
0.0
 13
0.0
 23
0.0
 33
0.0
 16
1.0
 26
0.0
 36
0.0
 17
0.0
 27
1.0
 37
0.0
 76
     0
330
1F
331
29
  0
MATERIAL
  5
45
102
{ACAD_REACTORS
330
43
102
}
330
43
100
AcDbMaterial
  1
ByBlock
 72
     1
 94
      127
  0
MATERIAL
  5
44
102
{ACAD_REACTORS
330
43
102
}
330
43
100
AcDbMaterial
  1
ByLayer
 72
     1
 94
      127
  0
MATERIAL
  5
46
102
{ACAD_REACTORS
330
43
102
}
330
43
100
AcDbMaterial
  1
Global
 72
     1
 94
      127
  0
MLEADERSTYLE
  5
6C
102
{ACAD_REACTORS
330
6B
102
}
330
6B
100
AcDbMLeaderStyle
179
     2
170
     2
171
     1
172
     0
 90
        2
 40
0.0
 41
0.0
173
     1
 91
-1056964608
340
14
 92
       -2
290
     1
 42
0.09
291
     1
 43
0.36
  3
Standard
341
0
 44
0.18
300

342
11
174
     1
178
     6
175
     1
176
     0
 93
-1056964608
 45
0.18
292
     0
297
     0
 46
0.18
343
0
 94
-1056964608
 47
1.0
 49
1.0
140
1.0
293
     1
141
0.0
294
     1
177
     0
142
1.0
295
     0
296
     0
143
0.125
271
     0
272
     9
273
     9
298
     0
  0
MLINESTYLE
  5
18
102
{ACAD_REACTORS
330
17
102
}
330
17
100
AcDbMlineStyle
  2
Standard
 70
     0
  3

 62
   256
 51
90.0
 52
90.0
 71
     2
 49
0.5
 62
   256
  6
BYLAYER
 49
-0.5
 62
   256
  6
BYLAYER
  0
ACDBPLACEHOLDER
  5
F
102
{ACAD_REACTORS
330
E
102
}
330
E
  0
SCALE
  5
48
102
{ACAD_REACTORS
330
47
102
}
330
47
100
AcDbScale
 70
     0
300
1:1
140
1.0
141
1.0
290
     1
  0
SCALE
  5
49
102
{ACAD_REACTORS
330
47
102
}
330
47
100
AcDbScale
 70
     0
300
1:2
140
1.0
141
2.0
290
     0
  0
SCALE
  5
4A
102
{ACAD_REACTORS
330
47
102
}
330
47
100
AcDbScale
 70
     0
300
1:4
140
1.0
141
4.0
290
     0
  0
SCALE
  5
4B
102
{ACAD_REACTORS
330
47
102
}
330
47
100
AcDbScale
 70
     0
300
1:5
140
1.0
141
5.0
290
     0
  0
SCALE
  5
4C
102
{ACAD_REACTORS
330
47
102
}
330
47
100
AcDbScale
 70
     0
300
1:8
140
1.0
141
8.0
290
     0
  0
SCALE
  5
4D
102
{ACAD_REACTORS
330
47
102
}
330
47
100
AcDbScale
 70
     0
300
1:10
140
1.0
141
10.0
290
     0
  0
SCALE
  5
4E
102
{ACAD_REACTORS
330
47
102
}
330
47
100
AcDbScale
 70
     0
300
1:16
140
1.0
141
16.0
290
     0
  0
SCALE
  5
4F
102
{ACAD_REACTORS
330
47
102
}
330
47
100
AcDbScale
 70
     0
300
1:20
140
1.0
141
20.0
290
     0
  0
SCALE
  5
50
102
{ACAD_REACTORS
330
47
102
}
330
47
100
AcDbScale
 70
     0
300
1:30
140
1.0
141
30.0
290
     0
  0
SCALE
  5
51
102
{ACAD_REACTORS
330
47
102
}
330
47
100
AcDbScale
 70
     0
300
1:40
140
1.0
141
40.0
290
     0
  0
SCALE
  5
52
102
{ACAD_REACTORS
330
47
102
}
330
47
100
AcDbScale
 70
     0
300
1:50
140
1.0
141
50.0
290
     0
  0
SCALE
  5
53
102
{ACAD_REACTORS
330
47
102
}
330
47
100
AcDbScale
 70
     0
300
1:100
140
1.0
141
100.0
290
     0
  0
SCALE
  5
54
102
{ACAD_REACTORS
330
47
102
}
330
47
100
AcDbScale
 70
     0
300
2:1
140
2.0
141
1.0
290
     0
  0
SCALE
  5
55
102
{ACAD_REACTORS
330
47
102
}
330
47
100
AcDbScale
 70
     0
300
4:1
140
4.0
141
1.0
290
     0
  0
SCALE
  5
56
102
{ACAD_REACTORS
330
47
102
}
330
47
100
AcDbScale
 70
     0
300
8:1
140
8.0
141
1.0
290
     0
  0
SCALE
  5
57
102
{ACAD_REACTORS
330
47
102
}
330
47
100
AcDbScale
 70
     0
300
10:1
140
10.0
141
1.0
290
     0
  0
SCALE
  5
58
102
{ACAD_REACTORS
330
47
102
}
330
47
100
AcDbScale
 70
     0
300
100:1
140
100.0
141
1.0
290
     0
  0
SCALE
  5
59
102
{ACAD_REACTORS
330
47
102
}
330
47
100
AcDbScale
 70
     0
300
1/128" = 1'-0"
140
0.0078125
141
12.0
290
     0
  0
SCALE
  5
5A
102
{ACAD_REACTORS
330
47
102
}
330
47
100
AcDbScale
 70
     0
300
1/64" = 1'-0"
140
0.015625
141
12.0
290
     0
  0
SCALE
  5
5B
102
{ACAD_REACTORS
330
47
102
}
330
47
100
AcDbScale
 70
     0
300
1/32" = 1'-0"
140
0.03125
141
12.0
290
     0
  0
SCALE
  5
5C
102
{ACAD_REACTORS
330
47
102
}
330
47
100
AcDbScale
 70
     0
300
1/16" = 1'-0"
140
0.0625
141
12.0
290
     0
  0
SCALE
  5
5D
102
{ACAD_REACTORS
330
47
102
}
330
47
100
AcDbScale
 70
     0
300
3/32" = 1'-0"
140
0.09375
141
12.0
290
     0
  0
SCALE
  5
5E
102
{ACAD_REACTORS
330
47
102
}
330
47
100
AcDbScale
 70
     0
300
1/8" = 1'-0"
140
0.125
141
12.0
290
     0
  0
SCALE
  5
5F
102
{ACAD_REACTORS
330
47
102
}
330
47
100
AcDbScale
 70
     0
300
3/16" = 1'-0"
140
0.1875
141
12.0
290
     0
  0
SCALE
  5
60
102
{ACAD_REACTORS
330
47
102
}
330
47
100
AcDbScale
 70
     0
300
1/4" = 1'-0"
140
0.25
141
12.0
290
     0
  0
SCALE
  5
61
102
{ACAD_REACTORS
330
47
102
}
330
47
100
AcDbScale
 70
     0
300
3/8" = 1'-0"
140
0.375
141
12.0
290
     0
  0
SCALE
  5
62
102
{ACAD_REACTORS
330
47
102
}
330
47
100
AcDbScale
 70
     0
300
1/2" = 1'-0"
140
0.5
141
12.0
290
     0
  0
SCALE
  5
63
102
{ACAD_REACTORS
330
47
102
}
330
47
100
AcDbScale
 70
     0
300
3/4" = 1'-0"
140
0.75
141
12.0
290
     0
  0
SCALE
  5
64
102
{ACAD_REACTORS
330
47
102
}
330
47
100
AcDbScale
 70
     0
300
1" = 1'-0"
140
1.0
141
12.0
290
     0
  0
SCALE
  5
65
102
{ACAD_REACTORS
330
47
102
}
330
47
100
AcDbScale
 70
     0
300
1-1/2" = 1'-0"
140
1.5
141
12.0
290
     0
  0
SCALE
  5
66
102
{ACAD_REACTORS
330
47
102
}
330
47
100
AcDbScale
 70
     0
300
3" = 1'-0"
140
3.0
141
12.0
290
     0
  0
SCALE
  5
67
102
{ACAD_REACTORS
330
47
102
}
330
47
100
AcDbScale
 70
     0
300
6" = 1'-0"
140
6.0
141
12.0
290
     0
  0
SCALE
  5
68
102
{ACAD_REACTORS
330
47
102
}
330
47
100
AcDbScale
 70
     0
300
1'-0" = 1'-0"
140
12.0
141
12.0
290
     0
  0
TABLESTYLE
  5
6A
102
{ACAD_REACTORS
330
69
102
}
102
{ACAD_XDICTIONARY
360
1AC
102
}
330
69
100
AcDbTableStyle
  3
Standard
 70
     0
 71
     0
 40
0.06
 41
0.06
280
     0
281
     0
  7
Standard
140
0.18
170
     2
 62
     0
 63
   257
283
     0
 90
        4
 91
        0
  1

274
    -2
284
     1
 64
     0
275
    -2
285
     1
 65
     0
276
    -2
286
     1
 66
     0
277
    -2
287
     1
 67
     0
278
    -2
288
     1
 68
     0
279
    -2
289
     1
 69
     0
  7
Standard
140
0.25
170
     5
 62
     0
 63
   257
283
     0
 90
        4
 91
        0
  1

274
    -2
284
     1
 64
     0
275
    -2
285
     1
 65
     0
276
    -2
286
     1
 66
     0
277
    -2
287
     1
 67
     0
278
    -2
288
     1
 68
     0
279
    -2
289
     1
 69
     0
  7
Standard
140
0.18
170
     5
 62
     0
 63
   257
283
     0
 90
        4
 91
        0
  1

274
    -2
284
     1
 64
     0
275
    -2
285
     1
 65
     0
276
    -2
286
     1
 66
     0
277
    -2
287
     1
 67
     0
278
    -2
288
     1
 68
     0
279
    -2
289
     1
 69
     0
  0
VISUALSTYLE
  5
2F
102
{ACAD_REACTORS
330
2A
102
}
330
2A
100
AcDbVisualStyle
  2
2dWireframe
 70
     4
177
     3
291
     0
 70
    58
 90
        0
176
     1
 90
        2
176
     1
 90
        0
176
     1
 90
        0
176
     1
 40
0.6
176
     1
 40
30.0
176
     1
 62
     7
420
 16777215
176
     1
 90
        1
176
     1
 90
        4
176
     1
 62
     7
176
     1
 62
   257
176
     1
 90
        1
176
     1
 90
        1
176
     1
 40
1.0
176
     1
 90
        0
176
     1
 62
   257
176
     1
 40
1.0
176
     1
 90
        1
176
     1
 90
        6
176
     1
 90
        2
176
     1
 62
     7
176
     1
 90
        5
176
     1
 90
        0
176
     1
 90
        0
176
     1
290
     0
176
     1
 90
        1
176
     1
 40
0.0
176
     1
 90
        0
176
     1
290
     1
176
     1
290
     1
176
     1
290
     0
176
     1
290
     0
176
     1
290
     0
176
     1
290
     0
176
     1
290
     0
176
     1
290
     0
176
     1
290
     0
176
     1
 90
       50
176
     1
 40
0.0
176
     1
 40
1.0
176
     1
 90
        0
176
     1
 62
    18
420
        0
176
     1
 90
       50
176
     1
 90
        3
176
     1
 62
     5
420
      255
176
     1
290
     0
176
     1
 90
       50
176
     1
 90
       50
176
     1
 90
       50
176
     1
290
     0
176
     1
 90
       50
176
     1
 62
   256
176
     0
 40
1.0
176
     0
 90
        2
176
     1
  1
strokes_ogs.tif
176
     1
290
     0
176
     1
 40
1.0
176
     1
 40
1.0
176
     1
  0
VISUALSTYLE
  5
32
102
{ACAD_REACTORS
330
2A
102
}
330
2A
100
AcDbVisualStyle
  2
Basic
 70
     7
177
     3
291
     1
 70
    58
 90
        1
176
     1
 90
        0
176
     1
 90
        1
176
     1
 90
        0
176
     1
 40
0.6
176
     1
 40
30.0
176
     1
 62
     7
420
 16777215
176
     1
 90
        0
176
     1
 90
        4
176
     1
 62
     7
176
     1
 62
   257
176
     1
 90
        1
176
     1
 90
        1
176
     1
 40
1.0
176
     1
 90
        8
176
     1
 62
     7
176
     1
 40
1.0
176
     1
 90
        1
176
     1
 90
        6
176
     1
 90
        2
176
     1
 62
     7
176
     1
 90
        5
176
     1
 90
        0
176
     1
 90
        0
176
     1
290
     0
176
     1
 90
        1
176
     1
 40
0.0
176
     1
 90
        0
176
     1
290
     0
176
     1
290
     1
176
     1
290
     1
176
     1
290
     0
176
     1
290
     0
176
     1
290
     0
176
     1
290
     0
176
     1
290
     0
176
     1
290
     0
176
     1
 90
       50
176
     1
 40
0.0
176
     1
 40
1.0
176
     1
 90
        0
176
     1
 62
    18
420
        0
176
     1
 90
       50
176
     1
 90
        3
176
     1
 62
     5
420
      255
176
     1
290
     0
176
     1
 90
       50
176
     1
 90
       50
176
     1
 90
       50
176
     1
290
     0
176
     1
 90
       50
176
     1
 62
   256
176
     0
 40
1.0
176
     0
 90
        2
176
     1
  1
strokes_ogs.tif
176
     1
290
     0
176
     1
 40
1.0
176
     1
 40
1.0
176
     1
  0
VISUALSTYLE
  5
36
102
{ACAD_REACTORS
330
2A
102
}
330
2A
100
AcDbVisualStyle
  2
Brighten
 70
    12
177
     3
291
     1
 70
    58
 90
        2
176
     1
 90
        2
176
     1
 90
        0
176
     1
 90
        0
176
     1
 40
0.6
176
     1
 40
30.0
176
     1
 62
     7
420
 16777215
176
     1
 90
        1
176
     1
 90
        4
176
     1
 62
     7
176
     1
 62
   257
176
     1
 90
        1
176
     1
 90
        1
176
     1
 40
1.0
176
     1
 90
        8
176
     1
 62
     7
176
     1
 40
1.0
176
     1
 90
        1
176
     1
 90
        6
176
     1
 90
        2
176
     1
 62
     7
176
     1
 90
        5
176
     1
 90
        0
176
     1
 90
        0
176
     1
290
     0
176
     1
 90
        1
176
     1
 40
50.0
176
     1
 90
        0
176
     1
290
     0
176
     1
290
     1
176
     1
290
     1
176
     1
290
     0
176
     1
290
     0
176
     1
290
     0
176
     1
290
     0
176
     1
290
     0
176
     1
290
     0
176
     1
 90
       50
176
     1
 40
0.0
176
     1
 40
1.0
176
     1
 90
        0
176
     1
 62
    18
420
        0
176
     1
 90
       50
176
     1
 90
        3
176
     1
 62
     5
420
      255
176
     1
290
     0
176
     1
 90
       50
176
     1
 90
       50
176
     1
 90
       50
176
     1
290
     0
176
     1
 90
       50
176
     1
 62
   256
176
     0
 40
1.0
176
     0
 90
        2
176
     1
  1
strokes_ogs.tif
176
     1
290
     0
176
     1
 40
1.0
176
     1
 40
1.0
176
     1
  0
VISUALSTYLE
  5
3A
102
{ACAD_REACTORS
330
2A
102
}
330
2A
100
AcDbVisualStyle
  2
ColorChange
 70
    16
177
     3
291
     1
 70
    58
 90
        2
176
     1
 90
        2
176
     1
 90
        3
176
     1
 90
        0
176
     1
 40
0.6
176
     1
 40
30.0
176
     1
 62
     8
420
  8421504
176
     1
 90
        1
176
     1
 90
        4
176
     1
 62
     7
176
     1
 62
   257
176
     1
 90
        1
176
     1
 90
        1
176
     1
 40
1.0
176
     1
 90
        8
176
     1
 62
     8
420
  8421504
176
     1
 40
1.0
176
     1
 90
        1
176
     1
 90
        6
176
     1
 90
        2
176
     1
 62
     7
176
     1
 90
        5
176
     1
 90
        0
176
     1
 90
        0
176
     1
290
     0
176
     1
 90
        1
176
     1
 40
0.0
176
     1
 90
        0
176
     1
290
     0
176
     1
290
     1
176
     1
290
     1
176
     1
290
     0
176
     1
290
     0
176
     1
290
     0
176
     1
290
     0
176
     1
290
     0
176
     1
290
     0
176
     1
 90
       50
176
     1
 40
0.0
176
     1
 40
1.0
176
     1
 90
        0
176
     1
 62
    18
420
        0
176
     1
 90
       50
176
     1
 90
        3
176
     1
 62
     5
420
      255
176
     1
290
     0
176
     1
 90
       50
176
     1
 90
       50
176
     1
 90
       50
176
     1
290
     0
176
     1
 90
       50
176
     1
 62
   256
176
     0
 40
1.0
176
     0
 90
        2
176
     1
  1
strokes_ogs.tif
176
     1
290
     0
176
     1
 40
1.0
176
     1
 40
1.0
176
     1
  0
VISUALSTYLE
  5
34
102
{ACAD_REACTORS
330
2A
102
}
330
2A
100
AcDbVisualStyle
  2
Conceptual
 70
     9
177
     3
291
     0
 70
    58
 90
        3
176
     1
 90
        2
176
     1
 90
        0
176
     1
 90
        0
176
     1
 40
0.6
176
     1
 40
30.0
176
     1
 62
     7
420
 16777215
176
     1
 90
        2
176
     1
 90
        2
176
     1
 62
     7
176
     1
 62
   257
176
     1
 90
        1
176
     1
 90
        1
176
     1
 40
179.0
176
     1
 90
        8
176
     1
 62
     7
176
     1
 40
1.0
176
     1
 90
        1
176
     1
 90
        6
176
     1
 90
        2
176
     1
 62
     7
176
     1
 90
        3
176
     1
 90
        0
176
     1
 90
        0
176
     1
290
     0
176
     1
 90
        1
176
     1
 40
0.0
176
     1
 90
        0
176
     1
290
     0
176
     1
290
     1
176
     1
290
     1
176
     1
290
     0
176
     1
290
     0
176
     1
290
     0
176
     1
290
     0
176
     1
290
     0
176
     1
290
     0
176
     1
 90
       50
176
     1
 40
0.0
176
     1
 40
1.0
176
     1
 90
        0
176
     1
 62
    18
420
        0
176
     1
 90
       50
176
     1
 90
        3
176
     1
 62
     5
420
      255
176
     1
290
     0
176
     1
 90
       50
176
     1
 90
       50
176
     1
 90
       50
176
     1
290
     0
176
     1
 90
       50
176
     1
 62
   256
176
     0
 40
1.0
176
     0
 90
        2
176
     1
  1
strokes_ogs.tif
176
     1
290
     0
176
     1
 40
1.0
176
     1
 40
1.0
176
     1
  0
VISUALSTYLE
  5
35
102
{ACAD_REACTORS
330
2A
102
}
330
2A
100
AcDbVisualStyle
  2
Dim
 70
    11
177
     3
291
     1
 70
    58
 90
        2
176
     1
 90
        2
176
     1
 90
        0
176
     1
 90
        0
176
     1
 40
0.6
176
     1
 40
30.0
176
     1
 62
     7
420
 16777215
176
     1
 90
        1
176
     1
 90
        4
176
     1
 62
     7
176
     1
 62
   257
176
     1
 90
        1
176
     1
 90
        1
176
     1
 40
1.0
176
     1
 90
        8
176
     1
 62
     7
176
     1
 40
1.0
176
     1
 90
        1
176
     1
 90
        6
176
     1
 90
        2
176
     1
 62
     7
176
     1
 90
        5
176
     1
 90
        0
176
     1
 90
        0
176
     1
290
     0
176
     1
 90
        1
176
     1
 40
-50.0
176
     1
 90
        0
176
     1
290
     0
176
     1
290
     1
176
     1
290
     1
176
     1
290
     0
176
     1
290
     0
176
     1
290
     0
176
     1
290
     0
176
     1
290
     0
176
     1
290
     0
176
     1
 90
       50
176
     1
 40
0.0
176
     1
 40
1.0
176
     1
 90
        0
176
     1
 62
    18
420
        0
176
     1
 90
       50
176
     1
 90
        3
176
     1
 62
     5
420
      255
176
     1
290
     0
176
     1
 90
       50
176
     1
 90
       50
176
     1
 90
       50
176
     1
290
     0
176
     1
 90
       50
176
     1
 62
   256
176
     0
 40
1.0
176
     0
 90
        2
176
     1
  1
strokes_ogs.tif
176
     1
290
     0
176
     1
 40
1.0
176
     1
 40
1.0
176
     1
  0
VISUALSTYLE
  5
3D
102
{ACAD_REACTORS
330
2A
102
}
330
2A
100
AcDbVisualStyle
  2
EdgeColorOff
 70
    22
177
     3
291
     1
 70
    58
 90
        2
176
     0
 90
        2
176
     0
 90
        0
176
     0
 90
        0
176
     0
 40
0.6
176
     0
 40
30.0
176
     0
 62
     7
420
 16777215
176
     0
 90
        1
176
     0
 90
        4
176
     0
 62
     7
176
     0
 62
   257
176
     0
 90
        1
176
     0
 90
        1
176
     0
 40
1.0
176
     0
 90
        8
176
     2
 62
     7
176
     0
 40
1.0
176
     0
 90
        1
176
     0
 90
        6
176
     0
 90
        2
176
     0
 62
     7
176
     0
 90
        5
176
     0
 90
        0
176
     0
 90
        0
176
     0
290
     0
176
     0
 90
        1
176
     0
 40
0.0
176
     0
 90
        0
176
     0
290
     0
176
     0
290
     1
176
     0
290
     1
176
     0
290
     0
176
     0
290
     0
176
     0
290
     0
176
     0
290
     0
176
     0
290
     0
176
     0
290
     0
176
     0
 90
       50
176
     0
 40
0.0
176
     0
 40
1.0
176
     0
 90
        0
176
     0
 62
    18
420
        0
176
     0
 90
       50
176
     0
 90
        3
176
     0
 62
     5
420
      255
176
     0
290
     0
176
     0
 90
       50
176
     0
 90
       50
176
     0
 90
       50
176
     0
290
     0
176
     0
 90
       50
176
     0
 62
   256
176
     0
 40
1.0
176
     0
 90
        2
176
     0
  1
strokes_ogs.tif
176
     0
290
     0
176
     0
 40
1.0
176
     0
 40
1.0
176
     0
  0
VISUALSTYLE
  5
39
102
{ACAD_REACTORS
330
2A
102
}
330
2A
100
AcDbVisualStyle
  2
Facepattern
 70
    15
177
     3
291
     1
 70
    58
 90
        2
176
     1
 90
        2
176
     1
 90
        0
176
     1
 90
        0
176
     1
 40
0.6
176
     1
 40
30.0
176
     1
 62
     7
420
 16777215
176
     1
 90
        1
176
     1
 90
        4
176
     1
 62
     7
176
     1
 62
   257
176
     1
 90
        1
176
     1
 90
        1
176
     1
 40
1.0
176
     1
 90
        8
176
     1
 62
     7
176
     1
 40
1.0
176
     1
 90
        1
176
     1
 90
        6
176
     1
 90
        2
176
     1
 62
     7
176
     1
 90
        5
176
     1
 90
        0
176
     1
 90
        0
176
     1
290
     0
176
     1
 90
        1
176
     1
 40
0.0
176
     1
 90
        0
176
     1
290
     0
176
     1
290
     1
176
     1
290
     1
176
     1
290
     0
176
     1
290
     0
176
     1
290
     0
176
     1
290
     0
176
     1
290
     0
176
     1
290
     0
176
     1
 90
       50
176
     1
 40
0.0
176
     1
 40
1.0
176
     1
 90
        0
176
     1
 62
    18
420
        0
176
     1
 90
       50
176
     1
 90
        3
176
     1
 62
     5
420
      255
176
     1
290
     0
176
     1
 90
       50
176
     1
 90
       50
176
     1
 90
       50
176
     1
290
     0
176
     1
 90
       50
176
     1
 62
   256
176
     0
 40
1.0
176
     0
 90
        2
176
     1
  1
strokes_ogs.tif
176
     1
290
     0
176
     1
 40
1.0
176
     1
 40
1.0
176
     1
  0
VISUALSTYLE
  5
2B
102
{ACAD_REACTORS
330
2A
102
}
330
2A
100
AcDbVisualStyle
  2
Flat
 70
     0
177
     3
291
     1
 70
    58
 90
        2
176
     1
 90
        1
176
     1
 90
        1
176
     1
 90
        2
176
     1
 40
0.6
176
     1
 40
30.0
176
     1
 62
     7
420
 16777215
176
     1
 90
        0
176
     1
 90
        0
176
     1
 62
     7
176
     1
 62
   257
176
     1
 90
        1
176
     1
 90
        1
176
     1
 40
1.0
176
     1
 90
        8
176
     1
 62
     7
176
     1
 40
1.0
176
     1
 90
        1
176
     1
 90
        6
176
     1
 90
        2
176
     1
 62
     7
176
     1
 90
        5
176
     1
 90
        0
176
     1
 90
        0
176
     1
290
     0
176
     1
 90
       13
176
     1
 40
0.0
176
     1
 90
        0
176
     1
290
     0
176
     1
290
     1
176
     1
290
     1
176
     1
290
     0
176
     1
290
     0
176
     1
290
     0
176
     1
290
     0
176
     1
290
     0
176
     1
290
     0
176
     1
 90
       50
176
     1
 40
0.0
176
     1
 40
1.0
176
     1
 90
        0
176
     1
 62
    18
420
        0
176
     1
 90
       50
176
     1
 90
        3
176
     1
 62
     5
420
      255
176
     1
290
     0
176
     1
 90
       50
176
     1
 90
       50
176
     1
 90
       50
176
     1
290
     0
176
     1
 90
       50
176
     1
 62
   256
176
     0
 40
1.0
176
     0
 90
        2
176
     1
  1
strokes_ogs.tif
176
     1
290
     0
176
     1
 40
1.0
176
     1
 40
1.0
176
     1
  0
VISUALSTYLE
  5
2C
102
{ACAD_REACTORS
330
2A
102
}
330
2A
100
AcDbVisualStyle
  2
FlatWithEdges
 70
     1
177
     3
291
     1
 70
    58
 90
        2
176
     1
 90
        1
176
     1
 90
        1
176
     1
 90
        2
176
     1
 40
0.6
176
     1
 40
30.0
176
     1
 62
     7
420
 16777215
176
     1
 90
        1
176
     1
 90
        0
176
     1
 62
     7
176
     1
 62
   257
176
     1
 90
        1
176
     1
 90
        1
176
     1
 40
1.0
176
     1
 90
        0
176
     1
 62
   257
176
     1
 40
1.0
176
     1
 90
        1
176
     1
 90
        6
176
     1
 90
        2
176
     1
 62
     7
176
     1
 90
        5
176
     1
 90
        0
176
     1
 90
        0
176
     1
290
     0
176
     1
 90
       13
176
     1
 40
0.0
176
     1
 90
        0
176
     1
290
     0
176
     1
290
     1
176
     1
290
     1
176
     1
290
     0
176
     1
290
     0
176
     1
290
     0
176
     1
290
     0
176
     1
290
     0
176
     1
290
     0
176
     1
 90
       50
176
     1
 40
0.0
176
     1
 40
1.0
176
     1
 90
        0
176
     1
 62
    18
420
        0
176
     1
 90
       50
176
     1
 90
        3
176
     1
 62
     5
420
      255
176
     1
290
     0
176
     1
 90
       50
176
     1
 90
       50
176
     1
 90
       50
176
     1
290
     0
176
     1
 90
       50
176
     1
 62
   256
176
     0
 40
1.0
176
     0
 90
        2
176
     1
  1
strokes_ogs.tif
176
     1
290
     0
176
     1
 40
1.0
176
     1
 40
1.0
176
     1
  0
VISUALSTYLE
  5
2D
102
{ACAD_REACTORS
330
2A
102
}
330
2A
100
AcDbVisualStyle
  2
Gouraud
 70
     2
177
     3
291
     1
 70
    58
 90
        2
176
     1
 90
        2
176
     1
 90
        1
176
     1
 90
        2
176
     1
 40
0.6
176
     1
 40
30.0
176
     1
 62
     7
420
 16777215
176
     1
 90
        0
176
     1
 90
        0
176
     1
 62
     7
176
     1
 62
   257
176
     1
 90
        1
176
     1
 90
        1
176
     1
 40
1.0
176
     1
 90
        0
176
     1
 62
     7
176
     1
 40
1.0
176
     1
 90
        1
176
     1
 90
        6
176
     1
 90
        2
176
     1
 62
     7
176
     1
 90
        5
176
     1
 90
        0
176
     1
 90
        0
176
     1
290
     0
176
     1
 90
       13
176
     1
 40
0.0
176
     1
 90
        0
176
     1
290
     0
176
     1
290
     1
176
     1
290
     1
176
     1
290
     0
176
     1
290
     0
176
     1
290
     0
176
     1
290
     0
176
     1
290
     0
176
     1
290
     0
176
     1
 90
       50
176
     1
 40
0.0
176
     1
 40
1.0
176
     1
 90
        0
176
     1
 62
    18
420
        0
176
     1
 90
       50
176
     1
 90
        3
176
     1
 62
     5
420
      255
176
     1
290
     0
176
     1
 90
       50
176
     1
 90
       50
176
     1
 90
       50
176
     1
290
     0
176
     1
 90
       50
176
     1
 62
   256
176
     0
 40
1.0
176
     0
 90
        2
176
     1
  1
strokes_ogs.tif
176
     1
290
     0
176
     1
 40
1.0
176
     1
 40
1.0
176
     1
  0
VISUALSTYLE
  5
2E
102
{ACAD_REACTORS
330
2A
102
}
330
2A
100
AcDbVisualStyle
  2
GouraudWithEdges
 70
     3
177
     3
291
     1
 70
    58
 90
        2
176
     1
 90
        2
176
     1
 90
        1
176
     1
 90
        2
176
     1
 40
0.6
176
     1
 40
30.0
176
     1
 62
     7
420
 16777215
176
     1
 90
        1
176
     1
 90
        0
176
     1
 62
     7
176
     1
 62
   257
176
     1
 90
        1
176
     1
 90
        1
176
     1
 40
1.0
176
     1
 90
        0
176
     1
 62
   257
176
     1
 40
1.0
176
     1
 90
        1
176
     1
 90
        6
176
     1
 90
        2
176
     1
 62
     7
176
     1
 90
        5
176
     1
 90
        0
176
     1
 90
        0
176
     1
290
     0
176
     1
 90
       13
176
     1
 40
0.0
176
     1
 90
        0
176
     1
290
     0
176
     1
290
     1
176
     1
290
     1
176
     1
290
     0
176
     1
290
     0
176
     1
290
     0
176
     1
290
     0
176
     1
290
     0
176
     1
290
     0
176
     1
 90
       50
176
     1
 40
0.0
176
     1
 40
1.0
176
     1
 90
        0
176
     1
 62
    18
420
        0
176
     1
 90
       50
176
     1
 90
        3
176
     1
 62
     5
420
      255
176
     1
290
     0
176
     1
 90
       50
176
     1
 90
       50
176
     1
 90
       50
176
     1
290
     0
176
     1
 90
       50
176
     1
 62
   256
176
     0
 40
1.0
176
     0
 90
        2
176
     1
  1
strokes_ogs.tif
176
     1
290
     0
176
     1
 40
1.0
176
     1
 40
1.0
176
     1
  0
VISUALSTYLE
  5
31
102
{ACAD_REACTORS
330
2A
102
}
330
2A
100
AcDbVisualStyle
  2
Hidden
 70
     6
177
     3
291
     0
 70
    58
 90
        1
176
     1
 90
        2
176
     1
 90
        2
176
     1
 90
        0
176
     1
 40
0.6
176
     1
 40
30.0
176
     1
 62
     7
420
 16777215
176
     1
 90
        2
176
     1
 90
        2
176
     1
 62
     7
176
     1
 62
   257
176
     1
 90
        2
176
     1
 90
        1
176
     1
 40
40.0
176
     1
 90
        0
176
     1
 62
   257
176
     1
 40
1.0
176
     1
 90
        1
176
     1
 90
        6
176
     1
 90
        2
176
     1
 62
     7
176
     1
 90
        3
176
     1
 90
        0
176
     1
 90
        0
176
     1
290
     0
176
     1
 90
        1
176
     1
 40
0.0
176
     1
 90
        0
176
     1
290
     0
176
     1
290
     1
176
     1
290
     1
176
     1
290
     0
176
     1
290
     0
176
     1
290
     0
176
     1
290
     0
176
     1
290
     0
176
     1
290
     0
176
     1
 90
       50
176
     1
 40
0.0
176
     1
 40
1.0
176
     1
 90
        0
176
     1
 62
    18
420
        0
176
     1
 90
       50
176
     1
 90
        3
176
     1
 62
     5
420
      255
176
     1
290
     0
176
     1
 90
       50
176
     1
 90
       50
176
     1
 90
       50
176
     1
290
     0
176
     1
 90
       50
176
     1
 62
   256
176
     0
 40
1.0
176
     0
 90
        2
176
     1
  1
strokes_ogs.tif
176
     1
290
     0
176
     1
 40
1.0
176
     1
 40
1.0
176
     1
  0
VISUALSTYLE
  5
3B
102
{ACAD_REACTORS
330
2A
102
}
330
2A
100
AcDbVisualStyle
  2
JitterOff
 70
    20
177
     3
291
     1
 70
    58
 90
        2
176
     0
 90
        2
176
     0
 90
        0
176
     0
 90
        0
176
     0
 40
0.6
176
     0
 40
30.0
176
     0
 62
     7
420
 16777215
176
     0
 90
        1
176
     0
 90
        4
176
     0
 62
     7
176
     0
 62
   257
176
     0
 90
        1
176
     0
 90
        1
176
     0
 40
1.0
176
     0
 90
       10
176
     2
 62
     7
176
     0
 40
1.0
176
     0
 90
        1
176
     0
 90
        6
176
     0
 90
        2
176
     0
 62
     7
176
     0
 90
        5
176
     0
 90
        0
176
     0
 90
        0
176
     0
290
     0
176
     0
 90
        1
176
     0
 40
0.0
176
     0
 90
        0
176
     0
290
     0
176
     0
290
     1
176
     0
290
     1
176
     0
290
     0
176
     0
290
     0
176
     0
290
     0
176
     0
290
     0
176
     0
290
     0
176
     0
290
     0
176
     0
 90
       50
176
     0
 40
0.0
176
     0
 40
1.0
176
     0
 90
        0
176
     0
 62
    18
420
        0
176
     0
 90
       50
176
     0
 90
        3
176
     0
 62
     5
420
      255
176
     0
290
     0
176
     0
 90
       50
176
     0
 90
       50
176
     0
 90
       50
176
     0
290
     0
176
     0
 90
       50
176
     0
 62
   256
176
     0
 40
1.0
176
     0
 90
        2
176
     0
  1
strokes_ogs.tif
176
     0
290
     0
176
     0
 40
1.0
176
     0
 40
1.0
176
     0
  0
VISUALSTYLE
  5
38
102
{ACAD_REACTORS
330
2A
102
}
330
2A
100
AcDbVisualStyle
  2
Linepattern
 70
    14
177
     3
291
     1
 70
    58
 90
        2
176
     1
 90
        2
176
     1
 90
        0
176
     1
 90
        0
176
     1
 40
0.6
176
     1
 40
30.0
176
     1
 62
     7
420
 16777215
176
     1
 90
        1
176
     1
 90
        4
176
     1
 62
     7
176
     1
 62
   257
176
     1
 90
        7
176
     1
 90
        7
176
     1
 40
1.0
176
     1
 90
        8
176
     1
 62
     7
176
     1
 40
1.0
176
     1
 90
        1
176
     1
 90
        6
176
     1
 90
        2
176
     1
 62
     7
176
     1
 90
        5
176
     1
 90
        0
176
     1
 90
        0
176
     1
290
     0
176
     1
 90
        1
176
     1
 40
0.0
176
     1
 90
        0
176
     1
290
     0
176
     1
290
     1
176
     1
290
     1
176
     1
290
     0
176
     1
290
     0
176
     1
290
     0
176
     1
290
     0
176
     1
290
     0
176
     1
290
     0
176
     1
 90
       50
176
     1
 40
0.0
176
     1
 40
1.0
176
     1
 90
        0
176
     1
 62
    18
420
        0
176
     1
 90
       50
176
     1
 90
        3
176
     1
 62
     5
420
      255
176
     1
290
     0
176
     1
 90
       50
176
     1
 90
       50
176
     1
 90
       50
176
     1
290
     0
176
     1
 90
       50
176
     1
 62
   256
176
     0
 40
1.0
176
     0
 90
        2
176
     1
  1
strokes_ogs.tif
176
     1
290
     0
176
     1
 40
1.0
176
     1
 40
1.0
176
     1
  0
VISUALSTYLE
  5
3C
102
{ACAD_REACTORS
330
2A
102
}
330
2A
100
AcDbVisualStyle
  2
OverhangOff
 70
    21
177
     3
291
     1
 70
    58
 90
        2
176
     0
 90
        2
176
     0
 90
        0
176
     0
 90
        0
176
     0
 40
0.6
176
     0
 40
30.0
176
     0
 62
     7
420
 16777215
176
     0
 90
        1
176
     0
 90
        4
176
     0
 62
     7
176
     0
 62
   257
176
     0
 90
        1
176
     0
 90
        1
176
     0
 40
1.0
176
     0
 90
        9
176
     2
 62
     7
176
     0
 40
1.0
176
     0
 90
        1
176
     0
 90
        6
176
     0
 90
        2
176
     0
 62
     7
176
     0
 90
        5
176
     0
 90
        0
176
     0
 90
        0
176
     0
290
     0
176
     0
 90
        1
176
     0
 40
0.0
176
     0
 90
        0
176
     0
290
     0
176
     0
290
     1
176
     0
290
     1
176
     0
290
     0
176
     0
290
     0
176
     0
290
     0
176
     0
290
     0
176
     0
290
     0
176
     0
290
     0
176
     0
 90
       50
176
     0
 40
0.0
176
     0
 40
1.0
176
     0
 90
        0
176
     0
 62
    18
420
        0
176
     0
 90
       50
176
     0
 90
        3
176
     0
 62
     5
420
      255
176
     0
290
     0
176
     0
 90
       50
176
     0
 90
       50
176
     0
 90
       50
176
     0
290
     0
176
     0
 90
       50
176
     0
 62
   256
176
     0
 40
1.0
176
     0
 90
        2
176
     0
  1
strokes_ogs.tif
176
     0
290
     0
176
     0
 40
1.0
176
     0
 40
1.0
176
     0
  0
VISUALSTYLE
  5
33
102
{ACAD_REACTORS
330
2A
102
}
330
2A
100
AcDbVisualStyle
  2
Realistic
 70
     8
177
     3
291
     0
 70
    58
 90
        2
176
     1
 90
        3
176
     1
 90
        0
176
     1
 90
        2
176
     1
 40
0.6
176
     1
 40
30.0
176
     1
 62
     7
420
 16777215
176
     1
 90
        0
176
     1
 90
        0
176
     1
 62
     7
176
     1
 62
   257
176
     1
 90
        1
176
     1
 90
        1
176
     1
 40
1.0
176
     1
 90
        8
176
     1
 62
   257
176
     1
 40
1.0
176
     1
 90
        1
176
     1
 90
        6
176
     1
 90
        2
176
     1
 62
     7
176
     1
 90
        3
176
     1
 90
        0
176
     1
 90
        0
176
     1
290
     0
176
     1
 90
       13
176
     1
 40
0.0
176
     1
 90
        0
176
     1
290
     0
176
     1
290
     1
176
     1
290
     1
176
     1
290
     0
176
     1
290
     0
176
     1
290
     0
176
     1
290
     0
176
     1
290
     0
176
     1
290
     0
176
     1
 90
       50
176
     1
 40
0.0
176
     1
 40
1.0
176
     1
 90
        0
176
     1
 62
    18
420
        0
176
     1
 90
       50
176
     1
 90
        3
176
     1
 62
     5
420
      255
176
     1
290
     0
176
     1
 90
       50
176
     1
 90
       50
176
     1
 90
       50
176
     1
290
     0
176
     1
 90
       50
176
     1
 62
   256
176
     0
 40
1.0
176
     0
 90
        2
176
     1
  1
strokes_ogs.tif
176
     1
290
     0
176
     1
 40
1.0
176
     1
 40
1.0
176
     1
  0
VISUALSTYLE
  5
42
102
{ACAD_REACTORS
330
2A
102
}
330
2A
100
AcDbVisualStyle
  2
Shaded
 70
    27
177
     3
291
     0
 70
    58
 90
        2
176
     1
 90
        2
176
     1
 90
        1
176
     1
 90
        2
176
     1
 40
0.6
176
     1
 40
30.0
176
     1
 62
     7
420
 16777215
176
     1
 90
        0
176
     1
 90
        4
176
     1
 62
     7
176
     1
 62
   257
176
     1
 90
        1
176
     1
 90
        1
176
     1
 40
1.0
176
     1
 90
        8
176
     1
 62
   257
176
     1
 40
1.0
176
     1
 90
        1
176
     1
 90
        6
176
     1
 90
        2
176
     1
 62
     8
420
  7895160
176
     1
 90
        3
176
     1
 90
        0
176
     1
 90
        0
176
     1
290
     0
176
     1
 90
        5
176
     1
 40
0.0
176
     1
 90
        0
176
     1
290
     0
176
     1
290
     1
176
     1
290
     1
176
     1
290
     0
176
     1
290
     0
176
     1
290
     0
176
     1
290
     0
176
     1
290
     0
176
     1
290
     0
176
     1
 90
       50
176
     1
 40
0.0
176
     1
 40
1.0
176
     1
 90
        0
176
     1
 62
    18
420
        0
176
     1
 90
       50
176
     1
 90
        3
176
     1
 62
     5
420
      255
176
     1
290
     0
176
     1
 90
       50
176
     1
 90
       50
176
     1
 90
       50
176
     1
290
     0
176
     1
 90
       50
176
     1
 62
   256
176
     0
 40
1.0
176
     0
 90
        2
176
     1
  1
strokes_ogs.tif
176
     1
290
     0
176
     1
 40
1.0
176
     1
 40
1.0
176
     1
  0
VISUALSTYLE
  5
41
102
{ACAD_REACTORS
330
2A
102
}
330
2A
100
AcDbVisualStyle
  2
Shaded with edges
 70
    26
177
     3
291
     0
 70
    58
 90
        2
176
     1
 90
        2
176
     1
 90
        1
176
     1
 90
        2
176
     1
 40
0.6
176
     1
 40
30.0
176
     1
 62
     7
420
 16777215
176
     1
 90
        1
176
     1
 90
       10
176
     1
 62
     7
176
     1
 62
   257
176
     1
 90
        2
176
     1
 90
        1
176
     1
 40
1.0
176
     1
 90
        8
176
     1
 62
   257
176
     1
 40
1.0
176
     1
 90
        1
176
     1
 90
        6
176
     1
 90
        2
176
     1
 62
     7
176
     1
 90
        3
176
     1
 90
        0
176
     1
 90
        0
176
     1
290
     0
176
     1
 90
        5
176
     1
 40
0.0
176
     1
 90
        0
176
     1
290
     0
176
     1
290
     1
176
     1
290
     1
176
     1
290
     0
176
     1
290
     0
176
     1
290
     0
176
     1
290
     0
176
     1
290
     0
176
     1
290
     0
176
     1
 90
       50
176
     1
 40
0.0
176
     1
 40
1.0
176
     1
 90
        0
176
     1
 62
    18
420
        0
176
     1
 90
       50
176
     1
 90
        3
176
     1
 62
     5
420
      255
176
     1
290
     0
176
     1
 90
       50
176
     1
 90
       50
176
     1
 90
       50
176
     1
290
     0
176
     1
 90
       50
176
     1
 62
   256
176
     0
 40
1.0
176
     0
 90
        2
176
     1
  1
strokes_ogs.tif
176
     1
290
     0
176
     1
 40
1.0
176
     1
 40
1.0
176
     1
  0
VISUALSTYLE
  5
3E
102
{ACAD_REACTORS
330
2A
102
}
330
2A
100
AcDbVisualStyle
  2
Shades of Gray
 70
    23
177
     3
291
     0
 70
    58
 90
        2
176
     1
 90
        2
176
     1
 90
        3
176
     1
 90
        0
176
     1
 40
0.6
176
     1
 40
30.0
176
     1
 62
     7
420
 16777215
176
     1
 90
        2
176
     1
 90
        2
176
     1
 62
     7
176
     1
 62
     7
176
     1
 90
        1
176
     1
 90
        1
176
     1
 40
40.0
176
     1
 90
        8
176
     1
 62
     7
176
     1
 40
1.0
176
     1
 90
        1
176
     1
 90
        6
176
     1
 90
        2
176
     1
 62
     7
176
     1
 90
        3
176
     1
 90
        0
176
     1
 90
        0
176
     1
290
     0
176
     1
 90
        1
176
     1
 40
0.0
176
     1
 90
        0
176
     1
290
     0
176
     1
290
     1
176
     1
290
     1
176
     1
290
     0
176
     1
290
     0
176
     1
290
     0
176
     1
290
     0
176
     1
290
     0
176
     1
290
     0
176
     1
 90
       50
176
     1
 40
0.0
176
     1
 40
1.0
176
     1
 90
        0
176
     1
 62
    18
420
        0
176
     1
 90
       50
176
     1
 90
        3
176
     1
 62
     5
420
      255
176
     1
290
     0
176
     1
 90
       50
176
     1
 90
       50
176
     1
 90
       50
176
     1
290
     0
176
     1
 90
       50
176
     1
 62
   256
176
     0
 40
1.0
176
     0
 90
        2
176
     1
  1
strokes_ogs.tif
176
     1
290
     0
176
     1
 40
1.0
176
     1
 40
1.0
176
     1
  0
VISUALSTYLE
  5
3F
102
{ACAD_REACTORS
330
2A
102
}
330
2A
100
AcDbVisualStyle
  2
Sketchy
 70
    24
177
     3
291
     0
 70
    58
 90
        1
176
     1
 90
        2
176
     1
 90
        2
176
     1
 90
        0
176
     1
 40
0.6
176
     1
 40
30.0
176
     1
 62
     7
420
 16777215
176
     1
 90
        2
176
     1
 90
        2
176
     1
 62
     7
176
     1
 62
     7
176
     1
 90
        1
176
     1
 90
        1
176
     1
 40
40.0
176
     1
 90
       11
176
     1
 62
     7
176
     1
 40
1.0
176
     1
 90
        1
176
     1
 90
        6
176
     1
 90
        2
176
     1
 62
     7
176
     1
 90
        6
176
     1
 90
        0
176
     1
 90
        0
176
     1
290
     0
176
     1
 90
        1
176
     1
 40
0.0
176
     1
 90
        0
176
     1
290
     0
176
     1
290
     1
176
     1
290
     1
176
     1
290
     0
176
     1
290
     0
176
     1
290
     0
176
     1
290
     0
176
     1
290
     0
176
     1
290
     0
176
     1
 90
       50
176
     1
 40
0.0
176
     1
 40
1.0
176
     1
 90
        0
176
     1
 62
    18
420
        0
176
     1
 90
       50
176
     1
 90
        3
176
     1
 62
     5
420
      255
176
     1
290
     0
176
     1
 90
       50
176
     1
 90
       50
176
     1
 90
       50
176
     1
290
     0
176
     1
 90
       50
176
     1
 62
   256
176
     0
 40
1.0
176
     0
 90
        2
176
     1
  1
strokes_ogs.tif
176
     1
290
     0
176
     1
 40
1.0
176
     1
 40
1.0
176
     1
  0
VISUALSTYLE
  5
37
102
{ACAD_REACTORS
330
2A
102
}
330
2A
100
AcDbVisualStyle
  2
Thicken
 70
    13
177
     3
291
     1
 70
    58
 90
        2
176
     1
 90
        2
176
     1
 90
        0
176
     1
 90
        0
176
     1
 40
0.6
176
     1
 40
30.0
176
     1
 62
     7
420
 16777215
176
     1
 90
        1
176
     1
 90
        4
176
     1
 62
     7
176
     1
 62
   257
176
     1
 90
        1
176
     1
 90
        1
176
     1
 40
1.0
176
     1
 90
       12
176
     1
 62
     7
176
     1
 40
1.0
176
     1
 90
        1
176
     1
 90
        6
176
     1
 90
        2
176
     1
 62
     7
176
     1
 90
        5
176
     1
 90
        0
176
     1
 90
        0
176
     1
290
     0
176
     1
 90
        1
176
     1
 40
0.0
176
     1
 90
        0
176
     1
290
     0
176
     1
290
     1
176
     1
290
     1
176
     1
290
     0
176
     1
290
     0
176
     1
290
     0
176
     1
290
     0
176
     1
290
     0
176
     1
290
     0
176
     1
 90
       50
176
     1
 40
0.0
176
     1
 40
1.0
176
     1
 90
        0
176
     1
 62
    18
420
        0
176
     1
 90
       50
176
     1
 90
        3
176
     1
 62
     5
420
      255
176
     1
290
     0
176
     1
 90
       50
176
     1
 90
       50
176
     1
 90
       50
176
     1
290
     0
176
     1
 90
       50
176
     1
 62
   256
176
     0
 40
1.0
176
     0
 90
        2
176
     1
  1
strokes_ogs.tif
176
     1
290
     0
176
     1
 40
1.0
176
     1
 40
1.0
176
     1
  0
VISUALSTYLE
  5
30
102
{ACAD_REACTORS
330
2A
102
}
330
2A
100
AcDbVisualStyle
  2
Wireframe
 70
     5
177
     3
291
     0
 70
    58
 90
        0
176
     1
 90
        2
176
     1
 90
        0
176
     1
 90
        0
176
     1
 40
0.6
176
     1
 40
30.0
176
     1
 62
     7
420
 16777215
176
     1
 90
        1
176
     1
 90
        4
176
     1
 62
     7
176
     1
 62
   257
176
     1
 90
        1
176
     1
 90
        1
176
     1
 40
1.0
176
     1
 90
        0
176
     1
 62
   257
176
     1
 40
1.0
176
     1
 90
        1
176
     1
 90
        6
176
     1
 90
        2
176
     1
 62
     7
176
     1
 90
        3
176
     1
 90
        0
176
     1
 90
        0
176
     1
290
     0
176
     1
 90
        1
176
     1
 40
0.0
176
     1
 90
        0
176
     1
290
     0
176
     1
290
     1
176
     1
290
     1
176
     1
290
     0
176
     1
290
     0
176
     1
290
     0
176
     1
290
     0
176
     1
290
     0
176
     1
290
     0
176
     1
 90
       50
176
     1
 40
0.0
176
     1
 40
1.0
176
     1
 90
        0
176
     1
 62
    18
420
        0
176
     1
 90
       50
176
     1
 90
        3
176
     1
 62
     5
420
      255
176
     1
290
     0
176
     1
 90
       50
176
     1
 90
       50
176
     1
 90
       50
176
     1
290
     0
176
     1
 90
       50
176
     1
 62
   256
176
     0
 40
1.0
176
     0
 90
        2
176
     1
  1
strokes_ogs.tif
176
     1
290
     0
176
     1
 40
1.0
176
     1
 40
1.0
176
     1
  0
VISUALSTYLE
  5
40
102
{ACAD_REACTORS
330
2A
102
}
330
2A
100
AcDbVisualStyle
  2
X-Ray
 70
    25
177
     3
291
     0
 70
    58
 90
        2
176
     1
 90
        2
176
     1
 90
        1
176
     1
 90
        1
176
     1
 40
0.5
176
     1
 40
30.0
176
     1
 62
     7
420
 16777215
176
     1
 90
        1
176
     1
 90
        0
176
     1
 62
     7
176
     1
 62
   257
176
     1
 90
        1
176
     1
 90
        1
176
     1
 40
1.0
176
     1
 90
        8
176
     1
 62
     7
176
     1
 40
1.0
176
     1
 90
        1
176
     1
 90
        6
176
     1
 90
        2
176
     1
 62
     7
176
     1
 90
        3
176
     1
 90
        0
176
     1
 90
        0
176
     1
290
     0
176
     1
 90
       13
176
     1
 40
0.0
176
     1
 90
        0
176
     1
290
     0
176
     1
290
     1
176
     1
290
     1
176
     1
290
     0
176
     1
290
     0
176
     1
290
     0
176
     1
290
     0
176
     1
290
     0
176
     1
290
     0
176
     1
 90
       50
176
     1
 40
0.0
176
     1
 40
1.0
176
     1
 90
        0
176
     1
 62
    18
420
        0
176
     1
 90
       50
176
     1
 90
        3
176
     1
 62
     5
420
      255
176
     1
290
     0
176
     1
 90
       50
176
     1
 90
       50
176
     1
 90
       50
176
     1
290
     0
176
     1
 90
       50
176
     1
 62
   256
176
     0
 40
1.0
176
     0
 90
        2
176
     1
  1
strokes_ogs.tif
176
     1
290
     0
176
     1
 40
1.0
176
     1
 40
1.0
176
     1
  0
DICTIONARYVAR
  5
1AB
102
{ACAD_REACTORS
330
1AA
102
}
330
1AA
100
DictionaryVariables
280
     0
  1
1:1
  0
DICTIONARYVAR
  5
1B0
102
{ACAD_REACTORS
330
1AA
102
}
330
1AA
100
DictionaryVariables
280
     0
  1
Standard
  0
DICTIONARYVAR
  5
1AF
102
{ACAD_REACTORS
330
1AA
102
}
330
1AA
100
DictionaryVariables
280
     0
  1
Standard
  0
DICTIONARY
  5
1AC
330
6A
100
AcDbDictionary
280
     1
281
     1
  3
ACAD_ROUNDTRIP_2008_TABLESTYLE_CELLSTYLEMAP
360
1AD
  0
CELLSTYLEMAP
  5
1AD
102
{ACAD_REACTORS
330
1AC
102
}
330
1AC
100
AcDbCellStyleMap
 90
        3
300
CELLSTYLE
  1
TABLEFORMAT_BEGIN
 90
        5
170
     1
 91
        0
 92
    32768
 62
   257
 93
        1
300
CONTENTFORMAT
  1
CONTENTFORMAT_BEGIN
 90
        0
 91
        0
 92
        4
 93
        0
300

 40
0.0
140
1.0
 94
        5
 62
     0
340
11
144
0.25
309
CONTENTFORMAT_END
171
     1
301
MARGIN
  1
CELLMARGIN_BEGIN
 40
0.06
 40
0.06
 40
0.06
 40
0.06
 40
0.06
 40
0.06
309
CELLMARGIN_END
 94
        6
 95
        1
302
GRIDFORMAT
  1
GRIDFORMAT_BEGIN
 90
        0
 91
        1
 62
     0
 92
       -2
340
14
 93
        0
 40
0.045
309
GRIDFORMAT_END
 95
        2
302
GRIDFORMAT
  1
GRIDFORMAT_BEGIN
 90
        0
 91
        1
 62
     0
 92
       -2
340
14
 93
        0
 40
0.045
309
GRIDFORMAT_END
 95
        4
302
GRIDFORMAT
  1
GRIDFORMAT_BEGIN
 90
        0
 91
        1
 62
     0
 92
       -2
340
14
 93
        0
 40
0.045
309
GRIDFORMAT_END
 95
        8
302
GRIDFORMAT
  1
GRIDFORMAT_BEGIN
 90
        0
 91
        1
 62
     0
 92
       -2
340
14
 93
        0
 40
0.045
309
GRIDFORMAT_END
 95
       16
302
GRIDFORMAT
  1
GRIDFORMAT_BEGIN
 90
        0
 91
        1
 62
     0
 92
       -2
340
14
 93
        0
 40
0.045
309
GRIDFORMAT_END
 95
       32
302
GRIDFORMAT
  1
GRIDFORMAT_BEGIN
 90
        0
 91
        1
 62
     0
 92
       -2
340
14
 93
        0
 40
0.045
309
GRIDFORMAT_END
309
TABLEFORMAT_END
  1
CELLSTYLE_BEGIN
 90
        1
 91
        1
300
_TITLE
309
CELLSTYLE_END
300
CELLSTYLE
  1
TABLEFORMAT_BEGIN
 90
        5
170
     1
 91
        0
 92
        0
 62
   257
 93
        1
300
CONTENTFORMAT
  1
CONTENTFORMAT_BEGIN
 90
        0
 91
        0
 92
        4
 93
        0
300

 40
0.0
140
1.0
 94
        5
 62
     0
340
11
144
0.18
309
CONTENTFORMAT_END
171
     1
301
MARGIN
  1
CELLMARGIN_BEGIN
 40
0.06
 40
0.06
 40
0.06
 40
0.06
 40
0.06
 40
0.06
309
CELLMARGIN_END
 94
        6
 95
        1
302
GRIDFORMAT
  1
GRIDFORMAT_BEGIN
 90
        0
 91
        1
 62
     0
 92
       -2
340
14
 93
        0
 40
0.045
309
GRIDFORMAT_END
 95
        2
302
GRIDFORMAT
  1
GRIDFORMAT_BEGIN
 90
        0
 91
        1
 62
     0
 92
       -2
340
14
 93
        0
 40
0.045
309
GRIDFORMAT_END
 95
        4
302
GRIDFORMAT
  1
GRIDFORMAT_BEGIN
 90
        0
 91
        1
 62
     0
 92
       -2
340
14
 93
        0
 40
0.045
309
GRIDFORMAT_END
 95
        8
302
GRIDFORMAT
  1
GRIDFORMAT_BEGIN
 90
        0
 91
        1
 62
     0
 92
       -2
340
14
 93
        0
 40
0.045
309
GRIDFORMAT_END
 95
       16
302
GRIDFORMAT
  1
GRIDFORMAT_BEGIN
 90
        0
 91
        1
 62
     0
 92
       -2
340
14
 93
        0
 40
0.045
309
GRIDFORMAT_END
 95
       32
302
GRIDFORMAT
  1
GRIDFORMAT_BEGIN
 90
        0
 91
        1
 62
     0
 92
       -2
340
14
 93
        0
 40
0.045
309
GRIDFORMAT_END
309
TABLEFORMAT_END
  1
CELLSTYLE_BEGIN
 90
        2
 91
        1
300
_HEADER
309
CELLSTYLE_END
300
CELLSTYLE
  1
TABLEFORMAT_BEGIN
 90
        5
170
     1
 91
        0
 92
        0
 62
   257
 93
        1
300
CONTENTFORMAT
  1
CONTENTFORMAT_BEGIN
 90
        0
 91
        0
 92
        4
 93
        0
300

 40
0.0
140
1.0
 94
        2
 62
     0
340
11
144
0.18
309
CONTENTFORMAT_END
171
     1
301
MARGIN
  1
CELLMARGIN_BEGIN
 40
0.06
 40
0.06
 40
0.06
 40
0.06
 40
0.06
 40
0.06
309
CELLMARGIN_END
 94
        6
 95
        1
302
GRIDFORMAT
  1
GRIDFORMAT_BEGIN
 90
        0
 91
        1
 62
     0
 92
       -2
340
14
 93
        0
 40
0.045
309
GRIDFORMAT_END
 95
        2
302
GRIDFORMAT
  1
GRIDFORMAT_BEGIN
 90
        0
 91
        1
 62
     0
 92
       -2
340
14
 93
        0
 40
0.045
309
GRIDFORMAT_END
 95
        4
302
GRIDFORMAT
  1
GRIDFORMAT_BEGIN
 90
        0
 91
        1
 62
     0
 92
       -2
340
14
 93
        0
 40
0.045
309
GRIDFORMAT_END
 95
        8
302
GRIDFORMAT
  1
GRIDFORMAT_BEGIN
 90
        0
 91
        1
 62
     0
 92
       -2
340
14
 93
        0
 40
0.045
309
GRIDFORMAT_END
 95
       16
302
GRIDFORMAT
  1
GRIDFORMAT_BEGIN
 90
        0
 91
        1
 62
     0
 92
       -2
340
14
 93
        0
 40
0.045
309
GRIDFORMAT_END
 95
       32
302
GRIDFORMAT
  1
GRIDFORMAT_BEGIN
 90
        0
 91
        1
 62
     0
 92
       -2
340
14
 93
        0
 40
0.045
309
GRIDFORMAT_END
309
TABLEFORMAT_END
  1
CELLSTYLE_BEGIN
 90
        3
 91
        2
300
_DATA
309
CELLSTYLE_END
  0
ENDSEC
  0
EOF