0
SECTION
  2
HEADER
  9
$ACADVER
  1
AC1027
  9
$ACADMAINTVER
 70
     8
  9
$DWGCODEPAGE
  3
ANSI_1252
  9
$REQUIREDVERSIONS
160
                 0
  9
$COMMENTS
  1
File was created by Cadenas
  9
$CUSTOMPROPERTYTAG
  1
NN
  9
$CUSTOMPROPERTY
  1
D-Lok Medium Duty Wide Slot Take Up Inch Bore
  9
$CUSTOMPROPERTYTAG
  1
NT
  9
$CUSTOMPROPERTY
  1
DLM Medium Duty Wide Slot Take-Up Bearings
  9
$CUSTOMPROPERTYTAG
  1
NB
  9
$CUSTOMPROPERTY
  1
062881
  9
$CUSTOMPROPERTYTAG
  1
NBSYN
  9
$CUSTOMPROPERTY
  1
$PN.
  9
$CUSTOMPROPERTYTAG
  1
LINA
  9
$CUSTOMPROPERTY
  1
062881
  9
$CUSTOMPROPERTYTAG
  1
SERIES
  9
$CUSTOMPROPERTY
  1
212
  9
$CUSTOMPROPERTYTAG
  1
SS
  9
$CUSTOMPROPERTY
  1
2-1/4
  9
$CUSTOMPROPERTYTAG
  1
PN
  9
$CUSTOMPROPERTY
  1
062881
  9
$CUSTOMPROPERTYTAG
  1
DESCRIPTION
  9
$CUSTOMPROPERTY
  1
WSTU-DLM-204
  9
$CUSTOMPROPERTYTAG
  1
W
  9
$CUSTOMPROPERTY
  1
12.4
  9
$CUSTOMPROPERTYTAG
  1
FS
  9
$CUSTOMPROPERTY
  1
WS502
  9
$CUSTOMPROPERTYTAG
  1
A
  9
$CUSTOMPROPERTY
  1
2.38
  9
$CUSTOMPROPERTYTAG
  1
B
  9
$CUSTOMPROPERTY
  1
7.50
  9
$CUSTOMPROPERTYTAG
  1
C
  9
$CUSTOMPROPERTY
  1
1.063
  9
$CUSTOMPROPERTYTAG
  1
D
  9
$CUSTOMPROPERTY
  1
4.00
  9
$CUSTOMPROPERTYTAG
  1
E
  9
$CUSTOMPROPERTY
  1
4.69
  9
$CUSTOMPROPERTYTAG
  1
F
  9
$CUSTOMPROPERTY
  1
1-1/4
  9
$CUSTOMPROPERTYTAG
  1
G
  9
$CUSTOMPROPERTY
  1
0.75
  9
$CUSTOMPROPERTYTAG
  1
H
  9
$CUSTOMPROPERTY
  1
1.25
  9
$CUSTOMPROPERTYTAG
  1
J
  9
$CUSTOMPROPERTY
  1
4.00
  9
$CUSTOMPROPERTYTAG
  1
K
  9
$CUSTOMPROPERTY
  1
2.50
  9
$CUSTOMPROPERTYTAG
  1
L
  9
$CUSTOMPROPERTY
  1
4.11
  9
$CUSTOMPROPERTYTAG
  1
M
  9
$CUSTOMPROPERTY
  1
5.110/5.140
  9
$CUSTOMPROPERTYTAG
  1
N
  9
$CUSTOMPROPERTY
  1
5.88
  9
$CUSTOMPROPERTYTAG
  1
R
  9
$CUSTOMPROPERTY
  1
0.90
  9
$CUSTOMPROPERTYTAG
  1
S
  9
$CUSTOMPROPERTY
  1
1.48
  9
$CUSTOMPROPERTYTAG
  1
T
  9
$CUSTOMPROPERTY
  1
2.50
  9
$CUSTOMPROPERTYTAG
  1
COMPANY
  9
$CUSTOMPROPERTY
  1
baldor
  9
$INSBASE
 10
0.0
 20
0.0
 30
0.0
  9
$EXTMIN
 10
1.000000000000000E+20
 20
1.000000000000000E+20
 30
1.000000000000000E+20
  9
$EXTMAX
 10
-1.000000000000000E+20
 20
-1.000000000000000E+20
 30
-1.000000000000000E+20
  9
$LIMMIN
 10
0.0
 20
0.0
  9
$LIMMAX
 10
12.0
 20
9.0
  9
$ORTHOMODE
 70
     0
  9
$REGENMODE
 70
     1
  9
$FILLMODE
 70
     1
  9
$QTEXTMODE
 70
     0
  9
$MIRRTEXT
 70
     1
  9
$LTSCALE
 40
1.0
  9
$ATTMODE
 70
     1
  9
$TEXTSIZE
 40
0.2
  9
$TRACEWID
 40
0.05
  9
$TEXTSTYLE
  7
Standard
  9
$CLAYER
  8
0
  9
$CELTYPE
  6
ByLayer
  9
$CECOLOR
 62
   256
  9
$CELTSCALE
 40
1.0
  9
$DISPSILH
 70
     0
  9
$DIMSCALE
 40
1.0
  9
$DIMASZ
 40
0.18
  9
$DIMEXO
 40
0.0625
  9
$DIMDLI
 40
0.38
  9
$DIMRND
 40
0.0
  9
$DIMDLE
 40
0.0
  9
$DIMEXE
 40
0.18
  9
$DIMTP
 40
0.0
  9
$DIMTM
 40
0.0
  9
$DIMTXT
 40
0.18
  9
$DIMCEN
 40
0.09
  9
$DIMTSZ
 40
0.0
  9
$DIMTOL
 70
     0
  9
$DIMLIM
 70
     0
  9
$DIMTIH
 70
     1
  9
$DIMTOH
 70
     1
  9
$DIMSE1
 70
     0
  9
$DIMSE2
 70
     0
  9
$DIMTAD
 70
     0
  9
$DIMZIN
 70
     0
  9
$DIMBLK
  1

  9
$DIMASO
 70
     1
  9
$DIMSHO
 70
     1
  9
$DIMPOST
  1

  9
$DIMAPOST
  1

  9
$DIMALT
 70
     0
  9
$DIMALTD
 70
     2
  9
$DIMALTF
 40
25.4
  9
$DIMLFAC
 40
1.0
  9
$DIMTOFL
 70
     0
  9
$DIMTVP
 40
0.0
  9
$DIMTIX
 70
     0
  9
$DIMSOXD
 70
     0
  9
$DIMSAH
 70
     0
  9
$DIMBLK1
  1

  9
$DIMBLK2
  1

  9
$DIMSTYLE
  2
Standard
  9
$DIMCLRD
 70
     0
  9
$DIMCLRE
 70
     0
  9
$DIMCLRT
 70
     0
  9
$DIMTFAC
 40
1.0
  9
$DIMGAP
 40
0.09
  9
$DIMJUST
 70
     0
  9
$DIMSD1
 70
     0
  9
$DIMSD2
 70
     0
  9
$DIMTOLJ
 70
     1
  9
$DIMTZIN
 70
     0
  9
$DIMALTZ
 70
     0
  9
$DIMALTTZ
 70
     0
  9
$DIMUPT
 70
     0
  9
$DIMDEC
 70
     4
  9
$DIMTDEC
 70
     4
  9
$DIMALTU
 70
     2
  9
$DIMALTTD
 70
     2
  9
$DIMTXSTY
  7
Standard
  9
$DIMAUNIT
 70
     0
  9
$DIMADEC
 70
     0
  9
$DIMALTRND
 40
0.0
  9
$DIMAZIN
 70
     0
  9
$DIMDSEP
 70
    46
  9
$DIMATFIT
 70
     3
  9
$DIMFRAC
 70
     0
  9
$DIMLDRBLK
  1

  9
$DIMLUNIT
 70
     2
  9
$DIMLWD
 70
    -2
  9
$DIMLWE
 70
    -2
  9
$DIMTMOVE
 70
     0
  9
$DIMFXL
 40
1.0
  9
$DIMFXLON
 70
     0
  9
$DIMJOGANG
 40
0.7853981633974483
  9
$DIMTFILL
 70
     0
  9
$DIMTFILLCLR
 70
     0
  9
$DIMARCSYM
 70
     0
  9
$DIMLTYPE
  6

  9
$DIMLTEX1
  6

  9
$DIMLTEX2
  6

  9
$DIMTXTDIRECTION
 70
     0
  9
$LUNITS
 70
     2
  9
$LUPREC
 70
     4
  9
$SKETCHINC
 40
0.1
  9
$FILLETRAD
 40
0.5
  9
$AUNITS
 70
     0
  9
$AUPREC
 70
     0
  9
$MENU
  1
.
  9
$ELEVATION
 40
0.0
  9
$PELEVATION
 40
0.0
  9
$THICKNESS
 40
0.0
  9
$LIMCHECK
 70
     0
  9
$CHAMFERA
 40
0.0
  9
$CHAMFERB
 40
0.0
  9
$CHAMFERC
 40
0.0
  9
$CHAMFERD
 40
0.0
  9
$SKPOLY
 70
     0
  9
$TDCREATE
 40
2458169.000891181
  9
$TDUCREATE
 40
2458168.959224514
  9
$TDUPDATE
 40
2458169.000891366
  9
$TDUUPDATE
 40
2458168.959224699
  9
$TDINDWG
 40
0.0000000116
  9
$TDUSRTIMER
 40
0.0000000116
  9
$USRTIMER
 70
     1
  9
$ANGBASE
 50
0.0
  9
$ANGDIR
 70
     0
  9
$PDMODE
 70
     0
  9
$PDSIZE
 40
0.0
  9
$PLINEWID
 40
0.0
  9
$SPLFRAME
 70
     0
  9
$SPLINETYPE
 70
     6
  9
$SPLINESEGS
 70
     8
  9
$HANDSEED
  5
1C1
  9
$SURFTAB1
 70
     6
  9
$SURFTAB2
 70
     6
  9
$SURFTYPE
 70
     6
  9
$SURFU
 70
     6
  9
$SURFV
 70
     6
  9
$UCSBASE
  2

  9
$UCSNAME
  2

  9
$UCSORG
 10
0.0
 20
0.0
 30
0.0
  9
$UCSXDIR
 10
1.0
 20
0.0
 30
0.0
  9
$UCSYDIR
 10
0.0
 20
1.0
 30
0.0
  9
$UCSORTHOREF
  2

  9
$UCSORTHOVIEW
 70
     0
  9
$UCSORGTOP
 10
0.0
 20
0.0
 30
0.0
  9
$UCSORGBOTTOM
 10
0.0
 20
0.0
 30
0.0
  9
$UCSORGLEFT
 10
0.0
 20
0.0
 30
0.0
  9
$UCSORGRIGHT
 10
0.0
 20
0.0
 30
0.0
  9
$UCSORGFRONT
 10
0.0
 20
0.0
 30
0.0
  9
$UCSORGBACK
 10
0.0
 20
0.0
 30
0.0
  9
$PUCSBASE
  2

  9
$PUCSNAME
  2

  9
$PUCSORG
 10
0.0
 20
0.0
 30
0.0
  9
$PUCSXDIR
 10
1.0
 20
0.0
 30
0.0
  9
$PUCSYDIR
 10
0.0
 20
1.0
 30
0.0
  9
$PUCSORTHOREF
  2

  9
$PUCSORTHOVIEW
 70
     0
  9
$PUCSORGTOP
 10
0.0
 20
0.0
 30
0.0
  9
$PUCSORGBOTTOM
 10
0.0
 20
0.0
 30
0.0
  9
$PUCSORGLEFT
 10
0.0
 20
0.0
 30
0.0
  9
$PUCSORGRIGHT
 10
0.0
 20
0.0
 30
0.0
  9
$PUCSORGFRONT
 10
0.0
 20
0.0
 30
0.0
  9
$PUCSORGBACK
 10
0.0
 20
0.0
 30
0.0
  9
$USERI1
 70
     0
  9
$USERI2
 70
     0
  9
$USERI3
 70
     0
  9
$USERI4
 70
     0
  9
$USERI5
 70
     0
  9
$USERR1
 40
0.0
  9
$USERR2
 40
0.0
  9
$USERR3
 40
0.0
  9
$USERR4
 40
0.0
  9
$USERR5
 40
0.0
  9
$WORLDVIEW
 70
     1
  9
$SHADEDGE
 70
     3
  9
$SHADEDIF
 70
    70
  9
$TILEMODE
 70
     1
  9
$MAXACTVP
 70
    64
  9
$PINSBASE
 10
0.0
 20
0.0
 30
0.0
  9
$PLIMCHECK
 70
     0
  9
$PEXTMIN
 10
1.000000000000000E+20
 20
1.000000000000000E+20
 30
1.000000000000000E+20
  9
$PEXTMAX
 10
-1.000000000000000E+20
 20
-1.000000000000000E+20
 30
-1.000000000000000E+20
  9
$PLIMMIN
 10
0.0
 20
0.0
  9
$PLIMMAX
 10
12.0
 20
9.0
  9
$UNITMODE
 70
     0
  9
$VISRETAIN
 70
     1
  9
$PLINEGEN
 70
     0
  9
$PSLTSCALE
 70
     1
  9
$TREEDEPTH
 70
  3020
  9
$CMLSTYLE
  2
Standard
  9
$CMLJUST
 70
     0
  9
$CMLSCALE
 40
1.0
  9
$PROXYGRAPHICS
 70
     1
  9
$MEASUREMENT
 70
     0
  9
$CELWEIGHT
370
    -1
  9
$ENDCAPS
280
     0
  9
$JOINSTYLE
280
     0
  9
$LWDISPLAY
290
     0
  9
$INSUNITS
 70
     1
  9
$HYPERLINKBASE
  1

  9
$STYLESHEET
  1

  9
$XEDIT
290
     1
  9
$CEPSNTYPE
380
     0
  9
$PSTYLEMODE
290
     1
  9
$FINGERPRINTGUID
  2
{B809DC94-3FB4-43B0-8FF4-7C6B9952F9B2}
  9
$VERSIONGUID
  2
{FAEB1C32-E019-11D5-929B-00C0DF256EC4}
  9
$EXTNAMES
290
     1
  9
$PSVPSCALE
 40
0.0
  9
$OLESTARTUP
290
     0
  9
$SORTENTS
280
   127
  9
$INDEXCTL
280
     0
  9
$HIDETEXT
280
     1
  9
$XCLIPFRAME
280
     2
  9
$HALOGAP
280
     0
  9
$OBSCOLOR
 70
   257
  9
$OBSLTYPE
280
     0
  9
$INTERSECTIONDISPLAY
280
     0
  9
$INTERSECTIONCOLOR
 70
   257
  9
$DIMASSOC
280
     2
  9
$PROJECTNAME
  1

  9
$CAMERADISPLAY
290
     0
  9
$LENSLENGTH
 40
50.0
  9
$CAMERAHEIGHT
 40
0.0
  9
$STEPSPERSEC
 40
2.0
  9
$STEPSIZE
 40
6.0
  9
$3DDWFPREC
 40
2.0
  9
$PSOLWIDTH
 40
0.25
  9
$PSOLHEIGHT
 40
4.0
  9
$LOFTANG1
 40
1.570796326794897
  9
$LOFTANG2
 40
1.570796326794897
  9
$LOFTMAG1
 40
0.0
  9
$LOFTMAG2
 40
0.0
  9
$LOFTPARAM
 70
     7
  9
$LOFTNORMALS
280
     1
  9
$LATITUDE
 40
37.795
  9
$LONGITUDE
 40
-122.394
  9
$NORTHDIRECTION
 40
0.0
  9
$TIMEZONE
 70
 -8000
  9
$LIGHTGLYPHDISPLAY
280
     1
  9
$TILEMODELIGHTSYNCH
280
     1
  9
$CMATERIAL
347
44
  9
$SOLIDHIST
280
     0
  9
$SHOWHIST
280
     1
  9
$DWFFRAME
280
     2
  9
$DGNFRAME
280
     2
  9
$REALWORLDSCALE
290
     1
  9
$INTERFERECOLOR
 62
   256
  9
$CSHADOW
280
     0
  9
$SHADOWPLANELOCATION
 40
0.0
  0
ENDSEC
  0
SECTION
  2
CLASSES
  0
CLASS
  1
ACDBDICTIONARYWDFLT
  2
AcDbDictionaryWithDefault
  3
ObjectDBX Classes
 90
        0
 91
        4
280
     0
281
     0
  0
CLASS
  1
VISUALSTYLE
  2
AcDbVisualStyle
  3
ObjectDBX Classes
 90
     4095
 91
        4
280
     0
281
     0
  0
CLASS
  1
MATERIAL
  2
AcDbMaterial
  3
ObjectDBX Classes
 90
     1153
 91
        4
280
     0
281
     0
  0
CLASS
  1
SCALE
  2
AcDbScale
  3
ObjectDBX Classes
 90
     1153
 91
        4
280
     0
281
     0
  0
CLASS
  1
TABLESTYLE
  2
AcDbTableStyle
  3
ObjectDBX Classes
 90
     4095
 91
        4
280
     0
281
     0
  0
CLASS
  1
MLEADERSTYLE
  2
AcDbMLeaderStyle
  3
ACDB_MLEADERSTYLE_CLASS
 90
     4095
 91
        4
280
     0
281
     0
  0
CLASS
  1
SUN
  2
AcDbSun
  3
SCENEOE
 90
     1153
 91
        4
280
     0
281
     0
  0
CLASS
  1
DICTIONARYVAR
  2
AcDbDictionaryVar
  3
ObjectDBX Classes
 90
        0
 91
        4
280
     0
281
     0
  0
CLASS
  1
CELLSTYLEMAP
  2
AcDbCellStyleMap
  3
ObjectDBX Classes
 90
     1152
 91
        4
280
     0
281
     0
  0
ENDSEC
  0
SECTION
  2
TABLES
  0
TABLE
  2
VPORT
  5
8
330
0
100
AcDbSymbolTable
 70
     1
  0
VPORT
  5
29
330
8
100
AcDbSymbolTableRecord
100
AcDbViewportTableRecord
  2
*Active
 70
     0
 10
0.0
 20
0.0
 11
1.0
 21
1.0
 12
0.0
 22
0.0
 13
0.0
 23
0.0
 14
0.5
 24
0.5
 15
0.5
 25
0.5
 16
0.0
 26
0.0
 36
1.0
 17
0.0
 27
0.0
 37
0.0
 40
5.997599999999999
 41
0.7954421768707481
 42
50.0
 43
0.0
 44
0.0
 50
0.0
 51
0.0
 71
     0
 72
   100
 73
     1
 74
     3
 75
     0
 76
     0
 77
     0
 78
     0
281
     0
 65
     1
110
0.0
120
0.0
130
0.0
111
1.0
121
0.0
131
0.0
112
0.0
122
1.0
132
0.0
 79
     0
146
0.0
348
2F
 60
     3
 61
     5
292
     1
282
     1
141
0.0
142
0.0
 63
   250
361
6D
  0
ENDTAB
  0
TABLE
  2
LTYPE
  5
5
330
0
100
AcDbSymbolTable
 70
     3
  0
LTYPE
  5
14
330
5
100
AcDbSymbolTableRecord
100
AcDbLinetypeTableRecord
  2
ByBlock
 70
     0
  3

 72
    65
 73
     0
 40
0.0
  0
LTYPE
  5
15
330
5
100
AcDbSymbolTableRecord
100
AcDbLinetypeTableRecord
  2
ByLayer
 70
     0
  3

 72
    65
 73
     0
 40
0.0
  0
LTYPE
  5
16
330
5
100
AcDbSymbolTableRecord
100
AcDbLinetypeTableRecord
  2
Continuous
 70
     0
  3
Solid line
 72
    65
 73
     0
 40
0.0
  0
LTYPE
  5
A7
330
5
100
AcDbSymbolTableRecord
100
AcDbLinetypeTableRecord
  2
Dashed
 70
     0
  3

 72
    65
 73
     2
 40
2.0
 49
1.0
 74
     0
 49
-1.0
 74
     0
  0
LTYPE
  5
187
330
5
100
AcDbSymbolTableRecord
100
AcDbLinetypeTableRecord
  2
Center
 70
     0
  3

 72
    65
 73
     4
 40
1.5
 49
0.45
 74
     0
 49
-0.5
 74
     0
 49
0.05
 74
     0
 49
-0.5
 74
     0
  0
ENDTAB
  0
TABLE
  2
LAYER
  5
2
330
0
100
AcDbSymbolTable
 70
     6
  0
LAYER
  5
10
330
2
100
AcDbSymbolTableRecord
100
AcDbLayerTableRecord
  2
0
 70
     0
 62
     7
  6
Continuous
370
    -3
390
F
347
46
348
0
  0
LAYER
  5
72
330
2
100
AcDbSymbolTableRecord
100
AcDbLayerTableRecord
  2
AM_6
 70
     0
 62
    -2
  6
Continuous
370
    35
390
F
347
46
348
0
  0
LAYER
  5
A8
330
2
100
AcDbSymbolTableRecord
100
AcDbLayerTableRecord
  2
AM_9
 70
     0
 62
     6
  6
Dashed
370
    25
390
F
347
46
348
0
  0
LAYER
  5
CD
330
2
100
AcDbSymbolTableRecord
100
AcDbLayerTableRecord
  2
AM_4
 70
     0
 62
     7
  6
Continuous
370
    50
390
F
347
46
348
0
  0
LAYER
  5
188
330
2
100
AcDbSymbolTableRecord
100
AcDbLayerTableRecord
  2
AM_7
 70
     0
 62
     7
  6
Center
370
    25
390
F
347
46
348
0
  0
LAYER
  5
1B4
330
2
100
AcDbSymbolTableRecord
100
AcDbLayerTableRecord
  2
ConnectionPoints
 70
     0
 62
     7
  6
Continuous
370
    50
390
F
347
46
348
0
  0
ENDTAB
  0
TABLE
  2
STYLE
  5
3
330
0
100
AcDbSymbolTable
 70
     1
  0
STYLE
  5
11
330
3
100
AcDbSymbolTableRecord
100
AcDbTextStyleTableRecord
  2
Standard
 70
     0
 40
0.0
 41
1.0
 50
0.0
 71
     0
 42
0.2
  3
txt
  4

  0
ENDTAB
  0
TABLE
  2
VIEW
  5
6
330
0
100
AcDbSymbolTable
 70
     0
  0
ENDTAB
  0
TABLE
  2
UCS
  5
7
330
0
100
AcDbSymbolTable
 70
     0
  0
ENDTAB
  0
TABLE
  2
APPID
  5
9
330
0
100
AcDbSymbolTable
 70
     1
  0
APPID
  5
12
330
9
100
AcDbSymbolTableRecord
100
AcDbRegAppTableRecord
  2
ACAD
 70
     0
  0
ENDTAB
  0
TABLE
  2
DIMSTYLE
  5
A
330
0
100
AcDbSymbolTable
 70
     1
100
AcDbDimStyleTable
  0
DIMSTYLE
105
27
330
A
100
AcDbSymbolTableRecord
100
AcDbDimStyleTableRecord
  2
Standard
 70
     0
178
     0
340
11
  0
ENDTAB
  0
TABLE
  2
BLOCK_RECORD
  5
1
330
0
100
AcDbSymbolTable
 70
     5
  0
BLOCK_RECORD
  5
1F
330
1
100
AcDbSymbolTableRecord
100
AcDbBlockTableRecord
  2
*Model_Space
340
22
 70
     0
280
     1
281
     0
  0
BLOCK_RECORD
  5
1B
330
1
100
AcDbSymbolTableRecord
100
AcDbBlockTableRecord
  2
*Paper_Space
340
1E
 70
     0
280
     1
281
     0
  0
BLOCK_RECORD
  5
23
330
1
100
AcDbSymbolTableRecord
100
AcDbBlockTableRecord
  2
*Paper_Space0
340
26
 70
     0
280
     1
281
     0
  0
BLOCK_RECORD
  5
6E
330
1
100
AcDbSymbolTableRecord
100
AcDbBlockTableRecord
  2
1_062881_2
340
0
102
{BLKREFS
331
6F
102
}
 70
     0
280
     1
281
     0
  0
BLOCK_RECORD
  5
8F
330
1
100
AcDbSymbolTableRecord
100
AcDbBlockTableRecord
  2
2_128664_0_in_062881_2
340
0
102
{BLKREFS
331
90
102
}
 70
     0
280
     1
281
     0
  0
BLOCK_RECORD
  5
D4
330
1
100
AcDbSymbolTableRecord
100
AcDbBlockTableRecord
  2
3_405016_Inch_0_in_062881_2
340
0
102
{BLKREFS
331
D5
102
}
 70
     0
280
     1
281
     0
  0
BLOCK_RECORD
  5
145
330
1
100
AcDbSymbolTableRecord
100
AcDbBlockTableRecord
  2
4_062881H_0_in_062881_2
340
0
102
{BLKREFS
331
146
102
}
 70
     0
280
     1
281
     0
  0
ENDTAB
  0
ENDSEC
  0
SECTION
  2
BLOCKS
  0
BLOCK
  5
20
330
1F
100
AcDbEntity
  8
0
100
AcDbBlockBegin
  2
*Model_Space
 70
     0
 10
0.0
 20
0.0
 30
0.0
  3
*Model_Space
  1

  0
ENDBLK
  5
21
330
1F
100
AcDbEntity
  8
0
100
AcDbBlockEnd
  0
BLOCK
  5
1C
330
1B
100
AcDbEntity
 67
     1
  8
0
100
AcDbBlockBegin
  2
*Paper_Space
 70
     0
 10
0.0
 20
0.0
 30
0.0
  3
*Paper_Space
  1

  0
ENDBLK
  5
1D
330
1B
100
AcDbEntity
 67
     1
  8
0
100
AcDbBlockEnd
  0
BLOCK
  5
24
330
23
100
AcDbEntity
  8
0
100
AcDbBlockBegin
  2
*Paper_Space0
 70
     0
 10
0.0
 20
0.0
 30
0.0
  3
*Paper_Space0
  1

  0
ENDBLK
  5
25
330
23
100
AcDbEntity
  8
0
100
AcDbBlockEnd
  0
BLOCK
  5
70
330
6E
100
AcDbEntity
  8
0
100
AcDbBlockBegin
  2
1_062881_2
 70
     2
 10
0.0
 20
0.0
 30
0.0
  3
1_062881_2
  1

  0
ATTDEF
  5
73
330
6E
100
AcDbEntity
  8
AM_6
100
AcDbText
 10
7.3386
 20
2.94
 30
0.0
 40
0.5
  1
D-Lok Medium Duty Wide Slot Take Up Inch Bore
100
AcDbAttributeDefinition
  3

  2
NN
 70
     8
280
     0
  0
ATTDEF
  5
74
330
6E
100
AcDbEntity
  8
AM_6
100
AcDbText
 10
7.3386
 20
2.44
 30
0.0
 40
0.5
  1
DLM Medium Duty Wide Slot Take-Up Bearings
100
AcDbAttributeDefinition
  3

  2
NT
 70
     8
280
     0
  0
ATTDEF
  5
75
330
6E
100
AcDbEntity
  8
AM_6
100
AcDbText
 10
7.3386
 20
1.94
 30
0.0
 40
0.5
  1
062881
100
AcDbAttributeDefinition
  3

  2
NB
 70
     8
280
     0
  0
ATTDEF
  5
76
330
6E
100
AcDbEntity
  8
AM_6
100
AcDbText
 10
7.3386
 20
1.44
 30
0.0
 40
0.5
  1
$PN.
100
AcDbAttributeDefinition
  3

  2
NBSYN
 70
     8
280
     0
  0
ATTDEF
  5
77
330
6E
100
AcDbEntity
  8
AM_6
100
AcDbText
 10
7.3386
 20
0.94
 30
0.0
 40
0.5
  1
062881
100
AcDbAttributeDefinition
  3

  2
LINA
 70
     8
280
     0
  0
ATTDEF
  5
78
330
6E
100
AcDbEntity
  8
AM_6
100
AcDbText
 10
7.3386
 20
0.4399999999999999
 30
0.0
 40
0.5
  1
212
100
AcDbAttributeDefinition
  3

  2
SERIES
 70
     8
280
     0
  0
ATTDEF
  5
79
330
6E
100
AcDbEntity
  8
AM_6
100
AcDbText
 10
7.3386
 20
-0.0600000000000001
 30
0.0
 40
0.5
  1
2-1/4
100
AcDbAttributeDefinition
  3

  2
SS
 70
     8
280
     0
  0
ATTDEF
  5
7A
330
6E
100
AcDbEntity
  8
AM_6
100
AcDbText
 10
7.3386
 20
-0.56
 30
0.0
 40
0.5
  1
062881
100
AcDbAttributeDefinition
  3

  2
PN
 70
     8
280
     0
  0
ATTDEF
  5
7B
330
6E
100
AcDbEntity
  8
AM_6
100
AcDbText
 10
7.3386
 20
-1.06
 30
0.0
 40
0.5
  1
WSTU-DLM-204
100
AcDbAttributeDefinition
  3

  2
DESCRIPTION
 70
     8
280
     0
  0
ATTDEF
  5
7C
330
6E
100
AcDbEntity
  8
AM_6
100
AcDbText
 10
7.3386
 20
-1.56
 30
0.0
 40
0.5
  1
12.4
100
AcDbAttributeDefinition
  3

  2
W
 70
     8
280
     0
  0
ATTDEF
  5
7D
330
6E
100
AcDbEntity
  8
AM_6
100
AcDbText
 10
7.3386
 20
-2.06
 30
0.0
 40
0.5
  1
WS502
100
AcDbAttributeDefinition
  3

  2
FS
 70
     8
280
     0
  0
ATTDEF
  5
7E
330
6E
100
AcDbEntity
  8
AM_6
100
AcDbText
 10
7.3386
 20
-2.56
 30
0.0
 40
0.5
  1
2.38
100
AcDbAttributeDefinition
  3

  2
A
 70
     8
280
     0
  0
ATTDEF
  5
7F
330
6E
100
AcDbEntity
  8
AM_6
100
AcDbText
 10
7.3386
 20
-3.06
 30
0.0
 40
0.5
  1
7.50
100
AcDbAttributeDefinition
  3

  2
B
 70
     8
280
     0
  0
ATTDEF
  5
80
330
6E
100
AcDbEntity
  8
AM_6
100
AcDbText
 10
7.3386
 20
-3.56
 30
0.0
 40
0.5
  1
1.063
100
AcDbAttributeDefinition
  3

  2
C
 70
     8
280
     0
  0
ATTDEF
  5
81
330
6E
100
AcDbEntity
  8
AM_6
100
AcDbText
 10
7.3386
 20
-4.06
 30
0.0
 40
0.5
  1
4.00
100
AcDbAttributeDefinition
  3

  2
D
 70
     8
280
     0
  0
ATTDEF
  5
82
330
6E
100
AcDbEntity
  8
AM_6
100
AcDbText
 10
7.3386
 20
-4.56
 30
0.0
 40
0.5
  1
4.69
100
AcDbAttributeDefinition
  3

  2
E
 70
     8
280
     0
  0
ATTDEF
  5
83
330
6E
100
AcDbEntity
  8
AM_6
100
AcDbText
 10
7.3386
 20
-5.06
 30
0.0
 40
0.5
  1
1-1/4
100
AcDbAttributeDefinition
  3

  2
F
 70
     8
280
     0
  0
ATTDEF
  5
84
330
6E
100
AcDbEntity
  8
AM_6
100
AcDbText
 10
7.3386
 20
-5.56
 30
0.0
 40
0.5
  1
0.75
100
AcDbAttributeDefinition
  3

  2
G
 70
     8
280
     0
  0
ATTDEF
  5
85
330
6E
100
AcDbEntity
  8
AM_6
100
AcDbText
 10
7.3386
 20
-6.06
 30
0.0
 40
0.5
  1
1.25
100
AcDbAttributeDefinition
  3

  2
H
 70
     8
280
     0
  0
ATTDEF
  5
86
330
6E
100
AcDbEntity
  8
AM_6
100
AcDbText
 10
7.3386
 20
-6.56
 30
0.0
 40
0.5
  1
4.00
100
AcDbAttributeDefinition
  3

  2
J
 70
     8
280
     0
  0
ATTDEF
  5
87
330
6E
100
AcDbEntity
  8
AM_6
100
AcDbText
 10
7.3386
 20
-7.06
 30
0.0
 40
0.5
  1
2.50
100
AcDbAttributeDefinition
  3

  2
K
 70
     8
280
     0
  0
ATTDEF
  5
88
330
6E
100
AcDbEntity
  8
AM_6
100
AcDbText
 10
7.3386
 20
-7.56
 30
0.0
 40
0.5
  1
4.11
100
AcDbAttributeDefinition
  3

  2
L
 70
     8
280
     0
  0
ATTDEF
  5
89
330
6E
100
AcDbEntity
  8
AM_6
100
AcDbText
 10
7.3386
 20
-8.06
 30
0.0
 40
0.5
  1
5.110/5.140
100
AcDbAttributeDefinition
  3

  2
M
 70
     8
280
     0
  0
ATTDEF
  5
8A
330
6E
100
AcDbEntity
  8
AM_6
100
AcDbText
 10
7.3386
 20
-8.56
 30
0.0
 40
0.5
  1
5.88
100
AcDbAttributeDefinition
  3

  2
N
 70
     8
280
     0
  0
ATTDEF
  5
8B
330
6E
100
AcDbEntity
  8
AM_6
100
AcDbText
 10
7.3386
 20
-9.06
 30
0.0
 40
0.5
  1
0.90
100
AcDbAttributeDefinition
  3

  2
R
 70
     8
280
     0
  0
ATTDEF
  5
8C
330
6E
100
AcDbEntity
  8
AM_6
100
AcDbText
 10
7.3386
 20
-9.56
 30
0.0
 40
0.5
  1
1.48
100
AcDbAttributeDefinition
  3

  2
S
 70
     8
280
     0
  0
ATTDEF
  5
8D
330
6E
100
AcDbEntity
  8
AM_6
100
AcDbText
 10
7.3386
 20
-10.06
 30
0.0
 40
0.5
  1
2.50
100
AcDbAttributeDefinition
  3

  2
T
 70
     8
280
     0
  0
ATTDEF
  5
8E
330
6E
100
AcDbEntity
  8
AM_6
100
AcDbText
 10
7.3386
 20
-10.56
 30
0.0
 40
0.5
  1
baldor
100
AcDbAttributeDefinition
  3

  2
COMPANY
 70
     8
280
     0
  0
INSERT
  5
90
330
6E
100
AcDbEntity
  8
0
100
AcDbBlockReference
  2
2_128664_0_in_062881_2
 10
0.0
 20
0.0
 30
0.0
  0
INSERT
  5
D5
330
6E
100
AcDbEntity
  8
0
100
AcDbBlockReference
  2
3_405016_Inch_0_in_062881_2
 10
0.0
 20
0.0
 30
0.0
  0
INSERT
  5
146
330
6E
100
AcDbEntity
  8
0
100
AcDbBlockReference
  2
4_062881H_0_in_062881_2
 10
0.0
 20
0.0
 30
0.0
  0
ENDBLK
  5
71
330
6E
100
AcDbEntity
  8
0
100
AcDbBlockEnd
  0
BLOCK
  5
91
330
8F
100
AcDbEntity
  8
0
100
AcDbBlockBegin
  2
2_128664_0_in_062881_2
 70
     2
 10
0.0
 20
0.0
 30
0.0
  3
2_128664_0_in_062881_2
  1

  0
ATTDEF
  5
93
330
8F
100
AcDbEntity
  8
AM_6
100
AcDbText
 10
5.9
 20
2.165120188451629
 30
0.0
 40
0.5
  1
D-Lok Medium Duty Insert Inch Bore
100
AcDbAttributeDefinition
  3

  2
NN
 70
     8
280
     0
  0
ATTDEF
  5
94
330
8F
100
AcDbEntity
  8
AM_6
100
AcDbText
 10
5.9
 20
1.665120188451629
 30
0.0
 40
0.5
  1
D-LOK
100
AcDbAttributeDefinition
  3

  2
NT
 70
     8
280
     0
  0
ATTDEF
  5
95
330
8F
100
AcDbEntity
  8
AM_6
100
AcDbText
 10
5.9
 20
1.165120188451629
 30
0.0
 40
0.5
  1
128664
100
AcDbAttributeDefinition
  3

  2
NB
 70
     8
280
     0
  0
ATTDEF
  5
96
330
8F
100
AcDbEntity
  8
AM_6
100
AcDbText
 10
5.9
 20
0.6651201884516289
 30
0.0
 40
0.5
  1
$PN.
100
AcDbAttributeDefinition
  3

  2
NBSYN
 70
     8
280
     0
  0
ATTDEF
  5
97
330
8F
100
AcDbEntity
  8
AM_6
100
AcDbText
 10
5.9
 20
0.1651201884516289
 30
0.0
 40
0.5
  1
128664
100
AcDbAttributeDefinition
  3

  2
LINA
 70
     8
280
     0
  0
ATTDEF
  5
98
330
8F
100
AcDbEntity
  8
AM_6
100
AcDbText
 10
5.9
 20
-0.3348798115483711
 30
0.0
 40
0.5
  1
212
100
AcDbAttributeDefinition
  3

  2
SERIES
 70
     8
280
     0
  0
ATTDEF
  5
99
330
8F
100
AcDbEntity
  8
AM_6
100
AcDbText
 10
5.9
 20
-0.8348798115483711
 30
0.0
 40
0.5
  1
2-1/4
100
AcDbAttributeDefinition
  3

  2
SS
 70
     8
280
     0
  0
ATTDEF
  5
9A
330
8F
100
AcDbEntity
  8
AM_6
100
AcDbText
 10
5.9
 20
-1.334879811548371
 30
0.0
 40
0.5
  1
128664
100
AcDbAttributeDefinition
  3

  2
PN
 70
     8
280
     0
  0
ATTDEF
  5
9B
330
8F
100
AcDbEntity
  8
AM_6
100
AcDbText
 10
5.9
 20
-1.834879811548371
 30
0.0
 40
0.5
  1
INS-DLM-204
100
AcDbAttributeDefinition
  3

  2
DESCRIPTION
 70
     8
280
     0
  0
ATTDEF
  5
9C
330
8F
100
AcDbEntity
  8
AM_6
100
AcDbText
 10
5.9
 20
-2.334879811548371
 30
0.0
 40
0.5
  1
4.8
100
AcDbAttributeDefinition
  3

  2
WEIGHT
 70
     8
280
     0
  0
ATTDEF
  5
9D
330
8F
100
AcDbEntity
  8
AM_6
100
AcDbText
 10
5.9
 20
-2.834879811548371
 30
0.0
 40
0.5
  1
2.38
100
AcDbAttributeDefinition
  3

  2
A
 70
     8
280
     0
  0
ATTDEF
  5
9E
330
8F
100
AcDbEntity
  8
AM_6
100
AcDbText
 10
5.9
 20
-3.334879811548371
 30
0.0
 40
0.5
  1
1.02
100
AcDbAttributeDefinition
  3

  2
C
 70
     8
280
     0
  0
ATTDEF
  5
9F
330
8F
100
AcDbEntity
  8
AM_6
100
AcDbText
 10
5.9
 20
-3.834879811548371
 30
0.0
 40
0.5
  1
4.3307
100
AcDbAttributeDefinition
  3

  2
D
 70
     8
280
     0
  0
ATTDEF
  5
A0
330
8F
100
AcDbEntity
  8
AM_6
100
AcDbText
 10
5.9
 20
-4.334879811548371
 30
0.0
 40
0.5
  1
0.25
100
AcDbAttributeDefinition
  3

  2
J
 70
     8
280
     0
  0
ATTDEF
  5
A1
330
8F
100
AcDbEntity
  8
AM_6
100
AcDbText
 10
5.9
 20
-4.834879811548371
 30
0.0
 40
0.5
  1
4.11
100
AcDbAttributeDefinition
  3

  2
L
 70
     8
280
     0
  0
ATTDEF
  5
A2
330
8F
100
AcDbEntity
  8
AM_6
100
AcDbText
 10
5.9
 20
-5.334879811548371
 30
0.0
 40
0.5
  1
5/16-24
100
AcDbAttributeDefinition
  3

  2
N
 70
     8
280
     0
  0
ATTDEF
  5
A3
330
8F
100
AcDbEntity
  8
AM_6
100
AcDbText
 10
5.9
 20
-5.834879811548371
 30
0.0
 40
0.5
  1
0.90
100
AcDbAttributeDefinition
  3

  2
W
 70
     8
280
     0
  0
ATTDEF
  5
A4
330
8F
100
AcDbEntity
  8
AM_6
100
AcDbText
 10
5.9
 20
-6.334879811548371
 30
0.0
 40
0.5
  1
1.48
100
AcDbAttributeDefinition
  3

  2
Y
 70
     8
280
     0
  0
ATTDEF
  5
A5
330
8F
100
AcDbEntity
  8
AM_6
100
AcDbText
 10
5.9
 20
-6.834879811548371
 30
0.0
 40
0.5
  1
2.97
100
AcDbAttributeDefinition
  3

  2
Z
 70
     8
280
     0
  0
ATTDEF
  5
A6
330
8F
100
AcDbEntity
  8
AM_6
100
AcDbText
 10
5.9
 20
-7.334879811548371
 30
0.0
 40
0.5
  1
baldor
100
AcDbAttributeDefinition
  3

  2
COMPANY
 70
     8
280
     0
  0
LINE
  5
A9
330
8F
100
AcDbEntity
  8
AM_9
100
AcDbLine
 10
-1.3978
 20
-1.125
 30
0.0
 11
0.8177999999999996
 21
-1.125
 31
0.0
  0
LINE
  5
AA
330
8F
100
AcDbEntity
  8
AM_9
100
AcDbLine
 10
0.8177999999999996
 20
1.125
 30
0.0
 11
-1.3978
 21
1.125
 31
0.0
  0
LINE
  5
AB
330
8F
100
AcDbEntity
  8
AM_9
100
AcDbLine
 10
-1.3978
 20
1.125
 30
0.0
 11
-1.48
 21
1.2072
 31
0.0
  0
LINE
  5
AC
330
8F
100
AcDbEntity
  8
AM_9
100
AcDbLine
 10
-1.48
 20
-1.2072
 30
0.0
 11
-1.3978
 21
-1.125
 31
0.0
  0
LINE
  5
AD
330
8F
100
AcDbEntity
  8
AM_9
100
AcDbLine
 10
0.8177999999999996
 20
-1.125
 30
0.0
 11
0.8999999999999999
 21
-1.2072
 31
0.0
  0
LINE
  5
AE
330
8F
100
AcDbEntity
  8
AM_9
100
AcDbLine
 10
0.8999999999999999
 20
1.2072
 30
0.0
 11
0.8177999999999996
 21
1.125
 31
0.0
  0
LINE
  5
AF
330
8F
100
AcDbEntity
  8
AM_9
100
AcDbLine
 10
0.8999999999999999
 20
1.4028
 30
0.0
 11
0.8178
 21
1.485
 31
0.0
  0
LINE
  5
B0
330
8F
100
AcDbEntity
  8
AM_9
100
AcDbLine
 10
0.8178
 20
-1.485
 30
0.0
 11
0.8999999999999999
 21
-1.4028
 31
0.0
  0
LINE
  5
B1
330
8F
100
AcDbEntity
  8
AM_9
100
AcDbLine
 10
0.8999999999999999
 20
1.4028
 30
0.0
 11
0.8999999999999999
 21
-1.4028
 31
0.0
  0
LINE
  5
B2
330
8F
100
AcDbEntity
  8
AM_9
100
AcDbLine
 10
0.51
 20
-1.485
 30
0.0
 11
0.8178
 21
-1.485
 31
0.0
  0
LINE
  5
B3
330
8F
100
AcDbEntity
  8
AM_9
100
AcDbLine
 10
0.8178
 20
1.485
 30
0.0
 11
0.51
 21
1.485
 31
0.0
  0
LINE
  5
B4
330
8F
100
AcDbEntity
  8
AM_9
100
AcDbLine
 10
0.8178
 20
1.485
 30
0.0
 11
0.8178
 21
-1.485
 31
0.0
  0
LINE
  5
B5
330
8F
100
AcDbEntity
  8
AM_9
100
AcDbLine
 10
-0.74
 20
-1.485
 30
0.0
 11
-0.51
 21
-1.485
 31
0.0
  0
LINE
  5
B6
330
8F
100
AcDbEntity
  8
AM_9
100
AcDbLine
 10
-0.51
 20
1.485
 30
0.0
 11
-0.74
 21
1.485
 31
0.0
  0
LINE
  5
B7
330
8F
100
AcDbEntity
  8
AM_9
100
AcDbLine
 10
-1.063
 20
-2.055
 30
0.0
 11
-0.8222
 21
-2.055
 31
0.0
  0
LINE
  5
B8
330
8F
100
AcDbEntity
  8
AM_9
100
AcDbLine
 10
-0.8222
 20
2.055
 30
0.0
 11
-1.063
 21
2.055
 31
0.0
  0
LINE
  5
B9
330
8F
100
AcDbEntity
  8
AM_9
100
AcDbLine
 10
-0.74
 20
1.9728
 30
0.0
 11
-0.8222
 21
2.055
 31
0.0
  0
LINE
  5
BA
330
8F
100
AcDbEntity
  8
AM_9
100
AcDbLine
 10
-0.8222
 20
-2.055
 30
0.0
 11
-0.74
 21
-1.9728
 31
0.0
  0
LINE
  5
BB
330
8F
100
AcDbEntity
  8
AM_9
100
AcDbLine
 10
-0.8222
 20
2.055
 30
0.0
 11
-0.8222
 21
-2.055
 31
0.0
  0
LINE
  5
BC
330
8F
100
AcDbEntity
  8
AM_9
100
AcDbLine
 10
-0.74
 20
1.9728
 30
0.0
 11
-0.74
 21
-1.9728
 31
0.0
  0
LINE
  5
BD
330
8F
100
AcDbEntity
  8
AM_9
100
AcDbLine
 10
-0.3000000000000001
 20
-2.082016666666667
 30
0.0
 11
-0.2
 21
-2.082016666666667
 31
0.0
  0
LINE
  5
BE
330
8F
100
AcDbEntity
  8
AM_9
100
AcDbLine
 10
-0.2
 20
2.082016666666667
 30
0.0
 11
-0.3000000000000001
 21
2.082016666666667
 31
0.0
  0
LINE
  5
BF
330
8F
100
AcDbEntity
  8
AM_9
100
AcDbLine
 10
-0.51
 20
2.064728946496368
 30
0.0
 11
-0.51
 21
-2.064728946496368
 31
0.0
  0
ARC
  5
C0
330
8F
100
AcDbEntity
  8
AM_9
100
AcDbCircle
 10
-0.4600000000000002
 20
-2.064728946496368
 30
0.0
 40
0.0499999999999998
100
AcDbArc
 50
180.0
 51
257.4402210663628
  0
ARC
  5
C1
330
8F
100
AcDbEntity
  8
AM_9
100
AcDbCircle
 10
-0.4600000000000002
 20
2.064728946496368
 30
0.0
 40
0.05
100
AcDbArc
 50
102.5597789336372
 51
180.0
  0
LINE
  5
C2
330
8F
100
AcDbEntity
  8
AM_9
100
AcDbLine
 10
0.51
 20
2.064728946496368
 30
0.0
 11
0.51
 21
-2.064728946496368
 31
0.0
  0
ARC
  5
C3
330
8F
100
AcDbEntity
  8
AM_9
100
AcDbCircle
 10
0.459999999999999
 20
-2.064728946496367
 30
0.0
 40
0.0500000000000007
100
AcDbArc
 50
282.5597724420101
 51
0.0
  0
ARC
  5
C4
330
8F
100
AcDbEntity
  8
AM_9
100
AcDbCircle
 10
0.459999999999999
 20
2.064728946496367
 30
0.0
 40
0.050000000000001
100
AcDbArc
 50
0.0
 51
77.44022755798986
  0
ARC
  5
C5
330
8F
100
AcDbEntity
  8
AM_9
100
AcDbCircle
 10
-0.0000000000000257
 20
0.0000000000001403
 30
0.0
 40
2.165349999999858
100
AcDbArc
 50
97.96370274086429
 51
102.5597789336372
  0
ARC
  5
C6
330
8F
100
AcDbEntity
  8
AM_9
100
AcDbCircle
 10
0.0000000000697983
 20
0.0000000003858607
 30
0.0
 40
2.165350000391493
100
AcDbArc
 50
257.4402210667786
 51
262.03629725872
  0
LINE
  5
C7
330
8F
100
AcDbEntity
  8
AM_9
100
AcDbLine
 10
-0.4708729051929944
 20
2.113532429288728
 30
0.0
 11
-0.4708729051929944
 21
-2.113532429288407
 31
0.0
  0
LINE
  5
C8
330
8F
100
AcDbEntity
  8
AM_9
100
AcDbLine
 10
-0.2999999999999999
 20
2.144467444961569
 30
0.0
 11
-0.2999999999999999
 21
-2.144467444961249
 31
0.0
  0
ARC
  5
C9
330
8F
100
AcDbEntity
  8
AM_9
100
AcDbCircle
 10
0.0000000000000013
 20
0.0000000000000289
 30
0.0
 40
2.165349999999971
100
AcDbArc
 50
77.44022121626067
 51
95.29961065194142
  0
ARC
  5
CA
330
8F
100
AcDbEntity
  8
AM_9
100
AcDbCircle
 10
-0.0000000000001806
 20
0.0000000000028741
 30
0.0
 40
2.16535000000281
100
AcDbArc
 50
264.7003893480704
 51
282.5597787837276
  0
LINE
  5
CB
330
8F
100
AcDbEntity
  8
AM_9
100
AcDbLine
 10
-0.2000000000000002
 20
2.156093834344878
 30
0.0
 11
-0.2000000000000002
 21
-2.156093834344843
 31
0.0
  0
LINE
  5
CC
330
8F
100
AcDbEntity
  8
AM_9
100
AcDbLine
 10
0.4708728996635456
 20
2.11353243052063
 30
0.0
 11
0.4708728996635456
 21
-2.113532430520595
 31
0.0
  0
LINE
  5
CE
330
8F
100
AcDbEntity
  8
AM_4
100
AcDbLine
 10
-1.3978
 20
-2.055
 30
0.0
 11
-1.063
 21
-2.055
 31
0.0
  0
LINE
  5
CF
330
8F
100
AcDbEntity
  8
AM_4
100
AcDbLine
 10
-1.063
 20
2.055
 30
0.0
 11
-1.3978
 21
2.055
 31
0.0
  0
LINE
  5
D0
330
8F
100
AcDbEntity
  8
AM_4
100
AcDbLine
 10
-1.48
 20
-1.9728
 30
0.0
 11
-1.3978
 21
-2.055
 31
0.0
  0
LINE
  5
D1
330
8F
100
AcDbEntity
  8
AM_4
100
AcDbLine
 10
-1.3978
 20
2.055
 30
0.0
 11
-1.48
 21
1.9728
 31
0.0
  0
LINE
  5
D2
330
8F
100
AcDbEntity
  8
AM_4
100
AcDbLine
 10
-1.48
 20
1.9728
 30
0.0
 11
-1.48
 21
-1.9728
 31
0.0
  0
LINE
  5
D3
330
8F
100
AcDbEntity
  8
AM_4
100
AcDbLine
 10
-1.3978
 20
2.055
 30
0.0
 11
-1.3978
 21
-2.055
 31
0.0
  0
ENDBLK
  5
92
330
8F
100
AcDbEntity
  8
0
100
AcDbBlockEnd
  0
BLOCK
  5
D6
330
D4
100
AcDbEntity
  8
0
100
AcDbBlockBegin
  2
3_405016_Inch_0_in_062881_2
 70
     2
 10
0.0
 20
0.0
 30
0.0
  3
3_405016_Inch_0_in_062881_2
  1

  0
ATTDEF
  5
D8
330
D4
100
AcDbEntity
  8
AM_6
100
AcDbText
 10
5.218750000000001
 20
-1.19692569835516
 30
0.0
 40
0.5
  1
405016 -Inch
100
AcDbAttributeDefinition
  3

  2
NN
 70
     8
280
     0
  0
ATTDEF
  5
D9
330
D4
100
AcDbEntity
  8
AM_6
100
AcDbText
 10
5.218750000000001
 20
-1.69692569835516
 30
0.0
 40
0.5
  1
Grease Fitting
100
AcDbAttributeDefinition
  3

  2
NT
 70
     8
280
     0
  0
ATTDEF
  5
DA
330
D4
100
AcDbEntity
  8
AM_6
100
AcDbText
 10
5.218750000000001
 20
-2.19692569835516
 30
0.0
 40
0.5
  1
405016-Inch
100
AcDbAttributeDefinition
  3

  2
NB
 70
     8
280
     0
  0
ATTDEF
  5
DB
330
D4
100
AcDbEntity
  8
AM_6
100
AcDbText
 10
5.218750000000001
 20
-2.69692569835516
 30
0.0
 40
0.5
  1
$MN.-Inch
100
AcDbAttributeDefinition
  3

  2
NBSYN
 70
     8
280
     0
  0
ATTDEF
  5
DC
330
D4
100
AcDbEntity
  8
AM_6
100
AcDbText
 10
5.218750000000001
 20
-3.19692569835516
 30
0.0
 40
0.5
  1
405016
100
AcDbAttributeDefinition
  3

  2
LINA
 70
     8
280
     0
  0
ATTDEF
  5
DD
330
D4
100
AcDbEntity
  8
AM_6
100
AcDbText
 10
5.218750000000001
 20
-3.69692569835516
 30
0.0
 40
0.5
  1
405016
100
AcDbAttributeDefinition
  3

  2
MN
 70
     8
280
     0
  0
ATTDEF
  5
DE
330
D4
100
AcDbEntity
  8
AM_6
100
AcDbText
 10
5.218750000000001
 20
-4.19692569835516
 30
0.0
 40
0.5
  1
7/16 HEX
100
AcDbAttributeDefinition
  3

  2
H
 70
     8
280
     0
  0
ATTDEF
  5
DF
330
D4
100
AcDbEntity
  8
AM_6
100
AcDbText
 10
5.218750000000001
 20
-4.69692569835516
 30
0.0
 40
0.5
  1
0.383
100
AcDbAttributeDefinition
  3

  2
NDR
 70
     8
280
     0
  0
ATTDEF
  5
E0
330
D4
100
AcDbEntity
  8
AM_6
100
AcDbText
 10
5.218750000000001
 20
-5.19692569835516
 30
0.0
 40
0.5
  1
0.337
100
AcDbAttributeDefinition
  3

  2
KDR
 70
     8
280
     0
  0
ATTDEF
  5
E1
330
D4
100
AcDbEntity
  8
AM_6
100
AcDbText
 10
5.218750000000001
 20
-5.69692569835516
 30
0.0
 40
0.5
  1
0.1575
100
AcDbAttributeDefinition
  3

  2
BZE
 70
     8
280
     0
  0
ATTDEF
  5
E2
330
D4
100
AcDbEntity
  8
AM_6
100
AcDbText
 10
5.218750000000001
 20
-6.19692569835516
 30
0.0
 40
0.5
  1
0.4375
100
AcDbAttributeDefinition
  3

  2
HEX
 70
     8
280
     0
  0
ATTDEF
  5
E3
330
D4
100
AcDbEntity
  8
AM_6
100
AcDbText
 10
5.218750000000001
 20
-6.69692569835516
 30
0.0
 40
0.5
  1
0.281250
100
AcDbAttributeDefinition
  3

  2
HEX2
 70
     8
280
     0
  0
ATTDEF
  5
E4
330
D4
100
AcDbEntity
  8
AM_6
100
AcDbText
 10
5.218750000000001
 20
-7.19692569835516
 30
0.0
 40
0.5
  1
baldor
100
AcDbAttributeDefinition
  3

  2
COMPANY
 70
     8
280
     0
  0
LWPOLYLINE
  5
E5
330
D4
100
AcDbEntity
  8
AM_9
100
AcDbPolyline
 90
        5
 70
     0
 43
0.0
 10
-0.1791093260592888
 20
-1.801738809059825
 10
-0.1842540823997056
 20
-1.768670119967152
 10
-0.1862220679364952
 20
-1.734312409178914
 10
-0.1844124966919383
 20
-1.698126446285356
 10
-0.1791093260592888
 20
-1.661113809059826
  0
LINE
  5
E6
330
D4
100
AcDbEntity
  8
AM_9
100
AcDbLine
 10
-0.1510741298357571
 20
-1.65457729571137
 30
0.0
 11
-0.1791093260592888
 21
-1.661113809059826
 31
0.0
  0
LWPOLYLINE
  5
E7
330
D4
100
AcDbEntity
  8
AM_9
100
AcDbPolyline
 90
        5
 70
     0
 43
0.0
 10
-0.1791093260592888
 20
-1.661113809059826
 10
-0.198835512140694
 20
-1.629688517736611
 10
-0.2156330920108726
 20
-1.596997724328327
 10
-0.2290462109660022
 20
-1.562506153690794
 10
-0.2389369657326278
 20
-1.527169092407283
  0
LINE
  5
E8
330
D4
100
AcDbEntity
  8
AM_9
100
AcDbLine
 10
-0.2099962668917055
 20
-1.520421457656344
 30
0.0
 11
-0.2389369657326278
 21
-1.527169092407283
 31
0.0
  0
LINE
  5
E9
330
D4
100
AcDbEntity
  8
AM_9
100
AcDbLine
 10
-0.2389369657326278
 20
-1.527169092407283
 30
0.0
 11
-0.2711532636537958
 21
-1.531618123437406
 31
0.0
  0
LWPOLYLINE
  5
EA
330
D4
100
AcDbEntity
  8
AM_9
100
AcDbPolyline
 90
        3
 70
     0
 43
0.0
 10
-0.2813919000363601
 20
-1.532753048956784
 10
-0.2911775952746244
 20
-1.53355559349426
 10
-0.2987675689889719
 20
-1.533850066725466
  0
LWPOLYLINE
  5
EB
330
D4
100
AcDbEntity
  8
AM_9
100
AcDbPolyline
 90
        5
 70
     0
 43
0.0
 10
-0.2389369657326278
 20
-1.808419092407283
 10
-0.2295338871417797
 20
-1.80799806213629
 10
-0.2166871171046322
 20
-1.806802555641742
 10
-0.1996402057054679
 20
-1.804676787031713
 10
-0.1791093260592888
 20
-1.801738809059825
  0
LINE
  5
EC
330
D4
100
AcDbEntity
  8
AM_9
100
AcDbLine
 10
-0.1510741298357571
 20
-1.79520229571137
 30
0.0
 11
-0.1791093260592888
 21
-1.801738809059825
 31
0.0
  0
LINE
  5
ED
330
D4
100
AcDbEntity
  8
AM_9
100
AcDbLine
 10
-0.452415808934145
 20
-1.821254016496842
 30
0.0
 11
-0.3774664534000949
 21
-1.839780662014441
 31
0.0
  0
LINE
  5
EE
330
D4
100
AcDbEntity
  8
AM_9
100
AcDbLine
 10
-0.4395859245204076
 20
-1.573349390582632
 30
0.0
 11
-0.4986131040655764
 21
-1.623113178260487
 31
0.0
  0
LWPOLYLINE
  5
EF
330
D4
100
AcDbEntity
  8
AM_9
100
AcDbPolyline
 90
        3
 70
     0
 43
0.0
 10
-0.2689146070947223
 20
-1.526889734350517
 10
-0.2512755937295761
 20
-1.524238843014547
 10
-0.2360765106845276
 20
-1.522187592413266
  0
LWPOLYLINE
  5
F0
330
D4
100
AcDbEntity
  8
AM_9
100
AcDbPolyline
 90
        9
 70
     0
 43
0.0
 10
-0.3791560660309764
 20
-1.577019404902138
 10
-0.3846696010119987
 20
-1.572791513161109
 10
-0.3931964340941622
 20
-1.567866848882064
 10
-0.401690882185239
 20
-1.56478288829925
 10
-0.4102201176524278
 20
-1.563423498183492
 10
-0.4187003550236533
 20
-1.563792461777571
 10
-0.4274785107214864
 20
-1.566115870032737
 10
-0.4352678864700712
 20
-1.570130611375826
 10
-0.4399324518716093
 20
-1.573644477804127
  0
LWPOLYLINE
  5
F1
330
D4
100
AcDbEntity
  8
AM_9
100
AcDbPolyline
 90
        9
 70
     0
 43
0.0
 10
-0.3782008974753574
 20
-1.839592695861915
 10
-0.3710011395438305
 20
-1.840884273048873
 10
-0.3624997994290593
 20
-1.84082346636857
 10
-0.3535740889874035
 20
-1.838802250699907
 10
-0.345610563689549
 20
-1.835031343898237
 10
-0.3387180771910046
 20
-1.829839692936054
 10
-0.3327778617594258
 20
-1.823343054363144
 10
-0.3276573050491445
 20
-1.815432858688326
 10
-0.3245871425707611
 20
-1.809056899481393
  0
LWPOLYLINE
  5
F2
330
D4
100
AcDbEntity
  8
AM_9
100
AcDbPolyline
 90
        3
 70
     0
 43
0.0
 10
-0.0000000000000002
 20
-1.320778700151692
 10
0.0544416102741494
 20
-1.351326042662264
 10
0.1093749999999998
 20
-1.379999999999999
  0
LWPOLYLINE
  5
F3
330
D4
100
AcDbEntity
  8
AM_9
100
AcDbPolyline
 90
        3
 70
     0
 43
0.0
 10
-0.1093750000000001
 20
-1.379999999999999
 10
-0.0546875000000001
 20
-1.351459559607482
 10
-0.0000000000000002
 20
-1.320778700151692
  0
LWPOLYLINE
  5
F4
330
D4
100
AcDbEntity
  8
AM_9
100
AcDbPolyline
 90
        6
 70
     0
 43
0.0
 10
-0.1510741298357571
 20
-1.79520229571137
 10
-0.1564222384464444
 20
-1.795146258798399
 10
-0.1639940363880806
 20
-1.795585121917566
 10
-0.1744063212866124
 20
-1.796646289109957
 10
-0.1876759562813859
 20
-1.798363121169831
 10
-0.2099962668917055
 20
-1.801671457656344
  0
LINE
  5
F5
330
D4
100
AcDbEntity
  8
AM_9
100
AcDbLine
 10
-0.1421441836221133
 20
-1.71312592922164
 30
0.0
 11
-0.1419585098156051
 21
-1.722769408754154
 31
0.0
  0
LWPOLYLINE
  5
F6
330
D4
100
AcDbEntity
  8
AM_9
100
AcDbPolyline
 90
        3
 70
     0
 43
0.0
 10
-0.1510741298357572
 20
-1.65457729571137
 10
-0.1458778226760521
 20
-1.678510622598914
 10
-0.1431087171152493
 20
-1.698838798535108
  0
LWPOLYLINE
  5
F7
330
D4
100
AcDbEntity
  8
AM_9
100
AcDbPolyline
 90
        3
 70
     0
 43
0.0
 10
-0.1820991481327046
 20
-1.56357907233359
 10
-0.1805491420332304
 20
-1.566456884363537
 10
-0.1765789831125444
 20
-1.57420585554236
  0
LWPOLYLINE
  5
F8
330
D4
100
AcDbEntity
  8
AM_9
100
AcDbPolyline
 90
        3
 70
     0
 43
0.0
 10
-0.2099962668917055
 20
-1.520421457656344
 10
-0.194357301502906
 20
-1.542992854288233
 10
-0.1826953703955142
 20
-1.562491812645567
  0
LWPOLYLINE
  5
F9
330
D4
100
AcDbEntity
  8
AM_9
100
AcDbPolyline
 90
        4
 70
     0
 43
0.0
 10
-0.2258378743019628
 20
-1.521052666893888
 10
-0.2189176876709016
 20
-1.520510369847583
 10
-0.2138633349839129
 20
-1.520330911862199
 10
-0.2099962668917055
 20
-1.520421457656344
  0
LWPOLYLINE
  5
FA
330
D4
100
AcDbEntity
  8
AM_9
100
AcDbPolyline
 90
        4
 70
     0
 43
0.0
 10
-0.1419693220396837
 20
-1.725101636061287
 10
-0.1420496512545707
 20
-1.729566312422038
 10
-0.1441228263802216
 20
-1.756595324422914
 10
-0.1510741298357571
 20
-1.79520229571137
  0
LINE
  5
FB
330
D4
100
AcDbEntity
  8
AM_9
100
AcDbLine
 10
-0.1419585098156051
 20
-1.722769408754154
 30
0.0
 11
-0.1419693220396837
 21
-1.725101636061287
 31
0.0
  0
LWPOLYLINE
  5
FC
330
D4
100
AcDbEntity
  8
AM_9
100
AcDbPolyline
 90
        3
 70
     0
 43
0.0
 10
-0.1685105478353211
 20
-1.592163185246772
 10
-0.1598729403210872
 20
-1.616768689712643
 10
-0.1510741298357571
 20
-1.65457729571137
  0
LINE
  5
FD
330
D4
100
AcDbEntity
  8
AM_9
100
AcDbLine
 10
-0.1765789831125444
 20
-1.57420585554236
 30
0.0
 11
-0.171119449211667
 21
-1.585964205210049
 31
0.0
  0
ELLIPSE
  5
FE
330
D4
100
AcDbEntity
  8
AM_9
100
AcDbEllipse
 10
-0.2013892028241865
 20
-1.65827024483734
 30
0.0
 11
-0.03193085011438229
 21
0.1369518580960924
 31
0.0
210
0.0
220
0.0
230
1.0
 40
0.3659981507706605
 41
2.150416404658174
 42
6.139946939636919
  0
LWPOLYLINE
  5
FF
330
D4
100
AcDbEntity
  8
AM_9
100
AcDbPolyline
 90
        3
 70
     0
 43
0.0
 10
-0.3055458577949632
 20
-1.622852494962034
 10
-0.3030753670497809
 20
-1.648922855181632
 10
-0.2987675689889719
 20
-1.674475066725466
  0
LWPOLYLINE
  5
100
330
D4
100
AcDbEntity
  8
AM_9
100
AcDbPolyline
 90
        4
 70
     0
 43
0.0
 10
-0.260230468443121
 20
-1.578067949924796
 10
-0.2616913382589204
 20
-1.5634112730526
 10
-0.2647402074337708
 20
-1.544954770112759
 10
-0.2689146070947223
 20
-1.526889734350517
  0
LINE
  5
101
330
D4
100
AcDbEntity
  8
AM_9
100
AcDbLine
 10
-0.2689146070947223
 20
-1.526889734350517
 30
0.0
 11
-0.2987675689889719
 21
-1.533850066725466
 31
0.0
  0
LWPOLYLINE
  5
102
330
D4
100
AcDbEntity
  8
AM_9
100
AcDbPolyline
 90
        3
 70
     0
 43
0.0
 10
-0.3001593436617022
 20
-1.541740185070575
 10
-0.3030606061861224
 20
-1.561294122408012
 10
-0.3055458577949632
 20
-1.588633406468319
  0
LINE
  5
103
330
D4
100
AcDbEntity
  8
AM_9
100
AcDbLine
 10
-0.2987675689889719
 20
-1.533850066725466
 30
0.0
 11
-0.3001593436617022
 21
-1.541740185070575
 31
0.0
  0
LINE
  5
104
330
D4
100
AcDbEntity
  8
AM_9
100
AcDbLine
 10
-0.2711532636537958
 20
-1.531618123437406
 30
0.0
 11
-0.2813919000363601
 21
-1.532753048956784
 31
0.0
  0
ELLIPSE
  5
105
330
D4
100
AcDbEntity
  8
AM_9
100
AcDbEllipse
 10
-0.2467045921760208
 20
-1.668835701380858
 30
0.0
 11
-0.03193085011438283
 21
0.1369518580960947
 31
0.0
210
0.0
220
0.0
230
1.0
 40
0.3659981507706659
 41
2.150416404658197
 42
6.139946939636892
  0
ELLIPSE
  5
106
330
D4
100
AcDbEntity
  8
AM_9
100
AcDbEllipse
 10
-0.2467045921760174
 20
-1.668835701380857
 30
0.0
 11
-0.03193085011438308
 21
0.1369518580960971
 31
0.0
210
0.0
220
0.0
230
1.0
 40
0.3659981507706865
 41
1.225472060576403
 42
1.951156734850499
  0
LWPOLYLINE
  5
107
330
D4
100
AcDbEntity
  8
AM_9
100
AcDbPolyline
 90
        3
 70
     0
 43
0.0
 10
-0.3055458577949632
 20
-1.588633406468319
 10
-0.3064767622622303
 20
-1.605869806845232
 10
-0.3055458577949632
 20
-1.622852494962034
  0
ELLIPSE
  5
108
330
D4
100
AcDbEntity
  8
AM_9
100
AcDbEllipse
 10
-0.2467045921760332
 20
-1.668835701380845
 30
0.0
 11
-0.0319308501143745
 21
0.1369518580960752
 31
0.0
210
0.0
220
0.0
230
1.0
 40
0.3659981507706461
 41
0.0560213022649068
 42
0.8626327579757997
  0
LWPOLYLINE
  5
109
330
D4
100
AcDbEntity
  8
AM_9
100
AcDbPolyline
 90
       15
 70
     0
 43
0.0
 10
-0.3250096393869737
 20
-1.810033702065919
 10
-0.3249829349981356
 20
-1.809974786748467
 10
-0.3241711793158636
 20
-1.808459950927141
 10
-0.3220143762014218
 20
-1.80527507847933
 10
-0.3181483118491706
 20
-1.800834051475246
 10
-0.3122398802472249
 20
-1.795677448237128
 10
-0.3041398171867009
 20
-1.790546984267804
 10
-0.2941662459705658
 20
-1.786353525061738
 10
-0.2832400931890917
 20
-1.783864731175504
 10
-0.2725502103319591
 20
-1.783322629664496
 10
-0.2632002532045433
 20
-1.78439268615375
 10
-0.2558201595017038
 20
-1.786388968296066
 10
-0.2506027218514633
 20
-1.788577877138267
 10
-0.2473893168313837
 20
-1.790386912569833
 10
-0.2459020462799126
 20
-1.791428698910595
  0
LWPOLYLINE
  5
10A
330
D4
100
AcDbEntity
  8
AM_9
100
AcDbPolyline
 90
        3
 70
     0
 43
0.0
 10
-0.2457249882508971
 20
-1.791571960916105
 10
-0.2458897877343849
 20
-1.791422560476748
 10
-0.2469962895856668
 20
-1.790304712989265
  0
LWPOLYLINE
  5
10B
330
D4
100
AcDbEntity
  8
AM_9
100
AcDbPolyline
 90
        3
 70
     0
 43
0.0
 10
-0.3007438460658024
 20
-1.560208242710401
 10
-0.300269015303695
 20
-1.558743486450069
 10
-0.3001080482840257
 20
-1.558322263717043
  0
LWPOLYLINE
  5
10C
330
D4
100
AcDbEntity
  8
AM_9
100
AcDbPolyline
 90
       15
 70
     0
 43
0.0
 10
-0.3001651690766483
 20
-1.558448168324257
 10
-0.3010505942086637
 20
-1.5600778423195
 10
-0.303304332642703
 20
-1.563355053693354
 10
-0.3072900970699566
 20
-1.567858876471555
 10
-0.3133355467801533
 20
-1.573038128728343
 10
-0.3215695478897417
 20
-1.578137156639729
 10
-0.3316357860193361
 20
-1.58224183916377
 10
-0.3425821151723891
 20
-1.584608536234284
 10
-0.3532137253941688
 20
-1.585034000816659
 10
-0.3624543380077621
 20
-1.583883775252585
 10
-0.3696997756770321
 20
-1.581854783638337
 10
-0.3747843860132858
 20
-1.579675071564878
 10
-0.3778811767854725
 20
-1.577904328490462
 10
-0.3792691044058687
 20
-1.576920732276321
 10
-0.3793925019684948
 20
-1.576820492083466
  0
LINE
  5
10D
330
D4
100
AcDbEntity
  8
AM_9
100
AcDbLine
 10
-0.177120771554662
 20
-1.539661692407327
 30
0.0
 11
-0.2263662233581053
 21
-1.551143458059951
 31
0.0
  0
LINE
  5
10E
330
D4
100
AcDbEntity
  8
AM_9
100
AcDbLine
 10
-0.1764121822902711
 20
-1.76539703161473
 30
0.0
 11
-0.1343592486638227
 21
-1.755592229115782
 31
0.0
  0
LWPOLYLINE
  5
10F
330
D4
100
AcDbEntity
  8
AM_9
100
AcDbPolyline
 90
       20
 70
     0
 43
0.0
 10
-0.1343659249938089
 20
-1.75559378540361
 10
-0.1293028157827818
 20
-1.752990967168627
 10
-0.1247141396218193
 20
-1.747417196040507
 10
-0.1208880884981782
 20
-1.738797239076489
 10
-0.118154598914599
 20
-1.727880991490921
 10
-0.1164278875396129
 20
-1.714336212655024
 10
-0.1158549073091555
 20
-1.699330271317741
 10
-0.1164156227038168
 20
-1.682408286749773
 10
-0.1180609686233502
 20
-1.665004703027538
 10
-0.1208367673933813
 20
-1.646607393511457
 10
-0.1245107513506024
 20
-1.628747455120003
 10
-0.1291842652280563
 20
-1.610922481606624
 10
-0.134472979061152
 20
-1.5945960564441
 10
-0.140518627090196
 20
-1.579328872764631
 10
-0.1468270783017122
 20
-1.566370478489193
 10
-0.1535654953592166
 20
-1.555381372029879
 10
-0.1601799433259584
 20
-1.547268942862664
 10
-0.1668493358980662
 20
-1.541820477436415
 10
-0.1731116383367607
 20
-1.539480939756072
 10
-0.1749377931523163
 20
-1.539382052816161
  0
LINE
  5
110
330
D4
100
AcDbEntity
  8
AM_9
100
AcDbLine
 10
-0.1771125901748265
 20
-1.539659785344162
 30
0.0
 11
-0.1790373738502115
 21
-1.540304054033761
 31
0.0
  0
LWPOLYLINE
  5
111
330
D4
100
AcDbEntity
  8
AM_9
100
AcDbPolyline
 90
        3
 70
     0
 43
0.0
 10
-0.2689146070947223
 20
-1.667514734350517
 10
-0.2634308483997529
 20
-1.639890958955647
 10
-0.2602304684431306
 20
-1.612287038418516
  0
LWPOLYLINE
  5
112
330
D4
100
AcDbEntity
  8
AM_9
100
AcDbPolyline
 90
        5
 70
     0
 43
0.0
 10
-0.179037373850178
 20
-1.694695945966246
 10
-0.1733931390117468
 20
-1.710209976006311
 10
-0.1670729780242512
 20
-1.72435797563067
 10
-0.1606047421316797
 20
-1.735955943415793
 10
-0.1545722401099252
 20
-1.744414998683717
  0
ARC
  5
113
330
D4
100
AcDbEntity
  8
AM_9
100
AcDbCircle
 10
-0.0000000000000012
 20
-1.617499999999996
 30
0.0
 40
0.2000000000000011
100
AcDbArc
 50
219.3592692685991
 51
0.0
  0
LWPOLYLINE
  5
114
330
D4
100
AcDbEntity
  8
AM_9
100
AcDbPolyline
 90
        6
 70
     0
 43
0.0
 10
-0.1545722401099252
 20
-1.744414998683717
 10
-0.1538031670974778
 20
-1.745334802540261
 10
-0.1472336073736394
 20
-1.751712011960484
 10
-0.1407130262602577
 20
-1.75526170963818
 10
-0.1347930597680668
 20
-1.755684256104104
 10
-0.1343659249938089
 20
-1.75559378540361
  0
LINE
  5
115
330
D4
100
AcDbEntity
  8
AM_9
100
AcDbLine
 10
-0.2360765106845276
 20
-1.522187592413266
 30
0.0
 11
-0.2258378743019628
 21
-1.521052666893888
 31
0.0
  0
ELLIPSE
  5
116
330
D4
100
AcDbEntity
  8
AM_9
100
AcDbEllipse
 10
-0.2013892028241873
 20
-1.658270244837344
 30
0.0
 11
-0.03193085011438429
 21
0.136951858096098
 31
0.0
210
0.0
220
0.0
230
1.0
 40
0.3659981507705659
 41
0.056021302265008
 42
0.8626327579757251
  0
LINE
  5
117
330
D4
100
AcDbEntity
  8
AM_9
100
AcDbLine
 10
-0.2602304684431306
 20
-1.612287038418516
 30
0.0
 11
-0.260230468443121
 21
-1.578067949924796
 31
0.0
  0
ELLIPSE
  5
118
330
D4
100
AcDbEntity
  8
AM_9
100
AcDbEllipse
 10
-0.2013892028241858
 20
-1.658270244837341
 30
0.0
 11
-0.03193085011438387
 21
0.1369518580960987
 31
0.0
210
0.0
220
0.0
230
1.0
 40
0.3659981507706727
 41
1.144545279139747
 42
1.95115673485048
  0
LWPOLYLINE
  5
119
330
D4
100
AcDbEntity
  8
AM_9
100
AcDbPolyline
 90
        3
 70
     0
 43
0.0
 10
-0.2099962668917055
 20
-1.801671457656344
 10
-0.2163479371246914
 20
-1.772339189975666
 10
-0.225837874301963
 20
-1.74305747759944
  0
LINE
  5
11A
330
D4
100
AcDbEntity
  8
AM_9
100
AcDbLine
 10
-0.225837874301963
 20
-1.74305747759944
 30
0.0
 11
-0.2360765106845278
 21
-1.719965725501071
 31
0.0
  0
LWPOLYLINE
  5
11B
330
D4
100
AcDbEntity
  8
AM_9
100
AcDbPolyline
 90
        3
 70
     0
 43
0.0
 10
-0.2360765106845278
 20
-1.719965725501071
 10
-0.2462091938631852
 20
-1.701421611213501
 10
-0.2689146070947223
 20
-1.667514734350517
  0
LINE
  5
11C
330
D4
100
AcDbEntity
  8
AM_9
100
AcDbLine
 10
-0.2689146070947223
 20
-1.667514734350517
 30
0.0
 11
-0.2987675689889719
 21
-1.674475066725466
 31
0.0
  0
LWPOLYLINE
  5
11D
330
D4
100
AcDbEntity
  8
AM_9
100
AcDbPolyline
 90
        3
 70
     0
 43
0.0
 10
-0.2987675689889719
 20
-1.674475066725466
 10
-0.2912216284034026
 20
-1.702576183495197
 10
-0.2813919000363601
 20
-1.730531182044589
  0
LINE
  5
11E
330
D4
100
AcDbEntity
  8
AM_9
100
AcDbLine
 10
-0.2813919000363601
 20
-1.730531182044589
 30
0.0
 11
-0.2711532636537958
 21
-1.753622934142957
 31
0.0
  0
LWPOLYLINE
  5
11F
330
D4
100
AcDbEntity
  8
AM_9
100
AcDbPolyline
 90
        3
 70
     0
 43
0.0
 10
-0.2711532636537958
 20
-1.753622934142957
 10
-0.2561815527589922
 20
-1.781327936735335
 10
-0.2389369657326278
 20
-1.808419092407283
  0
LINE
  5
120
330
D4
100
AcDbEntity
  8
AM_9
100
AcDbLine
 10
-0.2099962668917055
 20
-1.801671457656344
 30
0.0
 11
-0.2389369657326278
 21
-1.808419092407283
 31
0.0
  0
LWPOLYLINE
  5
121
330
D4
100
AcDbEntity
  8
AM_9
100
AcDbPolyline
 90
        3
 70
     0
 43
0.0
 10
0.1093749999999998
 20
-1.33
 10
0.0546874999999998
 20
-1.303852940392517
 10
-0.0000000000000002
 20
-1.279846299848307
  0
LWPOLYLINE
  5
122
330
D4
100
AcDbEntity
  8
AM_9
100
AcDbPolyline
 90
        3
 70
     0
 43
0.0
 10
-0.0000000000000002
 20
-1.279846299848307
 10
-0.0544416102741497
 20
-1.303740567611885
 10
-0.1093750000000001
 20
-1.33
  0
LWPOLYLINE
  5
123
330
D4
100
AcDbEntity
  8
AM_9
100
AcDbPolyline
 90
        3
 70
     0
 43
0.0
 10
-0.2187500000000002
 20
-1.430153700151692
 10
-0.1643083897258505
 20
-1.406259432388115
 10
-0.1093750000000001
 20
-1.379999999999999
  0
LWPOLYLINE
  5
124
330
D4
100
AcDbEntity
  8
AM_9
100
AcDbPolyline
 90
        3
 70
     0
 43
0.0
 10
0.1093749999999998
 20
-1.379999999999999
 10
0.1640624999999998
 20
-1.406147059607482
 10
0.2187499999999998
 20
-1.430153700151692
  0
LINE
  5
125
330
D4
100
AcDbEntity
  8
AM_9
100
AcDbLine
 10
-0.0000000000000002
 20
-1.320778700151692
 30
0.0
 11
-0.0000000000000002
 21
-1.279846299848307
 31
0.0
  0
LWPOLYLINE
  5
126
330
D4
100
AcDbEntity
  8
AM_9
100
AcDbPolyline
 90
        3
 70
     0
 43
0.0
 10
0.2187499999999998
 20
-1.389221299848307
 10
0.1643083897258502
 20
-1.358673957337735
 10
0.1093749999999998
 20
-1.33
  0
LWPOLYLINE
  5
127
330
D4
100
AcDbEntity
  8
AM_9
100
AcDbPolyline
 90
        3
 70
     0
 43
0.0
 10
-0.1093750000000001
 20
-1.33
 10
-0.1640625000000001
 20
-1.358540440392517
 10
-0.2187500000000002
 20
-1.389221299848307
  0
ELLIPSE
  5
128
330
D4
100
AcDbEntity
  8
AM_9
100
AcDbEllipse
 10
-0.0000000000000002
 20
-1.6175
 30
0.0
 11
-0.2
 21
2.449293598294707E-17
 31
0.0
210
0.0
220
0.0
230
1.0
 40
0.8660254037844395
 41
0.4619460205669643
 42
5.821239286612619
  0
LWPOLYLINE
  5
129
330
D4
100
AcDbEntity
  8
AM_9
100
AcDbPolyline
 90
        7
 70
     0
 43
0.0
 10
-0.1790373738501785
 20
-1.694695945966246
 10
-0.1842628795203942
 20
-1.678701216295605
 10
-0.1891729979031394
 20
-1.662644458256412
 10
-0.1936098952159725
 20
-1.645877825105295
 10
-0.1971856748420372
 20
-1.628429808725254
 10
-0.1994144431868156
 20
-1.610957633207593
 10
-0.199999999969953
 20
-1.59725755900097
  0
LINE
  5
12A
330
D4
100
AcDbEntity
  8
AM_9
100
AcDbLine
 10
0.1999999999999998
 20
-1.6175
 30
0.0
 11
0.1999999999999998
 21
-1.5440625
 31
0.0
  0
LWPOLYLINE
  5
12B
330
D4
100
AcDbEntity
  8
AM_9
100
AcDbPolyline
 90
        8
 70
     0
 43
0.0
 10
-0.199999999969953
 20
-1.59725755900097
 10
-0.1999786710855129
 20
-1.594747492794571
 10
-0.1988321115509054
 20
-1.579477046299115
 10
-0.196164942998426
 20
-1.566547828583382
 10
-0.1920694300574959
 20
-1.555495849846331
 10
-0.1870948030566196
 20
-1.547226804053057
 10
-0.1815005947613931
 20
-1.541703487144151
 10
-0.1790373738501785
 20
-1.540304054033753
  0
LWPOLYLINE
  5
12C
330
D4
100
AcDbEntity
  8
AM_9
100
AcDbPolyline
 90
        3
 70
     0
 43
0.0
 10
0.1093749999999998
 20
-1.708125
 10
0.0546874999999998
 20
-1.734272059607483
 10
-0.0000000000000002
 20
-1.758278700151692
  0
LWPOLYLINE
  5
12D
330
D4
100
AcDbEntity
  8
AM_9
100
AcDbPolyline
 90
        3
 70
     0
 43
0.0
 10
0.2187499999999998
 20
-1.648903700151693
 10
0.1643083897258502
 20
-1.679451042662264
 10
0.1093749999999998
 20
-1.708125
  0
LINE
  5
12E
330
D4
100
AcDbEntity
  8
AM_9
100
AcDbLine
 10
0.2187499999999998
 20
-1.648903700151693
 30
0.0
 11
0.2187499999999998
 21
-1.389221299848307
 31
0.0
  0
LWPOLYLINE
  5
12F
330
D4
100
AcDbEntity
  8
AM_9
100
AcDbPolyline
 90
        3
 70
     0
 43
0.0
 10
0.1093749999999998
 20
-1.658125
 10
0.1640624999999998
 20
-1.631977940392517
 10
0.2187499999999998
 20
-1.607971299848307
  0
LWPOLYLINE
  5
130
330
D4
100
AcDbEntity
  8
AM_9
100
AcDbPolyline
 90
        3
 70
     0
 43
0.0
 10
-0.0000000000000002
 20
-1.717346299848307
 10
0.0544416102741494
 20
-1.686798957337735
 10
0.1093749999999998
 20
-1.658125
  0
LINE
  5
131
330
D4
100
AcDbEntity
  8
AM_9
100
AcDbLine
 10
-0.2187500000000002
 20
-1.648903700151693
 30
0.0
 11
-0.2187500000000002
 21
-1.389221299848307
 31
0.0
  0
LWPOLYLINE
  5
132
330
D4
100
AcDbEntity
  8
AM_9
100
AcDbPolyline
 90
        3
 70
     0
 43
0.0
 10
-0.1093750000000001
 20
-1.708125
 10
-0.1640625000000001
 20
-1.679584559607482
 10
-0.2187500000000002
 20
-1.648903700151693
  0
LWPOLYLINE
  5
133
330
D4
100
AcDbEntity
  8
AM_9
100
AcDbPolyline
 90
        3
 70
     0
 43
0.0
 10
-0.0000000000000002
 20
-1.758278700151692
 10
-0.0544416102741497
 20
-1.734384432388115
 10
-0.1093750000000001
 20
-1.708125
  0
LINE
  5
134
330
D4
100
AcDbEntity
  8
AM_9
100
AcDbLine
 10
-0.0000000000000002
 20
-1.758278700151692
 30
0.0
 11
-0.0000000000000002
 21
-1.717346299848307
 31
0.0
  0
LWPOLYLINE
  5
135
330
D4
100
AcDbEntity
  8
AM_9
100
AcDbPolyline
 90
        3
 70
     0
 43
0.0
 10
-0.1093750000000001
 20
-1.658125
 10
-0.0546875000000002
 20
-1.686665440392517
 10
-0.0000000000000002
 20
-1.717346299848307
  0
LWPOLYLINE
  5
136
330
D4
100
AcDbEntity
  8
AM_9
100
AcDbPolyline
 90
        3
 70
     0
 43
0.0
 10
-0.2187500000000002
 20
-1.607971299848307
 10
-0.1643083897258506
 20
-1.631865567611884
 10
-0.1093750000000001
 20
-1.658125
  0
LINE
  5
137
330
D4
100
AcDbEntity
  8
AM_9
100
AcDbLine
 10
0.1999999999999998
 20
-1.4940625
 30
0.0
 11
0.1999999999999998
 21
-1.455
 31
0.0
  0
LINE
  5
138
330
D4
100
AcDbEntity
  8
AM_9
100
AcDbLine
 10
-0.1851454569549802
 20
-1.348809912570727
 30
0.0
 11
-0.1912304659644925
 21
-1.446022462287446
 31
0.0
  0
LINE
  5
139
330
D4
100
AcDbEntity
  8
AM_9
100
AcDbLine
 10
0.1912304659644921
 20
-1.446022462287446
 30
0.0
 11
0.1851454569549799
 21
-1.348809912570727
 31
0.0
  0
ELLIPSE
  5
13A
330
D4
100
AcDbEntity
  8
AM_9
100
AcDbEllipse
 10
-0.0000000000000001
 20
-1.345625
 30
0.0
 11
0.1616637258772237
 21
0.0
 31
0.0
210
0.0
220
0.0
230
1.0
 40
0.8660254037844384
 41
0.0
 42
6.283185307179586
  0
ELLIPSE
  5
13B
330
D4
100
AcDbEntity
  8
AM_9
100
AcDbEllipse
 10
-0.4687499999999992
 20
-1.720606438444095
 30
0.0
 11
-0.02349716402074484
 21
0.1007796617096752
 31
0.0
210
0.0
220
0.0
230
1.0
 40
0.3659981507706653
 41
0.0
 42
6.283185307179586
  0
ELLIPSE
  5
13C
330
D4
100
AcDbEntity
  8
AM_9
100
AcDbEllipse
 10
-0.3994303217889761
 20
-1.704444290038773
 30
0.0
 11
-0.03159560311146609
 21
0.1355139790604256
 31
0.0
210
0.0
220
0.0
230
1.0
 40
0.365998150770669
 41
0.0
 42
6.283185307179586
  0
ELLIPSE
  5
13D
330
D4
100
AcDbEntity
  8
AM_9
100
AcDbEllipse
 10
-0.201389202824188
 20
-1.658270244837341
 30
0.0
 11
-0.02497702053391697
 21
0.1071267867773893
 31
0.0
210
0.0
220
0.0
230
1.0
 40
0.3659981507706688
 41
0.0
 42
6.283185307179586
  0
ELLIPSE
  5
13E
330
D4
100
AcDbEntity
  8
AM_9
100
AcDbEllipse
 10
-0.0000000000000001
 20
-1.5440625
 30
0.0
 11
-0.2000000000000002
 21
2.980232263262471E-9
 31
0.0
210
0.0
220
0.0
230
1.0
 40
0.8660254037844374
 41
0.0
 42
6.283185307179586
  0
ELLIPSE
  5
13F
330
D4
100
AcDbEntity
  8
AM_9
100
AcDbEllipse
 10
-0.0000000000000001
 20
-1.544062500000001
 30
0.0
 11
-0.2187499999999996
 21
3.259629037943317E-9
 31
0.0
210
0.0
220
0.0
230
1.0
 40
0.8660254037844334
 41
0.0
 42
6.283185307179586
  0
ELLIPSE
  5
140
330
D4
100
AcDbEntity
  8
AM_9
100
AcDbEllipse
 10
-0.0000000000000002
 20
-1.494062499999998
 30
0.0
 11
-0.2187500000000012
 21
2.678914873134850E-17
 31
0.0
210
0.0
220
0.0
230
1.0
 40
0.8660254037844392
 41
0.0
 42
6.283185307179586
  0
ELLIPSE
  5
141
330
D4
100
AcDbEntity
  8
AM_9
100
AcDbEllipse
 10
0.0000000000000002
 20
-1.494062499999999
 30
0.0
 11
-0.2000000000000003
 21
2.980232263262472E-9
 31
0.0
210
0.0
220
0.0
230
1.0
 40
0.866025403784439
 41
0.0
 42
6.283185307179586
  0
ELLIPSE
  5
142
330
D4
100
AcDbEntity
  8
AM_9
100
AcDbEllipse
 10
0.0000000000000003
 20
-1.454999999999999
 30
0.0
 11
-0.2000000000000004
 21
2.449293598294711E-17
 31
0.0
210
0.0
220
0.0
230
1.0
 40
0.8660254037844388
 41
0.0
 42
6.283185307179586
  0
ELLIPSE
  5
143
330
D4
100
AcDbEntity
  8
AM_9
100
AcDbEllipse
 10
-0.0000000000000001
 20
-1.454999999999999
 30
0.0
 11
-0.1915112338502297
 21
2.345336195354441E-17
 31
0.0
210
0.0
220
0.0
230
1.0
 40
0.8660254037844385
 41
0.0
 42
6.283185307179586
  0
ELLIPSE
  5
144
330
D4
100
AcDbEntity
  8
AM_9
100
AcDbEllipse
 10
-0.0000000000000002
 20
-1.357501782423881
 30
0.0
 11
-0.1854172907249858
 21
2.762932959926596E-9
 31
0.0
210
0.0
220
0.0
230
1.0
 40
0.866025403784429
 41
0.0
 42
6.283185307179586
  0
ENDBLK
  5
D7
330
D4
100
AcDbEntity
  8
0
100
AcDbBlockEnd
  0
BLOCK
  5
147
330
145
100
AcDbEntity
  8
0
100
AcDbBlockBegin
  2
4_062881H_0_in_062881_2
 70
     2
 10
0.0
 20
0.0
 30
0.0
  3
4_062881H_0_in_062881_2
  1

  0
ATTDEF
  5
149
330
145
100
AcDbEntity
  8
AM_6
100
AcDbText
 10
7.3386
 20
2.94
 30
0.0
 40
0.5
  1
WSTU-DLM -Inch - housing
100
AcDbAttributeDefinition
  3

  2
NN
 70
     8
280
     0
  0
ATTDEF
  5
14A
330
145
100
AcDbEntity
  8
AM_6
100
AcDbText
 10
7.3386
 20
2.44
 30
0.0
 40
0.5
  1
DLM Medium Duty Wide Slot Take-Up Bearings
100
AcDbAttributeDefinition
  3

  2
NT
 70
     8
280
     0
  0
ATTDEF
  5
14B
330
145
100
AcDbEntity
  8
AM_6
100
AcDbText
 10
7.3386
 20
1.94
 30
0.0
 40
0.5
  1
062881H
100
AcDbAttributeDefinition
  3

  2
NB
 70
     8
280
     0
  0
ATTDEF
  5
14C
330
145
100
AcDbEntity
  8
AM_6
100
AcDbText
 10
7.3386
 20
1.44
 30
0.0
 40
0.5
  1
$PN.H
100
AcDbAttributeDefinition
  3

  2
NBSYN
 70
     8
280
     0
  0
ATTDEF
  5
14D
330
145
100
AcDbEntity
  8
AM_6
100
AcDbText
 10
7.3386
 20
0.94
 30
0.0
 40
0.5
  1
062881
100
AcDbAttributeDefinition
  3

  2
LINA
 70
     8
280
     0
  0
ATTDEF
  5
14E
330
145
100
AcDbEntity
  8
AM_6
100
AcDbText
 10
7.3386
 20
0.4399999999999999
 30
0.0
 40
0.5
  1
212
100
AcDbAttributeDefinition
  3

  2
SERIES
 70
     8
280
     0
  0
ATTDEF
  5
14F
330
145
100
AcDbEntity
  8
AM_6
100
AcDbText
 10
7.3386
 20
-0.0600000000000001
 30
0.0
 40
0.5
  1
2-1/4
100
AcDbAttributeDefinition
  3

  2
SS
 70
     8
280
     0
  0
ATTDEF
  5
150
330
145
100
AcDbEntity
  8
AM_6
100
AcDbText
 10
7.3386
 20
-0.56
 30
0.0
 40
0.5
  1
062881
100
AcDbAttributeDefinition
  3

  2
PN
 70
     8
280
     0
  0
ATTDEF
  5
151
330
145
100
AcDbEntity
  8
AM_6
100
AcDbText
 10
7.3386
 20
-1.06
 30
0.0
 40
0.5
  1
WSTU-DLM-204
100
AcDbAttributeDefinition
  3

  2
DESCRIPTION
 70
     8
280
     0
  0
ATTDEF
  5
152
330
145
100
AcDbEntity
  8
AM_6
100
AcDbText
 10
7.3386
 20
-1.56
 30
0.0
 40
0.5
  1
12.4
100
AcDbAttributeDefinition
  3

  2
W
 70
     8
280
     0
  0
ATTDEF
  5
153
330
145
100
AcDbEntity
  8
AM_6
100
AcDbText
 10
7.3386
 20
-2.06
 30
0.0
 40
0.5
  1
WS502
100
AcDbAttributeDefinition
  3

  2
FS
 70
     8
280
     0
  0
ATTDEF
  5
154
330
145
100
AcDbEntity
  8
AM_6
100
AcDbText
 10
7.3386
 20
-2.56
 30
0.0
 40
0.5
  1
2.38
100
AcDbAttributeDefinition
  3

  2
A
 70
     8
280
     0
  0
ATTDEF
  5
155
330
145
100
AcDbEntity
  8
AM_6
100
AcDbText
 10
7.3386
 20
-3.06
 30
0.0
 40
0.5
  1
7.50
100
AcDbAttributeDefinition
  3

  2
B
 70
     8
280
     0
  0
ATTDEF
  5
156
330
145
100
AcDbEntity
  8
AM_6
100
AcDbText
 10
7.3386
 20
-3.56
 30
0.0
 40
0.5
  1
1.063
100
AcDbAttributeDefinition
  3

  2
C
 70
     8
280
     0
  0
ATTDEF
  5
157
330
145
100
AcDbEntity
  8
AM_6
100
AcDbText
 10
7.3386
 20
-4.06
 30
0.0
 40
0.5
  1
4.00
100
AcDbAttributeDefinition
  3

  2
D
 70
     8
280
     0
  0
ATTDEF
  5
158
330
145
100
AcDbEntity
  8
AM_6
100
AcDbText
 10
7.3386
 20
-4.56
 30
0.0
 40
0.5
  1
4.69
100
AcDbAttributeDefinition
  3

  2
E
 70
     8
280
     0
  0
ATTDEF
  5
159
330
145
100
AcDbEntity
  8
AM_6
100
AcDbText
 10
7.3386
 20
-5.06
 30
0.0
 40
0.5
  1
1-1/4
100
AcDbAttributeDefinition
  3

  2
F
 70
     8
280
     0
  0
ATTDEF
  5
15A
330
145
100
AcDbEntity
  8
AM_6
100
AcDbText
 10
7.3386
 20
-5.56
 30
0.0
 40
0.5
  1
0.75
100
AcDbAttributeDefinition
  3

  2
G
 70
     8
280
     0
  0
ATTDEF
  5
15B
330
145
100
AcDbEntity
  8
AM_6
100
AcDbText
 10
7.3386
 20
-6.06
 30
0.0
 40
0.5
  1
1.25
100
AcDbAttributeDefinition
  3

  2
H
 70
     8
280
     0
  0
ATTDEF
  5
15C
330
145
100
AcDbEntity
  8
AM_6
100
AcDbText
 10
7.3386
 20
-6.56
 30
0.0
 40
0.5
  1
4.00
100
AcDbAttributeDefinition
  3

  2
J
 70
     8
280
     0
  0
ATTDEF
  5
15D
330
145
100
AcDbEntity
  8
AM_6
100
AcDbText
 10
7.3386
 20
-7.06
 30
0.0
 40
0.5
  1
2.50
100
AcDbAttributeDefinition
  3

  2
K
 70
     8
280
     0
  0
ATTDEF
  5
15E
330
145
100
AcDbEntity
  8
AM_6
100
AcDbText
 10
7.3386
 20
-7.56
 30
0.0
 40
0.5
  1
4.11
100
AcDbAttributeDefinition
  3

  2
L
 70
     8
280
     0
  0
ATTDEF
  5
15F
330
145
100
AcDbEntity
  8
AM_6
100
AcDbText
 10
7.3386
 20
-8.06
 30
0.0
 40
0.5
  1
5.110/5.140
100
AcDbAttributeDefinition
  3

  2
M
 70
     8
280
     0
  0
ATTDEF
  5
160
330
145
100
AcDbEntity
  8
AM_6
100
AcDbText
 10
7.3386
 20
-8.56
 30
0.0
 40
0.5
  1
5.88
100
AcDbAttributeDefinition
  3

  2
N
 70
     8
280
     0
  0
ATTDEF
  5
161
330
145
100
AcDbEntity
  8
AM_6
100
AcDbText
 10
7.3386
 20
-9.06
 30
0.0
 40
0.5
  1
0.90
100
AcDbAttributeDefinition
  3

  2
R
 70
     8
280
     0
  0
ATTDEF
  5
162
330
145
100
AcDbEntity
  8
AM_6
100
AcDbText
 10
7.3386
 20
-9.56
 30
0.0
 40
0.5
  1
1.48
100
AcDbAttributeDefinition
  3

  2
S
 70
     8
280
     0
  0
ATTDEF
  5
163
330
145
100
AcDbEntity
  8
AM_6
100
AcDbText
 10
7.3386
 20
-10.06
 30
0.0
 40
0.5
  1
2.50
100
AcDbAttributeDefinition
  3

  2
T
 70
     8
280
     0
  0
ATTDEF
  5
164
330
145
100
AcDbEntity
  8
AM_6
100
AcDbText
 10
7.3386
 20
-10.56
 30
0.0
 40
0.5
  1
6955
100
AcDbAttributeDefinition
  3

  2
CAPS
 70
     8
280
     0
  0
ATTDEF
  5
165
330
145
100
AcDbEntity
  8
AM_6
100
AcDbText
 10
7.3386
 20
-11.06
 30
0.0
 40
0.5
  1
11791
100
AcDbAttributeDefinition
  3

  2
CAPD
 70
     8
280
     0
  0
ATTDEF
  5
166
330
145
100
AcDbEntity
  8
AM_6
100
AcDbText
 10
7.3386
 20
-11.56
 30
0.0
 40
0.5
  1
baldor
100
AcDbAttributeDefinition
  3

  2
COMPANY
 70
     8
280
     0
  0
LWPOLYLINE
  5
167
330
145
100
AcDbEntity
  8
AM_9
100
AcDbPolyline
 90
        4
 70
     0
 43
0.0
 10
0.4321097385441969
 20
-1.294802446307254
 10
0.4373164571290756
 20
-1.312124884288467
 10
0.446805124705266
 20
-1.358473869154469
 10
0.4500000000000001
 20
-1.405
  0
LWPOLYLINE
  5
168
330
145
100
AcDbEntity
  8
AM_9
100
AcDbPolyline
 90
       27
 70
     0
 43
0.0
 10
-0.4500000000000002
 20
-1.405
 10
-0.447335749173413
 20
-1.362507714029455
 10
-0.4394099241932315
 20
-1.320113038616947
 10
-0.4259390622798475
 20
-1.277488158492552
 10
-0.4072158506699467
 20
-1.235950708063389
 10
-0.3835944288875431
 20
-1.196310542073106
 10
-0.3549818168740673
 20
-1.158714574009348
 10
-0.321882506160544
 20
-1.12387712903318
 10
-0.2849022226191164
 20
-1.092504844655219
 10
-0.2439220790408785
 20
-1.064766819989464
 10
-0.1997014872882867
 20
-1.041260833862902
 10
-0.1530665185117105
 20
-1.022503373195685
 10
-0.1046211887789696
 20
-1.008859361413982
 10
-0.0546734739141723
 20
-1.000350280760843
 10
-0.0041819290834477
 20
-0.9971739459808278
 10
0.0457839489158056
 20
-0.9994033949241509
 10
0.0953288952300457
 20
-1.006856456378881
 10
0.1435222902199763
 20
-1.019363389542804
 10
0.1898457946854882
 20
-1.036814697555977
 10
0.2339518798788155
 20
-1.058925226508959
 10
0.2750414923813047
 20
-1.085222203038645
 10
0.3131008331240698
 20
-1.115804573550805
 10
0.3473587938152007
 20
-1.149994327906384
 10
0.3771848592058122
 20
-1.187090037064001
 10
0.4023705913797026
 20
-1.226957956455361
 10
0.4225457820791559
 20
-1.268919237891962
 10
0.4321097385441969
 20
-1.294802446307254
  0
ELLIPSE
  5
169
330
145
100
AcDbEntity
  8
AM_9
100
AcDbEllipse
 10
-0.0000000000000002
 20
-1.455
 30
0.0
 11
-0.35
 21
4.286263797015736E-17
 31
0.0
210
0.0
220
0.0
230
1.0
 40
0.8660254037844384
 41
0.0
 42
6.283185307179586
  0
ELLIPSE
  5
16A
330
145
100
AcDbEntity
  8
AM_9
100
AcDbEllipse
 10
-0.0000000000000002
 20
-1.405
 30
0.0
 11
0.4500000000000002
 21
0.0
 31
0.0
210
0.0
220
0.0
230
1.0
 40
0.866025403784439
 41
0.0
 42
3.052263285971583
  0
LINE
  5
16B
330
145
100
AcDbEntity
  8
AM_9
100
AcDbLine
 10
0.4499966946719584
 20
-1.406548016111964
 30
0.0
 11
0.4499999148224152
 21
-1.404751496995827
 31
0.0
  0
LWPOLYLINE
  5
16C
330
145
100
AcDbEntity
  8
AM_9
100
AcDbPolyline
 90
       50
 70
     0
 43
0.0
 10
-0.4499999547912231
 20
-1.405181042431294
 10
-0.4499969345031789
 20
-1.406490797605155
 10
-0.448901632154932
 20
-1.433201573067836
 10
-0.4458433207979404
 20
-1.459767187383088
 10
-0.4408388739737001
 20
-1.486074718204846
 10
-0.4339115856525866
 20
-1.512015246638326
 10
-0.4250911161985683
 20
-1.537481438037581
 10
-0.4144135897860677
 20
-1.562367456206918
 10
-0.4019218231334479
 20
-1.586568961817782
 10
-0.3876656387610398
 20
-1.609983236778109
 10
-0.3717022028731521
 20
-1.632509461736107
 10
-0.3540963218045212
 20
-1.654049154367562
 10
-0.3349206336930228
 20
-1.67450675432759
 10
-0.3142556441632834
 20
-1.693790320182389
 10
-0.2921895748199185
 20
-1.711812288079867
 10
-0.2688180177668991
 20
-1.728490234446609
 10
-0.2442434135304651
 20
-1.743747586951018
 10
-0.2185743891345918
 20
-1.75751423847888
 10
-0.1919250045383831
 20
-1.769727035145298
 10
-0.164413958227365
 20
-1.780330127650852
 10
-0.1361637975997542
 20
-1.789275191987433
 10
-0.1073001694527921
 20
-1.796521538101443
 10
-0.0779511333231527
 20
-1.802036132585735
 10
-0.0482465482059315
 20
-1.805793564071595
 10
-0.0183175328969731
 20
-1.807775978838055
 10
0.0117040074820826
 20
-1.8079730106383
 10
0.0416858014354626
 20
-1.80638172409408
 10
0.0714947393087646
 20
-1.803006708769372
 10
0.1009988076521613
 20
-1.797860029590139
 10
0.1300668037852332
 20
-1.79096124035167
 10
0.1585686306588648
 20
-1.782337493240804
 10
0.1863757474758802
 20
-1.772023675228152
 10
0.213361690036961
 20
-1.760062558191534
 10
0.2394026777455988
 20
-1.746504939648827
 10
0.2643783183953201
 20
-1.731409743409796
 10
0.2881724122843215
 20
-1.714844043222017
 10
0.3106738438341948
 20
-1.696882969451387
 10
0.3317775327286452
 20
-1.677609461039007
 10
0.3513853999430076
 20
-1.657113833977965
 10
0.3694072903356903
 20
-1.635493153678046
 10
0.3857617865431423
 20
-1.6128504202966
 10
0.4003768517934349
 20
-1.589293599933018
 10
0.4131902529436277
 20
-1.564934555782394
 10
0.4241497378436969
 20
-1.539887947286746
 10
0.4332129688696481
 20
-1.514270168976849
 10
0.4403472417587834
 20
-1.48819839361215
 10
0.4455290407783112
 20
-1.461789768523505
 10
0.4487434946442903
 20
-1.435160793485894
 10
0.4499838016976759
 20
-1.408426886969385
 10
0.4499966946719584
 20
-1.406548016111964
  0
LWPOLYLINE
  5
16D
330
145
100
AcDbEntity
  8
AM_9
100
AcDbPolyline
 90
       29
 70
     0
 43
0.0
 10
0.45
 20
-1.405
 10
0.4471679716383604
 20
-1.448144599492891
 10
0.4387820014123469
 20
-1.490443226711679
 10
0.4250072616103178
 20
-1.531121838063721
 10
0.4059177954406274
 20
-1.56979024779206
 10
0.381768756817874
 20
-1.606196821632439
 10
0.3530118530129794
 20
-1.639739461399049
 10
0.3195767212783251
 20
-1.670369728819742
 10
0.2820374537584154
 20
-1.697653011518965
 10
0.2410823158734778
 20
-1.721161688166788
 10
0.1967824230803435
 20
-1.740796637185059
 10
0.1498136779325367
 20
-1.756339847122697
 10
0.1010649933251785
 20
-1.767542990930639
 10
0.0514149345871999
 20
-1.774238076157189
 10
0.0009471652415905
 20
-1.776551352277598
 10
-0.0493715576814101
 20
-1.774445450879329
 10
-0.0985798003041055
 20
-1.767961982946811
 10
-0.1467060342353941
 20
-1.757198039491619
 10
-0.1928599134333525
 20
-1.74232157643358
 10
-0.236778588269621
 20
-1.723281092874335
 10
-0.2778884455240346
 20
-1.700302015052196
 10
-0.3154463586199323
 20
-1.673736992345546
 10
-0.3494258788580805
 20
-1.643343557625752
 10
-0.3791152897876615
 20
-1.6096545132353
 10
-0.4039572881661546
 20
-1.573220818018581
 10
-0.4236529447399417
 20
-1.53424418865851
 10
-0.4380569786368703
 20
-1.493101583464729
 10
-0.4468834469949944
 20
-1.450537632471286
 10
-0.4500000000000002
 20
-1.405
  0
ELLIPSE
  5
16E
330
145
100
AcDbEntity
  8
AM_9
100
AcDbEllipse
 10
-0.0000000000000001
 20
-1.404999999999999
 30
0.0
 11
0.4500000000000003
 21
6.705522537231452E-9
 31
0.0
210
0.0
220
0.0
230
1.0
 40
0.866025403784439
 41
3.48864571005546
 42
6.10375033461111
  0
LINE
  5
16F
330
145
100
AcDbEntity
  8
AM_9
100
AcDbLine
 10
1.013
 20
-1.973854097951517
 30
0.0
 11
1.013
 21
1.973854097951517
 31
0.0
  0
LINE
  5
170
330
145
100
AcDbEntity
  8
AM_9
100
AcDbLine
 10
1.013
 20
1.973854097951517
 30
0.0
 11
1.063
 21
1.901998948474997
 31
0.0
  0
LINE
  5
171
330
145
100
AcDbEntity
  8
AM_9
100
AcDbLine
 10
1.063
 20
-1.901998948474997
 30
0.0
 11
1.013
 21
-1.973854097951517
 31
0.0
  0
LINE
  5
172
330
145
100
AcDbEntity
  8
AM_9
100
AcDbLine
 10
-1.012999999999999
 20
-1.973854097951517
 30
0.0
 11
-1.012999999999999
 21
1.973854097951517
 31
0.0
  0
LINE
  5
173
330
145
100
AcDbEntity
  8
AM_9
100
AcDbLine
 10
-1.063
 20
1.901998948474997
 30
0.0
 11
-1.012999999999999
 21
1.973854097951517
 31
0.0
  0
LINE
  5
174
330
145
100
AcDbEntity
  8
AM_9
100
AcDbLine
 10
-1.012999999999999
 20
-1.973854097951517
 30
0.0
 11
-1.063
 21
-1.901998948474997
 31
0.0
  0
LINE
  5
175
330
145
100
AcDbEntity
  8
AM_9
100
AcDbLine
 10
1.013
 20
-1.973854097951517
 30
0.0
 11
-1.012999999999999
 21
-1.973854097951517
 31
0.0
  0
LINE
  5
176
330
145
100
AcDbEntity
  8
AM_9
100
AcDbLine
 10
-1.012999999999999
 20
1.973854097951517
 30
0.0
 11
1.013
 21
1.973854097951517
 31
0.0
  0
LINE
  5
177
330
145
100
AcDbEntity
  8
AM_9
100
AcDbLine
 10
-0.4783499999999998
 20
-2.150837191072351
 30
0.0
 11
1.063
 21
-2.150837191072351
 31
0.0
  0
LINE
  5
178
330
145
100
AcDbEntity
  8
AM_9
100
AcDbLine
 10
-0.4783499999999998
 20
-2.27785
 30
0.0
 11
1.063
 21
-2.27785
 31
0.0
  0
LINE
  5
179
330
145
100
AcDbEntity
  8
AM_9
100
AcDbLine
 10
-0.4783499999999998
 20
-2.27785
 30
0.0
 11
-0.4783499999999998
 21
-2.031314998344669
 31
0.0
  0
LINE
  5
17A
330
145
100
AcDbEntity
  8
AM_9
100
AcDbLine
 10
-0.4783499999999998
 20
2.031314998344669
 30
0.0
 11
-0.4783499999999998
 21
2.27785
 31
0.0
  0
LINE
  5
17B
330
145
100
AcDbEntity
  8
AM_9
100
AcDbLine
 10
-0.4783499999999998
 20
2.150837191072351
 30
0.0
 11
1.063
 21
2.150837191072351
 31
0.0
  0
LINE
  5
17C
330
145
100
AcDbEntity
  8
AM_9
100
AcDbLine
 10
1.063
 20
2.27785
 30
0.0
 11
-0.4783499999999998
 21
2.27785
 31
0.0
  0
LINE
  5
17D
330
145
100
AcDbEntity
  8
AM_9
100
AcDbLine
 10
-0.4783499999999998
 20
2.031314998344669
 30
0.0
 11
1.063
 21
2.031314998344669
 31
0.0
  0
LINE
  5
17E
330
145
100
AcDbEntity
  8
AM_9
100
AcDbLine
 10
1.063
 20
-2.031314998344669
 30
0.0
 11
-0.4783499999999998
 21
-2.031314998344669
 31
0.0
  0
LINE
  5
17F
330
145
100
AcDbEntity
  8
AM_9
100
AcDbLine
 10
-1.063
 20
-2.16535
 30
0.0
 11
-0.4783499999999998
 21
-2.16535
 31
0.0
  0
LINE
  5
180
330
145
100
AcDbEntity
  8
AM_9
100
AcDbLine
 10
-0.4783499999999998
 20
2.16535
 30
0.0
 11
-1.063
 21
2.16535
 31
0.0
  0
LINE
  5
181
330
145
100
AcDbEntity
  8
AM_9
100
AcDbLine
 10
1.063
 20
0.6576708903395381
 30
0.0
 11
1.063
 21
-0.6576708903395381
 31
0.0
  0
LINE
  5
182
330
145
100
AcDbEntity
  8
AM_9
100
AcDbLine
 10
-1.063
 20
0.6576708903395375
 30
0.0
 11
-1.063
 21
-0.6576708903395375
 31
0.0
  0
LINE
  5
183
330
145
100
AcDbEntity
  8
AM_9
100
AcDbLine
 10
-1.063
 20
1.1437
 30
0.0
 11
1.063
 21
1.1437
 31
0.0
  0
LINE
  5
184
330
145
100
AcDbEntity
  8
AM_9
100
AcDbLine
 10
-1.063
 20
1.25
 30
0.0
 11
1.063
 21
1.25
 31
0.0
  0
LINE
  5
185
330
145
100
AcDbEntity
  8
AM_9
100
AcDbLine
 10
-1.063
 20
-1.143699999999999
 30
0.0
 11
1.063
 21
-1.143699999999999
 31
0.0
  0
LINE
  5
186
330
145
100
AcDbEntity
  8
AM_9
100
AcDbLine
 10
-1.063
 20
-1.25
 30
0.0
 11
1.063
 21
-1.25
 31
0.0
  0
LINE
  5
189
330
145
100
AcDbEntity
  8
AM_7
100
AcDbLine
 10
0.0000000000000003
 20
-0.65625
 30
0.0
 11
0.0000000000000003
 21
0.65625
 31
0.0
  0
LINE
  5
18A
330
145
100
AcDbEntity
  8
AM_7
100
AcDbLine
 10
2.3386
 20
0.0
 30
0.0
 11
-2.3386
 21
0.0
 31
0.0
  0
LWPOLYLINE
  5
18B
330
145
100
AcDbEntity
  8
AM_4
100
AcDbPolyline
 90
       19
 70
     0
 43
0.0
 10
1.25
 20
-2.833699996120024
 10
1.249595496745314
 20
-2.842964651588865
 10
1.248385064818948
 20
-2.852158797464964
 10
1.246377916338739
 20
-2.861212460746629
 10
1.243589326916571
 20
-2.870056737589534
 10
1.240040519401744
 20
-2.878624317706584
 10
1.235758502362273
 20
-2.886849996639842
 10
1.230775864533382
 20
-2.894671172005826
 10
1.225130526797547
 20
-2.902028319937445
 10
1.218865453583687
 20
-2.908865448096572
 10
1.212028325881913
 20
-2.915130521809547
 10
1.204671178362406
 20
-2.920775860082457
 10
1.196850003360157
 20
-2.925758498482298
 10
1.188624324739488
 20
-2.930040516122247
 10
1.180056744881503
 20
-2.933589324262512
 10
1.171212468242167
 20
-2.936377914330316
 10
1.162158805107025
 20
-2.938385063471447
 10
1.152964659319287
 20
-2.93959549606899
 10
1.143700003879976
 20
-2.94
  0
LINE
  5
18C
330
145
100
AcDbEntity
  8
AM_4
100
AcDbLine
 10
0.5314999999999996
 20
-2.94
 30
0.0
 11
0.5314999999999998
 21
-2.57
 31
0.0
  0
LINE
  5
18D
330
145
100
AcDbEntity
  8
AM_4
100
AcDbLine
 10
0.5314999999999996
 20
-2.94
 30
0.0
 11
1.1437
 21
-2.94
 31
0.0
  0
LINE
  5
18E
330
145
100
AcDbEntity
  8
AM_4
100
AcDbLine
 10
-0.5315000000000002
 20
-2.57
 30
0.0
 11
-0.5315000000000002
 21
-2.94
 31
0.0
  0
LWPOLYLINE
  5
18F
330
145
100
AcDbEntity
  8
AM_4
100
AcDbPolyline
 90
       19
 70
     0
 43
0.0
 10
-1.143699999999999
 20
-2.94
 10
-1.152964655454076
 20
-2.939595496407152
 10
-1.162158801285994
 20
-2.938385064145197
 10
-1.171212464494398
 20
-2.936377915334528
 10
-1.180056741235518
 20
-2.933589325589542
 10
-1.188624321223036
 20
-2.930040517761996
 10
-1.19685
 20
-2.925758500422286
 10
-1.204671175184116
 20
-2.92077586230792
 10
-1.212028322909679
 20
-2.915130524303548
 10
-1.21886545084013
 20
-2.90886545084013
 10
-1.225130524303547
 20
-2.902028322909679
 10
-1.23077586230792
 20
-2.894671175184116
 10
-1.235758500422286
 20
-2.88685
 10
-1.240040517761996
 20
-2.878624321223036
 10
-1.243589325589542
 20
-2.870056741235519
 10
-1.246377915334528
 20
-2.861212464494399
 10
-1.248385064145198
 20
-2.852158801285995
 10
-1.249595496407153
 20
-2.842964655454077
 10
-1.25
 20
-2.8337
  0
LINE
  5
190
330
145
100
AcDbEntity
  8
AM_4
100
AcDbLine
 10
-1.1437
 20
-2.94
 30
0.0
 11
-0.5315000000000002
 21
-2.94
 31
0.0
  0
LINE
  5
191
330
145
100
AcDbEntity
  8
AM_4
100
AcDbLine
 10
1.063
 20
0.6576708903395379
 30
0.0
 11
1.063
 21
2.384999999999998
 31
0.0
  0
LINE
  5
192
330
145
100
AcDbEntity
  8
AM_4
100
AcDbLine
 10
-1.063
 20
2.385
 30
0.0
 11
-1.063
 21
0.6576708903395375
 31
0.0
  0
LINE
  5
193
330
145
100
AcDbEntity
  8
AM_4
100
AcDbLine
 10
1.063
 20
2.384999999999998
 30
0.0
 11
1.25
 21
2.572
 31
0.0
  0
LINE
  5
194
330
145
100
AcDbEntity
  8
AM_4
100
AcDbLine
 10
1.25
 20
2.572
 30
0.0
 11
1.25
 21
2.8337
 31
0.0
  0
LINE
  5
195
330
145
100
AcDbEntity
  8
AM_4
100
AcDbLine
 10
0.5315000000000002
 20
2.94
 30
0.0
 11
0.5315000000000001
 21
2.57
 31
0.0
  0
LINE
  5
196
330
145
100
AcDbEntity
  8
AM_4
100
AcDbLine
 10
0.5315000000000001
 20
2.57
 30
0.0
 11
-0.5314999999999999
 21
2.57
 31
0.0
  0
LINE
  5
197
330
145
100
AcDbEntity
  8
AM_4
100
AcDbLine
 10
-0.5314999999999999
 20
2.57
 30
0.0
 11
-0.5315
 21
2.94
 31
0.0
  0
LINE
  5
198
330
145
100
AcDbEntity
  8
AM_4
100
AcDbLine
 10
-1.25
 20
2.8337
 30
0.0
 11
-1.25
 21
2.572
 31
0.0
  0
LINE
  5
199
330
145
100
AcDbEntity
  8
AM_4
100
AcDbLine
 10
-1.25
 20
2.572
 30
0.0
 11
-1.063
 21
2.385
 31
0.0
  0
LINE
  5
19A
330
145
100
AcDbEntity
  8
AM_4
100
AcDbLine
 10
1.063
 20
-2.385
 30
0.0
 11
1.063
 21
-0.657670890339538
 31
0.0
  0
LINE
  5
19B
330
145
100
AcDbEntity
  8
AM_4
100
AcDbLine
 10
-1.063
 20
-0.6576708903395367
 30
0.0
 11
-1.063
 21
-2.384999999999998
 31
0.0
  0
LINE
  5
19C
330
145
100
AcDbEntity
  8
AM_4
100
AcDbLine
 10
-1.063
 20
-2.384999999999998
 30
0.0
 11
-1.25
 21
-2.572
 31
0.0
  0
LINE
  5
19D
330
145
100
AcDbEntity
  8
AM_4
100
AcDbLine
 10
-1.25
 20
-2.572
 30
0.0
 11
-1.25
 21
-2.8337
 31
0.0
  0
LINE
  5
19E
330
145
100
AcDbEntity
  8
AM_4
100
AcDbLine
 10
-0.5315000000000002
 20
-2.833699999208003
 30
0.0
 11
-1.25
 21
-2.8337
 31
0.0
  0
LINE
  5
19F
330
145
100
AcDbEntity
  8
AM_4
100
AcDbLine
 10
-0.5315000000000002
 20
-2.57
 30
0.0
 11
0.5314999999999998
 21
-2.57
 31
0.0
  0
LINE
  5
1A0
330
145
100
AcDbEntity
  8
AM_4
100
AcDbLine
 10
1.25
 20
-2.8337
 30
0.0
 11
0.5314999999999996
 21
-2.833699999208003
 31
0.0
  0
LINE
  5
1A1
330
145
100
AcDbEntity
  8
AM_4
100
AcDbLine
 10
1.25
 20
-2.8337
 30
0.0
 11
1.25
 21
-2.572
 31
0.0
  0
LINE
  5
1A2
330
145
100
AcDbEntity
  8
AM_4
100
AcDbLine
 10
1.25
 20
-2.572
 30
0.0
 11
1.063
 21
-2.385
 31
0.0
  0
LINE
  5
1A3
330
145
100
AcDbEntity
  8
AM_4
100
AcDbLine
 10
1.25
 20
2.8337
 30
0.0
 11
0.5315000000000002
 21
2.8337
 31
0.0
  0
LWPOLYLINE
  5
1A4
330
145
100
AcDbEntity
  8
AM_4
100
AcDbPolyline
 90
       19
 70
     0
 43
0.0
 10
1.1437
 20
2.94
 10
1.152964655454076
 20
2.939595496407152
 10
1.162158801285995
 20
2.938385064145197
 10
1.171212464494398
 20
2.936377915334528
 10
1.180056741235519
 20
2.933589325589542
 10
1.188624321223037
 20
2.930040517761995
 10
1.19685
 20
2.925758500422286
 10
1.204671175184116
 20
2.92077586230792
 10
1.212028322909679
 20
2.915130524303547
 10
1.21886545084013
 20
2.90886545084013
 10
1.225130524303548
 20
2.902028322909679
 10
1.23077586230792
 20
2.894671175184116
 10
1.235758500422286
 20
2.88685
 10
1.240040517761996
 20
2.878624321223036
 10
1.243589325589542
 20
2.870056741235518
 10
1.246377915334528
 20
2.861212464494398
 10
1.248385064145198
 20
2.852158801285995
 10
1.249595496407153
 20
2.842964655454076
 10
1.25
 20
2.833700005253512
  0
LINE
  5
1A5
330
145
100
AcDbEntity
  8
AM_4
100
AcDbLine
 10
0.5315000000000002
 20
2.94
 30
0.0
 11
1.1437
 21
2.94
 31
0.0
  0
LINE
  5
1A6
330
145
100
AcDbEntity
  8
AM_4
100
AcDbLine
 10
-1.1437
 20
2.94
 30
0.0
 11
-0.5315
 21
2.94
 31
0.0
  0
LWPOLYLINE
  5
1A7
330
145
100
AcDbEntity
  8
AM_4
100
AcDbPolyline
 90
       19
 70
     0
 43
0.0
 10
-1.25
 20
2.8337
 10
-1.249595496407152
 20
2.842964655454076
 10
-1.248385064145197
 20
2.852158801285995
 10
-1.246377915334528
 20
2.861212464494398
 10
-1.243589325589542
 20
2.870056741235518
 10
-1.240040517761996
 20
2.878624321223036
 10
-1.235758500422286
 20
2.88685
 10
-1.23077586230792
 20
2.894671175184116
 10
-1.225130524303547
 20
2.902028322909679
 10
-1.21886545084013
 20
2.90886545084013
 10
-1.212028322909679
 20
2.915130524303547
 10
-1.204671175184116
 20
2.920775862307919
 10
-1.19685
 20
2.925758500422286
 10
-1.188624321223036
 20
2.930040517761995
 10
-1.180056741235519
 20
2.933589325589542
 10
-1.171212464494398
 20
2.936377915334528
 10
-1.162158801285995
 20
2.938385064145197
 10
-1.152964655454076
 20
2.939595496407152
 10
-1.1437
 20
2.94
  0
LINE
  5
1A8
330
145
100
AcDbEntity
  8
AM_4
100
AcDbLine
 10
-0.5315
 20
2.8337
 30
0.0
 11
-1.25
 21
2.8337
 31
0.0
  0
LWPOLYLINE
  5
1A9
330
145
100
AcDbEntity
  8
AM_4
100
AcDbPolyline
 90
       19
 70
     0
 43
0.0
 10
-0.9566999999999998
 20
-2.0
 10
-0.965964655454076
 20
-1.999595496407152
 10
-0.9751588012859945
 20
-1.998385064145198
 10
-0.9842124644943978
 20
-1.996377915334528
 10
-0.9930567412355186
 20
-1.993589325589542
 10
-1.001624321223036
 20
-1.990040517761996
 10
-1.00985
 20
-1.985758500422286
 10
-1.017671175184116
 20
-1.98077586230792
 10
-1.025028322909679
 20
-1.975130524303547
 10
-1.03186545084013
 20
-1.96886545084013
 10
-1.038130524303547
 20
-1.962028322909679
 10
-1.04377586230792
 20
-1.954671175184116
 10
-1.048758500422286
 20
-1.94685
 10
-1.053040517761996
 20
-1.938624321223036
 10
-1.056589325589542
 20
-1.930056741235519
 10
-1.059377915334528
 20
-1.921212464494398
 10
-1.061385064145198
 20
-1.912158801285994
 10
-1.062595496407153
 20
-1.902964655454076
 10
-1.063
 20
-1.893700001583993
  0
LWPOLYLINE
  5
1AA
330
145
100
AcDbEntity
  8
AM_4
100
AcDbPolyline
 90
       19
 70
     0
 43
0.0
 10
1.063000000000001
 20
-1.893700003879975
 10
1.062595496068991
 20
-1.902964659319287
 10
1.061385063471448
 20
-1.912158805107024
 10
1.059377914330317
 20
-1.921212468242166
 10
1.056589324262513
 20
-1.930056744881502
 10
1.053040516122248
 20
-1.938624324739488
 10
1.048758498482299
 20
-1.946850003360157
 10
1.043775860082458
 20
-1.954671178362406
 10
1.038130521809548
 20
-1.962028325881913
 10
1.031865448096573
 20
-1.968865453583687
 10
1.025028319937446
 20
-1.975130526797547
 10
1.017671172005826
 20
-1.980775864533382
 10
1.009849996639843
 20
-1.985758502362273
 10
1.001624317706584
 20
-1.990040519401744
 10
0.9930567375895344
 20
-1.993589326916572
 10
0.9842124607466295
 20
-1.996377916338739
 10
0.9751587974649648
 20
-1.998385064818948
 10
0.965964651588865
 20
-1.999595496745314
 10
0.9566999999999999
 20
-2.0
  0
LINE
  5
1AB
330
145
100
AcDbEntity
  8
AM_4
100
AcDbLine
 10
-0.9566999999999998
 20
-2.0
 30
0.0
 11
0.9566999999999999
 21
-2.0
 31
0.0
  0
ARC
  5
1AC
330
145
100
AcDbEntity
  8
AM_4
100
AcDbCircle
 10
-0.0000000000000007
 20
0.0000000000000005
 30
0.0
 40
1.249999999999999
100
AcDbArc
 50
148.2552022700897
 51
211.7447977299103
  0
CIRCLE
  5
1AD
330
145
100
AcDbEntity
  8
AM_4
100
AcDbCircle
 10
0.0000000000000003
 20
0.0
 30
0.0
 40
0.625
  0
ARC
  5
1AE
330
145
100
AcDbEntity
  8
AM_4
100
AcDbCircle
 10
-0.0000000000000004
 20
-0.0000000000000001
 30
0.0
 40
1.250000000000001
100
AcDbArc
 50
328.2552022700897
 51
31.74479772991027
  0
LINE
  5
1AF
330
145
100
AcDbEntity
  8
AM_4
100
AcDbLine
 10
1.063
 20
-1.893699999999999
 30
0.0
 11
-1.063
 21
-1.8937
 31
0.0
  0
LINE
  5
1B0
330
145
100
AcDbEntity
  8
AM_4
100
AcDbLine
 10
-0.9566999999999984
 20
2.0
 30
0.0
 11
0.9566999999999999
 21
2.0
 31
0.0
  0
LWPOLYLINE
  5
1B1
330
145
100
AcDbEntity
  8
AM_4
100
AcDbPolyline
 90
       19
 70
     0
 43
0.0
 10
-1.062999999999999
 20
1.893700001583994
 10
-1.062595496269098
 20
1.902964657032042
 10
-1.061385063870139
 20
1.912158802845924
 10
-1.059377914924559
 20
1.921212466024419
 10
-1.056589325047784
 20
1.930056742723986
 10
-1.053040517092571
 20
1.938624322658622
 10
-1.048758499630288
 20
1.946850001371779
 10
-1.043775861399378
 20
1.954671176481648
 10
-1.038130523285375
 20
1.962028324123088
 10
-1.031865449720077
 20
1.968865451960182
 10
-1.025028321696269
 20
1.975130525321719
 10
-1.017671173886584
 20
1.980775863216461
 10
-1.009849998628221
 20
1.985758501214282
 10
-1.00162431978745
 20
1.99004051843142
 10
-0.9930567397470512
 20
1.9935893261313
 10
-0.9842124629643774
 20
1.996377915744495
 10
-0.9751587997260653
 20
1.998385064420255
 10
-0.9659646538761099
 20
1.999595496545207
 10
-0.9566999999999984
 20
2.0
  0
LINE
  5
1B2
330
145
100
AcDbEntity
  8
AM_4
100
AcDbLine
 10
1.063
 20
1.893700000000001
 30
0.0
 11
-1.063
 21
1.893700001583994
 31
0.0
  0
LWPOLYLINE
  5
1B3
330
145
100
AcDbEntity
  8
AM_4
100
AcDbPolyline
 90
       19
 70
     0
 43
0.0
 10
0.9566999999999994
 20
2.0
 10
0.9659646554540754
 20
1.999595496407153
 10
0.975158801285994
 20
1.998385064145198
 10
0.9842124644943973
 20
1.996377915334528
 10
0.993056741235518
 20
1.993589325589542
 10
1.001624321223036
 20
1.990040517761996
 10
1.009849999999999
 20
1.985758500422286
 10
1.017671175184116
 20
1.98077586230792
 10
1.025028322909679
 20
1.975130524303548
 10
1.031865450840129
 20
1.96886545084013
 10
1.038130524303547
 20
1.96202832290968
 10
1.043775862307919
 20
1.954671175184117
 10
1.048758500422285
 20
1.946850000000001
 10
1.053040517761995
 20
1.938624321223037
 10
1.056589325589542
 20
1.930056741235519
 10
1.059377915334528
 20
1.921212464494399
 10
1.061385064145197
 20
1.912158801285995
 10
1.062595496407152
 20
1.902964655454077
 10
1.063
 20
1.893700000000001
  0
ENDBLK
  5
148
330
145
100
AcDbEntity
  8
0
100
AcDbBlockEnd
  0
ENDSEC
  0
SECTION
  2
ENTITIES
  0
INSERT
  5
6F
330
1F
100
AcDbEntity
  8
0
100
AcDbBlockReference
  2
1_062881_2
 10
0.0
 20
0.0
 30
0.0
  0
POINT
  5
1B5
330
1F
100
AcDbEntity
  8
ConnectionPoints
100
AcDbPoint
 10
-0.0000000000000002
 20
-1.455
 30
-2.520133925012716
  0
POINT
  5
1B6
330
1F
100
AcDbEntity
  8
ConnectionPoints
100
AcDbPoint
 10
-0.0000000000000002
 20
-1.455
 30
-2.520133925012716
  0
POINT
  5
1B7
330
1F
100
AcDbEntity
  8
ConnectionPoints
100
AcDbPoint
 10
-1.48
 20
0.0
 30
0.0000000000000001
  0
ENDSEC
  0
SECTION
  2
OBJECTS
  0
DICTIONARY
  5
C
330
0
100
AcDbDictionary
281
     1
  3
ACAD_DETAILVIEWSTYLE
350
1BF
  3
ACAD_GROUP
350
D
  3
ACAD_LAYOUT
350
1A
  3
ACAD_MATERIAL
350
43
  3
ACAD_MLEADERSTYLE
350
6B
  3
ACAD_MLINESTYLE
350
17
  3
ACAD_PLOTSETTINGS
350
19
  3
ACAD_PLOTSTYLENAME
350
E
  3
ACAD_SCALELIST
350
47
  3
ACAD_SECTIONVIEWSTYLE
350
1C0
  3
ACAD_TABLESTYLE
350
69
  3
ACAD_VISUALSTYLE
350
2A
  3
ACDB_RECOMPOSE_DATA
350
1BC
  3
AcDbVariableDictionary
350
1B8
  0
SUN
  5
6D
330
29
100
AcDbSun
 90
        1
290
     0
 63
     7
421
 16777215
 40
1.0
291
     1
 91
  2455826
 92
 54000000
292
     0
 70
     2
 71
   256
280
     1
  0
DICTIONARY
  5
1BF
102
{ACAD_REACTORS
330
C
102
}
330
C
100
AcDbDictionary
281
     1
  0
DICTIONARY
  5
D
102
{ACAD_REACTORS
330
C
102
}
330
C
100
AcDbDictionary
281
     1
  0
DICTIONARY
  5
1A
102
{ACAD_REACTORS
330
C
102
}
330
C
100
AcDbDictionary
281
     1
  3
Layout1
350
1E
  3
Layout2
350
26
  3
Model
350
22
  0
DICTIONARY
  5
43
102
{ACAD_REACTORS
330
C
102
}
330
C
100
AcDbDictionary
281
     1
  3
ByBlock
350
45
  3
ByLayer
350
44
  3
Global
350
46
  0
DICTIONARY
  5
6B
102
{ACAD_REACTORS
330
C
102
}
330
C
100
AcDbDictionary
281
     1
  3
Standard
350
6C
  0
DICTIONARY
  5
17
102
{ACAD_REACTORS
330
C
102
}
330
C
100
AcDbDictionary
281
     1
  3
Standard
350
18
  0
DICTIONARY
  5
19
102
{ACAD_REACTORS
330
C
102
}
330
C
100
AcDbDictionary
281
     1
  0
ACDBDICTIONARYWDFLT
  5
E
102
{ACAD_REACTORS
330
C
102
}
330
C
100
AcDbDictionary
281
     1
  3
Normal
350
F
100
AcDbDictionaryWithDefault
340
F
  0
DICTIONARY
  5
47
102
{ACAD_REACTORS
330
C
102
}
330
C
100
AcDbDictionary
281
     1
  3
A0
350
48
  3
A1
350
49
  3
A2
350
4A
  3
A3
350
4B
  3
A4
350
4C
  3
A5
350
4D
  3
A6
350
4E
  3
A7
350
4F
  3
A8
350
50
  3
A9
350
51
  3
B0
350
52
  3
B1
350
53
  3
B2
350
54
  3
B3
350
55
  3
B4
350
56
  3
B5
350
57
  3
B6
350
58
  3
B7
350
59
  3
B8
350
5A
  3
B9
350
5B
  3
C0
350
5C
  3
C1
350
5D
  3
C2
350
5E
  3
C3
350
5F
  3
C4
350
60
  3
C5
350
61
  3
C6
350
62
  3
C7
350
63
  3
C8
350
64
  3
C9
350
65
  3
D0
350
66
  3
D1
350
67
  3
D2
350
68
  0
DICTIONARY
  5
1C0
102
{ACAD_REACTORS
330
C
102
}
330
C
100
AcDbDictionary
281
     1
  0
DICTIONARY
  5
69
102
{ACAD_REACTORS
330
C
102
}
330
C
100
AcDbDictionary
281
     1
  3
Standard
350
6A
  0
DICTIONARY
  5
2A
102
{ACAD_REACTORS
330
C
102
}
330
C
100
AcDbDictionary
281
     1
  3
2dWireframe
350
2F
  3
Basic
350
32
  3
Brighten
350
36
  3
ColorChange
350
3A
  3
Conceptual
350
34
  3
Dim
350
35
  3
EdgeColorOff
350
3D
  3
Facepattern
350
39
  3
Flat
350
2B
  3
FlatWithEdges
350
2C
  3
Gouraud
350
2D
  3
GouraudWithEdges
350
2E
  3
Hidden
350
31
  3
JitterOff
350
3B
  3
Linepattern
350
38
  3
OverhangOff
350
3C
  3
Realistic
350
33
  3
Shaded
350
42
  3
Shaded with edges
350
41
  3
Shades of Gray
350
3E
  3
Sketchy
350
3F
  3
Thicken
350
37
  3
Wireframe
350
30
  3
X-Ray
350
40
  0
XRECORD
  5
1BC
102
{ACAD_REACTORS
330
C
102
}
330
C
100
AcDbXrecord
280
     1
 90
        1
330
6A
  0
DICTIONARY
  5
1B8
102
{ACAD_REACTORS
330
C
102
}
330
C
100
AcDbDictionary
281
     1
  3
CANNOSCALE
350
1B9
  3
CMLEADERSTYLE
350
1BE
  3
CTABLESTYLE
350
1BD
  0
LAYOUT
  5
1E
102
{ACAD_REACTORS
330
1A
102
}
330
1A
100
AcDbPlotSettings
  1

  2
none_device
  4

  6

 40
0.0
 41
0.0
 42
0.0
 43
0.0
 44
0.0
 45
0.0
 46
0.0
 47
0.0
 48
0.0
 49
0.0
140
0.0
141
0.0
142
1.0
143
1.0
 70
   688
 72
     0
 73
     0
 74
     5
  7

 75
    16
 76
     0
 77
     2
 78
   300
147
1.0
148
0.0
149
0.0
100
AcDbLayout
  1
Layout1
 70
     1
 71
     1
 10
0.0
 20
0.0
 11
12.0
 21
9.0
 12
0.0
 22
0.0
 32
0.0
 14
1.000000000000000E+20
 24
1.000000000000000E+20
 34
1.000000000000000E+20
 15
-1.000000000000000E+20
 25
-1.000000000000000E+20
 35
-1.000000000000000E+20
146
0.0
 13
0.0
 23
0.0
 33
0.0
 16
1.0
 26
0.0
 36
0.0
 17
0.0
 27
1.0
 37
0.0
 76
     0
330
1B
  0
LAYOUT
  5
26
102
{ACAD_REACTORS
330
1A
102
}
330
1A
100
AcDbPlotSettings
  1

  2
none_device
  4

  6

 40
0.0
 41
0.0
 42
0.0
 43
0.0
 44
0.0
 45
0.0
 46
0.0
 47
0.0
 48
0.0
 49
0.0
140
0.0
141
0.0
142
1.0
143
1.0
 70
   688
 72
     0
 73
     0
 74
     5
  7

 75
    16
 76
     0
 77
     2
 78
   300
147
1.0
148
0.0
149
0.0
100
AcDbLayout
  1
Layout2
 70
     1
 71
     2
 10
0.0
 20
0.0
 11
0.0
 21
0.0
 12
0.0
 22
0.0
 32
0.0
 14
0.0
 24
0.0
 34
0.0
 15
0.0
 25
0.0
 35
0.0
146
0.0
 13
0.0
 23
0.0
 33
0.0
 16
1.0
 26
0.0
 36
0.0
 17
0.0
 27
1.0
 37
0.0
 76
     0
330
23
  0
LAYOUT
  5
22
102
{ACAD_REACTORS
330
1A
102
}
330
1A
100
AcDbPlotSettings
  1

  2
none_device
  4
Letter_(8.50_x_11.00_Inches)
  6

 40
6.35
 41
6.35
 42
6.35000508
 43
6.35000508
 44
215.9
 45
279.4
 46
0.0
 47
0.0
 48
0.0
 49
0.0
140
0.0
141
0.0
142
1.0
143
1.0
 70
  1712
 72
     0
 73
     0
 74
     0
  7

 75
     0
 76
     0
 77
     2
 78
   300
147
1.0
148
0.0
149
0.0
100
AcDbLayout
  1
Model
 70
     1
 71
     0
 10
0.0
 20
0.0
 11
12.0
 21
9.0
 12
0.0
 22
0.0
 32
0.0
 14
1.000000000000000E+20
 24
1.000000000000000E+20
 34
1.000000000000000E+20
 15
-1.000000000000000E+20
 25
-1.000000000000000E+20
 35
-1.000000000000000E+20
146
0.0
 13
0.0
 23
0.0
 33
0.0
 16
1.0
 26
0.0
 36
0.0
 17
0.0
 27
1.0
 37
0.0
 76
     0
330
1F
331
29
  0
MATERIAL
  5
45
102
{ACAD_REACTORS
330
43
102
}
330
43
100
AcDbMaterial
  1
ByBlock
 72
     1
 94
      127
  0
MATERIAL
  5
44
102
{ACAD_REACTORS
330
43
102
}
330
43
100
AcDbMaterial
  1
ByLayer
 72
     1
 94
      127
  0
MATERIAL
  5
46
102
{ACAD_REACTORS
330
43
102
}
330
43
100
AcDbMaterial
  1
Global
 72
     1
 94
      127
  0
MLEADERSTYLE
  5
6C
102
{ACAD_REACTORS
330
6B
102
}
330
6B
100
AcDbMLeaderStyle
179
     2
170
     2
171
     1
172
     0
 90
        2
 40
0.0
 41
0.0
173
     1
 91
-1056964608
340
14
 92
       -2
290
     1
 42
0.09
291
     1
 43
0.36
  3
Standard
341
0
 44
0.18
300

342
11
174
     1
178
     6
175
     1
176
     0
 93
-1056964608
 45
0.18
292
     0
297
     0
 46
0.18
343
0
 94
-1056964608
 47
1.0
 49
1.0
140
1.0
293
     1
141
0.0
294
     1
177
     0
142
1.0
295
     0
296
     0
143
0.125
271
     0
272
     9
273
     9
298
     0
  0
MLINESTYLE
  5
18
102
{ACAD_REACTORS
330
17
102
}
330
17
100
AcDbMlineStyle
  2
Standard
 70
     0
  3

 62
   256
 51
90.0
 52
90.0
 71
     2
 49
0.5
 62
   256
  6
BYLAYER
 49
-0.5
 62
   256
  6
BYLAYER
  0
ACDBPLACEHOLDER
  5
F
102
{ACAD_REACTORS
330
E
102
}
330
E
  0
SCALE
  5
48
102
{ACAD_REACTORS
330
47
102
}
330
47
100
AcDbScale
 70
     0
300
1:1
140
1.0
141
1.0
290
     1
  0
SCALE
  5
49
102
{ACAD_REACTORS
330
47
102
}
330
47
100
AcDbScale
 70
     0
300
1:2
140
1.0
141
2.0
290
     0
  0
SCALE
  5
4A
102
{ACAD_REACTORS
330
47
102
}
330
47
100
AcDbScale
 70
     0
300
1:4
140
1.0
141
4.0
290
     0
  0
SCALE
  5
4B
102
{ACAD_REACTORS
330
47
102
}
330
47
100
AcDbScale
 70
     0
300
1:5
140
1.0
141
5.0
290
     0
  0
SCALE
  5
4C
102
{ACAD_REACTORS
330
47
102
}
330
47
100
AcDbScale
 70
     0
300
1:8
140
1.0
141
8.0
290
     0
  0
SCALE
  5
4D
102
{ACAD_REACTORS
330
47
102
}
330
47
100
AcDbScale
 70
     0
300
1:10
140
1.0
141
10.0
290
     0
  0
SCALE
  5
4E
102
{ACAD_REACTORS
330
47
102
}
330
47
100
AcDbScale
 70
     0
300
1:16
140
1.0
141
16.0
290
     0
  0
SCALE
  5
4F
102
{ACAD_REACTORS
330
47
102
}
330
47
100
AcDbScale
 70
     0
300
1:20
140
1.0
141
20.0
290
     0
  0
SCALE
  5
50
102
{ACAD_REACTORS
330
47
102
}
330
47
100
AcDbScale
 70
     0
300
1:30
140
1.0
141
30.0
290
     0
  0
SCALE
  5
51
102
{ACAD_REACTORS
330
47
102
}
330
47
100
AcDbScale
 70
     0
300
1:40
140
1.0
141
40.0
290
     0
  0
SCALE
  5
52
102
{ACAD_REACTORS
330
47
102
}
330
47
100
AcDbScale
 70
     0
300
1:50
140
1.0
141
50.0
290
     0
  0
SCALE
  5
53
102
{ACAD_REACTORS
330
47
102
}
330
47
100
AcDbScale
 70
     0
300
1:100
140
1.0
141
100.0
290
     0
  0
SCALE
  5
54
102
{ACAD_REACTORS
330
47
102
}
330
47
100
AcDbScale
 70
     0
300
2:1
140
2.0
141
1.0
290
     0
  0
SCALE
  5
55
102
{ACAD_REACTORS
330
47
102
}
330
47
100
AcDbScale
 70
     0
300
4:1
140
4.0
141
1.0
290
     0
  0
SCALE
  5
56
102
{ACAD_REACTORS
330
47
102
}
330
47
100
AcDbScale
 70
     0
300
8:1
140
8.0
141
1.0
290
     0
  0
SCALE
  5
57
102
{ACAD_REACTORS
330
47
102
}
330
47
100
AcDbScale
 70
     0
300
10:1
140
10.0
141
1.0
290
     0
  0
SCALE
  5
58
102
{ACAD_REACTORS
330
47
102
}
330
47
100
AcDbScale
 70
     0
300
100:1
140
100.0
141
1.0
290
     0
  0
SCALE
  5
59
102
{ACAD_REACTORS
330
47
102
}
330
47
100
AcDbScale
 70
     0
300
1/128" = 1'-0"
140
0.0078125
141
12.0
290
     0
  0
SCALE
  5
5A
102
{ACAD_REACTORS
330
47
102
}
330
47
100
AcDbScale
 70
     0
300
1/64" = 1'-0"
140
0.015625
141
12.0
290
     0
  0
SCALE
  5
5B
102
{ACAD_REACTORS
330
47
102
}
330
47
100
AcDbScale
 70
     0
300
1/32" = 1'-0"
140
0.03125
141
12.0
290
     0
  0
SCALE
  5
5C
102
{ACAD_REACTORS
330
47
102
}
330
47
100
AcDbScale
 70
     0
300
1/16" = 1'-0"
140
0.0625
141
12.0
290
     0
  0
SCALE
  5
5D
102
{ACAD_REACTORS
330
47
102
}
330
47
100
AcDbScale
 70
     0
300
3/32" = 1'-0"
140
0.09375
141
12.0
290
     0
  0
SCALE
  5
5E
102
{ACAD_REACTORS
330
47
102
}
330
47
100
AcDbScale
 70
     0
300
1/8" = 1'-0"
140
0.125
141
12.0
290
     0
  0
SCALE
  5
5F
102
{ACAD_REACTORS
330
47
102
}
330
47
100
AcDbScale
 70
     0
300
3/16" = 1'-0"
140
0.1875
141
12.0
290
     0
  0
SCALE
  5
60
102
{ACAD_REACTORS
330
47
102
}
330
47
100
AcDbScale
 70
     0
300
1/4" = 1'-0"
140
0.25
141
12.0
290
     0
  0
SCALE
  5
61
102
{ACAD_REACTORS
330
47
102
}
330
47
100
AcDbScale
 70
     0
300
3/8" = 1'-0"
140
0.375
141
12.0
290
     0
  0
SCALE
  5
62
102
{ACAD_REACTORS
330
47
102
}
330
47
100
AcDbScale
 70
     0
300
1/2" = 1'-0"
140
0.5
141
12.0
290
     0
  0
SCALE
  5
63
102
{ACAD_REACTORS
330
47
102
}
330
47
100
AcDbScale
 70
     0
300
3/4" = 1'-0"
140
0.75
141
12.0
290
     0
  0
SCALE
  5
64
102
{ACAD_REACTORS
330
47
102
}
330
47
100
AcDbScale
 70
     0
300
1" = 1'-0"
140
1.0
141
12.0
290
     0
  0
SCALE
  5
65
102
{ACAD_REACTORS
330
47
102
}
330
47
100
AcDbScale
 70
     0
300
1-1/2" = 1'-0"
140
1.5
141
12.0
290
     0
  0
SCALE
  5
66
102
{ACAD_REACTORS
330
47
102
}
330
47
100
AcDbScale
 70
     0
300
3" = 1'-0"
140
3.0
141
12.0
290
     0
  0
SCALE
  5
67
102
{ACAD_REACTORS
330
47
102
}
330
47
100
AcDbScale
 70
     0
300
6" = 1'-0"
140
6.0
141
12.0
290
     0
  0
SCALE
  5
68
102
{ACAD_REACTORS
330
47
102
}
330
47
100
AcDbScale
 70
     0
300
1'-0" = 1'-0"
140
12.0
141
12.0
290
     0
  0
TABLESTYLE
  5
6A
102
{ACAD_REACTORS
330
69
102
}
102
{ACAD_XDICTIONARY
360
1BA
102
}
330
69
100
AcDbTableStyle
  3
Standard
 70
     0
 71
     0
 40
0.06
 41
0.06
280
     0
281
     0
  7
Standard
140
0.18
170
     2
 62
     0
 63
   257
283
     0
 90
        4
 91
        0
  1

274
    -2
284
     1
 64
     0
275
    -2
285
     1
 65
     0
276
    -2
286
     1
 66
     0
277
    -2
287
     1
 67
     0
278
    -2
288
     1
 68
     0
279
    -2
289
     1
 69
     0
  7
Standard
140
0.25
170
     5
 62
     0
 63
   257
283
     0
 90
        4
 91
        0
  1

274
    -2
284
     1
 64
     0
275
    -2
285
     1
 65
     0
276
    -2
286
     1
 66
     0
277
    -2
287
     1
 67
     0
278
    -2
288
     1
 68
     0
279
    -2
289
     1
 69
     0
  7
Standard
140
0.18
170
     5
 62
     0
 63
   257
283
     0
 90
        4
 91
        0
  1

274
    -2
284
     1
 64
     0
275
    -2
285
     1
 65
     0
276
    -2
286
     1
 66
     0
277
    -2
287
     1
 67
     0
278
    -2
288
     1
 68
     0
279
    -2
289
     1
 69
     0
  0
VISUALSTYLE
  5
2F
102
{ACAD_REACTORS
330
2A
102
}
330
2A
100
AcDbVisualStyle
  2
2dWireframe
 70
     4
177
     3
291
     0
 70
    58
 90
        0
176
     1
 90
        2
176
     1
 90
        0
176
     1
 90
        0
176
     1
 40
0.6
176
     1
 40
30.0
176
     1
 62
     7
420
 16777215
176
     1
 90
        1
176
     1
 90
        4
176
     1
 62
     7
176
     1
 62
   257
176
     1
 90
        1
176
     1
 90
        1
176
     1
 40
1.0
176
     1
 90
        0
176
     1
 62
   257
176
     1
 40
1.0
176
     1
 90
        1
176
     1
 90
        6
176
     1
 90
        2
176
     1
 62
     7
176
     1
 90
        5
176
     1
 90
        0
176
     1
 90
        0
176
     1
290
     0
176
     1
 90
        1
176
     1
 40
0.0
176
     1
 90
        0
176
     1
290
     1
176
     1
290
     1
176
     1
290
     0
176
     1
290
     0
176
     1
290
     0
176
     1
290
     0
176
     1
290
     0
176
     1
290
     0
176
     1
290
     0
176
     1
 90
       50
176
     1
 40
0.0
176
     1
 40
1.0
176
     1
 90
        0
176
     1
 62
    18
420
        0
176
     1
 90
       50
176
     1
 90
        3
176
     1
 62
     5
420
      255
176
     1
290
     0
176
     1
 90
       50
176
     1
 90
       50
176
     1
 90
       50
176
     1
290
     0
176
     1
 90
       50
176
     1
 62
   256
176
     0
 40
1.0
176
     0
 90
        2
176
     1
  1
strokes_ogs.tif
176
     1
290
     0
176
     1
 40
1.0
176
     1
 40
1.0
176
     1
  0
VISUALSTYLE
  5
32
102
{ACAD_REACTORS
330
2A
102
}
330
2A
100
AcDbVisualStyle
  2
Basic
 70
     7
177
     3
291
     1
 70
    58
 90
        1
176
     1
 90
        0
176
     1
 90
        1
176
     1
 90
        0
176
     1
 40
0.6
176
     1
 40
30.0
176
     1
 62
     7
420
 16777215
176
     1
 90
        0
176
     1
 90
        4
176
     1
 62
     7
176
     1
 62
   257
176
     1
 90
        1
176
     1
 90
        1
176
     1
 40
1.0
176
     1
 90
        8
176
     1
 62
     7
176
     1
 40
1.0
176
     1
 90
        1
176
     1
 90
        6
176
     1
 90
        2
176
     1
 62
     7
176
     1
 90
        5
176
     1
 90
        0
176
     1
 90
        0
176
     1
290
     0
176
     1
 90
        1
176
     1
 40
0.0
176
     1
 90
        0
176
     1
290
     0
176
     1
290
     1
176
     1
290
     1
176
     1
290
     0
176
     1
290
     0
176
     1
290
     0
176
     1
290
     0
176
     1
290
     0
176
     1
290
     0
176
     1
 90
       50
176
     1
 40
0.0
176
     1
 40
1.0
176
     1
 90
        0
176
     1
 62
    18
420
        0
176
     1
 90
       50
176
     1
 90
        3
176
     1
 62
     5
420
      255
176
     1
290
     0
176
     1
 90
       50
176
     1
 90
       50
176
     1
 90
       50
176
     1
290
     0
176
     1
 90
       50
176
     1
 62
   256
176
     0
 40
1.0
176
     0
 90
        2
176
     1
  1
strokes_ogs.tif
176
     1
290
     0
176
     1
 40
1.0
176
     1
 40
1.0
176
     1
  0
VISUALSTYLE
  5
36
102
{ACAD_REACTORS
330
2A
102
}
330
2A
100
AcDbVisualStyle
  2
Brighten
 70
    12
177
     3
291
     1
 70
    58
 90
        2
176
     1
 90
        2
176
     1
 90
        0
176
     1
 90
        0
176
     1
 40
0.6
176
     1
 40
30.0
176
     1
 62
     7
420
 16777215
176
     1
 90
        1
176
     1
 90
        4
176
     1
 62
     7
176
     1
 62
   257
176
     1
 90
        1
176
     1
 90
        1
176
     1
 40
1.0
176
     1
 90
        8
176
     1
 62
     7
176
     1
 40
1.0
176
     1
 90
        1
176
     1
 90
        6
176
     1
 90
        2
176
     1
 62
     7
176
     1
 90
        5
176
     1
 90
        0
176
     1
 90
        0
176
     1
290
     0
176
     1
 90
        1
176
     1
 40
50.0
176
     1
 90
        0
176
     1
290
     0
176
     1
290
     1
176
     1
290
     1
176
     1
290
     0
176
     1
290
     0
176
     1
290
     0
176
     1
290
     0
176
     1
290
     0
176
     1
290
     0
176
     1
 90
       50
176
     1
 40
0.0
176
     1
 40
1.0
176
     1
 90
        0
176
     1
 62
    18
420
        0
176
     1
 90
       50
176
     1
 90
        3
176
     1
 62
     5
420
      255
176
     1
290
     0
176
     1
 90
       50
176
     1
 90
       50
176
     1
 90
       50
176
     1
290
     0
176
     1
 90
       50
176
     1
 62
   256
176
     0
 40
1.0
176
     0
 90
        2
176
     1
  1
strokes_ogs.tif
176
     1
290
     0
176
     1
 40
1.0
176
     1
 40
1.0
176
     1
  0
VISUALSTYLE
  5
3A
102
{ACAD_REACTORS
330
2A
102
}
330
2A
100
AcDbVisualStyle
  2
ColorChange
 70
    16
177
     3
291
     1
 70
    58
 90
        2
176
     1
 90
        2
176
     1
 90
        3
176
     1
 90
        0
176
     1
 40
0.6
176
     1
 40
30.0
176
     1
 62
     8
420
  8421504
176
     1
 90
        1
176
     1
 90
        4
176
     1
 62
     7
176
     1
 62
   257
176
     1
 90
        1
176
     1
 90
        1
176
     1
 40
1.0
176
     1
 90
        8
176
     1
 62
     8
420
  8421504
176
     1
 40
1.0
176
     1
 90
        1
176
     1
 90
        6
176
     1
 90
        2
176
     1
 62
     7
176
     1
 90
        5
176
     1
 90
        0
176
     1
 90
        0
176
     1
290
     0
176
     1
 90
        1
176
     1
 40
0.0
176
     1
 90
        0
176
     1
290
     0
176
     1
290
     1
176
     1
290
     1
176
     1
290
     0
176
     1
290
     0
176
     1
290
     0
176
     1
290
     0
176
     1
290
     0
176
     1
290
     0
176
     1
 90
       50
176
     1
 40
0.0
176
     1
 40
1.0
176
     1
 90
        0
176
     1
 62
    18
420
        0
176
     1
 90
       50
176
     1
 90
        3
176
     1
 62
     5
420
      255
176
     1
290
     0
176
     1
 90
       50
176
     1
 90
       50
176
     1
 90
       50
176
     1
290
     0
176
     1
 90
       50
176
     1
 62
   256
176
     0
 40
1.0
176
     0
 90
        2
176
     1
  1
strokes_ogs.tif
176
     1
290
     0
176
     1
 40
1.0
176
     1
 40
1.0
176
     1
  0
VISUALSTYLE
  5
34
102
{ACAD_REACTORS
330
2A
102
}
330
2A
100
AcDbVisualStyle
  2
Conceptual
 70
     9
177
     3
291
     0
 70
    58
 90
        3
176
     1
 90
        2
176
     1
 90
        0
176
     1
 90
        0
176
     1
 40
0.6
176
     1
 40
30.0
176
     1
 62
     7
420
 16777215
176
     1
 90
        2
176
     1
 90
        2
176
     1
 62
     7
176
     1
 62
   257
176
     1
 90
        1
176
     1
 90
        1
176
     1
 40
179.0
176
     1
 90
        8
176
     1
 62
     7
176
     1
 40
1.0
176
     1
 90
        1
176
     1
 90
        6
176
     1
 90
        2
176
     1
 62
     7
176
     1
 90
        3
176
     1
 90
        0
176
     1
 90
        0
176
     1
290
     0
176
     1
 90
        1
176
     1
 40
0.0
176
     1
 90
        0
176
     1
290
     0
176
     1
290
     1
176
     1
290
     1
176
     1
290
     0
176
     1
290
     0
176
     1
290
     0
176
     1
290
     0
176
     1
290
     0
176
     1
290
     0
176
     1
 90
       50
176
     1
 40
0.0
176
     1
 40
1.0
176
     1
 90
        0
176
     1
 62
    18
420
        0
176
     1
 90
       50
176
     1
 90
        3
176
     1
 62
     5
420
      255
176
     1
290
     0
176
     1
 90
       50
176
     1
 90
       50
176
     1
 90
       50
176
     1
290
     0
176
     1
 90
       50
176
     1
 62
   256
176
     0
 40
1.0
176
     0
 90
        2
176
     1
  1
strokes_ogs.tif
176
     1
290
     0
176
     1
 40
1.0
176
     1
 40
1.0
176
     1
  0
VISUALSTYLE
  5
35
102
{ACAD_REACTORS
330
2A
102
}
330
2A
100
AcDbVisualStyle
  2
Dim
 70
    11
177
     3
291
     1
 70
    58
 90
        2
176
     1
 90
        2
176
     1
 90
        0
176
     1
 90
        0
176
     1
 40
0.6
176
     1
 40
30.0
176
     1
 62
     7
420
 16777215
176
     1
 90
        1
176
     1
 90
        4
176
     1
 62
     7
176
     1
 62
   257
176
     1
 90
        1
176
     1
 90
        1
176
     1
 40
1.0
176
     1
 90
        8
176
     1
 62
     7
176
     1
 40
1.0
176
     1
 90
        1
176
     1
 90
        6
176
     1
 90
        2
176
     1
 62
     7
176
     1
 90
        5
176
     1
 90
        0
176
     1
 90
        0
176
     1
290
     0
176
     1
 90
        1
176
     1
 40
-50.0
176
     1
 90
        0
176
     1
290
     0
176
     1
290
     1
176
     1
290
     1
176
     1
290
     0
176
     1
290
     0
176
     1
290
     0
176
     1
290
     0
176
     1
290
     0
176
     1
290
     0
176
     1
 90
       50
176
     1
 40
0.0
176
     1
 40
1.0
176
     1
 90
        0
176
     1
 62
    18
420
        0
176
     1
 90
       50
176
     1
 90
        3
176
     1
 62
     5
420
      255
176
     1
290
     0
176
     1
 90
       50
176
     1
 90
       50
176
     1
 90
       50
176
     1
290
     0
176
     1
 90
       50
176
     1
 62
   256
176
     0
 40
1.0
176
     0
 90
        2
176
     1
  1
strokes_ogs.tif
176
     1
290
     0
176
     1
 40
1.0
176
     1
 40
1.0
176
     1
  0
VISUALSTYLE
  5
3D
102
{ACAD_REACTORS
330
2A
102
}
330
2A
100
AcDbVisualStyle
  2
EdgeColorOff
 70
    22
177
     3
291
     1
 70
    58
 90
        2
176
     0
 90
        2
176
     0
 90
        0
176
     0
 90
        0
176
     0
 40
0.6
176
     0
 40
30.0
176
     0
 62
     7
420
 16777215
176
     0
 90
        1
176
     0
 90
        4
176
     0
 62
     7
176
     0
 62
   257
176
     0
 90
        1
176
     0
 90
        1
176
     0
 40
1.0
176
     0
 90
        8
176
     2
 62
     7
176
     0
 40
1.0
176
     0
 90
        1
176
     0
 90
        6
176
     0
 90
        2
176
     0
 62
     7
176
     0
 90
        5
176
     0
 90
        0
176
     0
 90
        0
176
     0
290
     0
176
     0
 90
        1
176
     0
 40
0.0
176
     0
 90
        0
176
     0
290
     0
176
     0
290
     1
176
     0
290
     1
176
     0
290
     0
176
     0
290
     0
176
     0
290
     0
176
     0
290
     0
176
     0
290
     0
176
     0
290
     0
176
     0
 90
       50
176
     0
 40
0.0
176
     0
 40
1.0
176
     0
 90
        0
176
     0
 62
    18
420
        0
176
     0
 90
       50
176
     0
 90
        3
176
     0
 62
     5
420
      255
176
     0
290
     0
176
     0
 90
       50
176
     0
 90
       50
176
     0
 90
       50
176
     0
290
     0
176
     0
 90
       50
176
     0
 62
   256
176
     0
 40
1.0
176
     0
 90
        2
176
     0
  1
strokes_ogs.tif
176
     0
290
     0
176
     0
 40
1.0
176
     0
 40
1.0
176
     0
  0
VISUALSTYLE
  5
39
102
{ACAD_REACTORS
330
2A
102
}
330
2A
100
AcDbVisualStyle
  2
Facepattern
 70
    15
177
     3
291
     1
 70
    58
 90
        2
176
     1
 90
        2
176
     1
 90
        0
176
     1
 90
        0
176
     1
 40
0.6
176
     1
 40
30.0
176
     1
 62
     7
420
 16777215
176
     1
 90
        1
176
     1
 90
        4
176
     1
 62
     7
176
     1
 62
   257
176
     1
 90
        1
176
     1
 90
        1
176
     1
 40
1.0
176
     1
 90
        8
176
     1
 62
     7
176
     1
 40
1.0
176
     1
 90
        1
176
     1
 90
        6
176
     1
 90
        2
176
     1
 62
     7
176
     1
 90
        5
176
     1
 90
        0
176
     1
 90
        0
176
     1
290
     0
176
     1
 90
        1
176
     1
 40
0.0
176
     1
 90
        0
176
     1
290
     0
176
     1
290
     1
176
     1
290
     1
176
     1
290
     0
176
     1
290
     0
176
     1
290
     0
176
     1
290
     0
176
     1
290
     0
176
     1
290
     0
176
     1
 90
       50
176
     1
 40
0.0
176
     1
 40
1.0
176
     1
 90
        0
176
     1
 62
    18
420
        0
176
     1
 90
       50
176
     1
 90
        3
176
     1
 62
     5
420
      255
176
     1
290
     0
176
     1
 90
       50
176
     1
 90
       50
176
     1
 90
       50
176
     1
290
     0
176
     1
 90
       50
176
     1
 62
   256
176
     0
 40
1.0
176
     0
 90
        2
176
     1
  1
strokes_ogs.tif
176
     1
290
     0
176
     1
 40
1.0
176
     1
 40
1.0
176
     1
  0
VISUALSTYLE
  5
2B
102
{ACAD_REACTORS
330
2A
102
}
330
2A
100
AcDbVisualStyle
  2
Flat
 70
     0
177
     3
291
     1
 70
    58
 90
        2
176
     1
 90
        1
176
     1
 90
        1
176
     1
 90
        2
176
     1
 40
0.6
176
     1
 40
30.0
176
     1
 62
     7
420
 16777215
176
     1
 90
        0
176
     1
 90
        0
176
     1
 62
     7
176
     1
 62
   257
176
     1
 90
        1
176
     1
 90
        1
176
     1
 40
1.0
176
     1
 90
        8
176
     1
 62
     7
176
     1
 40
1.0
176
     1
 90
        1
176
     1
 90
        6
176
     1
 90
        2
176
     1
 62
     7
176
     1
 90
        5
176
     1
 90
        0
176
     1
 90
        0
176
     1
290
     0
176
     1
 90
       13
176
     1
 40
0.0
176
     1
 90
        0
176
     1
290
     0
176
     1
290
     1
176
     1
290
     1
176
     1
290
     0
176
     1
290
     0
176
     1
290
     0
176
     1
290
     0
176
     1
290
     0
176
     1
290
     0
176
     1
 90
       50
176
     1
 40
0.0
176
     1
 40
1.0
176
     1
 90
        0
176
     1
 62
    18
420
        0
176
     1
 90
       50
176
     1
 90
        3
176
     1
 62
     5
420
      255
176
     1
290
     0
176
     1
 90
       50
176
     1
 90
       50
176
     1
 90
       50
176
     1
290
     0
176
     1
 90
       50
176
     1
 62
   256
176
     0
 40
1.0
176
     0
 90
        2
176
     1
  1
strokes_ogs.tif
176
     1
290
     0
176
     1
 40
1.0
176
     1
 40
1.0
176
     1
  0
VISUALSTYLE
  5
2C
102
{ACAD_REACTORS
330
2A
102
}
330
2A
100
AcDbVisualStyle
  2
FlatWithEdges
 70
     1
177
     3
291
     1
 70
    58
 90
        2
176
     1
 90
        1
176
     1
 90
        1
176
     1
 90
        2
176
     1
 40
0.6
176
     1
 40
30.0
176
     1
 62
     7
420
 16777215
176
     1
 90
        1
176
     1
 90
        0
176
     1
 62
     7
176
     1
 62
   257
176
     1
 90
        1
176
     1
 90
        1
176
     1
 40
1.0
176
     1
 90
        0
176
     1
 62
   257
176
     1
 40
1.0
176
     1
 90
        1
176
     1
 90
        6
176
     1
 90
        2
176
     1
 62
     7
176
     1
 90
        5
176
     1
 90
        0
176
     1
 90
        0
176
     1
290
     0
176
     1
 90
       13
176
     1
 40
0.0
176
     1
 90
        0
176
     1
290
     0
176
     1
290
     1
176
     1
290
     1
176
     1
290
     0
176
     1
290
     0
176
     1
290
     0
176
     1
290
     0
176
     1
290
     0
176
     1
290
     0
176
     1
 90
       50
176
     1
 40
0.0
176
     1
 40
1.0
176
     1
 90
        0
176
     1
 62
    18
420
        0
176
     1
 90
       50
176
     1
 90
        3
176
     1
 62
     5
420
      255
176
     1
290
     0
176
     1
 90
       50
176
     1
 90
       50
176
     1
 90
       50
176
     1
290
     0
176
     1
 90
       50
176
     1
 62
   256
176
     0
 40
1.0
176
     0
 90
        2
176
     1
  1
strokes_ogs.tif
176
     1
290
     0
176
     1
 40
1.0
176
     1
 40
1.0
176
     1
  0
VISUALSTYLE
  5
2D
102
{ACAD_REACTORS
330
2A
102
}
330
2A
100
AcDbVisualStyle
  2
Gouraud
 70
     2
177
     3
291
     1
 70
    58
 90
        2
176
     1
 90
        2
176
     1
 90
        1
176
     1
 90
        2
176
     1
 40
0.6
176
     1
 40
30.0
176
     1
 62
     7
420
 16777215
176
     1
 90
        0
176
     1
 90
        0
176
     1
 62
     7
176
     1
 62
   257
176
     1
 90
        1
176
     1
 90
        1
176
     1
 40
1.0
176
     1
 90
        0
176
     1
 62
     7
176
     1
 40
1.0
176
     1
 90
        1
176
     1
 90
        6
176
     1
 90
        2
176
     1
 62
     7
176
     1
 90
        5
176
     1
 90
        0
176
     1
 90
        0
176
     1
290
     0
176
     1
 90
       13
176
     1
 40
0.0
176
     1
 90
        0
176
     1
290
     0
176
     1
290
     1
176
     1
290
     1
176
     1
290
     0
176
     1
290
     0
176
     1
290
     0
176
     1
290
     0
176
     1
290
     0
176
     1
290
     0
176
     1
 90
       50
176
     1
 40
0.0
176
     1
 40
1.0
176
     1
 90
        0
176
     1
 62
    18
420
        0
176
     1
 90
       50
176
     1
 90
        3
176
     1
 62
     5
420
      255
176
     1
290
     0
176
     1
 90
       50
176
     1
 90
       50
176
     1
 90
       50
176
     1
290
     0
176
     1
 90
       50
176
     1
 62
   256
176
     0
 40
1.0
176
     0
 90
        2
176
     1
  1
strokes_ogs.tif
176
     1
290
     0
176
     1
 40
1.0
176
     1
 40
1.0
176
     1
  0
VISUALSTYLE
  5
2E
102
{ACAD_REACTORS
330
2A
102
}
330
2A
100
AcDbVisualStyle
  2
GouraudWithEdges
 70
     3
177
     3
291
     1
 70
    58
 90
        2
176
     1
 90
        2
176
     1
 90
        1
176
     1
 90
        2
176
     1
 40
0.6
176
     1
 40
30.0
176
     1
 62
     7
420
 16777215
176
     1
 90
        1
176
     1
 90
        0
176
     1
 62
     7
176
     1
 62
   257
176
     1
 90
        1
176
     1
 90
        1
176
     1
 40
1.0
176
     1
 90
        0
176
     1
 62
   257
176
     1
 40
1.0
176
     1
 90
        1
176
     1
 90
        6
176
     1
 90
        2
176
     1
 62
     7
176
     1
 90
        5
176
     1
 90
        0
176
     1
 90
        0
176
     1
290
     0
176
     1
 90
       13
176
     1
 40
0.0
176
     1
 90
        0
176
     1
290
     0
176
     1
290
     1
176
     1
290
     1
176
     1
290
     0
176
     1
290
     0
176
     1
290
     0
176
     1
290
     0
176
     1
290
     0
176
     1
290
     0
176
     1
 90
       50
176
     1
 40
0.0
176
     1
 40
1.0
176
     1
 90
        0
176
     1
 62
    18
420
        0
176
     1
 90
       50
176
     1
 90
        3
176
     1
 62
     5
420
      255
176
     1
290
     0
176
     1
 90
       50
176
     1
 90
       50
176
     1
 90
       50
176
     1
290
     0
176
     1
 90
       50
176
     1
 62
   256
176
     0
 40
1.0
176
     0
 90
        2
176
     1
  1
strokes_ogs.tif
176
     1
290
     0
176
     1
 40
1.0
176
     1
 40
1.0
176
     1
  0
VISUALSTYLE
  5
31
102
{ACAD_REACTORS
330
2A
102
}
330
2A
100
AcDbVisualStyle
  2
Hidden
 70
     6
177
     3
291
     0
 70
    58
 90
        1
176
     1
 90
        2
176
     1
 90
        2
176
     1
 90
        0
176
     1
 40
0.6
176
     1
 40
30.0
176
     1
 62
     7
420
 16777215
176
     1
 90
        2
176
     1
 90
        2
176
     1
 62
     7
176
     1
 62
   257
176
     1
 90
        2
176
     1
 90
        1
176
     1
 40
40.0
176
     1
 90
        0
176
     1
 62
   257
176
     1
 40
1.0
176
     1
 90
        1
176
     1
 90
        6
176
     1
 90
        2
176
     1
 62
     7
176
     1
 90
        3
176
     1
 90
        0
176
     1
 90
        0
176
     1
290
     0
176
     1
 90
        1
176
     1
 40
0.0
176
     1
 90
        0
176
     1
290
     0
176
     1
290
     1
176
     1
290
     1
176
     1
290
     0
176
     1
290
     0
176
     1
290
     0
176
     1
290
     0
176
     1
290
     0
176
     1
290
     0
176
     1
 90
       50
176
     1
 40
0.0
176
     1
 40
1.0
176
     1
 90
        0
176
     1
 62
    18
420
        0
176
     1
 90
       50
176
     1
 90
        3
176
     1
 62
     5
420
      255
176
     1
290
     0
176
     1
 90
       50
176
     1
 90
       50
176
     1
 90
       50
176
     1
290
     0
176
     1
 90
       50
176
     1
 62
   256
176
     0
 40
1.0
176
     0
 90
        2
176
     1
  1
strokes_ogs.tif
176
     1
290
     0
176
     1
 40
1.0
176
     1
 40
1.0
176
     1
  0
VISUALSTYLE
  5
3B
102
{ACAD_REACTORS
330
2A
102
}
330
2A
100
AcDbVisualStyle
  2
JitterOff
 70
    20
177
     3
291
     1
 70
    58
 90
        2
176
     0
 90
        2
176
     0
 90
        0
176
     0
 90
        0
176
     0
 40
0.6
176
     0
 40
30.0
176
     0
 62
     7
420
 16777215
176
     0
 90
        1
176
     0
 90
        4
176
     0
 62
     7
176
     0
 62
   257
176
     0
 90
        1
176
     0
 90
        1
176
     0
 40
1.0
176
     0
 90
       10
176
     2
 62
     7
176
     0
 40
1.0
176
     0
 90
        1
176
     0
 90
        6
176
     0
 90
        2
176
     0
 62
     7
176
     0
 90
        5
176
     0
 90
        0
176
     0
 90
        0
176
     0
290
     0
176
     0
 90
        1
176
     0
 40
0.0
176
     0
 90
        0
176
     0
290
     0
176
     0
290
     1
176
     0
290
     1
176
     0
290
     0
176
     0
290
     0
176
     0
290
     0
176
     0
290
     0
176
     0
290
     0
176
     0
290
     0
176
     0
 90
       50
176
     0
 40
0.0
176
     0
 40
1.0
176
     0
 90
        0
176
     0
 62
    18
420
        0
176
     0
 90
       50
176
     0
 90
        3
176
     0
 62
     5
420
      255
176
     0
290
     0
176
     0
 90
       50
176
     0
 90
       50
176
     0
 90
       50
176
     0
290
     0
176
     0
 90
       50
176
     0
 62
   256
176
     0
 40
1.0
176
     0
 90
        2
176
     0
  1
strokes_ogs.tif
176
     0
290
     0
176
     0
 40
1.0
176
     0
 40
1.0
176
     0
  0
VISUALSTYLE
  5
38
102
{ACAD_REACTORS
330
2A
102
}
330
2A
100
AcDbVisualStyle
  2
Linepattern
 70
    14
177
     3
291
     1
 70
    58
 90
        2
176
     1
 90
        2
176
     1
 90
        0
176
     1
 90
        0
176
     1
 40
0.6
176
     1
 40
30.0
176
     1
 62
     7
420
 16777215
176
     1
 90
        1
176
     1
 90
        4
176
     1
 62
     7
176
     1
 62
   257
176
     1
 90
        7
176
     1
 90
        7
176
     1
 40
1.0
176
     1
 90
        8
176
     1
 62
     7
176
     1
 40
1.0
176
     1
 90
        1
176
     1
 90
        6
176
     1
 90
        2
176
     1
 62
     7
176
     1
 90
        5
176
     1
 90
        0
176
     1
 90
        0
176
     1
290
     0
176
     1
 90
        1
176
     1
 40
0.0
176
     1
 90
        0
176
     1
290
     0
176
     1
290
     1
176
     1
290
     1
176
     1
290
     0
176
     1
290
     0
176
     1
290
     0
176
     1
290
     0
176
     1
290
     0
176
     1
290
     0
176
     1
 90
       50
176
     1
 40
0.0
176
     1
 40
1.0
176
     1
 90
        0
176
     1
 62
    18
420
        0
176
     1
 90
       50
176
     1
 90
        3
176
     1
 62
     5
420
      255
176
     1
290
     0
176
     1
 90
       50
176
     1
 90
       50
176
     1
 90
       50
176
     1
290
     0
176
     1
 90
       50
176
     1
 62
   256
176
     0
 40
1.0
176
     0
 90
        2
176
     1
  1
strokes_ogs.tif
176
     1
290
     0
176
     1
 40
1.0
176
     1
 40
1.0
176
     1
  0
VISUALSTYLE
  5
3C
102
{ACAD_REACTORS
330
2A
102
}
330
2A
100
AcDbVisualStyle
  2
OverhangOff
 70
    21
177
     3
291
     1
 70
    58
 90
        2
176
     0
 90
        2
176
     0
 90
        0
176
     0
 90
        0
176
     0
 40
0.6
176
     0
 40
30.0
176
     0
 62
     7
420
 16777215
176
     0
 90
        1
176
     0
 90
        4
176
     0
 62
     7
176
     0
 62
   257
176
     0
 90
        1
176
     0
 90
        1
176
     0
 40
1.0
176
     0
 90
        9
176
     2
 62
     7
176
     0
 40
1.0
176
     0
 90
        1
176
     0
 90
        6
176
     0
 90
        2
176
     0
 62
     7
176
     0
 90
        5
176
     0
 90
        0
176
     0
 90
        0
176
     0
290
     0
176
     0
 90
        1
176
     0
 40
0.0
176
     0
 90
        0
176
     0
290
     0
176
     0
290
     1
176
     0
290
     1
176
     0
290
     0
176
     0
290
     0
176
     0
290
     0
176
     0
290
     0
176
     0
290
     0
176
     0
290
     0
176
     0
 90
       50
176
     0
 40
0.0
176
     0
 40
1.0
176
     0
 90
        0
176
     0
 62
    18
420
        0
176
     0
 90
       50
176
     0
 90
        3
176
     0
 62
     5
420
      255
176
     0
290
     0
176
     0
 90
       50
176
     0
 90
       50
176
     0
 90
       50
176
     0
290
     0
176
     0
 90
       50
176
     0
 62
   256
176
     0
 40
1.0
176
     0
 90
        2
176
     0
  1
strokes_ogs.tif
176
     0
290
     0
176
     0
 40
1.0
176
     0
 40
1.0
176
     0
  0
VISUALSTYLE
  5
33
102
{ACAD_REACTORS
330
2A
102
}
330
2A
100
AcDbVisualStyle
  2
Realistic
 70
     8
177
     3
291
     0
 70
    58
 90
        2
176
     1
 90
        3
176
     1
 90
        0
176
     1
 90
        2
176
     1
 40
0.6
176
     1
 40
30.0
176
     1
 62
     7
420
 16777215
176
     1
 90
        0
176
     1
 90
        0
176
     1
 62
     7
176
     1
 62
   257
176
     1
 90
        1
176
     1
 90
        1
176
     1
 40
1.0
176
     1
 90
        8
176
     1
 62
   257
176
     1
 40
1.0
176
     1
 90
        1
176
     1
 90
        6
176
     1
 90
        2
176
     1
 62
     7
176
     1
 90
        3
176
     1
 90
        0
176
     1
 90
        0
176
     1
290
     0
176
     1
 90
       13
176
     1
 40
0.0
176
     1
 90
        0
176
     1
290
     0
176
     1
290
     1
176
     1
290
     1
176
     1
290
     0
176
     1
290
     0
176
     1
290
     0
176
     1
290
     0
176
     1
290
     0
176
     1
290
     0
176
     1
 90
       50
176
     1
 40
0.0
176
     1
 40
1.0
176
     1
 90
        0
176
     1
 62
    18
420
        0
176
     1
 90
       50
176
     1
 90
        3
176
     1
 62
     5
420
      255
176
     1
290
     0
176
     1
 90
       50
176
     1
 90
       50
176
     1
 90
       50
176
     1
290
     0
176
     1
 90
       50
176
     1
 62
   256
176
     0
 40
1.0
176
     0
 90
        2
176
     1
  1
strokes_ogs.tif
176
     1
290
     0
176
     1
 40
1.0
176
     1
 40
1.0
176
     1
  0
VISUALSTYLE
  5
42
102
{ACAD_REACTORS
330
2A
102
}
330
2A
100
AcDbVisualStyle
  2
Shaded
 70
    27
177
     3
291
     0
 70
    58
 90
        2
176
     1
 90
        2
176
     1
 90
        1
176
     1
 90
        2
176
     1
 40
0.6
176
     1
 40
30.0
176
     1
 62
     7
420
 16777215
176
     1
 90
        0
176
     1
 90
        4
176
     1
 62
     7
176
     1
 62
   257
176
     1
 90
        1
176
     1
 90
        1
176
     1
 40
1.0
176
     1
 90
        8
176
     1
 62
   257
176
     1
 40
1.0
176
     1
 90
        1
176
     1
 90
        6
176
     1
 90
        2
176
     1
 62
     8
420
  7895160
176
     1
 90
        3
176
     1
 90
        0
176
     1
 90
        0
176
     1
290
     0
176
     1
 90
        5
176
     1
 40
0.0
176
     1
 90
        0
176
     1
290
     0
176
     1
290
     1
176
     1
290
     1
176
     1
290
     0
176
     1
290
     0
176
     1
290
     0
176
     1
290
     0
176
     1
290
     0
176
     1
290
     0
176
     1
 90
       50
176
     1
 40
0.0
176
     1
 40
1.0
176
     1
 90
        0
176
     1
 62
    18
420
        0
176
     1
 90
       50
176
     1
 90
        3
176
     1
 62
     5
420
      255
176
     1
290
     0
176
     1
 90
       50
176
     1
 90
       50
176
     1
 90
       50
176
     1
290
     0
176
     1
 90
       50
176
     1
 62
   256
176
     0
 40
1.0
176
     0
 90
        2
176
     1
  1
strokes_ogs.tif
176
     1
290
     0
176
     1
 40
1.0
176
     1
 40
1.0
176
     1
  0
VISUALSTYLE
  5
41
102
{ACAD_REACTORS
330
2A
102
}
330
2A
100
AcDbVisualStyle
  2
Shaded with edges
 70
    26
177
     3
291
     0
 70
    58
 90
        2
176
     1
 90
        2
176
     1
 90
        1
176
     1
 90
        2
176
     1
 40
0.6
176
     1
 40
30.0
176
     1
 62
     7
420
 16777215
176
     1
 90
        1
176
     1
 90
       10
176
     1
 62
     7
176
     1
 62
   257
176
     1
 90
        2
176
     1
 90
        1
176
     1
 40
1.0
176
     1
 90
        8
176
     1
 62
   257
176
     1
 40
1.0
176
     1
 90
        1
176
     1
 90
        6
176
     1
 90
        2
176
     1
 62
     7
176
     1
 90
        3
176
     1
 90
        0
176
     1
 90
        0
176
     1
290
     0
176
     1
 90
        5
176
     1
 40
0.0
176
     1
 90
        0
176
     1
290
     0
176
     1
290
     1
176
     1
290
     1
176
     1
290
     0
176
     1
290
     0
176
     1
290
     0
176
     1
290
     0
176
     1
290
     0
176
     1
290
     0
176
     1
 90
       50
176
     1
 40
0.0
176
     1
 40
1.0
176
     1
 90
        0
176
     1
 62
    18
420
        0
176
     1
 90
       50
176
     1
 90
        3
176
     1
 62
     5
420
      255
176
     1
290
     0
176
     1
 90
       50
176
     1
 90
       50
176
     1
 90
       50
176
     1
290
     0
176
     1
 90
       50
176
     1
 62
   256
176
     0
 40
1.0
176
     0
 90
        2
176
     1
  1
strokes_ogs.tif
176
     1
290
     0
176
     1
 40
1.0
176
     1
 40
1.0
176
     1
  0
VISUALSTYLE
  5
3E
102
{ACAD_REACTORS
330
2A
102
}
330
2A
100
AcDbVisualStyle
  2
Shades of Gray
 70
    23
177
     3
291
     0
 70
    58
 90
        2
176
     1
 90
        2
176
     1
 90
        3
176
     1
 90
        0
176
     1
 40
0.6
176
     1
 40
30.0
176
     1
 62
     7
420
 16777215
176
     1
 90
        2
176
     1
 90
        2
176
     1
 62
     7
176
     1
 62
     7
176
     1
 90
        1
176
     1
 90
        1
176
     1
 40
40.0
176
     1
 90
        8
176
     1
 62
     7
176
     1
 40
1.0
176
     1
 90
        1
176
     1
 90
        6
176
     1
 90
        2
176
     1
 62
     7
176
     1
 90
        3
176
     1
 90
        0
176
     1
 90
        0
176
     1
290
     0
176
     1
 90
        1
176
     1
 40
0.0
176
     1
 90
        0
176
     1
290
     0
176
     1
290
     1
176
     1
290
     1
176
     1
290
     0
176
     1
290
     0
176
     1
290
     0
176
     1
290
     0
176
     1
290
     0
176
     1
290
     0
176
     1
 90
       50
176
     1
 40
0.0
176
     1
 40
1.0
176
     1
 90
        0
176
     1
 62
    18
420
        0
176
     1
 90
       50
176
     1
 90
        3
176
     1
 62
     5
420
      255
176
     1
290
     0
176
     1
 90
       50
176
     1
 90
       50
176
     1
 90
       50
176
     1
290
     0
176
     1
 90
       50
176
     1
 62
   256
176
     0
 40
1.0
176
     0
 90
        2
176
     1
  1
strokes_ogs.tif
176
     1
290
     0
176
     1
 40
1.0
176
     1
 40
1.0
176
     1
  0
VISUALSTYLE
  5
3F
102
{ACAD_REACTORS
330
2A
102
}
330
2A
100
AcDbVisualStyle
  2
Sketchy
 70
    24
177
     3
291
     0
 70
    58
 90
        1
176
     1
 90
        2
176
     1
 90
        2
176
     1
 90
        0
176
     1
 40
0.6
176
     1
 40
30.0
176
     1
 62
     7
420
 16777215
176
     1
 90
        2
176
     1
 90
        2
176
     1
 62
     7
176
     1
 62
     7
176
     1
 90
        1
176
     1
 90
        1
176
     1
 40
40.0
176
     1
 90
       11
176
     1
 62
     7
176
     1
 40
1.0
176
     1
 90
        1
176
     1
 90
        6
176
     1
 90
        2
176
     1
 62
     7
176
     1
 90
        6
176
     1
 90
        0
176
     1
 90
        0
176
     1
290
     0
176
     1
 90
        1
176
     1
 40
0.0
176
     1
 90
        0
176
     1
290
     0
176
     1
290
     1
176
     1
290
     1
176
     1
290
     0
176
     1
290
     0
176
     1
290
     0
176
     1
290
     0
176
     1
290
     0
176
     1
290
     0
176
     1
 90
       50
176
     1
 40
0.0
176
     1
 40
1.0
176
     1
 90
        0
176
     1
 62
    18
420
        0
176
     1
 90
       50
176
     1
 90
        3
176
     1
 62
     5
420
      255
176
     1
290
     0
176
     1
 90
       50
176
     1
 90
       50
176
     1
 90
       50
176
     1
290
     0
176
     1
 90
       50
176
     1
 62
   256
176
     0
 40
1.0
176
     0
 90
        2
176
     1
  1
strokes_ogs.tif
176
     1
290
     0
176
     1
 40
1.0
176
     1
 40
1.0
176
     1
  0
VISUALSTYLE
  5
37
102
{ACAD_REACTORS
330
2A
102
}
330
2A
100
AcDbVisualStyle
  2
Thicken
 70
    13
177
     3
291
     1
 70
    58
 90
        2
176
     1
 90
        2
176
     1
 90
        0
176
     1
 90
        0
176
     1
 40
0.6
176
     1
 40
30.0
176
     1
 62
     7
420
 16777215
176
     1
 90
        1
176
     1
 90
        4
176
     1
 62
     7
176
     1
 62
   257
176
     1
 90
        1
176
     1
 90
        1
176
     1
 40
1.0
176
     1
 90
       12
176
     1
 62
     7
176
     1
 40
1.0
176
     1
 90
        1
176
     1
 90
        6
176
     1
 90
        2
176
     1
 62
     7
176
     1
 90
        5
176
     1
 90
        0
176
     1
 90
        0
176
     1
290
     0
176
     1
 90
        1
176
     1
 40
0.0
176
     1
 90
        0
176
     1
290
     0
176
     1
290
     1
176
     1
290
     1
176
     1
290
     0
176
     1
290
     0
176
     1
290
     0
176
     1
290
     0
176
     1
290
     0
176
     1
290
     0
176
     1
 90
       50
176
     1
 40
0.0
176
     1
 40
1.0
176
     1
 90
        0
176
     1
 62
    18
420
        0
176
     1
 90
       50
176
     1
 90
        3
176
     1
 62
     5
420
      255
176
     1
290
     0
176
     1
 90
       50
176
     1
 90
       50
176
     1
 90
       50
176
     1
290
     0
176
     1
 90
       50
176
     1
 62
   256
176
     0
 40
1.0
176
     0
 90
        2
176
     1
  1
strokes_ogs.tif
176
     1
290
     0
176
     1
 40
1.0
176
     1
 40
1.0
176
     1
  0
VISUALSTYLE
  5
30
102
{ACAD_REACTORS
330
2A
102
}
330
2A
100
AcDbVisualStyle
  2
Wireframe
 70
     5
177
     3
291
     0
 70
    58
 90
        0
176
     1
 90
        2
176
     1
 90
        0
176
     1
 90
        0
176
     1
 40
0.6
176
     1
 40
30.0
176
     1
 62
     7
420
 16777215
176
     1
 90
        1
176
     1
 90
        4
176
     1
 62
     7
176
     1
 62
   257
176
     1
 90
        1
176
     1
 90
        1
176
     1
 40
1.0
176
     1
 90
        0
176
     1
 62
   257
176
     1
 40
1.0
176
     1
 90
        1
176
     1
 90
        6
176
     1
 90
        2
176
     1
 62
     7
176
     1
 90
        3
176
     1
 90
        0
176
     1
 90
        0
176
     1
290
     0
176
     1
 90
        1
176
     1
 40
0.0
176
     1
 90
        0
176
     1
290
     0
176
     1
290
     1
176
     1
290
     1
176
     1
290
     0
176
     1
290
     0
176
     1
290
     0
176
     1
290
     0
176
     1
290
     0
176
     1
290
     0
176
     1
 90
       50
176
     1
 40
0.0
176
     1
 40
1.0
176
     1
 90
        0
176
     1
 62
    18
420
        0
176
     1
 90
       50
176
     1
 90
        3
176
     1
 62
     5
420
      255
176
     1
290
     0
176
     1
 90
       50
176
     1
 90
       50
176
     1
 90
       50
176
     1
290
     0
176
     1
 90
       50
176
     1
 62
   256
176
     0
 40
1.0
176
     0
 90
        2
176
     1
  1
strokes_ogs.tif
176
     1
290
     0
176
     1
 40
1.0
176
     1
 40
1.0
176
     1
  0
VISUALSTYLE
  5
40
102
{ACAD_REACTORS
330
2A
102
}
330
2A
100
AcDbVisualStyle
  2
X-Ray
 70
    25
177
     3
291
     0
 70
    58
 90
        2
176
     1
 90
        2
176
     1
 90
        1
176
     1
 90
        1
176
     1
 40
0.5
176
     1
 40
30.0
176
     1
 62
     7
420
 16777215
176
     1
 90
        1
176
     1
 90
        0
176
     1
 62
     7
176
     1
 62
   257
176
     1
 90
        1
176
     1
 90
        1
176
     1
 40
1.0
176
     1
 90
        8
176
     1
 62
     7
176
     1
 40
1.0
176
     1
 90
        1
176
     1
 90
        6
176
     1
 90
        2
176
     1
 62
     7
176
     1
 90
        3
176
     1
 90
        0
176
     1
 90
        0
176
     1
290
     0
176
     1
 90
       13
176
     1
 40
0.0
176
     1
 90
        0
176
     1
290
     0
176
     1
290
     1
176
     1
290
     1
176
     1
290
     0
176
     1
290
     0
176
     1
290
     0
176
     1
290
     0
176
     1
290
     0
176
     1
290
     0
176
     1
 90
       50
176
     1
 40
0.0
176
     1
 40
1.0
176
     1
 90
        0
176
     1
 62
    18
420
        0
176
     1
 90
       50
176
     1
 90
        3
176
     1
 62
     5
420
      255
176
     1
290
     0
176
     1
 90
       50
176
     1
 90
       50
176
     1
 90
       50
176
     1
290
     0
176
     1
 90
       50
176
     1
 62
   256
176
     0
 40
1.0
176
     0
 90
        2
176
     1
  1
strokes_ogs.tif
176
     1
290
     0
176
     1
 40
1.0
176
     1
 40
1.0
176
     1
  0
DICTIONARYVAR
  5
1B9
102
{ACAD_REACTORS
330
1B8
102
}
330
1B8
100
DictionaryVariables
280
     0
  1
1:1
  0
DICTIONARYVAR
  5
1BE
102
{ACAD_REACTORS
330
1B8
102
}
330
1B8
100
DictionaryVariables
280
     0
  1
Standard
  0
DICTIONARYVAR
  5
1BD
102
{ACAD_REACTORS
330
1B8
102
}
330
1B8
100
DictionaryVariables
280
     0
  1
Standard
  0
DICTIONARY
  5
1BA
330
6A
100
AcDbDictionary
280
     1
281
     1
  3
ACAD_ROUNDTRIP_2008_TABLESTYLE_CELLSTYLEMAP
360
1BB
  0
CELLSTYLEMAP
  5
1BB
102
{ACAD_REACTORS
330
1BA
102
}
330
1BA
100
AcDbCellStyleMap
 90
        3
300
CELLSTYLE
  1
TABLEFORMAT_BEGIN
 90
        5
170
     1
 91
        0
 92
    32768
 62
   257
 93
        1
300
CONTENTFORMAT
  1
CONTENTFORMAT_BEGIN
 90
        0
 91
        0
 92
        4
 93
        0
300

 40
0.0
140
1.0
 94
        5
 62
     0
340
11
144
0.25
309
CONTENTFORMAT_END
171
     1
301
MARGIN
  1
CELLMARGIN_BEGIN
 40
0.06
 40
0.06
 40
0.06
 40
0.06
 40
0.06
 40
0.06
309
CELLMARGIN_END
 94
        6
 95
        1
302
GRIDFORMAT
  1
GRIDFORMAT_BEGIN
 90
        0
 91
        1
 62
     0
 92
       -2
340
14
 93
        0
 40
0.045
309
GRIDFORMAT_END
 95
        2
302
GRIDFORMAT
  1
GRIDFORMAT_BEGIN
 90
        0
 91
        1
 62
     0
 92
       -2
340
14
 93
        0
 40
0.045
309
GRIDFORMAT_END
 95
        4
302
GRIDFORMAT
  1
GRIDFORMAT_BEGIN
 90
        0
 91
        1
 62
     0
 92
       -2
340
14
 93
        0
 40
0.045
309
GRIDFORMAT_END
 95
        8
302
GRIDFORMAT
  1
GRIDFORMAT_BEGIN
 90
        0
 91
        1
 62
     0
 92
       -2
340
14
 93
        0
 40
0.045
309
GRIDFORMAT_END
 95
       16
302
GRIDFORMAT
  1
GRIDFORMAT_BEGIN
 90
        0
 91
        1
 62
     0
 92
       -2
340
14
 93
        0
 40
0.045
309
GRIDFORMAT_END
 95
       32
302
GRIDFORMAT
  1
GRIDFORMAT_BEGIN
 90
        0
 91
        1
 62
     0
 92
       -2
340
14
 93
        0
 40
0.045
309
GRIDFORMAT_END
309
TABLEFORMAT_END
  1
CELLSTYLE_BEGIN
 90
        1
 91
        1
300
_TITLE
309
CELLSTYLE_END
300
CELLSTYLE
  1
TABLEFORMAT_BEGIN
 90
        5
170
     1
 91
        0
 92
        0
 62
   257
 93
        1
300
CONTENTFORMAT
  1
CONTENTFORMAT_BEGIN
 90
        0
 91
        0
 92
        4
 93
        0
300

 40
0.0
140
1.0
 94
        5
 62
     0
340
11
144
0.18
309
CONTENTFORMAT_END
171
     1
301
MARGIN
  1
CELLMARGIN_BEGIN
 40
0.06
 40
0.06
 40
0.06
 40
0.06
 40
0.06
 40
0.06
309
CELLMARGIN_END
 94
        6
 95
        1
302
GRIDFORMAT
  1
GRIDFORMAT_BEGIN
 90
        0
 91
        1
 62
     0
 92
       -2
340
14
 93
        0
 40
0.045
309
GRIDFORMAT_END
 95
        2
302
GRIDFORMAT
  1
GRIDFORMAT_BEGIN
 90
        0
 91
        1
 62
     0
 92
       -2
340
14
 93
        0
 40
0.045
309
GRIDFORMAT_END
 95
        4
302
GRIDFORMAT
  1
GRIDFORMAT_BEGIN
 90
        0
 91
        1
 62
     0
 92
       -2
340
14
 93
        0
 40
0.045
309
GRIDFORMAT_END
 95
        8
302
GRIDFORMAT
  1
GRIDFORMAT_BEGIN
 90
        0
 91
        1
 62
     0
 92
       -2
340
14
 93
        0
 40
0.045
309
GRIDFORMAT_END
 95
       16
302
GRIDFORMAT
  1
GRIDFORMAT_BEGIN
 90
        0
 91
        1
 62
     0
 92
       -2
340
14
 93
        0
 40
0.045
309
GRIDFORMAT_END
 95
       32
302
GRIDFORMAT
  1
GRIDFORMAT_BEGIN
 90
        0
 91
        1
 62
     0
 92
       -2
340
14
 93
        0
 40
0.045
309
GRIDFORMAT_END
309
TABLEFORMAT_END
  1
CELLSTYLE_BEGIN
 90
        2
 91
        1
300
_HEADER
309
CELLSTYLE_END
300
CELLSTYLE
  1
TABLEFORMAT_BEGIN
 90
        5
170
     1
 91
        0
 92
        0
 62
   257
 93
        1
300
CONTENTFORMAT
  1
CONTENTFORMAT_BEGIN
 90
        0
 91
        0
 92
        4
 93
        0
300

 40
0.0
140
1.0
 94
        2
 62
     0
340
11
144
0.18
309
CONTENTFORMAT_END
171
     1
301
MARGIN
  1
CELLMARGIN_BEGIN
 40
0.06
 40
0.06
 40
0.06
 40
0.06
 40
0.06
 40
0.06
309
CELLMARGIN_END
 94
        6
 95
        1
302
GRIDFORMAT
  1
GRIDFORMAT_BEGIN
 90
        0
 91
        1
 62
     0
 92
       -2
340
14
 93
        0
 40
0.045
309
GRIDFORMAT_END
 95
        2
302
GRIDFORMAT
  1
GRIDFORMAT_BEGIN
 90
        0
 91
        1
 62
     0
 92
       -2
340
14
 93
        0
 40
0.045
309
GRIDFORMAT_END
 95
        4
302
GRIDFORMAT
  1
GRIDFORMAT_BEGIN
 90
        0
 91
        1
 62
     0
 92
       -2
340
14
 93
        0
 40
0.045
309
GRIDFORMAT_END
 95
        8
302
GRIDFORMAT
  1
GRIDFORMAT_BEGIN
 90
        0
 91
        1
 62
     0
 92
       -2
340
14
 93
        0
 40
0.045
309
GRIDFORMAT_END
 95
       16
302
GRIDFORMAT
  1
GRIDFORMAT_BEGIN
 90
        0
 91
        1
 62
     0
 92
       -2
340
14
 93
        0
 40
0.045
309
GRIDFORMAT_END
 95
       32
302
GRIDFORMAT
  1
GRIDFORMAT_BEGIN
 90
        0
 91
        1
 62
     0
 92
       -2
340
14
 93
        0
 40
0.045
309
GRIDFORMAT_END
309
TABLEFORMAT_END
  1
CELLSTYLE_BEGIN
 90
        3
 91
        2
300
_DATA
309
CELLSTYLE_END
  0
ENDSEC
  0
EOF