0
SECTION
  2
HEADER
  9
$ACADVER
  1
AC1027
  9
$ACADMAINTVER
 70
     8
  9
$DWGCODEPAGE
  3
ANSI_1252
  9
$REQUIREDVERSIONS
160
                 0
  9
$COMMENTS
  1
File was created by Cadenas
  9
$CUSTOMPROPERTYTAG
  1
NN
  9
$CUSTOMPROPERTY
  1
Set Screw Two-Bolt Pillow Block Inch Bore - Stainless Housing
  9
$CUSTOMPROPERTYTAG
  1
NT
  9
$CUSTOMPROPERTY
  1
SC Pillow Block Bearings -(Normal Duty) -E-Z KLEEN
  9
$CUSTOMPROPERTYTAG
  1
NB
  9
$CUSTOMPROPERTY
  1
062874
  9
$CUSTOMPROPERTYTAG
  1
NBSYN
  9
$CUSTOMPROPERTY
  1
$PN.
  9
$CUSTOMPROPERTYTAG
  1
LINA
  9
$CUSTOMPROPERTY
  1
062874
  9
$CUSTOMPROPERTYTAG
  1
SERIES
  9
$CUSTOMPROPERTY
  1
208
  9
$CUSTOMPROPERTYTAG
  1
SS
  9
$CUSTOMPROPERTY
  1
1-5/8
  9
$CUSTOMPROPERTYTAG
  1
PN
  9
$CUSTOMPROPERTY
  1
062874
  9
$CUSTOMPROPERTYTAG
  1
DESCRIPTION
  9
$CUSTOMPROPERTY
  1
P2B-SCBEZ-110-SH
  9
$CUSTOMPROPERTYTAG
  1
W
  9
$CUSTOMPROPERTY
  1
4.39
  9
$CUSTOMPROPERTYTAG
  1
A
  9
$CUSTOMPROPERTY
  1
1.94
  9
$CUSTOMPROPERTYTAG
  1
B
  9
$CUSTOMPROPERTY
  1
7.00
  9
$CUSTOMPROPERTYTAG
  1
C
  9
$CUSTOMPROPERTY
  1
1.50
  9
$CUSTOMPROPERTYTAG
  1
DMIN
  9
$CUSTOMPROPERTY
  1
5.18
  9
$CUSTOMPROPERTYTAG
  1
DMAX
  9
$CUSTOMPROPERTY
  1
6.00
  9
$CUSTOMPROPERTYTAG
  1
F
  9
$CUSTOMPROPERTY
  1
1/2
  9
$CUSTOMPROPERTYTAG
  1
G
  9
$CUSTOMPROPERTY
  1
0.97
  9
$CUSTOMPROPERTYTAG
  1
H
  9
$CUSTOMPROPERTY
  1
0.75
  9
$CUSTOMPROPERTYTAG
  1
J
  9
$CUSTOMPROPERTY
  1
4.00
  9
$CUSTOMPROPERTYTAG
  1
L
  9
$CUSTOMPROPERTY
  1
2.05
  9
$CUSTOMPROPERTYTAG
  1
M
  9
$CUSTOMPROPERTY
  1
2.13
  9
$CUSTOMPROPERTYTAG
  1
R
  9
$CUSTOMPROPERTY
  1
0.75
  9
$CUSTOMPROPERTYTAG
  1
S
  9
$CUSTOMPROPERTY
  1
1.19
  9
$CUSTOMPROPERTYTAG
  1
COMPANY
  9
$CUSTOMPROPERTY
  1
baldor
  9
$INSBASE
 10
0.0
 20
0.0
 30
0.0
  9
$EXTMIN
 10
1.000000000000000E+20
 20
1.000000000000000E+20
 30
1.000000000000000E+20
  9
$EXTMAX
 10
-1.000000000000000E+20
 20
-1.000000000000000E+20
 30
-1.000000000000000E+20
  9
$LIMMIN
 10
0.0
 20
0.0
  9
$LIMMAX
 10
12.0
 20
9.0
  9
$ORTHOMODE
 70
     0
  9
$REGENMODE
 70
     1
  9
$FILLMODE
 70
     1
  9
$QTEXTMODE
 70
     0
  9
$MIRRTEXT
 70
     1
  9
$LTSCALE
 40
1.0
  9
$ATTMODE
 70
     1
  9
$TEXTSIZE
 40
0.2
  9
$TRACEWID
 40
0.05
  9
$TEXTSTYLE
  7
Standard
  9
$CLAYER
  8
0
  9
$CELTYPE
  6
ByLayer
  9
$CECOLOR
 62
   256
  9
$CELTSCALE
 40
1.0
  9
$DISPSILH
 70
     0
  9
$DIMSCALE
 40
1.0
  9
$DIMASZ
 40
0.18
  9
$DIMEXO
 40
0.0625
  9
$DIMDLI
 40
0.38
  9
$DIMRND
 40
0.0
  9
$DIMDLE
 40
0.0
  9
$DIMEXE
 40
0.18
  9
$DIMTP
 40
0.0
  9
$DIMTM
 40
0.0
  9
$DIMTXT
 40
0.18
  9
$DIMCEN
 40
0.09
  9
$DIMTSZ
 40
0.0
  9
$DIMTOL
 70
     0
  9
$DIMLIM
 70
     0
  9
$DIMTIH
 70
     1
  9
$DIMTOH
 70
     1
  9
$DIMSE1
 70
     0
  9
$DIMSE2
 70
     0
  9
$DIMTAD
 70
     0
  9
$DIMZIN
 70
     0
  9
$DIMBLK
  1

  9
$DIMASO
 70
     1
  9
$DIMSHO
 70
     1
  9
$DIMPOST
  1

  9
$DIMAPOST
  1

  9
$DIMALT
 70
     0
  9
$DIMALTD
 70
     2
  9
$DIMALTF
 40
25.4
  9
$DIMLFAC
 40
1.0
  9
$DIMTOFL
 70
     0
  9
$DIMTVP
 40
0.0
  9
$DIMTIX
 70
     0
  9
$DIMSOXD
 70
     0
  9
$DIMSAH
 70
     0
  9
$DIMBLK1
  1

  9
$DIMBLK2
  1

  9
$DIMSTYLE
  2
Standard
  9
$DIMCLRD
 70
     0
  9
$DIMCLRE
 70
     0
  9
$DIMCLRT
 70
     0
  9
$DIMTFAC
 40
1.0
  9
$DIMGAP
 40
0.09
  9
$DIMJUST
 70
     0
  9
$DIMSD1
 70
     0
  9
$DIMSD2
 70
     0
  9
$DIMTOLJ
 70
     1
  9
$DIMTZIN
 70
     0
  9
$DIMALTZ
 70
     0
  9
$DIMALTTZ
 70
     0
  9
$DIMUPT
 70
     0
  9
$DIMDEC
 70
     4
  9
$DIMTDEC
 70
     4
  9
$DIMALTU
 70
     2
  9
$DIMALTTD
 70
     2
  9
$DIMTXSTY
  7
Standard
  9
$DIMAUNIT
 70
     0
  9
$DIMADEC
 70
     0
  9
$DIMALTRND
 40
0.0
  9
$DIMAZIN
 70
     0
  9
$DIMDSEP
 70
    46
  9
$DIMATFIT
 70
     3
  9
$DIMFRAC
 70
     0
  9
$DIMLDRBLK
  1

  9
$DIMLUNIT
 70
     2
  9
$DIMLWD
 70
    -2
  9
$DIMLWE
 70
    -2
  9
$DIMTMOVE
 70
     0
  9
$DIMFXL
 40
1.0
  9
$DIMFXLON
 70
     0
  9
$DIMJOGANG
 40
0.7853981633974483
  9
$DIMTFILL
 70
     0
  9
$DIMTFILLCLR
 70
     0
  9
$DIMARCSYM
 70
     0
  9
$DIMLTYPE
  6

  9
$DIMLTEX1
  6

  9
$DIMLTEX2
  6

  9
$DIMTXTDIRECTION
 70
     0
  9
$LUNITS
 70
     2
  9
$LUPREC
 70
     4
  9
$SKETCHINC
 40
0.1
  9
$FILLETRAD
 40
0.5
  9
$AUNITS
 70
     0
  9
$AUPREC
 70
     0
  9
$MENU
  1
.
  9
$ELEVATION
 40
0.0
  9
$PELEVATION
 40
0.0
  9
$THICKNESS
 40
0.0
  9
$LIMCHECK
 70
     0
  9
$CHAMFERA
 40
0.0
  9
$CHAMFERB
 40
0.0
  9
$CHAMFERC
 40
0.0
  9
$CHAMFERD
 40
0.0
  9
$SKPOLY
 70
     0
  9
$TDCREATE
 40
2458168.996175845
  9
$TDUCREATE
 40
2458168.954509178
  9
$TDUPDATE
 40
2458168.996176018
  9
$TDUUPDATE
 40
2458168.954509352
  9
$TDINDWG
 40
0.0000000116
  9
$TDUSRTIMER
 40
0.0000000116
  9
$USRTIMER
 70
     1
  9
$ANGBASE
 50
0.0
  9
$ANGDIR
 70
     0
  9
$PDMODE
 70
     0
  9
$PDSIZE
 40
0.0
  9
$PLINEWID
 40
0.0
  9
$SPLFRAME
 70
     0
  9
$SPLINETYPE
 70
     6
  9
$SPLINESEGS
 70
     8
  9
$HANDSEED
  5
185
  9
$SURFTAB1
 70
     6
  9
$SURFTAB2
 70
     6
  9
$SURFTYPE
 70
     6
  9
$SURFU
 70
     6
  9
$SURFV
 70
     6
  9
$UCSBASE
  2

  9
$UCSNAME
  2

  9
$UCSORG
 10
0.0
 20
0.0
 30
0.0
  9
$UCSXDIR
 10
1.0
 20
0.0
 30
0.0
  9
$UCSYDIR
 10
0.0
 20
1.0
 30
0.0
  9
$UCSORTHOREF
  2

  9
$UCSORTHOVIEW
 70
     0
  9
$UCSORGTOP
 10
0.0
 20
0.0
 30
0.0
  9
$UCSORGBOTTOM
 10
0.0
 20
0.0
 30
0.0
  9
$UCSORGLEFT
 10
0.0
 20
0.0
 30
0.0
  9
$UCSORGRIGHT
 10
0.0
 20
0.0
 30
0.0
  9
$UCSORGFRONT
 10
0.0
 20
0.0
 30
0.0
  9
$UCSORGBACK
 10
0.0
 20
0.0
 30
0.0
  9
$PUCSBASE
  2

  9
$PUCSNAME
  2

  9
$PUCSORG
 10
0.0
 20
0.0
 30
0.0
  9
$PUCSXDIR
 10
1.0
 20
0.0
 30
0.0
  9
$PUCSYDIR
 10
0.0
 20
1.0
 30
0.0
  9
$PUCSORTHOREF
  2

  9
$PUCSORTHOVIEW
 70
     0
  9
$PUCSORGTOP
 10
0.0
 20
0.0
 30
0.0
  9
$PUCSORGBOTTOM
 10
0.0
 20
0.0
 30
0.0
  9
$PUCSORGLEFT
 10
0.0
 20
0.0
 30
0.0
  9
$PUCSORGRIGHT
 10
0.0
 20
0.0
 30
0.0
  9
$PUCSORGFRONT
 10
0.0
 20
0.0
 30
0.0
  9
$PUCSORGBACK
 10
0.0
 20
0.0
 30
0.0
  9
$USERI1
 70
     0
  9
$USERI2
 70
     0
  9
$USERI3
 70
     0
  9
$USERI4
 70
     0
  9
$USERI5
 70
     0
  9
$USERR1
 40
0.0
  9
$USERR2
 40
0.0
  9
$USERR3
 40
0.0
  9
$USERR4
 40
0.0
  9
$USERR5
 40
0.0
  9
$WORLDVIEW
 70
     1
  9
$SHADEDGE
 70
     3
  9
$SHADEDIF
 70
    70
  9
$TILEMODE
 70
     1
  9
$MAXACTVP
 70
    64
  9
$PINSBASE
 10
0.0
 20
0.0
 30
0.0
  9
$PLIMCHECK
 70
     0
  9
$PEXTMIN
 10
1.000000000000000E+20
 20
1.000000000000000E+20
 30
1.000000000000000E+20
  9
$PEXTMAX
 10
-1.000000000000000E+20
 20
-1.000000000000000E+20
 30
-1.000000000000000E+20
  9
$PLIMMIN
 10
0.0
 20
0.0
  9
$PLIMMAX
 10
12.0
 20
9.0
  9
$UNITMODE
 70
     0
  9
$VISRETAIN
 70
     1
  9
$PLINEGEN
 70
     0
  9
$PSLTSCALE
 70
     1
  9
$TREEDEPTH
 70
  3020
  9
$CMLSTYLE
  2
Standard
  9
$CMLJUST
 70
     0
  9
$CMLSCALE
 40
1.0
  9
$PROXYGRAPHICS
 70
     1
  9
$MEASUREMENT
 70
     0
  9
$CELWEIGHT
370
    -1
  9
$ENDCAPS
280
     0
  9
$JOINSTYLE
280
     0
  9
$LWDISPLAY
290
     0
  9
$INSUNITS
 70
     1
  9
$HYPERLINKBASE
  1

  9
$STYLESHEET
  1

  9
$XEDIT
290
     1
  9
$CEPSNTYPE
380
     0
  9
$PSTYLEMODE
290
     1
  9
$FINGERPRINTGUID
  2
{B97DE992-372C-48FD-8F11-985C1A927AB9}
  9
$VERSIONGUID
  2
{FAEB1C32-E019-11D5-929B-00C0DF256EC4}
  9
$EXTNAMES
290
     1
  9
$PSVPSCALE
 40
0.0
  9
$OLESTARTUP
290
     0
  9
$SORTENTS
280
   127
  9
$INDEXCTL
280
     0
  9
$HIDETEXT
280
     1
  9
$XCLIPFRAME
280
     2
  9
$HALOGAP
280
     0
  9
$OBSCOLOR
 70
   257
  9
$OBSLTYPE
280
     0
  9
$INTERSECTIONDISPLAY
280
     0
  9
$INTERSECTIONCOLOR
 70
   257
  9
$DIMASSOC
280
     2
  9
$PROJECTNAME
  1

  9
$CAMERADISPLAY
290
     0
  9
$LENSLENGTH
 40
50.0
  9
$CAMERAHEIGHT
 40
0.0
  9
$STEPSPERSEC
 40
2.0
  9
$STEPSIZE
 40
6.0
  9
$3DDWFPREC
 40
2.0
  9
$PSOLWIDTH
 40
0.25
  9
$PSOLHEIGHT
 40
4.0
  9
$LOFTANG1
 40
1.570796326794897
  9
$LOFTANG2
 40
1.570796326794897
  9
$LOFTMAG1
 40
0.0
  9
$LOFTMAG2
 40
0.0
  9
$LOFTPARAM
 70
     7
  9
$LOFTNORMALS
280
     1
  9
$LATITUDE
 40
37.795
  9
$LONGITUDE
 40
-122.394
  9
$NORTHDIRECTION
 40
0.0
  9
$TIMEZONE
 70
 -8000
  9
$LIGHTGLYPHDISPLAY
280
     1
  9
$TILEMODELIGHTSYNCH
280
     1
  9
$CMATERIAL
347
44
  9
$SOLIDHIST
280
     0
  9
$SHOWHIST
280
     1
  9
$DWFFRAME
280
     2
  9
$DGNFRAME
280
     2
  9
$REALWORLDSCALE
290
     1
  9
$INTERFERECOLOR
 62
   256
  9
$CSHADOW
280
     0
  9
$SHADOWPLANELOCATION
 40
0.0
  0
ENDSEC
  0
SECTION
  2
CLASSES
  0
CLASS
  1
ACDBDICTIONARYWDFLT
  2
AcDbDictionaryWithDefault
  3
ObjectDBX Classes
 90
        0
 91
        4
280
     0
281
     0
  0
CLASS
  1
VISUALSTYLE
  2
AcDbVisualStyle
  3
ObjectDBX Classes
 90
     4095
 91
        4
280
     0
281
     0
  0
CLASS
  1
MATERIAL
  2
AcDbMaterial
  3
ObjectDBX Classes
 90
     1153
 91
        4
280
     0
281
     0
  0
CLASS
  1
SCALE
  2
AcDbScale
  3
ObjectDBX Classes
 90
     1153
 91
        4
280
     0
281
     0
  0
CLASS
  1
TABLESTYLE
  2
AcDbTableStyle
  3
ObjectDBX Classes
 90
     4095
 91
        4
280
     0
281
     0
  0
CLASS
  1
MLEADERSTYLE
  2
AcDbMLeaderStyle
  3
ACDB_MLEADERSTYLE_CLASS
 90
     4095
 91
        4
280
     0
281
     0
  0
CLASS
  1
SUN
  2
AcDbSun
  3
SCENEOE
 90
     1153
 91
        4
280
     0
281
     0
  0
CLASS
  1
DICTIONARYVAR
  2
AcDbDictionaryVar
  3
ObjectDBX Classes
 90
        0
 91
        4
280
     0
281
     0
  0
CLASS
  1
CELLSTYLEMAP
  2
AcDbCellStyleMap
  3
ObjectDBX Classes
 90
     1152
 91
        4
280
     0
281
     0
  0
ENDSEC
  0
SECTION
  2
TABLES
  0
TABLE
  2
VPORT
  5
8
330
0
100
AcDbSymbolTable
 70
     1
  0
VPORT
  5
29
330
8
100
AcDbSymbolTableRecord
100
AcDbViewportTableRecord
  2
*Active
 70
     0
 10
0.0
 20
0.0
 11
1.0
 21
1.0
 12
-0.2199999999999989
 22
-0.1299999999999999
 13
0.0
 23
0.0
 14
0.5
 24
0.5
 15
0.5
 25
0.5
 16
0.0
 26
0.0
 36
1.0
 17
0.0
 27
0.0
 37
0.0
 40
4.08
 41
0.5335000000000001
 42
50.0
 43
0.0
 44
0.0
 50
0.0
 51
0.0
 71
     0
 72
   100
 73
     1
 74
     3
 75
     0
 76
     0
 77
     0
 78
     0
281
     0
 65
     1
110
0.0
120
0.0
130
0.0
111
1.0
121
0.0
131
0.0
112
0.0
122
1.0
132
0.0
 79
     0
146
0.0
348
2F
 60
     3
 61
     5
292
     1
282
     1
141
0.0
142
0.0
 63
   250
361
6D
  0
ENDTAB
  0
TABLE
  2
LTYPE
  5
5
330
0
100
AcDbSymbolTable
 70
     3
  0
LTYPE
  5
14
330
5
100
AcDbSymbolTableRecord
100
AcDbLinetypeTableRecord
  2
ByBlock
 70
     0
  3

 72
    65
 73
     0
 40
0.0
  0
LTYPE
  5
15
330
5
100
AcDbSymbolTableRecord
100
AcDbLinetypeTableRecord
  2
ByLayer
 70
     0
  3

 72
    65
 73
     0
 40
0.0
  0
LTYPE
  5
16
330
5
100
AcDbSymbolTableRecord
100
AcDbLinetypeTableRecord
  2
Continuous
 70
     0
  3
Solid line
 72
    65
 73
     0
 40
0.0
  0
LTYPE
  5
9D
330
5
100
AcDbSymbolTableRecord
100
AcDbLinetypeTableRecord
  2
Dashed
 70
     0
  3

 72
    65
 73
     2
 40
2.0
 49
1.0
 74
     0
 49
-1.0
 74
     0
  0
LTYPE
  5
125
330
5
100
AcDbSymbolTableRecord
100
AcDbLinetypeTableRecord
  2
Center
 70
     0
  3

 72
    65
 73
     4
 40
1.5
 49
0.45
 74
     0
 49
-0.5
 74
     0
 49
0.05
 74
     0
 49
-0.5
 74
     0
  0
ENDTAB
  0
TABLE
  2
LAYER
  5
2
330
0
100
AcDbSymbolTable
 70
     7
  0
LAYER
  5
10
330
2
100
AcDbSymbolTableRecord
100
AcDbLayerTableRecord
  2
0
 70
     0
 62
     7
  6
Continuous
370
    -3
390
F
347
46
348
0
  0
LAYER
  5
72
330
2
100
AcDbSymbolTableRecord
100
AcDbLayerTableRecord
  2
AM_6
 70
     0
 62
    -2
  6
Continuous
370
    35
390
F
347
46
348
0
  0
LAYER
  5
9E
330
2
100
AcDbSymbolTableRecord
100
AcDbLayerTableRecord
  2
AM_9
 70
     0
 62
     6
  6
Dashed
370
    25
390
F
347
46
348
0
  0
LAYER
  5
B9
330
2
100
AcDbSymbolTableRecord
100
AcDbLayerTableRecord
  2
AM_4
 70
     0
 62
     7
  6
Continuous
370
    50
390
F
347
46
348
0
  0
LAYER
  5
122
330
2
100
AcDbSymbolTableRecord
100
AcDbLayerTableRecord
  2
AM_5
 70
     0
 62
     3
  6
Continuous
370
    25
390
F
347
46
348
0
  0
LAYER
  5
126
330
2
100
AcDbSymbolTableRecord
100
AcDbLayerTableRecord
  2
AM_7
 70
     0
 62
     7
  6
Center
370
    25
390
F
347
46
348
0
  0
LAYER
  5
177
330
2
100
AcDbSymbolTableRecord
100
AcDbLayerTableRecord
  2
ConnectionPoints
 70
     0
 62
     7
  6
Continuous
370
    50
390
F
347
46
348
0
  0
ENDTAB
  0
TABLE
  2
STYLE
  5
3
330
0
100
AcDbSymbolTable
 70
     1
  0
STYLE
  5
11
330
3
100
AcDbSymbolTableRecord
100
AcDbTextStyleTableRecord
  2
Standard
 70
     0
 40
0.0
 41
1.0
 50
0.0
 71
     0
 42
0.2
  3
txt
  4

  0
ENDTAB
  0
TABLE
  2
VIEW
  5
6
330
0
100
AcDbSymbolTable
 70
     0
  0
ENDTAB
  0
TABLE
  2
UCS
  5
7
330
0
100
AcDbSymbolTable
 70
     0
  0
ENDTAB
  0
TABLE
  2
APPID
  5
9
330
0
100
AcDbSymbolTable
 70
     1
  0
APPID
  5
12
330
9
100
AcDbSymbolTableRecord
100
AcDbRegAppTableRecord
  2
ACAD
 70
     0
  0
ENDTAB
  0
TABLE
  2
DIMSTYLE
  5
A
330
0
100
AcDbSymbolTable
 70
     1
100
AcDbDimStyleTable
  0
DIMSTYLE
105
27
330
A
100
AcDbSymbolTableRecord
100
AcDbDimStyleTableRecord
  2
Standard
 70
     0
178
     0
340
11
  0
ENDTAB
  0
TABLE
  2
BLOCK_RECORD
  5
1
330
0
100
AcDbSymbolTable
 70
     5
  0
BLOCK_RECORD
  5
1F
330
1
100
AcDbSymbolTableRecord
100
AcDbBlockTableRecord
  2
*Model_Space
340
22
 70
     0
280
     1
281
     0
  0
BLOCK_RECORD
  5
1B
330
1
100
AcDbSymbolTableRecord
100
AcDbBlockTableRecord
  2
*Paper_Space
340
1E
 70
     0
280
     1
281
     0
  0
BLOCK_RECORD
  5
23
330
1
100
AcDbSymbolTableRecord
100
AcDbBlockTableRecord
  2
*Paper_Space0
340
26
 70
     0
280
     1
281
     0
  0
BLOCK_RECORD
  5
6E
330
1
100
AcDbSymbolTableRecord
100
AcDbBlockTableRecord
  2
1_062874_2
340
0
102
{BLKREFS
331
6F
102
}
 70
     0
280
     1
281
     0
  0
BLOCK_RECORD
  5
8B
330
1
100
AcDbSymbolTableRecord
100
AcDbBlockTableRecord
  2
2_405020c_Inch_0_in_062874_2
340
0
102
{BLKREFS
331
8C
102
}
 70
     0
280
     1
281
     0
  0
BLOCK_RECORD
  5
D6
330
1
100
AcDbSymbolTableRecord
100
AcDbBlockTableRecord
  2
3_123342_0_in_062874_2
340
0
102
{BLKREFS
331
D7
102
}
 70
     0
280
     1
281
     0
  0
BLOCK_RECORD
  5
13D
330
1
100
AcDbSymbolTableRecord
100
AcDbBlockTableRecord
  2
4_056565H_0_in_062874_2
340
0
102
{BLKREFS
331
13E
102
}
 70
     0
280
     1
281
     0
  0
ENDTAB
  0
ENDSEC
  0
SECTION
  2
BLOCKS
  0
BLOCK
  5
20
330
1F
100
AcDbEntity
  8
0
100
AcDbBlockBegin
  2
*Model_Space
 70
     0
 10
0.0
 20
0.0
 30
0.0
  3
*Model_Space
  1

  0
ENDBLK
  5
21
330
1F
100
AcDbEntity
  8
0
100
AcDbBlockEnd
  0
BLOCK
  5
1C
330
1B
100
AcDbEntity
 67
     1
  8
0
100
AcDbBlockBegin
  2
*Paper_Space
 70
     0
 10
0.0
 20
0.0
 30
0.0
  3
*Paper_Space
  1

  0
ENDBLK
  5
1D
330
1B
100
AcDbEntity
 67
     1
  8
0
100
AcDbBlockEnd
  0
BLOCK
  5
24
330
23
100
AcDbEntity
  8
0
100
AcDbBlockBegin
  2
*Paper_Space0
 70
     0
 10
0.0
 20
0.0
 30
0.0
  3
*Paper_Space0
  1

  0
ENDBLK
  5
25
330
23
100
AcDbEntity
  8
0
100
AcDbBlockEnd
  0
BLOCK
  5
70
330
6E
100
AcDbEntity
  8
0
100
AcDbBlockBegin
  2
1_062874_2
 70
     2
 10
0.0
 20
0.0
 30
0.0
  3
1_062874_2
  1

  0
ATTDEF
  5
73
330
6E
100
AcDbEntity
  8
AM_6
100
AcDbText
 10
5.847
 20
1.87
 30
0.0
 40
0.5
  1
Set Screw Two-Bolt Pillow Block Inch Bore - Stainless Housing
100
AcDbAttributeDefinition
  3

  2
NN
 70
     8
280
     0
  0
ATTDEF
  5
74
330
6E
100
AcDbEntity
  8
AM_6
100
AcDbText
 10
5.847
 20
1.37
 30
0.0
 40
0.5
  1
SC Pillow Block Bearings -(Normal Duty) -E-Z KLEEN
100
AcDbAttributeDefinition
  3

  2
NT
 70
     8
280
     0
  0
ATTDEF
  5
75
330
6E
100
AcDbEntity
  8
AM_6
100
AcDbText
 10
5.847
 20
0.8700000000000001
 30
0.0
 40
0.5
  1
062874
100
AcDbAttributeDefinition
  3

  2
NB
 70
     8
280
     0
  0
ATTDEF
  5
76
330
6E
100
AcDbEntity
  8
AM_6
100
AcDbText
 10
5.847
 20
0.3700000000000001
 30
0.0
 40
0.5
  1
$PN.
100
AcDbAttributeDefinition
  3

  2
NBSYN
 70
     8
280
     0
  0
ATTDEF
  5
77
330
6E
100
AcDbEntity
  8
AM_6
100
AcDbText
 10
5.847
 20
-0.1299999999999999
 30
0.0
 40
0.5
  1
062874
100
AcDbAttributeDefinition
  3

  2
LINA
 70
     8
280
     0
  0
ATTDEF
  5
78
330
6E
100
AcDbEntity
  8
AM_6
100
AcDbText
 10
5.847
 20
-0.6299999999999999
 30
0.0
 40
0.5
  1
208
100
AcDbAttributeDefinition
  3

  2
SERIES
 70
     8
280
     0
  0
ATTDEF
  5
79
330
6E
100
AcDbEntity
  8
AM_6
100
AcDbText
 10
5.847
 20
-1.13
 30
0.0
 40
0.5
  1
1-5/8
100
AcDbAttributeDefinition
  3

  2
SS
 70
     8
280
     0
  0
ATTDEF
  5
7A
330
6E
100
AcDbEntity
  8
AM_6
100
AcDbText
 10
5.847
 20
-1.63
 30
0.0
 40
0.5
  1
062874
100
AcDbAttributeDefinition
  3

  2
PN
 70
     8
280
     0
  0
ATTDEF
  5
7B
330
6E
100
AcDbEntity
  8
AM_6
100
AcDbText
 10
5.847
 20
-2.13
 30
0.0
 40
0.5
  1
P2B-SCBEZ-110-SH
100
AcDbAttributeDefinition
  3

  2
DESCRIPTION
 70
     8
280
     0
  0
ATTDEF
  5
7C
330
6E
100
AcDbEntity
  8
AM_6
100
AcDbText
 10
5.847
 20
-2.63
 30
0.0
 40
0.5
  1
4.39
100
AcDbAttributeDefinition
  3

  2
W
 70
     8
280
     0
  0
ATTDEF
  5
7D
330
6E
100
AcDbEntity
  8
AM_6
100
AcDbText
 10
5.847
 20
-3.13
 30
0.0
 40
0.5
  1
1.94
100
AcDbAttributeDefinition
  3

  2
A
 70
     8
280
     0
  0
ATTDEF
  5
7E
330
6E
100
AcDbEntity
  8
AM_6
100
AcDbText
 10
5.847
 20
-3.63
 30
0.0
 40
0.5
  1
7.00
100
AcDbAttributeDefinition
  3

  2
B
 70
     8
280
     0
  0
ATTDEF
  5
7F
330
6E
100
AcDbEntity
  8
AM_6
100
AcDbText
 10
5.847
 20
-4.13
 30
0.0
 40
0.5
  1
1.50
100
AcDbAttributeDefinition
  3

  2
C
 70
     8
280
     0
  0
ATTDEF
  5
80
330
6E
100
AcDbEntity
  8
AM_6
100
AcDbText
 10
5.847
 20
-4.63
 30
0.0
 40
0.5
  1
5.18
100
AcDbAttributeDefinition
  3

  2
DMIN
 70
     8
280
     0
  0
ATTDEF
  5
81
330
6E
100
AcDbEntity
  8
AM_6
100
AcDbText
 10
5.847
 20
-5.13
 30
0.0
 40
0.5
  1
6.00
100
AcDbAttributeDefinition
  3

  2
DMAX
 70
     8
280
     0
  0
ATTDEF
  5
82
330
6E
100
AcDbEntity
  8
AM_6
100
AcDbText
 10
5.847
 20
-5.63
 30
0.0
 40
0.5
  1
1/2
100
AcDbAttributeDefinition
  3

  2
F
 70
     8
280
     0
  0
ATTDEF
  5
83
330
6E
100
AcDbEntity
  8
AM_6
100
AcDbText
 10
5.847
 20
-6.13
 30
0.0
 40
0.5
  1
0.97
100
AcDbAttributeDefinition
  3

  2
G
 70
     8
280
     0
  0
ATTDEF
  5
84
330
6E
100
AcDbEntity
  8
AM_6
100
AcDbText
 10
5.847
 20
-6.63
 30
0.0
 40
0.5
  1
0.75
100
AcDbAttributeDefinition
  3

  2
H
 70
     8
280
     0
  0
ATTDEF
  5
85
330
6E
100
AcDbEntity
  8
AM_6
100
AcDbText
 10
5.847
 20
-7.13
 30
0.0
 40
0.5
  1
4.00
100
AcDbAttributeDefinition
  3

  2
J
 70
     8
280
     0
  0
ATTDEF
  5
86
330
6E
100
AcDbEntity
  8
AM_6
100
AcDbText
 10
5.847
 20
-7.63
 30
0.0
 40
0.5
  1
2.05
100
AcDbAttributeDefinition
  3

  2
L
 70
     8
280
     0
  0
ATTDEF
  5
87
330
6E
100
AcDbEntity
  8
AM_6
100
AcDbText
 10
5.847
 20
-8.129999999999999
 30
0.0
 40
0.5
  1
2.13
100
AcDbAttributeDefinition
  3

  2
M
 70
     8
280
     0
  0
ATTDEF
  5
88
330
6E
100
AcDbEntity
  8
AM_6
100
AcDbText
 10
5.847
 20
-8.629999999999999
 30
0.0
 40
0.5
  1
0.75
100
AcDbAttributeDefinition
  3

  2
R
 70
     8
280
     0
  0
ATTDEF
  5
89
330
6E
100
AcDbEntity
  8
AM_6
100
AcDbText
 10
5.847
 20
-9.129999999999999
 30
0.0
 40
0.5
  1
1.19
100
AcDbAttributeDefinition
  3

  2
S
 70
     8
280
     0
  0
ATTDEF
  5
8A
330
6E
100
AcDbEntity
  8
AM_6
100
AcDbText
 10
5.847
 20
-9.629999999999999
 30
0.0
 40
0.5
  1
baldor
100
AcDbAttributeDefinition
  3

  2
COMPANY
 70
     8
280
     0
  0
INSERT
  5
8C
330
6E
100
AcDbEntity
  8
0
100
AcDbBlockReference
  2
2_405020c_Inch_0_in_062874_2
 10
0.0
 20
0.0
 30
0.0
  0
INSERT
  5
D7
330
6E
100
AcDbEntity
  8
0
100
AcDbBlockReference
  2
3_123342_0_in_062874_2
 10
0.0
 20
0.0
 30
0.0
  0
INSERT
  5
13E
330
6E
100
AcDbEntity
  8
0
100
AcDbBlockReference
  2
4_056565H_0_in_062874_2
 10
0.0
 20
0.0
 30
0.0
  0
ENDBLK
  5
71
330
6E
100
AcDbEntity
  8
0
100
AcDbBlockEnd
  0
BLOCK
  5
8D
330
8B
100
AcDbEntity
  8
0
100
AcDbBlockBegin
  2
2_405020c_Inch_0_in_062874_2
 70
     2
 10
0.0
 20
0.0
 30
0.0
  3
2_405020c_Inch_0_in_062874_2
  1

  0
ATTDEF
  5
8F
330
8B
100
AcDbEntity
  8
AM_6
100
AcDbText
 10
5.0323875
 20
1.630702625214712
 30
0.0
 40
0.5
  1
405020C -Inch
100
AcDbAttributeDefinition
  3

  2
NN
 70
     8
280
     0
  0
ATTDEF
  5
90
330
8B
100
AcDbEntity
  8
AM_6
100
AcDbText
 10
5.0323875
 20
1.130702625214712
 30
0.0
 40
0.5
  1
Grease fitting
100
AcDbAttributeDefinition
  3

  2
NT
 70
     8
280
     0
  0
ATTDEF
  5
91
330
8B
100
AcDbEntity
  8
AM_6
100
AcDbText
 10
5.0323875
 20
0.6307026252147117
 30
0.0
 40
0.5
  1
405020c-Inch
100
AcDbAttributeDefinition
  3

  2
NB
 70
     8
280
     0
  0
ATTDEF
  5
92
330
8B
100
AcDbEntity
  8
AM_6
100
AcDbText
 10
5.0323875
 20
0.1307026252147117
 30
0.0
 40
0.5
  1
$MN.-Inch
100
AcDbAttributeDefinition
  3

  2
NBSYN
 70
     8
280
     0
  0
ATTDEF
  5
93
330
8B
100
AcDbEntity
  8
AM_6
100
AcDbText
 10
5.0323875
 20
-0.3692973747852883
 30
0.0
 40
0.5
  1
405020c
100
AcDbAttributeDefinition
  3

  2
LINA
 70
     8
280
     0
  0
ATTDEF
  5
94
330
8B
100
AcDbEntity
  8
AM_6
100
AcDbText
 10
5.0323875
 20
-0.8692973747852883
 30
0.0
 40
0.5
  1
405020c
100
AcDbAttributeDefinition
  3

  2
MN
 70
     8
280
     0
  0
ATTDEF
  5
95
330
8B
100
AcDbEntity
  8
AM_6
100
AcDbText
 10
5.0323875
 20
-1.369297374785288
 30
0.0
 40
0.5
  1
0.230
100
AcDbAttributeDefinition
  3

  2
NDR
 70
     8
280
     0
  0
ATTDEF
  5
96
330
8B
100
AcDbEntity
  8
AM_6
100
AcDbText
 10
5.0323875
 20
-1.869297374785288
 30
0.0
 40
0.5
  1
0.210
100
AcDbAttributeDefinition
  3

  2
KDR
 70
     8
280
     0
  0
ATTDEF
  5
97
330
8B
100
AcDbEntity
  8
AM_6
100
AcDbText
 10
5.0323875
 20
-2.369297374785289
 30
0.0
 40
0.5
  1
0.157
100
AcDbAttributeDefinition
  3

  2
BZE
 70
     8
280
     0
  0
ATTDEF
  5
98
330
8B
100
AcDbEntity
  8
AM_6
100
AcDbText
 10
5.0323875
 20
-2.869297374785289
 30
0.0
 40
0.5
  1
9/32
100
AcDbAttributeDefinition
  3

  2
WAF
 70
     8
280
     0
  0
ATTDEF
  5
99
330
8B
100
AcDbEntity
  8
AM_6
100
AcDbText
 10
5.0323875
 20
-3.369297374785289
 30
0.0
 40
0.5
  1
0.2813
100
AcDbAttributeDefinition
  3

  2
WAF1
 70
     8
280
     0
  0
ATTDEF
  5
9A
330
8B
100
AcDbEntity
  8
AM_6
100
AcDbText
 10
5.0323875
 20
-3.869297374785289
 30
0.0
 40
0.5
  1
0.545
100
AcDbAttributeDefinition
  3

  2
BL
 70
     8
280
     0
  0
ATTDEF
  5
9B
330
8B
100
AcDbEntity
  8
AM_6
100
AcDbText
 10
5.0323875
 20
-4.369297374785289
 30
0.0
 40
0.5
  1
0.200
100
AcDbAttributeDefinition
  3

  2
TL
 70
     8
280
     0
  0
ATTDEF
  5
9C
330
8B
100
AcDbEntity
  8
AM_6
100
AcDbText
 10
5.0323875
 20
-4.869297374785289
 30
0.0
 40
0.5
  1
baldor
100
AcDbAttributeDefinition
  3

  2
COMPANY
 70
     8
280
     0
  0
LWPOLYLINE
  5
9F
330
8B
100
AcDbEntity
  8
AM_9
100
AcDbPolyline
 90
        3
 70
     0
 43
0.0
 10
-0.1785875
 20
1.408419863899457
 10
-0.1434249999999999
 20
1.423863043687807
 10
-0.1082624999999999
 20
1.441252504206973
  0
LWPOLYLINE
  5
A0
330
8B
100
AcDbEntity
  8
AM_9
100
AcDbPolyline
 90
        3
 70
     0
 43
0.0
 10
-0.1082624999999999
 20
1.441252504206973
 10
-0.073258100068301
 20
1.423937200953365
 10
-0.0379375
 20
1.408419863899457
  0
ELLIPSE
  5
A1
330
8B
100
AcDbEntity
  8
AM_9
100
AcDbEllipse
 10
-0.1082624999999999
 20
1.180868324581534
 30
0.0
 11
0.1000886227036577
 21
0.0
 31
0.0
210
0.0
220
0.0
230
1.0
 40
0.7071067811865474
 41
0.0
 42
6.283185307179586
  0
LWPOLYLINE
  5
A2
330
8B
100
AcDbEntity
  8
AM_9
100
AcDbPolyline
 90
        3
 70
     0
 43
0.0
 10
-0.1082624999999999
 20
1.480147797724787
 10
-0.1432668999316988
 20
1.468882128116736
 10
-0.1785874999999999
 20
1.45556031597856
  0
LWPOLYLINE
  5
A3
330
8B
100
AcDbEntity
  8
AM_9
100
AcDbPolyline
 90
        3
 70
     0
 43
0.0
 10
-0.0379374999999999
 20
1.45556031597856
 10
-0.0730999999999999
 20
1.468827197217083
 10
-0.1082624999999999
 20
1.480147797724787
  0
LWPOLYLINE
  5
A4
330
8B
100
AcDbEntity
  8
AM_9
100
AcDbPolyline
 90
        3
 70
     0
 43
0.0
 10
-0.0379375
 20
1.408419863899457
 10
-0.0027749999999999
 20
1.395152982660935
 10
0.0323875000000001
 20
1.383832382153231
  0
LINE
  5
A5
330
8B
100
AcDbEntity
  8
AM_9
100
AcDbLine
 10
-0.1082624999999999
 20
1.480147797724787
 30
0.0
 11
-0.1082624999999999
 21
1.441252504206973
 31
0.0
  0
LWPOLYLINE
  5
A6
330
8B
100
AcDbEntity
  8
AM_9
100
AcDbPolyline
 90
        3
 70
     0
 43
0.0
 10
-0.2489124999999999
 20
1.383832382153231
 10
-0.213908100068301
 20
1.395098051761282
 10
-0.1785875
 20
1.408419863899457
  0
LWPOLYLINE
  5
A7
330
8B
100
AcDbEntity
  8
AM_9
100
AcDbPolyline
 90
        3
 70
     0
 43
0.0
 10
-0.1785874999999999
 20
1.45556031597856
 10
-0.2137499999999999
 20
1.440117136190212
 10
-0.2234520236091904
 20
1.435494279924425
  0
LWPOLYLINE
  5
A8
330
8B
100
AcDbEntity
  8
AM_9
100
AcDbPolyline
 90
        3
 70
     0
 43
0.0
 10
0.0069282939395564
 20
1.435493665255543
 10
-0.0026168999316988
 20
1.440042978924652
 10
-0.0379374999999999
 20
1.45556031597856
  0
LINE
  5
A9
330
8B
100
AcDbEntity
  8
AM_9
100
AcDbLine
 10
0.0020998268442188
 20
1.18573106704382
 30
0.0
 11
0.0080243786795599
 21
1.319716195901195
 31
0.0
  0
LINE
  5
AA
330
8B
100
AcDbEntity
  8
AM_9
100
AcDbLine
 10
-0.2245493786795598
 20
1.319716195901195
 30
0.0
 11
-0.2186248268442186
 21
1.18573106704382
 31
0.0
  0
ELLIPSE
  5
AB
330
8B
100
AcDbEntity
  8
AM_9
100
AcDbEllipse
 10
-0.1082625000000007
 20
1.36943013289794
 30
0.0
 11
-0.1406499999999652
 21
1.722465723000327E-17
 31
0.0
210
0.0
220
0.0
230
1.0
 40
0.7071067811867744
 41
3.798906696793518
 42
5.625871263975856
  0
ELLIPSE
  5
AC
330
8B
100
AcDbEntity
  8
AM_9
100
AcDbEllipse
 10
-0.1082624999999999
 20
1.39157710578348
 30
0.0
 11
-0.1093294505797716
 21
1.338899617050560E-17
 31
0.0
210
0.0
220
0.0
230
1.0
 40
0.7071067811865376
 41
5.416588679231814
 42
5.928986666165889
  0
ELLIPSE
  5
AD
330
8B
100
AcDbEntity
  8
AM_9
100
AcDbEllipse
 10
-0.1082625000000011
 20
1.391577105783483
 30
0.0
 11
-0.1093294505797728
 21
1.338899617050574E-17
 31
0.0
210
0.0
220
0.0
230
1.0
 40
0.7071067811865217
 41
3.495791294603467
 42
4.049929939732176
  0
LINE
  5
AE
330
8B
100
AcDbEntity
  8
AM_9
100
AcDbLine
 10
-0.0182720899463352
 20
1.401806791843483
 30
0.0
 11
-0.0201921180911202
 21
1.398977926877725
 31
0.0
  0
LWPOLYLINE
  5
AF
330
8B
100
AcDbEntity
  8
AM_9
100
AcDbPolyline
 90
       18
 70
     0
 43
0.0
 10
-0.1082624999999999
 20
1.468884701671835
 10
-0.1026122060163165
 20
1.468781378614023
 10
-0.0912838592963578
 20
1.467945840101224
 10
-0.0802297004679063
 20
1.466292796942285
 10
-0.0696367615784423
 20
1.46386984974438
 10
-0.0596751187311362
 20
1.460747786004849
 10
-0.0504982857129721
 20
1.457019736287471
 10
-0.0422374019465843
 20
1.452799168835582
 10
-0.0349950297950044
 20
1.448216397765764
 10
-0.0288405767364062
 20
1.443414319926583
 10
-0.0238091010389689
 20
1.438546028530247
 10
-0.01988162451934
 20
1.433749504092299
 10
-0.0169924118216371
 20
1.429129880856489
 10
-0.0150384942854992
 20
1.424724823416674
 10
-0.0139106597901994
 20
1.420442792448767
 10
-0.0135869270081618
 20
1.415935314183167
 10
-0.0142310511769485
 20
1.411151434527911
 10
-0.0148833357532147
 20
1.40888009736349
  0
LWPOLYLINE
  5
B0
330
8B
100
AcDbEntity
  8
AM_9
100
AcDbPolyline
 90
       18
 70
     0
 43
0.0
 10
-0.2017425941902418
 20
1.409187352047976
 10
-0.2021455605756488
 20
1.41056167496489
 10
-0.2028835111891806
 20
1.414888193864442
 10
-0.2027191504445523
 20
1.419774860415209
 10
-0.2016485519697335
 20
1.424253520807494
 10
-0.1997634589084413
 20
1.428689066993093
 10
-0.1970094680326699
 20
1.433232611474305
 10
-0.1928522238918202
 20
1.438397555084018
 10
-0.1876123844165912
 20
1.443476818057439
 10
-0.1812933804042472
 20
1.448382179881345
 10
-0.1739233750982227
 20
1.453005643747921
 10
-0.1655669299816188
 20
1.457228664272986
 10
-0.1563308633168929
 20
1.460932729560111
 10
-0.1463379576206074
 20
1.46401739951984
 10
-0.1357322791676931
 20
1.466397879952779
 10
-0.1246762112906875
 20
1.468007689427326
 10
-0.1133455462655976
 20
1.46880109539378
 10
-0.1082624999999999
 20
1.468884701671835
  0
LINE
  5
B1
330
8B
100
AcDbEntity
  8
AM_9
100
AcDbLine
 10
-0.1961983983840996
 20
1.398796191723849
 30
0.0
 11
-0.1969391440845063
 21
1.399821105256065
 31
0.0
  0
ELLIPSE
  5
B2
330
8B
100
AcDbEntity
  8
AM_9
100
AcDbEllipse
 10
-0.1082624999999999
 20
1.431518917719985
 30
0.0
 11
-0.09936940028726626
 21
1.216924179949927E-17
 31
0.0
210
0.0
220
0.0
230
1.0
 40
0.7071067811865451
 41
2.656480407116012
 42
4.71238898038469
  0
ELLIPSE
  5
B3
330
8B
100
AcDbEntity
  8
AM_9
100
AcDbEllipse
 10
-0.1082625000000447
 20
1.479850246424424
 30
0.0
 11
-0.1312419113469398
 21
1.607249866450105E-17
 31
0.0
210
0.0
220
0.0
230
1.0
 40
0.70710678118639
 41
2.656480407116431
 42
6.768297553653268
  0
ELLIPSE
  5
B4
330
8B
100
AcDbEntity
  8
AM_9
100
AcDbEllipse
 10
-0.1082625000000005
 20
1.508606489889739
 30
0.0
 11
-0.131951764667679
 21
1.615943062421179E-17
 31
0.0
210
0.0
220
0.0
230
1.0
 40
0.7071067811865491
 41
3.579974428543794
 42
5.838131416823907
  0
ELLIPSE
  5
B5
330
8B
100
AcDbEntity
  8
AM_9
100
AcDbEllipse
 10
-0.1082625000000002
 20
1.555471066562924
 30
0.0
 11
-0.1038190510530397
 21
1.271416685626207E-17
 31
0.0
210
0.0
220
0.0
230
1.0
 40
0.7071067811865507
 41
3.579974428543803
 42
4.71238898038469
  0
ELLIPSE
  5
B6
330
8B
100
AcDbEntity
  8
AM_9
100
AcDbEllipse
 10
-0.1082624999999997
 20
1.322289680818844
 30
0.0
 11
-0.116343817153277
 21
1.424800832773455E-17
 31
0.0
210
0.0
220
0.0
230
1.0
 40
0.7071067811865482
 41
0.0
 42
6.283185307179586
  0
ELLIPSE
  5
B7
330
8B
100
AcDbEntity
  8
AM_9
100
AcDbEllipse
 10
-0.1082624999999998
 20
1.18817106666032
 30
0.0
 11
-0.110416259593989
 21
1.352209188856018E-17
 31
0.0
210
0.0
220
0.0
230
1.0
 40
0.7071067811865459
 41
0.0
 42
6.283185307179586
  0
ELLIPSE
  5
B8
330
8B
100
AcDbEntity
  8
AM_9
100
AcDbEllipse
 10
-0.1082625
 20
1.322289680818846
 30
0.0
 11
-0.1406500000000008
 21
1.722465723000762E-17
 31
0.0
210
0.0
220
0.0
230
1.0
 40
0.7071067811865593
 41
0.0
 42
6.283185307179586
  0
LINE
  5
BA
330
8B
100
AcDbEntity
  8
AM_4
100
AcDbLine
 10
-0.2234520236091904
 20
1.435494279924425
 30
0.0
 11
-0.2489124999999999
 21
1.422727675671045
 31
0.0
  0
LINE
  5
BB
330
8B
100
AcDbEntity
  8
AM_4
100
AcDbLine
 10
0.0323875000000001
 20
1.422727675671045
 30
0.0
 11
0.0069282939395564
 21
1.435493665255543
 31
0.0
  0
LINE
  5
BC
330
8B
100
AcDbEntity
  8
AM_4
100
AcDbLine
 10
-0.2489124999999999
 20
1.422727675671045
 30
0.0
 11
-0.2489124999999999
 21
1.268992138045746
 31
0.0
  0
LWPOLYLINE
  5
BD
330
8B
100
AcDbEntity
  8
AM_4
100
AcDbPolyline
 90
        3
 70
     0
 43
0.0
 10
-0.1785875
 20
1.23615949773823
 10
-0.2137499999999999
 20
1.25160267752658
 10
-0.2489124999999999
 20
1.268992138045746
  0
LWPOLYLINE
  5
BE
330
8B
100
AcDbEntity
  8
AM_4
100
AcDbPolyline
 90
        3
 70
     0
 43
0.0
 10
-0.1082624999999999
 20
1.211572015992004
 10
-0.1432668999316989
 20
1.222837685600055
 10
-0.1785875
 20
1.23615949773823
  0
LWPOLYLINE
  5
BF
330
8B
100
AcDbEntity
  8
AM_4
100
AcDbPolyline
 90
        3
 70
     0
 43
0.0
 10
-0.2489124999999999
 20
1.30788743156356
 10
-0.213908100068301
 20
1.296621761955509
 10
-0.1785874999999999
 20
1.283299949817333
  0
LINE
  5
C0
330
8B
100
AcDbEntity
  8
AM_4
100
AcDbLine
 10
-0.1082624999999999
 20
1.250467309509818
 30
0.0
 11
-0.1082624999999999
 21
1.211572015992004
 31
0.0
  0
LWPOLYLINE
  5
C1
330
8B
100
AcDbEntity
  8
AM_4
100
AcDbPolyline
 90
        3
 70
     0
 43
0.0
 10
-0.0379375
 20
1.23615949773823
 10
-0.0730999999999999
 20
1.222892616499708
 10
-0.1082624999999999
 20
1.211572015992004
  0
LWPOLYLINE
  5
C2
330
8B
100
AcDbEntity
  8
AM_4
100
AcDbPolyline
 90
        3
 70
     0
 43
0.0
 10
0.0323875000000001
 20
1.268992138045746
 10
-0.0026168999316989
 20
1.251676834792138
 10
-0.0379375
 20
1.23615949773823
  0
LINE
  5
C3
330
8B
100
AcDbEntity
  8
AM_4
100
AcDbLine
 10
0.0323875000000001
 20
1.422727675671045
 30
0.0
 11
0.0323875000000001
 21
1.268992138045746
 31
0.0
  0
LWPOLYLINE
  5
C4
330
8B
100
AcDbEntity
  8
AM_4
100
AcDbPolyline
 90
        3
 70
     0
 43
0.0
 10
-0.0379374999999999
 20
1.283299949817333
 10
-0.0027749999999999
 20
1.296566831055856
 10
0.0323875000000001
 20
1.30788743156356
  0
LWPOLYLINE
  5
C5
330
8B
100
AcDbEntity
  8
AM_4
100
AcDbPolyline
 90
        3
 70
     0
 43
0.0
 10
-0.1785874999999999
 20
1.283299949817333
 10
-0.1434249999999999
 20
1.267856770028984
 10
-0.1082624999999999
 20
1.250467309509818
  0
LWPOLYLINE
  5
C6
330
8B
100
AcDbEntity
  8
AM_4
100
AcDbPolyline
 90
        3
 70
     0
 43
0.0
 10
-0.1082624999999999
 20
1.250467309509818
 10
-0.073258100068301
 20
1.267782612763426
 10
-0.0379374999999999
 20
1.283299949817333
  0
ELLIPSE
  5
C7
330
8B
100
AcDbEntity
  8
AM_4
100
AcDbEllipse
 10
-0.1082625000000014
 20
1.369430132897945
 30
0.0
 11
-0.1406499999999985
 21
1.722465723000733E-17
 31
0.0
210
0.0
220
0.0
230
1.0
 40
0.7071067811865521
 41
5.625871263975747
 42
10.08209200397321
  0
ELLIPSE
  5
C8
330
8B
100
AcDbEntity
  8
AM_4
100
AcDbEllipse
 10
-0.1082624999999999
 20
1.391577105783479
 30
0.0
 11
-0.1093294505797714
 21
1.338899617050558E-17
 31
0.0
210
0.0
220
0.0
230
1.0
 40
0.7071067811865485
 41
5.928986666165878
 42
9.778976601783087
  0
LINE
  5
C9
330
8B
100
AcDbEntity
  8
AM_4
100
AcDbLine
 10
-0.0203580814367076
 20
1.398753914206324
 30
0.0
 11
0.0078370625890072
 21
1.436575941920365
 31
0.0
  0
LINE
  5
CA
330
8B
100
AcDbEntity
  8
AM_4
100
AcDbLine
 10
-0.224362062589007
 20
1.436575941920365
 30
0.0
 11
-0.1961669185632922
 21
1.398753914206324
 31
0.0
  0
ELLIPSE
  5
CB
330
8B
100
AcDbEntity
  8
AM_4
100
AcDbEllipse
 10
-0.1082624999999999
 20
1.431518917719985
 30
0.0
 11
-0.09936940028726639
 21
1.216924179949929E-17
 31
0.0
210
0.0
220
0.0
230
1.0
 40
0.7071067811865465
 41
0.4851122464737827
 42
2.65648040711601
  0
LWPOLYLINE
  5
CC
330
8B
100
AcDbEntity
  8
AM_4
100
AcDbPolyline
 90
       12
 70
     0
 43
0.0
 10
-0.2272470068833013
 20
1.54894388014746
 10
-0.2304305961885112
 20
1.543926604692435
 10
-0.2360498644189052
 20
1.533037356631766
 10
-0.2402015218558495
 20
1.52179572735622
 10
-0.2428796913497724
 20
1.510352347207397
 10
-0.2441006010342262
 20
1.498845919549106
 10
-0.2438949316993764
 20
1.487402017811319
 10
-0.2423022281455034
 20
1.476135366954516
 10
-0.2393704628137036
 20
1.465158987357339
 10
-0.2351468509900602
 20
1.454557765033531
 10
-0.2296748169120166
 20
1.444407677600101
 10
-0.2238038375748277
 20
1.435833806739137
  0
LWPOLYLINE
  5
CD
330
8B
100
AcDbEntity
  8
AM_4
100
AcDbPolyline
 90
       12
 70
     0
 43
0.0
 10
0.0071983603107507
 20
1.435727903140417
 10
0.0110184483169143
 20
1.441081738845793
 10
0.0172652511806911
 20
1.45176882271104
 10
0.0220561191116343
 20
1.46287665219007
 10
0.0253728265574516
 20
1.474250259818566
 10
0.0272230464540655
 20
1.485745535189535
 10
0.0276320208054307
 20
1.497231132462522
 10
0.0266358218196378
 20
1.508589069105933
 10
0.0242792691005144
 20
1.519702536138277
 10
0.0206107575309617
 20
1.530476340087624
 10
0.0156754967188335
 20
1.540831172412412
 10
0.010817680122071
 20
1.548801915642319
  0
ELLIPSE
  5
CE
330
8B
100
AcDbEntity
  8
AM_4
100
AcDbEllipse
 10
-0.1082625
 20
1.479850246424461
 30
0.0
 11
-0.1312419113468907
 21
1.607249866449504E-17
 31
0.0
210
0.0
220
0.0
230
1.0
 40
0.7071067811865465
 41
0.4924597421542494
 42
2.648289064431678
  0
ELLIPSE
  5
CF
330
8B
100
AcDbEntity
  8
AM_4
100
AcDbEllipse
 10
-0.1082624999999999
 20
1.566241520328203
 30
0.0
 11
0.08080642971672804
 21
0.0
 31
0.0
210
0.0
220
0.0
230
1.0
 40
0.7071067811865489
 41
0.0
 42
6.283185307179586
  0
LWPOLYLINE
  5
D0
330
8B
100
AcDbEntity
  8
AM_4
100
AcDbPolyline
 90
       11
 70
     0
 43
0.0
 10
-0.1082624999999999
 20
1.630702625214712
 10
-0.1150664504424065
 20
1.630536251923488
 10
-0.1272650475759468
 20
1.629395140174521
 10
-0.1392448204047282
 20
1.627175474277683
 10
-0.1508524049104285
 20
1.623888575408711
 10
-0.1619383652967931
 20
1.619552475476576
 10
-0.1723498754097491
 20
1.614194666629446
 10
-0.1819224115919627
 20
1.607862094190044
 10
-0.1904896763219742
 20
1.600627086412822
 10
-0.1978913792869021
 20
1.592595394077711
 10
-0.2021570854716058
 20
1.586793667492276
  0
LWPOLYLINE
  5
D1
330
8B
100
AcDbEntity
  8
AM_4
100
AcDbPolyline
 90
       12
 70
     0
 43
0.0
 10
-0.0143139783106349
 20
1.586712647327532
 10
-0.0150865707944588
 20
1.587852578512094
 10
-0.0213815009573983
 20
1.595824755575464
 10
-0.0288452547974749
 20
1.603200058372255
 10
-0.0374026989965582
 20
1.609878793620738
 10
-0.0469476716094189
 20
1.615759973045395
 10
-0.0573449536179667
 20
1.620752039346764
 10
-0.0684400720320602
 20
1.624781228288545
 10
-0.0800682679602572
 20
1.627793709814198
 10
-0.0920665011797121
 20
1.629755078365936
 10
-0.1042790350934817
 20
1.63064563862704
 10
-0.1082624999999999
 20
1.630702625214712
  0
LINE
  5
D2
330
8B
100
AcDbEntity
  8
AM_4
100
AcDbLine
 10
-0.2022643950300903
 20
1.586632253096058
 30
0.0
 11
-0.2277368720493999
 21
1.54821168287195
 31
0.0
  0
LINE
  5
D3
330
8B
100
AcDbEntity
  8
AM_4
100
AcDbLine
 10
0.0112118720494001
 20
1.54821168287195
 30
0.0
 11
-0.0142606049699095
 21
1.586632253096058
 31
0.0
  0
ELLIPSE
  5
D4
330
8B
100
AcDbEntity
  8
AM_4
100
AcDbEllipse
 10
-0.1082624999999998
 20
1.508606489889739
 30
0.0
 11
-0.1319517646676799
 21
1.615943062421190E-17
 31
0.0
210
0.0
220
0.0
230
1.0
 40
0.7071067811865491
 41
5.844803532225583
 42
9.863159735723384
  0
ELLIPSE
  5
D5
330
8B
100
AcDbEntity
  8
AM_4
100
AcDbEllipse
 10
-0.1082624999999999
 20
1.555471066562925
 30
0.0
 11
-0.1038190510530391
 21
1.547024427447801E-9
 31
0.0
210
0.0
220
0.0
230
1.0
 40
0.7071067811865487
 41
5.844803551400512
 42
9.863159754898316
  0
ENDBLK
  5
8E
330
8B
100
AcDbEntity
  8
0
100
AcDbBlockEnd
  0
BLOCK
  5
D8
330
D6
100
AcDbEntity
  8
0
100
AcDbBlockBegin
  2
3_123342_0_in_062874_2
 70
     2
 10
0.0
 20
0.0
 30
0.0
  3
3_123342_0_in_062874_2
  1

  0
ATTDEF
  5
DA
330
D6
100
AcDbEntity
  8
AM_6
100
AcDbText
 10
5.847
 20
1.5748
 30
0.0
 40
0.5
  1
Set Screw Insert Inch Bore
100
AcDbAttributeDefinition
  3

  2
NN
 70
     8
280
     0
  0
ATTDEF
  5
DB
330
D6
100
AcDbEntity
  8
AM_6
100
AcDbText
 10
5.847
 20
1.0748
 30
0.0
 40
0.5
  1
SC Normal Duty Bearing Inserts
100
AcDbAttributeDefinition
  3

  2
NT
 70
     8
280
     0
  0
ATTDEF
  5
DC
330
D6
100
AcDbEntity
  8
AM_6
100
AcDbText
 10
5.847
 20
0.5747999999999998
 30
0.0
 40
0.5
  1
123342
100
AcDbAttributeDefinition
  3

  2
NB
 70
     8
280
     0
  0
ATTDEF
  5
DD
330
D6
100
AcDbEntity
  8
AM_6
100
AcDbText
 10
5.847
 20
0.0747999999999998
 30
0.0
 40
0.5
  1
$PN.
100
AcDbAttributeDefinition
  3

  2
NBSYN
 70
     8
280
     0
  0
ATTDEF
  5
DE
330
D6
100
AcDbEntity
  8
AM_6
100
AcDbText
 10
5.847
 20
-0.4252000000000002
 30
0.0
 40
0.5
  1
123342
100
AcDbAttributeDefinition
  3

  2
LINA
 70
     8
280
     0
  0
ATTDEF
  5
DF
330
D6
100
AcDbEntity
  8
AM_6
100
AcDbText
 10
5.847
 20
-0.9252000000000002
 30
0.0
 40
0.5
  1
208
100
AcDbAttributeDefinition
  3

  2
SERIES
 70
     8
280
     0
  0
ATTDEF
  5
E0
330
D6
100
AcDbEntity
  8
AM_6
100
AcDbText
 10
5.847
 20
-1.4252
 30
0.0
 40
0.5
  1
1-1/2
100
AcDbAttributeDefinition
  3

  2
SS
 70
     8
280
     0
  0
ATTDEF
  5
E1
330
D6
100
AcDbEntity
  8
AM_6
100
AcDbText
 10
5.847
 20
-1.9252
 30
0.0
 40
0.5
  1
123342
100
AcDbAttributeDefinition
  3

  2
PN
 70
     8
280
     0
  0
ATTDEF
  5
E2
330
D6
100
AcDbEntity
  8
AM_6
100
AcDbText
 10
5.847
 20
-2.4252
 30
0.0
 40
0.5
  1
INS-SC-108
100
AcDbAttributeDefinition
  3

  2
DESCRIPTION
 70
     8
280
     0
  0
ATTDEF
  5
E3
330
D6
100
AcDbEntity
  8
AM_6
100
AcDbText
 10
5.847
 20
-2.9252
 30
0.0
 40
0.5
  1
1.94
100
AcDbAttributeDefinition
  3

  2
A
 70
     8
280
     0
  0
ATTDEF
  5
E4
330
D6
100
AcDbEntity
  8
AM_6
100
AcDbText
 10
5.847
 20
-3.4252
 30
0.0
 40
0.5
  1
0.87
100
AcDbAttributeDefinition
  3

  2
C
 70
     8
280
     0
  0
ATTDEF
  5
E5
330
D6
100
AcDbEntity
  8
AM_6
100
AcDbText
 10
5.847
 20
-3.9252
 30
0.0
 40
0.5
  1
3.1496
100
AcDbAttributeDefinition
  3

  2
D
 70
     8
280
     0
  0
ATTDEF
  5
E6
330
D6
100
AcDbEntity
  8
AM_6
100
AcDbText
 10
5.847
 20
-4.4252
 30
0.0
 40
0.5
  1
0.22
100
AcDbAttributeDefinition
  3

  2
J
 70
     8
280
     0
  0
ATTDEF
  5
E7
330
D6
100
AcDbEntity
  8
AM_6
100
AcDbText
 10
5.847
 20
-4.9252
 30
0.0
 40
0.5
  1
2.05
100
AcDbAttributeDefinition
  3

  2
L
 70
     8
280
     0
  0
ATTDEF
  5
E8
330
D6
100
AcDbEntity
  8
AM_6
100
AcDbText
 10
5.847
 20
-5.4252
 30
0.0
 40
0.5
  1
5/16 - 24
100
AcDbAttributeDefinition
  3

  2
N
 70
     8
280
     0
  0
ATTDEF
  5
E9
330
D6
100
AcDbEntity
  8
AM_6
100
AcDbText
 10
5.847
 20
-5.9252
 30
0.0
 40
0.5
  1
0.75
100
AcDbAttributeDefinition
  3

  2
W
 70
     8
280
     0
  0
ATTDEF
  5
EA
330
D6
100
AcDbEntity
  8
AM_6
100
AcDbText
 10
5.847
 20
-6.4252
 30
0.0
 40
0.5
  1
1.19
100
AcDbAttributeDefinition
  3

  2
Y
 70
     8
280
     0
  0
ATTDEF
  5
EB
330
D6
100
AcDbEntity
  8
AM_6
100
AcDbText
 10
5.847
 20
-6.9252
 30
0.0
 40
0.5
  1
baldor
100
AcDbAttributeDefinition
  3

  2
COMPANY
 70
     8
280
     0
  0
ARC
  5
EC
330
D6
100
AcDbEntity
  8
AM_9
100
AcDbCircle
 10
0.219999999999692
 20
0.0000000000000063
 30
0.0
 40
0.1041666666669698
100
AcDbArc
 50
357.7551008802749
 51
0.0
  0
ARC
  5
ED
330
D6
100
AcDbEntity
  8
AM_9
100
AcDbCircle
 10
0.2199999999999994
 20
0.0000000000000004
 30
0.0
 40
0.1041666666666626
100
AcDbArc
 50
314.6665787375858
 51
326.8217116137986
  0
CIRCLE
  5
EE
330
D6
100
AcDbEntity
  8
AM_9
100
AcDbCircle
 10
0.2199999999999999
 20
-0.0000000000000001
 30
0.0
 40
0.0250757575757546
  0
LINE
  5
EF
330
D6
100
AcDbEntity
  8
AM_9
100
AcDbLine
 10
-0.8632127073045925
 20
0.7410434121440937
 30
0.0
 11
-0.7617872926954075
 21
0.7410434121440937
 31
0.0
  0
LINE
  5
F0
330
D6
100
AcDbEntity
  8
AM_9
100
AcDbLine
 10
-0.6863
 20
0.7499999999999999
 30
0.0
 11
-0.6863
 21
1.005520699443008
 31
0.0
  0
LINE
  5
F1
330
D6
100
AcDbEntity
  8
AM_9
100
AcDbLine
 10
-0.9387
 20
1.005520699443008
 30
0.0
 11
-0.9387
 21
0.7499999999999999
 31
0.0
  0
LINE
  5
F2
330
D6
100
AcDbEntity
  8
AM_9
100
AcDbLine
 10
-0.9387
 20
1.005520699443008
 30
0.0
 11
-0.6863
 21
1.005520699443008
 31
0.0
  0
LINE
  5
F3
330
D6
100
AcDbEntity
  8
AM_9
100
AcDbLine
 10
-0.6863
 20
1.005520699443008
 30
0.0
 11
-0.666820699443008
 21
1.025
 31
0.0
  0
LINE
  5
F4
330
D6
100
AcDbEntity
  8
AM_9
100
AcDbLine
 10
-0.9581793005569921
 20
1.025
 30
0.0
 11
-0.9387
 21
1.005520699443008
 31
0.0
  0
LWPOLYLINE
  5
F5
330
D6
100
AcDbEntity
  8
AM_9
100
AcDbPolyline
 90
        8
 70
     0
 43
0.0
 10
-0.8632127073045925
 20
0.7410434121440937
 10
-0.8626080686613159
 20
0.7409938344370808
 10
-0.8440824001822995
 20
0.7397651288962925
 10
-0.8244683110238162
 20
0.739062103298001
 10
-0.8061882033792542
 20
0.7389816630236826
 10
-0.7880968710405175
 20
0.739432059681394
 10
-0.7746215209247556
 20
0.7401183999637203
 10
-0.7617872926954075
 20
0.7410434121440937
  0
LWPOLYLINE
  5
F6
330
D6
100
AcDbEntity
  8
AM_9
100
AcDbPolyline
 90
        8
 70
     0
 43
0.0
 10
-0.7617872926954075
 20
0.7410434121440937
 10
-0.7433189947248777
 20
0.7425359058596941
 10
-0.7263316626337918
 20
0.7443107834530255
 10
-0.7122431411809671
 20
0.746073051208968
 10
-0.7006375229642501
 20
0.747721053447456
 10
-0.6924891200411614
 20
0.7489834252561899
 10
-0.687579115365946
 20
0.7497858276986533
 10
-0.6863000000004691
 20
0.749999999999921
  0
LWPOLYLINE
  5
F7
330
D6
100
AcDbEntity
  8
AM_9
100
AcDbPolyline
 90
        7
 70
     0
 43
0.0
 10
-0.7617872926954075
 20
0.4179135543687512
 10
-0.7731444349793485
 20
0.4222929617361942
 10
-0.7919797968381199
 20
0.4268872097935249
 10
-0.8115095528208465
 20
0.428565725416829
 10
-0.8293901888053352
 20
0.4274323748434468
 10
-0.8467895379545057
 20
0.4238417094153903
 10
-0.8632127073045927
 20
0.4179135543687512
  0
LWPOLYLINE
  5
F8
330
D6
100
AcDbEntity
  8
AM_9
100
AcDbPolyline
 90
        7
 70
     0
 43
0.0
 10
-0.8632127073045924
 20
0.208443403060716
 10
-0.8456832543319992
 20
0.2011954790814452
 10
-0.8264936573565502
 20
0.1969212055275624
 10
-0.8084211987097358
 20
0.196090473099342
 10
-0.7899110792055694
 20
0.198390900211755
 10
-0.7754929732596143
 20
0.2024945178026709
 10
-0.7617872926954076
 20
0.208443403060716
  0
LINE
  5
F9
330
D6
100
AcDbEntity
  8
AM_9
100
AcDbLine
 10
0.6743943805740201
 20
-0.7499999999999999
 30
0.0
 11
0.7089999999999997
 21
-0.7499999999999999
 31
0.0
  0
LINE
  5
FA
330
D6
100
AcDbEntity
  8
AM_9
100
AcDbLine
 10
-1.149
 20
-0.7499999999999999
 30
0.0
 11
-0.2249999999999999
 21
-0.7499999999999999
 31
0.0
  0
LINE
  5
FB
330
D6
100
AcDbEntity
  8
AM_9
100
AcDbLine
 10
-0.2250000000000001
 20
0.7499999999999999
 30
0.0
 11
-0.6863
 21
0.7499999999999999
 31
0.0
  0
LINE
  5
FC
330
D6
100
AcDbEntity
  8
AM_9
100
AcDbLine
 10
0.7089999999999997
 20
0.7499999999999999
 30
0.0
 11
0.5636491466897818
 21
0.7499999999999999
 31
0.0
  0
LINE
  5
FD
330
D6
100
AcDbEntity
  8
AM_9
100
AcDbLine
 10
-0.9387
 20
0.7499999999999999
 30
0.0
 11
-1.149
 21
0.7499999999999999
 31
0.0
  0
LWPOLYLINE
  5
FE
330
D6
100
AcDbEntity
  8
AM_9
100
AcDbPolyline
 90
        9
 70
     0
 43
0.0
 10
-0.9386999999995309
 20
0.749999999999921
 10
-0.938667513997765
 20
0.7499945343723353
 10
-0.9363633366151951
 20
0.749610356223451
 10
-0.9307580319762829
 20
0.7487045626459768
 10
-0.9216984300791266
 20
0.7473271419744808
 10
-0.9098292705100207
 20
0.7456852867651423
 10
-0.8948779606079963
 20
0.7438815015806834
 10
-0.8799722529518149
 20
0.7423786533288749
 10
-0.8632127073045918
 20
0.7410434121440937
  0
LINE
  5
FF
330
D6
100
AcDbEntity
  8
AM_9
100
AcDbLine
 10
0.7089999999999997
 20
-0.7499999999999999
 30
0.0
 11
0.7499999999999999
 21
-0.7909999999999999
 31
0.0
  0
LINE
  5
100
330
D6
100
AcDbEntity
  8
AM_9
100
AcDbLine
 10
0.7499999999999999
 20
0.7909999999999999
 30
0.0
 11
0.7089999999999997
 21
0.7499999999999999
 31
0.0
  0
LINE
  5
101
330
D6
100
AcDbEntity
  8
AM_9
100
AcDbLine
 10
-1.149
 20
0.7499999999999999
 30
0.0
 11
-1.19
 21
0.7909999999999999
 31
0.0
  0
LINE
  5
102
330
D6
100
AcDbEntity
  8
AM_9
100
AcDbLine
 10
-1.19
 20
-0.7909999999999999
 30
0.0
 11
-1.149
 21
-0.7499999999999999
 31
0.0
  0
LWPOLYLINE
  5
103
330
D6
100
AcDbEntity
  8
AM_9
100
AcDbPolyline
 90
        8
 70
     0
 43
0.0
 10
-0.7617872926954076
 20
0.2084434030607161
 10
-0.7433189947248781
 20
0.2181500525473717
 10
-0.726331662633792
 20
0.2309947159704411
 10
-0.7122431411809674
 20
0.2458369062271664
 10
-0.7006375229642503
 20
0.2630515125723649
 10
-0.6924891200411616
 20
0.2811552173253675
 10
-0.6875791153659461
 20
0.3006299684396839
 10
-0.6863000005920307
 20
0.3169747750571307
  0
ELLIPSE
  5
104
330
D6
100
AcDbEntity
  8
AM_9
100
AcDbEllipse
 10
-0.8125
 20
0.3131784787147346
 30
0.0
 11
0.126200000000001
 21
0.0
 31
0.0
210
0.0
220
0.0
230
1.0
 40
0.90630778703665
 41
4.298859327436039
 42
5.125918633333339
  0
LWPOLYLINE
  5
105
330
D6
100
AcDbEntity
  8
AM_9
100
AcDbPolyline
 90
        5
 70
     0
 43
0.0
 10
-0.9231222215221705
 20
0.3709703470382112
 10
-0.9243624770357498
 20
0.3689496311774119
 10
-0.9325108799588386
 20
0.3519129291833643
 10
-0.937420884634054
 20
0.3331163979199486
 10
-0.9386999994079693
 20
0.3169526174697168
  0
LINE
  5
106
330
D6
100
AcDbEntity
  8
AM_9
100
AcDbLine
 10
-0.6863
 20
0.3169492879744252
 30
0.0
 11
-0.6863
 21
0.4249514101428962
 31
0.0
  0
LINE
  5
107
330
D6
100
AcDbEntity
  8
AM_9
100
AcDbLine
 10
-0.9387
 20
0.4249514101428962
 30
0.0
 11
-0.9387
 21
0.3169492879744251
 31
0.0
  0
LWPOLYLINE
  5
108
330
D6
100
AcDbEntity
  8
AM_9
100
AcDbPolyline
 90
        5
 70
     0
 43
0.0
 10
-0.6863000005920307
 20
0.3169747750571307
 10
-0.686332486002235
 20
0.3195564056062105
 10
-0.6886366633848048
 20
0.3387068273165262
 10
-0.6942419680237171
 20
0.3563501399542796
 10
-0.7014959917925149
 20
0.370359320059752
  0
LWPOLYLINE
  5
109
330
D6
100
AcDbEntity
  8
AM_9
100
AcDbPolyline
 90
        9
 70
     0
 43
0.0
 10
-0.9386999994079693
 20
0.3169526174697168
 10
-0.938667513997765
 20
0.3143663672567124
 10
-0.9363633366151951
 20
0.2948912241434361
 10
-0.9307580319762828
 20
0.2764823016912666
 10
-0.9216984300791266
 20
0.2584988087507346
 10
-0.9098292705100205
 20
0.2423334453032001
 10
-0.8948779606079963
 20
0.2277303721045557
 10
-0.8799722529518147
 20
0.2170862717789888
 10
-0.8632127073045917
 20
0.2084434030607156
  0
LINE
  5
10A
330
D6
100
AcDbEntity
  8
AM_9
100
AcDbLine
 10
0.435
 20
-1.024999999999999
 30
0.0
 11
0.709
 21
-1.024999999999999
 31
0.0
  0
LINE
  5
10B
330
D6
100
AcDbEntity
  8
AM_9
100
AcDbLine
 10
0.5395897642201529
 20
1.024999999999999
 30
0.0
 11
0.435
 21
1.024999999999999
 31
0.0
  0
LINE
  5
10C
330
D6
100
AcDbEntity
  8
AM_9
100
AcDbLine
 10
0.709
 20
-1.025
 30
0.0
 11
0.7181417269731013
 21
-1.015858273026899
 31
0.0
  0
LINE
  5
10D
330
D6
100
AcDbEntity
  8
AM_9
100
AcDbLine
 10
0.709
 20
-0.9113678555867833
 30
0.0
 11
0.709
 21
-1.025
 31
0.0
  0
LINE
  5
10E
330
D6
100
AcDbEntity
  8
AM_9
100
AcDbLine
 10
-0.7189415244482973
 20
-1.025
 30
0.0
 11
-0.435
 21
-1.025
 31
0.0
  0
LINE
  5
10F
330
D6
100
AcDbEntity
  8
AM_9
100
AcDbLine
 10
-0.435
 20
1.025
 30
0.0
 11
-0.5395897642201529
 21
1.025
 31
0.0
  0
LINE
  5
110
330
D6
100
AcDbEntity
  8
AM_9
100
AcDbLine
 10
-0.2640000000000001
 20
-1.501466666666667
 30
0.0
 11
-0.176
 21
-1.501466666666667
 31
0.0
  0
LINE
  5
111
330
D6
100
AcDbEntity
  8
AM_9
100
AcDbLine
 10
-0.176
 20
1.501466666666667
 30
0.0
 11
-0.2640000000000001
 21
1.501466666666667
 31
0.0
  0
LINE
  5
112
330
D6
100
AcDbEntity
  8
AM_9
100
AcDbLine
 10
-0.4349999999999997
 20
1.480022851174941
 30
0.0
 11
-0.4349999999999997
 21
-1.480022851174941
 31
0.0
  0
ARC
  5
113
330
D6
100
AcDbEntity
  8
AM_9
100
AcDbCircle
 10
-0.3910000000000002
 20
-1.480022851174941
 30
0.0
 40
0.0439999999999995
100
AcDbArc
 50
180.0
 51
255.2014078426528
  0
ARC
  5
114
330
D6
100
AcDbEntity
  8
AM_9
100
AcDbCircle
 10
-0.3909999999999999
 20
1.480022851174941
 30
0.0
 40
0.044
100
AcDbArc
 50
104.7985921573474
 51
180.0
  0
LINE
  5
115
330
D6
100
AcDbEntity
  8
AM_9
100
AcDbLine
 10
0.435
 20
1.48002285117494
 30
0.0
 11
0.435
 21
-1.48002285117494
 31
0.0
  0
ARC
  5
116
330
D6
100
AcDbEntity
  8
AM_9
100
AcDbCircle
 10
0.3910000000000003
 20
-1.48002285117494
 30
0.0
 40
0.0439999999999998
100
AcDbArc
 50
284.7985901462345
 51
0.0
  0
ARC
  5
117
330
D6
100
AcDbEntity
  8
AM_9
100
AcDbCircle
 10
0.3910000000000003
 20
1.48002285117494
 30
0.0
 40
0.0439999999999997
100
AcDbArc
 50
0.0
 51
75.20140985376551
  0
ARC
  5
118
330
D6
100
AcDbEntity
  8
AM_9
100
AcDbCircle
 10
-0.0000000000000328
 20
0.0000000000001468
 30
0.0
 40
1.57479999999985
100
AcDbArc
 50
99.65065140689926
 51
104.7985921573478
  0
ARC
  5
119
330
D6
100
AcDbEntity
  8
AM_9
100
AcDbCircle
 10
0.0000000000307509
 20
0.0000000001420877
 30
0.0
 40
1.574800000145084
100
AcDbArc
 50
255.2014078428898
 51
260.3493485928632
  0
LINE
  5
11A
330
D6
100
AcDbEntity
  8
AM_9
100
AcDbLine
 10
-0.4022385680689833
 20
1.522563356434738
 30
0.0
 11
-0.4022385680689833
 21
-1.522563356434588
 31
0.0
  0
LINE
  5
11B
330
D6
100
AcDbEntity
  8
AM_9
100
AcDbLine
 10
-0.264
 20
1.552513780937226
 30
0.0
 11
-0.264
 21
-1.552513780937075
 31
0.0
  0
LWPOLYLINE
  5
11C
330
D6
100
AcDbEntity
  8
AM_9
100
AcDbPolyline
 90
       38
 70
     0
 43
0.0
 10
0.294279708124521
 20
-0.073028894318478
 10
0.305413588149738
 20
-0.0596074554369469
 10
0.3141816275668048
 20
-0.0445029827462287
 10
0.3202908559822465
 20
-0.0281105566297884
 10
0.3235931198660535
 20
-0.0109160414464639
 10
0.3239531431822882
 20
0.0064987404464167
 10
0.3214278044027967
 20
0.023729621540839
 10
0.316068101176867
 20
0.0402426190771753
 10
0.3080690885316074
 20
0.0556285006957344
 10
0.2975814346058987
 20
0.0694961120137714
 10
0.2849687106605216
 20
0.0814233448069585
 10
0.2704301476572291
 20
0.0911339358664295
 10
0.2545025963729537
 20
0.0982866485743026
 10
0.2374522253160189
 20
0.1026838983394144
 10
0.2199153309669574
 20
0.1041666322561993
 10
0.2022738703993074
 20
0.102636701829137
 10
0.1851317256148399
 20
0.098157515687005
 10
0.1689878713726012
 20
0.0908086745346489
 10
0.1542937923566286
 20
0.0808293803116763
 10
0.1415749600292314
 20
0.0685414833781732
 10
0.1310859808153099
 20
0.0542677771506077
 10
0.1232384251895092
 20
0.0385438450673759
 10
0.118121194219127
 20
0.0217118257432814
 10
0.1159367949851466
 20
0.0043957390650832
 10
0.1166534114716433
 20
-0.0130451939040401
 10
0.1202701964999235
 20
-0.0300415692718811
 10
0.1266362385918353
 20
-0.0461941825359294
 10
0.1356224231187784
 20
-0.0610655383975268
 10
0.1469217192020062
 20
-0.0742311209672402
 10
0.1603438144031539
 20
-0.0853799314531813
 10
0.1754049031433724
 20
-0.0941380464041584
 10
0.1918603206952221
 20
-0.1002832715318322
 10
0.2090956574018486
 20
-0.1035943519548513
 10
0.2267701975617862
 20
-0.1039360103690445
 10
0.2442541381522932
 20
-0.1013036585071484
 10
0.2610856226285816
 20
-0.0957102065491425
 10
0.2767513291228134
 20
-0.0873497629489489
 10
0.294279708124521
 20
-0.073028894318478
  0
ARC
  5
11D
330
D6
100
AcDbEntity
  8
AM_9
100
AcDbCircle
 10
0.0000000000000011
 20
-0.000000000000032
 30
0.0
 40
1.574800000000032
100
AcDbArc
 50
90.23311640945566
 51
96.41679470347248
  0
ARC
  5
11E
330
D6
100
AcDbEntity
  8
AM_9
100
AcDbCircle
 10
-0.0000000000000012
 20
-0.0000000000000038
 30
0.0
 40
1.574800000000004
100
AcDbArc
 50
75.20140789884299
 51
90.0
  0
ARC
  5
11F
330
D6
100
AcDbEntity
  8
AM_9
100
AcDbCircle
 10
0.0000000000000383
 20
-0.0000000000005151
 30
0.0
 40
1.5747999999995
100
AcDbArc
 50
263.583205296524
 51
284.7985921011604
  0
LINE
  5
120
330
D6
100
AcDbEntity
  8
AM_9
100
AcDbLine
 10
-0.1759999999999997
 20
1.564934196699657
 30
0.0
 11
-0.1759999999999997
 21
-1.564934196699665
 31
0.0
  0
LINE
  5
121
330
D6
100
AcDbEntity
  8
AM_9
100
AcDbLine
 10
0.4022385665757888
 20
1.522563356829217
 30
0.0
 11
0.4022385665757888
 21
-1.522563356829226
 31
0.0
  0
LINE
  5
123
330
D6
100
AcDbEntity
  8
AM_5
100
AcDbLine
 10
-0.65625
 20
0.7499999999999999
 30
0.0
 11
-0.65625
 21
1.025
 31
0.0
  0
LINE
  5
124
330
D6
100
AcDbEntity
  8
AM_5
100
AcDbLine
 10
-0.96875
 20
0.7499999999999999
 30
0.0
 11
-0.96875
 21
1.025
 31
0.0
  0
LINE
  5
127
330
D6
100
AcDbEntity
  8
AM_7
100
AcDbLine
 10
0.2199999999999999
 20
-0.0263295454545424
 30
0.0
 11
0.2199999999999999
 21
0.0263295454545422
 31
0.0
  0
LINE
  5
128
330
D6
100
AcDbEntity
  8
AM_7
100
AcDbLine
 10
-1.287
 20
0.0
 30
0.0
 11
0.8469999999999999
 21
0.0
 31
0.0
  0
LINE
  5
129
330
D6
100
AcDbEntity
  8
AM_7
100
AcDbLine
 10
-0.8125
 20
1.051799563807954
 30
0.0
 11
-0.8125
 21
0.694764547779148
 31
0.0
  0
ELLIPSE
  5
12A
330
D6
100
AcDbEntity
  8
AM_4
100
AcDbEllipse
 10
-0.8125
 20
0.313178478714734
 30
0.0
 11
0.1261999999999998
 21
0.0
 31
0.0
210
0.0
220
0.0
230
1.0
 40
0.9063077870366484
 41
1.157266673846241
 42
1.984325979743553
  0
LWPOLYLINE
  5
12B
330
D6
100
AcDbEntity
  8
AM_4
100
AcDbPolyline
 90
        5
 70
     0
 43
0.0
 10
-0.8632127073045927
 20
0.4179135543687511
 10
-0.8816810052751223
 20
0.4094684150815873
 10
-0.8986683373662082
 20
0.3981239430251104
 10
-0.9127568588190329
 20
0.384771285839861
 10
-0.9231222215221705
 20
0.3709703470382112
  0
ELLIPSE
  5
12C
330
D6
100
AcDbEntity
  8
AM_4
100
AcDbEllipse
 10
-0.8125
 20
0.4249514101428962
 30
0.0
 11
0.1262
 21
0.0
 31
0.0
210
0.0
220
0.0
230
1.0
 40
0.9063077870366498
 41
3.141592653589793
 42
7.853981633974483
  0
LWPOLYLINE
  5
12D
330
D6
100
AcDbEntity
  8
AM_4
100
AcDbPolyline
 90
        6
 70
     0
 43
0.0
 10
-0.7014959917925149
 20
0.370359320059752
 10
-0.7033015699208733
 20
0.3731693866350651
 10
-0.7151707294899791
 20
0.3879469940933984
 10
-0.7301220393920035
 20
0.4010254421736237
 10
-0.745027747048185
 20
0.4103992802675118
 10
-0.7617872926954082
 20
0.4179135543687518
  0
ELLIPSE
  5
12E
330
D6
100
AcDbEntity
  8
AM_4
100
AcDbEllipse
 10
-0.8125
 20
0.4249514101428964
 30
0.0
 11
0.1261999999999999
 21
0.0
 31
0.0
210
0.0
220
0.0
230
1.0
 40
0.9063077870366496
 41
1.570796326794897
 42
3.141592653589793
  0
LINE
  5
12F
330
D6
100
AcDbEntity
  8
AM_4
100
AcDbLine
 10
0.709
 20
1.024999999999999
 30
0.0
 11
0.5395897642201529
 21
1.024999999999999
 31
0.0
  0
LINE
  5
130
330
D6
100
AcDbEntity
  8
AM_4
100
AcDbLine
 10
0.7499999999999999
 20
0.9839999999999998
 30
0.0
 11
0.709
 21
1.025
 31
0.0
  0
LINE
  5
131
330
D6
100
AcDbEntity
  8
AM_4
100
AcDbLine
 10
0.7181417269731013
 20
-1.015858273026899
 30
0.0
 11
0.7499999999999999
 21
-0.9839999999999998
 31
0.0
  0
LINE
  5
132
330
D6
100
AcDbEntity
  8
AM_4
100
AcDbLine
 10
0.709
 20
1.025
 30
0.0
 11
0.709
 21
-0.9113678555867833
 31
0.0
  0
LINE
  5
133
330
D6
100
AcDbEntity
  8
AM_4
100
AcDbLine
 10
0.7499999999999999
 20
0.9839999999999998
 30
0.0
 11
0.7499999999999999
 21
-0.9839999999999998
 31
0.0
  0
LWPOLYLINE
  5
134
330
D6
100
AcDbEntity
  8
AM_4
100
AcDbPolyline
 90
       39
 70
     0
 43
0.0
 10
-0.6669691821600464
 20
0.4275995592815832
 10
-0.6698695297863883
 20
0.4079416321390921
 10
-0.67631210391323
 20
0.3888273561044444
 10
-0.6860190267592976
 20
0.3709328640766226
 10
-0.6986450109420421
 20
0.3545664435697721
 10
-0.714670816651587
 20
0.3394588325960993
 10
-0.7330120294088805
 20
0.3268253747343177
 10
-0.7545549151991748
 20
0.3164402744665056
 10
-0.7775663455333436
 20
0.3094183209518493
 10
-0.8026200050620462
 20
0.3058891372281863
 10
-0.8279421026254264
 20
0.3063154425723863
 10
-0.8533263353730571
 20
0.3108673430249875
 10
-0.8775440082872362
 20
0.3194041100468916
 10
-0.8996919303001615
 20
0.3316540082437868
 10
-0.9192578457041041
 20
0.3472786967924644
 10
-0.934945089601883
 20
0.3651185513906368
 10
-0.9469940594030873
 20
0.3851318632332873
 10
-0.9544418172962621
 20
0.4052517827064921
 10
-0.9579383981470371
 20
0.4260691366329378
 10
-0.9574110228782176
 20
0.4456876159574323
 10
-0.9532620935730187
 20
0.4647598716088672
 10
-0.9457244580912654
 20
0.4825260512471
 10
-0.9350882701776976
 20
0.4988414148782703
 10
-0.9210941477139772
 20
0.5138745125014911
 10
-0.904568207726003
 20
0.5267109313504469
 10
-0.8846914626821392
 20
0.5377089073993994
 10
-0.8630296176078153
 20
0.5458349712973882
 10
-0.8388253435877777
 20
0.5511468475489524
 10
-0.8139207029691914
 20
0.5530681263403717
 10
-0.7882540383078662
 20
0.5514387787574461
 10
-0.7632700687182167
 20
0.5462147143115421
 10
-0.7396670795922897
 20
0.5374083028097668
 10
-0.7181994457299202
 20
0.5252064905605082
 10
-0.7000878219951006
 20
0.5102386877062806
 10
-0.6853336672343705
 20
0.4925661359141443
 10
-0.6751118241100637
 20
0.4738021334105186
 10
-0.6688284450176323
 20
0.4535199767323222
 10
-0.6670909995573032
 20
0.4406498318819032
 10
-0.6669691750064606
 20
0.4275995528559907
  0
LINE
  5
135
330
D6
100
AcDbEntity
  8
AM_4
100
AcDbLine
 10
-1.149
 20
-1.025
 30
0.0
 11
-0.7189415244482973
 21
-1.025
 31
0.0
  0
LINE
  5
136
330
D6
100
AcDbEntity
  8
AM_4
100
AcDbLine
 10
-0.5395897642201529
 20
1.025
 30
0.0
 11
-0.6668206994430081
 21
1.025
 31
0.0
  0
LINE
  5
137
330
D6
100
AcDbEntity
  8
AM_4
100
AcDbLine
 10
-0.9581793005569921
 20
1.025
 30
0.0
 11
-1.149
 21
1.025
 31
0.0
  0
LWPOLYLINE
  5
138
330
D6
100
AcDbEntity
  8
AM_4
100
AcDbPolyline
 90
       20
 70
     0
 43
0.0
 10
-0.666820699443061
 20
1.024999999999993
 10
-0.6685852765706383
 20
1.024781705247552
 10
-0.6737577453896979
 20
1.024156700000905
 10
-0.6824208804040882
 20
1.023159763226084
 10
-0.6941218800367263
 20
1.021912843512457
 10
-0.7089089785515964
 20
1.020501831319647
 10
-0.7266783349889175
 20
1.019051371377347
 10
-0.7470103415230332
 20
1.017722391864456
 10
-0.7697111675610255
 20
1.016658373092044
 10
-0.7941493461000726
 20
1.016010633951539
 10
-0.8193470849140728
 20
1.015884887700125
 10
-0.8450618440880048
 20
1.016324388593333
 10
-0.8694027446808645
 20
1.017267688714762
 10
-0.892788014232586
 20
1.018654615234964
 10
-0.9127902958501191
 20
1.020212111930195
 10
-0.9303745489995511
 20
1.02186175948765
 10
-0.9432121019463489
 20
1.023230485763763
 10
-0.9525518447591997
 20
1.024312841799484
 10
-0.9571883262512177
 20
1.024877089707173
 10
-0.9581793005567752
 20
1.024999999999973
  0
LINE
  5
139
330
D6
100
AcDbEntity
  8
AM_4
100
AcDbLine
 10
-1.19
 20
-0.9839999999999998
 30
0.0
 11
-1.149
 21
-1.025
 31
0.0
  0
LINE
  5
13A
330
D6
100
AcDbEntity
  8
AM_4
100
AcDbLine
 10
-1.149
 20
1.025
 30
0.0
 11
-1.19
 21
0.9839999999999998
 31
0.0
  0
LINE
  5
13B
330
D6
100
AcDbEntity
  8
AM_4
100
AcDbLine
 10
-1.19
 20
0.9839999999999998
 30
0.0
 11
-1.19
 21
-0.9839999999999998
 31
0.0
  0
LINE
  5
13C
330
D6
100
AcDbEntity
  8
AM_4
100
AcDbLine
 10
-1.149
 20
1.025
 30
0.0
 11
-1.149
 21
-1.025
 31
0.0
  0
ENDBLK
  5
D9
330
D6
100
AcDbEntity
  8
0
100
AcDbBlockEnd
  0
BLOCK
  5
13F
330
13D
100
AcDbEntity
  8
0
100
AcDbBlockBegin
  2
4_056565H_0_in_062874_2
 70
     2
 10
0.0
 20
0.0
 30
0.0
  3
4_056565H_0_in_062874_2
  1

  0
ATTDEF
  5
141
330
13D
100
AcDbEntity
  8
AM_6
100
AcDbText
 10
5.75
 20
1.87
 30
0.0
 40
0.5
  1
P2B-SCEZ-SH I-Housing
100
AcDbAttributeDefinition
  3

  2
NN
 70
     8
280
     0
  0
ATTDEF
  5
142
330
13D
100
AcDbEntity
  8
AM_6
100
AcDbText
 10
5.75
 20
1.37
 30
0.0
 40
0.5
  1
SC Pillow Block Bearings -(Normal Duty) -E-Z KLEEN
100
AcDbAttributeDefinition
  3

  2
NT
 70
     8
280
     0
  0
ATTDEF
  5
143
330
13D
100
AcDbEntity
  8
AM_6
100
AcDbText
 10
5.75
 20
0.8700000000000001
 30
0.0
 40
0.5
  1
056565H
100
AcDbAttributeDefinition
  3

  2
NB
 70
     8
280
     0
  0
ATTDEF
  5
144
330
13D
100
AcDbEntity
  8
AM_6
100
AcDbText
 10
5.75
 20
0.3700000000000001
 30
0.0
 40
0.5
  1
$PN.H
100
AcDbAttributeDefinition
  3

  2
NBSYN
 70
     8
280
     0
  0
ATTDEF
  5
145
330
13D
100
AcDbEntity
  8
AM_6
100
AcDbText
 10
5.75
 20
-0.1299999999999999
 30
0.0
 40
0.5
  1
056565
100
AcDbAttributeDefinition
  3

  2
LINA
 70
     8
280
     0
  0
ATTDEF
  5
146
330
13D
100
AcDbEntity
  8
AM_6
100
AcDbText
 10
5.75
 20
-0.6299999999999999
 30
0.0
 40
0.5
  1
208
100
AcDbAttributeDefinition
  3

  2
SERIES
 70
     8
280
     0
  0
ATTDEF
  5
147
330
13D
100
AcDbEntity
  8
AM_6
100
AcDbText
 10
5.75
 20
-1.13
 30
0.0
 40
0.5
  1
1-1/2
100
AcDbAttributeDefinition
  3

  2
SS
 70
     8
280
     0
  0
ATTDEF
  5
148
330
13D
100
AcDbEntity
  8
AM_6
100
AcDbText
 10
5.75
 20
-1.63
 30
0.0
 40
0.5
  1
056565
100
AcDbAttributeDefinition
  3

  2
PN
 70
     8
280
     0
  0
ATTDEF
  5
149
330
13D
100
AcDbEntity
  8
AM_6
100
AcDbText
 10
5.75
 20
-2.13
 30
0.0
 40
0.5
  1
P2B-SCEZ-108-SH
100
AcDbAttributeDefinition
  3

  2
DESCRIPTION
 70
     8
280
     0
  0
ATTDEF
  5
14A
330
13D
100
AcDbEntity
  8
AM_6
100
AcDbText
 10
5.75
 20
-2.63
 30
0.0
 40
0.5
  1
1.94
100
AcDbAttributeDefinition
  3

  2
A
 70
     8
280
     0
  0
ATTDEF
  5
14B
330
13D
100
AcDbEntity
  8
AM_6
100
AcDbText
 10
5.75
 20
-3.13
 30
0.0
 40
0.5
  1
7.00
100
AcDbAttributeDefinition
  3

  2
B
 70
     8
280
     0
  0
ATTDEF
  5
14C
330
13D
100
AcDbEntity
  8
AM_6
100
AcDbText
 10
5.75
 20
-3.63
 30
0.0
 40
0.5
  1
1.50
100
AcDbAttributeDefinition
  3

  2
C
 70
     8
280
     0
  0
ATTDEF
  5
14D
330
13D
100
AcDbEntity
  8
AM_6
100
AcDbText
 10
5.75
 20
-4.13
 30
0.0
 40
0.5
  1
5.18
100
AcDbAttributeDefinition
  3

  2
DMIN
 70
     8
280
     0
  0
ATTDEF
  5
14E
330
13D
100
AcDbEntity
  8
AM_6
100
AcDbText
 10
5.75
 20
-4.63
 30
0.0
 40
0.5
  1
6.00
100
AcDbAttributeDefinition
  3

  2
DMAX
 70
     8
280
     0
  0
ATTDEF
  5
14F
330
13D
100
AcDbEntity
  8
AM_6
100
AcDbText
 10
5.75
 20
-5.13
 30
0.0
 40
0.5
  1
1/2
100
AcDbAttributeDefinition
  3

  2
F
 70
     8
280
     0
  0
ATTDEF
  5
150
330
13D
100
AcDbEntity
  8
AM_6
100
AcDbText
 10
5.75
 20
-5.63
 30
0.0
 40
0.5
  1
0.97
100
AcDbAttributeDefinition
  3

  2
G
 70
     8
280
     0
  0
ATTDEF
  5
151
330
13D
100
AcDbEntity
  8
AM_6
100
AcDbText
 10
5.75
 20
-6.13
 30
0.0
 40
0.5
  1
0.75
100
AcDbAttributeDefinition
  3

  2
H
 70
     8
280
     0
  0
ATTDEF
  5
152
330
13D
100
AcDbEntity
  8
AM_6
100
AcDbText
 10
5.75
 20
-6.63
 30
0.0
 40
0.5
  1
4.00
100
AcDbAttributeDefinition
  3

  2
J
 70
     8
280
     0
  0
ATTDEF
  5
153
330
13D
100
AcDbEntity
  8
AM_6
100
AcDbText
 10
5.75
 20
-7.13
 30
0.0
 40
0.5
  1
2.05
100
AcDbAttributeDefinition
  3

  2
L
 70
     8
280
     0
  0
ATTDEF
  5
154
330
13D
100
AcDbEntity
  8
AM_6
100
AcDbText
 10
5.75
 20
-7.63
 30
0.0
 40
0.5
  1
2.13
100
AcDbAttributeDefinition
  3

  2
M
 70
     8
280
     0
  0
ATTDEF
  5
155
330
13D
100
AcDbEntity
  8
AM_6
100
AcDbText
 10
5.75
 20
-8.129999999999999
 30
0.0
 40
0.5
  1
0.75
100
AcDbAttributeDefinition
  3

  2
R
 70
     8
280
     0
  0
ATTDEF
  5
156
330
13D
100
AcDbEntity
  8
AM_6
100
AcDbText
 10
5.75
 20
-8.629999999999999
 30
0.0
 40
0.5
  1
1.19
100
AcDbAttributeDefinition
  3

  2
S
 70
     8
280
     0
  0
ATTDEF
  5
157
330
13D
100
AcDbEntity
  8
AM_6
100
AcDbText
 10
5.75
 20
-9.129999999999999
 30
0.0
 40
0.5
  1
baldor
100
AcDbAttributeDefinition
  3

  2
COMPANY
 70
     8
280
     0
  0
LINE
  5
158
330
13D
100
AcDbEntity
  8
AM_9
100
AcDbLine
 10
-0.6297250750082317
 20
-1.98
 30
0.0
 11
0.6297250750082318
 21
-1.98
 31
0.0
  0
LINE
  5
159
330
13D
100
AcDbEntity
  8
AM_9
100
AcDbLine
 10
0.6297250750082318
 20
-1.98
 30
0.0
 11
0.6297250750082318
 21
-0.7499999999999999
 31
0.0
  0
LINE
  5
15A
330
13D
100
AcDbEntity
  8
AM_9
100
AcDbLine
 10
-0.6297250750082317
 20
-1.98
 30
0.0
 11
-0.6297250750082317
 21
-0.8802840450672723
 31
0.0
  0
LINE
  5
15B
330
13D
100
AcDbEntity
  8
AM_9
100
AcDbLine
 10
-0.2250000000000001
 20
0.7499999999999999
 30
0.0
 11
0.5636491466897817
 21
0.7499999999999999
 31
0.0
  0
LINE
  5
15C
330
13D
100
AcDbEntity
  8
AM_9
100
AcDbLine
 10
-0.2250000000000001
 20
-0.7499999999999999
 30
0.0
 11
0.67439438057402
 21
-0.7499999999999999
 31
0.0
  0
LINE
  5
15D
330
13D
100
AcDbEntity
  8
AM_9
100
AcDbLine
 10
-0.7499999999999998
 20
-2.100274924991768
 30
0.0
 11
-0.6297250750082317
 21
-1.98
 31
0.0
  0
LINE
  5
15E
330
13D
100
AcDbEntity
  8
AM_9
100
AcDbLine
 10
0.6743943805740201
 20
-0.7499999999999991
 30
0.0
 11
0.6918075320649255
 21
-0.7148570478753415
 31
0.0
  0
LINE
  5
15F
330
13D
100
AcDbEntity
  8
AM_9
100
AcDbLine
 10
0.6297250750082318
 20
-1.98
 30
0.0
 11
0.7500000000000001
 21
-2.100274924991769
 31
0.0
  0
LINE
  5
160
330
13D
100
AcDbEntity
  8
AM_9
100
AcDbLine
 10
-0.4330499999999999
 20
-1.5748
 30
0.0
 11
0.6297250750082317
 21
-1.5748
 31
0.0
  0
LINE
  5
161
330
13D
100
AcDbEntity
  8
AM_9
100
AcDbLine
 10
0.4914884970135997
 20
1.5748
 30
0.0
 11
-0.4330499999999999
 21
1.5748
 31
0.0
  0
LINE
  5
162
330
13D
100
AcDbEntity
  8
AM_9
100
AcDbLine
 10
-0.2250000000000001
 20
-0.7499999999999999
 30
0.0
 11
-0.2250000000000001
 21
0.7499999999999999
 31
0.0
  0
LINE
  5
163
330
13D
100
AcDbEntity
  8
AM_9
100
AcDbLine
 10
-0.6959912621125266
 20
-0.7626773011400431
 30
0.0
 11
-0.629725075008232
 21
-0.8802840450672725
 31
0.0
  0
LINE
  5
164
330
13D
100
AcDbEntity
  8
AM_9
100
AcDbLine
 10
-0.6297250750082316
 20
-1.6748
 30
0.0
 11
-0.4330499999999999
 21
-1.6748
 31
0.0
  0
LINE
  5
165
330
13D
100
AcDbEntity
  8
AM_9
100
AcDbLine
 10
-0.4330499999999999
 20
1.6748
 30
0.0
 11
-0.4827396306610079
 21
1.6748
 31
0.0
  0
LINE
  5
166
330
13D
100
AcDbEntity
  8
AM_9
100
AcDbLine
 10
-0.4330499999999999
 20
1.6748
 30
0.0
 11
-0.4330499999999999
 21
-1.6748
 31
0.0
  0
LINE
  5
167
330
13D
100
AcDbEntity
  8
AM_9
100
AcDbLine
 10
0.28
 20
-1.38
 30
0.0
 11
0.28
 21
-2.13
 31
0.0
  0
LINE
  5
168
330
13D
100
AcDbEntity
  8
AM_9
100
AcDbLine
 10
-0.2799999999999997
 20
-1.38
 30
0.0
 11
-0.2799999999999997
 21
-2.13
 31
0.0
  0
LINE
  5
169
330
13D
100
AcDbEntity
  8
AM_4
100
AcDbLine
 10
0.4656618435407467
 20
1.87
 30
0.0
 11
-0.4656618435407473
 21
1.87
 31
0.0
  0
LINE
  5
16A
330
13D
100
AcDbEntity
  8
AM_4
100
AcDbLine
 10
-0.6292656443342249
 20
-0.0000000000000003
 30
0.0
 11
0.629265644334225
 21
-0.0000000000000003
 31
0.0
  0
LINE
  5
16B
330
13D
100
AcDbEntity
  8
AM_4
100
AcDbLine
 10
0.7500000000000003
 20
-1.38
 30
0.0
 11
0.465661843540747
 21
1.87
 31
0.0
  0
LINE
  5
16C
330
13D
100
AcDbEntity
  8
AM_4
100
AcDbLine
 10
-0.7434383502355556
 20
-1.304999999999999
 30
0.0
 11
0.7434383502355559
 21
-1.304999999999999
 31
0.0
  0
LINE
  5
16D
330
13D
100
AcDbEntity
  8
AM_4
100
AcDbLine
 10
-0.4656618435407473
 20
1.87
 30
0.0
 11
-0.7499999999999998
 21
-1.379999999999998
 31
0.0
  0
LINE
  5
16E
330
13D
100
AcDbEntity
  8
AM_4
100
AcDbLine
 10
-0.5624999999999998
 20
-1.455
 30
0.0
 11
0.5625000000000002
 21
-1.455
 31
0.0
  0
LINE
  5
16F
330
13D
100
AcDbEntity
  8
AM_4
100
AcDbLine
 10
0.5625000000000002
 20
-1.455
 30
0.0
 11
0.5625000000000002
 21
-2.13
 31
0.0
  0
LINE
  5
170
330
13D
100
AcDbEntity
  8
AM_4
100
AcDbLine
 10
-0.7499999999999998
 20
-2.13
 30
0.0
 11
0.7500000000000001
 21
-2.13
 31
0.0
  0
LINE
  5
171
330
13D
100
AcDbEntity
  8
AM_4
100
AcDbLine
 10
0.7500000000000001
 20
-1.38
 30
0.0
 11
0.7500000000000001
 21
-2.13
 31
0.0
  0
LINE
  5
172
330
13D
100
AcDbEntity
  8
AM_4
100
AcDbLine
 10
-0.7499999999999998
 20
-1.38
 30
0.0
 11
0.7500000000000001
 21
-1.38
 31
0.0
  0
LWPOLYLINE
  5
173
330
13D
100
AcDbEntity
  8
AM_4
100
AcDbPolyline
 90
       19
 70
     0
 43
0.0
 10
0.5625000000000004
 20
-1.455
 10
0.5627853976431195
 20
-1.448463319293926
 10
0.5636394185240848
 20
-1.44197638667498
 10
0.5650555630283203
 20
-1.435588571617311
 10
0.5670230534410573
 20
-1.429348489250575
 10
0.5695269159722517
 20
-1.423303630369447
 10
0.5725480947161675
 20
-1.4175
 10
0.5760635966783261
 20
-1.411981767273671
 10
0.5800466667660771
 20
-1.406790929273509
 10
0.5844669914110093
 20
-1.401966991411009
 10
0.58929092927351
 20
-1.397546666766077
 10
0.594481767273672
 20
-1.393563596678326
 10
0.6000000000000003
 20
-1.390048094716167
 10
0.6058036303694478
 20
-1.387026915972251
 10
0.6118484892505752
 20
-1.384523053441057
 10
0.6180885716173112
 20
-1.38255556302832
 10
0.6244763866749806
 20
-1.381139418524084
 10
0.6309633192939259
 20
-1.380285397643119
 10
0.6375000000000004
 20
-1.38
  0
LINE
  5
174
330
13D
100
AcDbEntity
  8
AM_4
100
AcDbLine
 10
-0.7499999999999998
 20
-1.38
 30
0.0
 11
-0.7499999999999998
 21
-2.13
 31
0.0
  0
LINE
  5
175
330
13D
100
AcDbEntity
  8
AM_4
100
AcDbLine
 10
-0.5624999999999998
 20
-1.455
 30
0.0
 11
-0.5624999999999998
 21
-2.13
 31
0.0
  0
LWPOLYLINE
  5
176
330
13D
100
AcDbEntity
  8
AM_4
100
AcDbPolyline
 90
       19
 70
     0
 43
0.0
 10
-0.6375
 20
-1.38
 10
-0.6309633192939256
 20
-1.380285397643119
 10
-0.6244763866749801
 20
-1.381139418524084
 10
-0.6180885716173109
 20
-1.38255556302832
 10
-0.6118484892505748
 20
-1.384523053441056
 10
-0.6058036303694474
 20
-1.387026915972251
 10
-0.5999999999999999
 20
-1.390048094716167
 10
-0.5944817672736714
 20
-1.393563596678325
 10
-0.5892909292735095
 20
-1.397546666766076
 10
-0.5844669914110089
 20
-1.401966991411009
 10
-0.5800466667660765
 20
-1.406790929273509
 10
-0.5760635966783255
 20
-1.411981767273671
 10
-0.572548094716167
 20
-1.4175
 10
-0.5695269159722511
 20
-1.423303630369447
 10
-0.5670230534410566
 20
-1.429348489250575
 10
-0.5650555630283197
 20
-1.43558857161731
 10
-0.5636394185240842
 20
-1.44197638667498
 10
-0.5627853976431189
 20
-1.448463319293925
 10
-0.5624999999999998
 20
-1.455
  0
ENDBLK
  5
140
330
13D
100
AcDbEntity
  8
0
100
AcDbBlockEnd
  0
ENDSEC
  0
SECTION
  2
ENTITIES
  0
INSERT
  5
6F
330
1F
100
AcDbEntity
  8
0
100
AcDbBlockReference
  2
1_062874_2
 10
0.0
 20
0.0
 30
0.0
  0
POINT
  5
178
330
1F
100
AcDbEntity
  8
ConnectionPoints
100
AcDbPoint
 10
0.75
 20
0.0
 30
0.0
  0
POINT
  5
179
330
1F
100
AcDbEntity
  8
ConnectionPoints
100
AcDbPoint
 10
-1.19
 20
0.0
 30
0.0000000000000001
  0
POINT
  5
17A
330
1F
100
AcDbEntity
  8
ConnectionPoints
100
AcDbPoint
 10
-0.1082624999999999
 20
1.322289680818844
 30
1.322289680818844
  0
POINT
  5
17B
330
1F
100
AcDbEntity
  8
ConnectionPoints
100
AcDbPoint
 10
-1.19
 20
0.0
 30
0.0000000000000001
  0
ENDSEC
  0
SECTION
  2
OBJECTS
  0
DICTIONARY
  5
C
330
0
100
AcDbDictionary
281
     1
  3
ACAD_DETAILVIEWSTYLE
350
183
  3
ACAD_GROUP
350
D
  3
ACAD_LAYOUT
350
1A
  3
ACAD_MATERIAL
350
43
  3
ACAD_MLEADERSTYLE
350
6B
  3
ACAD_MLINESTYLE
350
17
  3
ACAD_PLOTSETTINGS
350
19
  3
ACAD_PLOTSTYLENAME
350
E
  3
ACAD_SCALELIST
350
47
  3
ACAD_SECTIONVIEWSTYLE
350
184
  3
ACAD_TABLESTYLE
350
69
  3
ACAD_VISUALSTYLE
350
2A
  3
ACDB_RECOMPOSE_DATA
350
180
  3
AcDbVariableDictionary
350
17C
  0
SUN
  5
6D
330
29
100
AcDbSun
 90
        1
290
     0
 63
     7
421
 16777215
 40
1.0
291
     1
 91
  2455826
 92
 54000000
292
     0
 70
     2
 71
   256
280
     1
  0
DICTIONARY
  5
183
102
{ACAD_REACTORS
330
C
102
}
330
C
100
AcDbDictionary
281
     1
  0
DICTIONARY
  5
D
102
{ACAD_REACTORS
330
C
102
}
330
C
100
AcDbDictionary
281
     1
  0
DICTIONARY
  5
1A
102
{ACAD_REACTORS
330
C
102
}
330
C
100
AcDbDictionary
281
     1
  3
Layout1
350
1E
  3
Layout2
350
26
  3
Model
350
22
  0
DICTIONARY
  5
43
102
{ACAD_REACTORS
330
C
102
}
330
C
100
AcDbDictionary
281
     1
  3
ByBlock
350
45
  3
ByLayer
350
44
  3
Global
350
46
  0
DICTIONARY
  5
6B
102
{ACAD_REACTORS
330
C
102
}
330
C
100
AcDbDictionary
281
     1
  3
Standard
350
6C
  0
DICTIONARY
  5
17
102
{ACAD_REACTORS
330
C
102
}
330
C
100
AcDbDictionary
281
     1
  3
Standard
350
18
  0
DICTIONARY
  5
19
102
{ACAD_REACTORS
330
C
102
}
330
C
100
AcDbDictionary
281
     1
  0
ACDBDICTIONARYWDFLT
  5
E
102
{ACAD_REACTORS
330
C
102
}
330
C
100
AcDbDictionary
281
     1
  3
Normal
350
F
100
AcDbDictionaryWithDefault
340
F
  0
DICTIONARY
  5
47
102
{ACAD_REACTORS
330
C
102
}
330
C
100
AcDbDictionary
281
     1
  3
A0
350
48
  3
A1
350
49
  3
A2
350
4A
  3
A3
350
4B
  3
A4
350
4C
  3
A5
350
4D
  3
A6
350
4E
  3
A7
350
4F
  3
A8
350
50
  3
A9
350
51
  3
B0
350
52
  3
B1
350
53
  3
B2
350
54
  3
B3
350
55
  3
B4
350
56
  3
B5
350
57
  3
B6
350
58
  3
B7
350
59
  3
B8
350
5A
  3
B9
350
5B
  3
C0
350
5C
  3
C1
350
5D
  3
C2
350
5E
  3
C3
350
5F
  3
C4
350
60
  3
C5
350
61
  3
C6
350
62
  3
C7
350
63
  3
C8
350
64
  3
C9
350
65
  3
D0
350
66
  3
D1
350
67
  3
D2
350
68
  0
DICTIONARY
  5
184
102
{ACAD_REACTORS
330
C
102
}
330
C
100
AcDbDictionary
281
     1
  0
DICTIONARY
  5
69
102
{ACAD_REACTORS
330
C
102
}
330
C
100
AcDbDictionary
281
     1
  3
Standard
350
6A
  0
DICTIONARY
  5
2A
102
{ACAD_REACTORS
330
C
102
}
330
C
100
AcDbDictionary
281
     1
  3
2dWireframe
350
2F
  3
Basic
350
32
  3
Brighten
350
36
  3
ColorChange
350
3A
  3
Conceptual
350
34
  3
Dim
350
35
  3
EdgeColorOff
350
3D
  3
Facepattern
350
39
  3
Flat
350
2B
  3
FlatWithEdges
350
2C
  3
Gouraud
350
2D
  3
GouraudWithEdges
350
2E
  3
Hidden
350
31
  3
JitterOff
350
3B
  3
Linepattern
350
38
  3
OverhangOff
350
3C
  3
Realistic
350
33
  3
Shaded
350
42
  3
Shaded with edges
350
41
  3
Shades of Gray
350
3E
  3
Sketchy
350
3F
  3
Thicken
350
37
  3
Wireframe
350
30
  3
X-Ray
350
40
  0
XRECORD
  5
180
102
{ACAD_REACTORS
330
C
102
}
330
C
100
AcDbXrecord
280
     1
 90
        1
330
6A
  0
DICTIONARY
  5
17C
102
{ACAD_REACTORS
330
C
102
}
330
C
100
AcDbDictionary
281
     1
  3
CANNOSCALE
350
17D
  3
CMLEADERSTYLE
350
182
  3
CTABLESTYLE
350
181
  0
LAYOUT
  5
1E
102
{ACAD_REACTORS
330
1A
102
}
330
1A
100
AcDbPlotSettings
  1

  2
none_device
  4

  6

 40
0.0
 41
0.0
 42
0.0
 43
0.0
 44
0.0
 45
0.0
 46
0.0
 47
0.0
 48
0.0
 49
0.0
140
0.0
141
0.0
142
1.0
143
1.0
 70
   688
 72
     0
 73
     0
 74
     5
  7

 75
    16
 76
     0
 77
     2
 78
   300
147
1.0
148
0.0
149
0.0
100
AcDbLayout
  1
Layout1
 70
     1
 71
     1
 10
0.0
 20
0.0
 11
12.0
 21
9.0
 12
0.0
 22
0.0
 32
0.0
 14
1.000000000000000E+20
 24
1.000000000000000E+20
 34
1.000000000000000E+20
 15
-1.000000000000000E+20
 25
-1.000000000000000E+20
 35
-1.000000000000000E+20
146
0.0
 13
0.0
 23
0.0
 33
0.0
 16
1.0
 26
0.0
 36
0.0
 17
0.0
 27
1.0
 37
0.0
 76
     0
330
1B
  0
LAYOUT
  5
26
102
{ACAD_REACTORS
330
1A
102
}
330
1A
100
AcDbPlotSettings
  1

  2
none_device
  4

  6

 40
0.0
 41
0.0
 42
0.0
 43
0.0
 44
0.0
 45
0.0
 46
0.0
 47
0.0
 48
0.0
 49
0.0
140
0.0
141
0.0
142
1.0
143
1.0
 70
   688
 72
     0
 73
     0
 74
     5
  7

 75
    16
 76
     0
 77
     2
 78
   300
147
1.0
148
0.0
149
0.0
100
AcDbLayout
  1
Layout2
 70
     1
 71
     2
 10
0.0
 20
0.0
 11
0.0
 21
0.0
 12
0.0
 22
0.0
 32
0.0
 14
0.0
 24
0.0
 34
0.0
 15
0.0
 25
0.0
 35
0.0
146
0.0
 13
0.0
 23
0.0
 33
0.0
 16
1.0
 26
0.0
 36
0.0
 17
0.0
 27
1.0
 37
0.0
 76
     0
330
23
  0
LAYOUT
  5
22
102
{ACAD_REACTORS
330
1A
102
}
330
1A
100
AcDbPlotSettings
  1

  2
none_device
  4
Letter_(8.50_x_11.00_Inches)
  6

 40
6.35
 41
6.35
 42
6.35000508
 43
6.35000508
 44
215.9
 45
279.4
 46
0.0
 47
0.0
 48
0.0
 49
0.0
140
0.0
141
0.0
142
1.0
143
1.0
 70
  1712
 72
     0
 73
     0
 74
     0
  7

 75
     0
 76
     0
 77
     2
 78
   300
147
1.0
148
0.0
149
0.0
100
AcDbLayout
  1
Model
 70
     1
 71
     0
 10
0.0
 20
0.0
 11
12.0
 21
9.0
 12
0.0
 22
0.0
 32
0.0
 14
1.000000000000000E+20
 24
1.000000000000000E+20
 34
1.000000000000000E+20
 15
-1.000000000000000E+20
 25
-1.000000000000000E+20
 35
-1.000000000000000E+20
146
0.0
 13
0.0
 23
0.0
 33
0.0
 16
1.0
 26
0.0
 36
0.0
 17
0.0
 27
1.0
 37
0.0
 76
     0
330
1F
331
29
  0
MATERIAL
  5
45
102
{ACAD_REACTORS
330
43
102
}
330
43
100
AcDbMaterial
  1
ByBlock
 72
     1
 94
      127
  0
MATERIAL
  5
44
102
{ACAD_REACTORS
330
43
102
}
330
43
100
AcDbMaterial
  1
ByLayer
 72
     1
 94
      127
  0
MATERIAL
  5
46
102
{ACAD_REACTORS
330
43
102
}
330
43
100
AcDbMaterial
  1
Global
 72
     1
 94
      127
  0
MLEADERSTYLE
  5
6C
102
{ACAD_REACTORS
330
6B
102
}
330
6B
100
AcDbMLeaderStyle
179
     2
170
     2
171
     1
172
     0
 90
        2
 40
0.0
 41
0.0
173
     1
 91
-1056964608
340
14
 92
       -2
290
     1
 42
0.09
291
     1
 43
0.36
  3
Standard
341
0
 44
0.18
300

342
11
174
     1
178
     6
175
     1
176
     0
 93
-1056964608
 45
0.18
292
     0
297
     0
 46
0.18
343
0
 94
-1056964608
 47
1.0
 49
1.0
140
1.0
293
     1
141
0.0
294
     1
177
     0
142
1.0
295
     0
296
     0
143
0.125
271
     0
272
     9
273
     9
298
     0
  0
MLINESTYLE
  5
18
102
{ACAD_REACTORS
330
17
102
}
330
17
100
AcDbMlineStyle
  2
Standard
 70
     0
  3

 62
   256
 51
90.0
 52
90.0
 71
     2
 49
0.5
 62
   256
  6
BYLAYER
 49
-0.5
 62
   256
  6
BYLAYER
  0
ACDBPLACEHOLDER
  5
F
102
{ACAD_REACTORS
330
E
102
}
330
E
  0
SCALE
  5
48
102
{ACAD_REACTORS
330
47
102
}
330
47
100
AcDbScale
 70
     0
300
1:1
140
1.0
141
1.0
290
     1
  0
SCALE
  5
49
102
{ACAD_REACTORS
330
47
102
}
330
47
100
AcDbScale
 70
     0
300
1:2
140
1.0
141
2.0
290
     0
  0
SCALE
  5
4A
102
{ACAD_REACTORS
330
47
102
}
330
47
100
AcDbScale
 70
     0
300
1:4
140
1.0
141
4.0
290
     0
  0
SCALE
  5
4B
102
{ACAD_REACTORS
330
47
102
}
330
47
100
AcDbScale
 70
     0
300
1:5
140
1.0
141
5.0
290
     0
  0
SCALE
  5
4C
102
{ACAD_REACTORS
330
47
102
}
330
47
100
AcDbScale
 70
     0
300
1:8
140
1.0
141
8.0
290
     0
  0
SCALE
  5
4D
102
{ACAD_REACTORS
330
47
102
}
330
47
100
AcDbScale
 70
     0
300
1:10
140
1.0
141
10.0
290
     0
  0
SCALE
  5
4E
102
{ACAD_REACTORS
330
47
102
}
330
47
100
AcDbScale
 70
     0
300
1:16
140
1.0
141
16.0
290
     0
  0
SCALE
  5
4F
102
{ACAD_REACTORS
330
47
102
}
330
47
100
AcDbScale
 70
     0
300
1:20
140
1.0
141
20.0
290
     0
  0
SCALE
  5
50
102
{ACAD_REACTORS
330
47
102
}
330
47
100
AcDbScale
 70
     0
300
1:30
140
1.0
141
30.0
290
     0
  0
SCALE
  5
51
102
{ACAD_REACTORS
330
47
102
}
330
47
100
AcDbScale
 70
     0
300
1:40
140
1.0
141
40.0
290
     0
  0
SCALE
  5
52
102
{ACAD_REACTORS
330
47
102
}
330
47
100
AcDbScale
 70
     0
300
1:50
140
1.0
141
50.0
290
     0
  0
SCALE
  5
53
102
{ACAD_REACTORS
330
47
102
}
330
47
100
AcDbScale
 70
     0
300
1:100
140
1.0
141
100.0
290
     0
  0
SCALE
  5
54
102
{ACAD_REACTORS
330
47
102
}
330
47
100
AcDbScale
 70
     0
300
2:1
140
2.0
141
1.0
290
     0
  0
SCALE
  5
55
102
{ACAD_REACTORS
330
47
102
}
330
47
100
AcDbScale
 70
     0
300
4:1
140
4.0
141
1.0
290
     0
  0
SCALE
  5
56
102
{ACAD_REACTORS
330
47
102
}
330
47
100
AcDbScale
 70
     0
300
8:1
140
8.0
141
1.0
290
     0
  0
SCALE
  5
57
102
{ACAD_REACTORS
330
47
102
}
330
47
100
AcDbScale
 70
     0
300
10:1
140
10.0
141
1.0
290
     0
  0
SCALE
  5
58
102
{ACAD_REACTORS
330
47
102
}
330
47
100
AcDbScale
 70
     0
300
100:1
140
100.0
141
1.0
290
     0
  0
SCALE
  5
59
102
{ACAD_REACTORS
330
47
102
}
330
47
100
AcDbScale
 70
     0
300
1/128" = 1'-0"
140
0.0078125
141
12.0
290
     0
  0
SCALE
  5
5A
102
{ACAD_REACTORS
330
47
102
}
330
47
100
AcDbScale
 70
     0
300
1/64" = 1'-0"
140
0.015625
141
12.0
290
     0
  0
SCALE
  5
5B
102
{ACAD_REACTORS
330
47
102
}
330
47
100
AcDbScale
 70
     0
300
1/32" = 1'-0"
140
0.03125
141
12.0
290
     0
  0
SCALE
  5
5C
102
{ACAD_REACTORS
330
47
102
}
330
47
100
AcDbScale
 70
     0
300
1/16" = 1'-0"
140
0.0625
141
12.0
290
     0
  0
SCALE
  5
5D
102
{ACAD_REACTORS
330
47
102
}
330
47
100
AcDbScale
 70
     0
300
3/32" = 1'-0"
140
0.09375
141
12.0
290
     0
  0
SCALE
  5
5E
102
{ACAD_REACTORS
330
47
102
}
330
47
100
AcDbScale
 70
     0
300
1/8" = 1'-0"
140
0.125
141
12.0
290
     0
  0
SCALE
  5
5F
102
{ACAD_REACTORS
330
47
102
}
330
47
100
AcDbScale
 70
     0
300
3/16" = 1'-0"
140
0.1875
141
12.0
290
     0
  0
SCALE
  5
60
102
{ACAD_REACTORS
330
47
102
}
330
47
100
AcDbScale
 70
     0
300
1/4" = 1'-0"
140
0.25
141
12.0
290
     0
  0
SCALE
  5
61
102
{ACAD_REACTORS
330
47
102
}
330
47
100
AcDbScale
 70
     0
300
3/8" = 1'-0"
140
0.375
141
12.0
290
     0
  0
SCALE
  5
62
102
{ACAD_REACTORS
330
47
102
}
330
47
100
AcDbScale
 70
     0
300
1/2" = 1'-0"
140
0.5
141
12.0
290
     0
  0
SCALE
  5
63
102
{ACAD_REACTORS
330
47
102
}
330
47
100
AcDbScale
 70
     0
300
3/4" = 1'-0"
140
0.75
141
12.0
290
     0
  0
SCALE
  5
64
102
{ACAD_REACTORS
330
47
102
}
330
47
100
AcDbScale
 70
     0
300
1" = 1'-0"
140
1.0
141
12.0
290
     0
  0
SCALE
  5
65
102
{ACAD_REACTORS
330
47
102
}
330
47
100
AcDbScale
 70
     0
300
1-1/2" = 1'-0"
140
1.5
141
12.0
290
     0
  0
SCALE
  5
66
102
{ACAD_REACTORS
330
47
102
}
330
47
100
AcDbScale
 70
     0
300
3" = 1'-0"
140
3.0
141
12.0
290
     0
  0
SCALE
  5
67
102
{ACAD_REACTORS
330
47
102
}
330
47
100
AcDbScale
 70
     0
300
6" = 1'-0"
140
6.0
141
12.0
290
     0
  0
SCALE
  5
68
102
{ACAD_REACTORS
330
47
102
}
330
47
100
AcDbScale
 70
     0
300
1'-0" = 1'-0"
140
12.0
141
12.0
290
     0
  0
TABLESTYLE
  5
6A
102
{ACAD_REACTORS
330
69
102
}
102
{ACAD_XDICTIONARY
360
17E
102
}
330
69
100
AcDbTableStyle
  3
Standard
 70
     0
 71
     0
 40
0.06
 41
0.06
280
     0
281
     0
  7
Standard
140
0.18
170
     2
 62
     0
 63
   257
283
     0
 90
        4
 91
        0
  1

274
    -2
284
     1
 64
     0
275
    -2
285
     1
 65
     0
276
    -2
286
     1
 66
     0
277
    -2
287
     1
 67
     0
278
    -2
288
     1
 68
     0
279
    -2
289
     1
 69
     0
  7
Standard
140
0.25
170
     5
 62
     0
 63
   257
283
     0
 90
        4
 91
        0
  1

274
    -2
284
     1
 64
     0
275
    -2
285
     1
 65
     0
276
    -2
286
     1
 66
     0
277
    -2
287
     1
 67
     0
278
    -2
288
     1
 68
     0
279
    -2
289
     1
 69
     0
  7
Standard
140
0.18
170
     5
 62
     0
 63
   257
283
     0
 90
        4
 91
        0
  1

274
    -2
284
     1
 64
     0
275
    -2
285
     1
 65
     0
276
    -2
286
     1
 66
     0
277
    -2
287
     1
 67
     0
278
    -2
288
     1
 68
     0
279
    -2
289
     1
 69
     0
  0
VISUALSTYLE
  5
2F
102
{ACAD_REACTORS
330
2A
102
}
330
2A
100
AcDbVisualStyle
  2
2dWireframe
 70
     4
177
     3
291
     0
 70
    58
 90
        0
176
     1
 90
        2
176
     1
 90
        0
176
     1
 90
        0
176
     1
 40
0.6
176
     1
 40
30.0
176
     1
 62
     7
420
 16777215
176
     1
 90
        1
176
     1
 90
        4
176
     1
 62
     7
176
     1
 62
   257
176
     1
 90
        1
176
     1
 90
        1
176
     1
 40
1.0
176
     1
 90
        0
176
     1
 62
   257
176
     1
 40
1.0
176
     1
 90
        1
176
     1
 90
        6
176
     1
 90
        2
176
     1
 62
     7
176
     1
 90
        5
176
     1
 90
        0
176
     1
 90
        0
176
     1
290
     0
176
     1
 90
        1
176
     1
 40
0.0
176
     1
 90
        0
176
     1
290
     1
176
     1
290
     1
176
     1
290
     0
176
     1
290
     0
176
     1
290
     0
176
     1
290
     0
176
     1
290
     0
176
     1
290
     0
176
     1
290
     0
176
     1
 90
       50
176
     1
 40
0.0
176
     1
 40
1.0
176
     1
 90
        0
176
     1
 62
    18
420
        0
176
     1
 90
       50
176
     1
 90
        3
176
     1
 62
     5
420
      255
176
     1
290
     0
176
     1
 90
       50
176
     1
 90
       50
176
     1
 90
       50
176
     1
290
     0
176
     1
 90
       50
176
     1
 62
   256
176
     0
 40
1.0
176
     0
 90
        2
176
     1
  1
strokes_ogs.tif
176
     1
290
     0
176
     1
 40
1.0
176
     1
 40
1.0
176
     1
  0
VISUALSTYLE
  5
32
102
{ACAD_REACTORS
330
2A
102
}
330
2A
100
AcDbVisualStyle
  2
Basic
 70
     7
177
     3
291
     1
 70
    58
 90
        1
176
     1
 90
        0
176
     1
 90
        1
176
     1
 90
        0
176
     1
 40
0.6
176
     1
 40
30.0
176
     1
 62
     7
420
 16777215
176
     1
 90
        0
176
     1
 90
        4
176
     1
 62
     7
176
     1
 62
   257
176
     1
 90
        1
176
     1
 90
        1
176
     1
 40
1.0
176
     1
 90
        8
176
     1
 62
     7
176
     1
 40
1.0
176
     1
 90
        1
176
     1
 90
        6
176
     1
 90
        2
176
     1
 62
     7
176
     1
 90
        5
176
     1
 90
        0
176
     1
 90
        0
176
     1
290
     0
176
     1
 90
        1
176
     1
 40
0.0
176
     1
 90
        0
176
     1
290
     0
176
     1
290
     1
176
     1
290
     1
176
     1
290
     0
176
     1
290
     0
176
     1
290
     0
176
     1
290
     0
176
     1
290
     0
176
     1
290
     0
176
     1
 90
       50
176
     1
 40
0.0
176
     1
 40
1.0
176
     1
 90
        0
176
     1
 62
    18
420
        0
176
     1
 90
       50
176
     1
 90
        3
176
     1
 62
     5
420
      255
176
     1
290
     0
176
     1
 90
       50
176
     1
 90
       50
176
     1
 90
       50
176
     1
290
     0
176
     1
 90
       50
176
     1
 62
   256
176
     0
 40
1.0
176
     0
 90
        2
176
     1
  1
strokes_ogs.tif
176
     1
290
     0
176
     1
 40
1.0
176
     1
 40
1.0
176
     1
  0
VISUALSTYLE
  5
36
102
{ACAD_REACTORS
330
2A
102
}
330
2A
100
AcDbVisualStyle
  2
Brighten
 70
    12
177
     3
291
     1
 70
    58
 90
        2
176
     1
 90
        2
176
     1
 90
        0
176
     1
 90
        0
176
     1
 40
0.6
176
     1
 40
30.0
176
     1
 62
     7
420
 16777215
176
     1
 90
        1
176
     1
 90
        4
176
     1
 62
     7
176
     1
 62
   257
176
     1
 90
        1
176
     1
 90
        1
176
     1
 40
1.0
176
     1
 90
        8
176
     1
 62
     7
176
     1
 40
1.0
176
     1
 90
        1
176
     1
 90
        6
176
     1
 90
        2
176
     1
 62
     7
176
     1
 90
        5
176
     1
 90
        0
176
     1
 90
        0
176
     1
290
     0
176
     1
 90
        1
176
     1
 40
50.0
176
     1
 90
        0
176
     1
290
     0
176
     1
290
     1
176
     1
290
     1
176
     1
290
     0
176
     1
290
     0
176
     1
290
     0
176
     1
290
     0
176
     1
290
     0
176
     1
290
     0
176
     1
 90
       50
176
     1
 40
0.0
176
     1
 40
1.0
176
     1
 90
        0
176
     1
 62
    18
420
        0
176
     1
 90
       50
176
     1
 90
        3
176
     1
 62
     5
420
      255
176
     1
290
     0
176
     1
 90
       50
176
     1
 90
       50
176
     1
 90
       50
176
     1
290
     0
176
     1
 90
       50
176
     1
 62
   256
176
     0
 40
1.0
176
     0
 90
        2
176
     1
  1
strokes_ogs.tif
176
     1
290
     0
176
     1
 40
1.0
176
     1
 40
1.0
176
     1
  0
VISUALSTYLE
  5
3A
102
{ACAD_REACTORS
330
2A
102
}
330
2A
100
AcDbVisualStyle
  2
ColorChange
 70
    16
177
     3
291
     1
 70
    58
 90
        2
176
     1
 90
        2
176
     1
 90
        3
176
     1
 90
        0
176
     1
 40
0.6
176
     1
 40
30.0
176
     1
 62
     8
420
  8421504
176
     1
 90
        1
176
     1
 90
        4
176
     1
 62
     7
176
     1
 62
   257
176
     1
 90
        1
176
     1
 90
        1
176
     1
 40
1.0
176
     1
 90
        8
176
     1
 62
     8
420
  8421504
176
     1
 40
1.0
176
     1
 90
        1
176
     1
 90
        6
176
     1
 90
        2
176
     1
 62
     7
176
     1
 90
        5
176
     1
 90
        0
176
     1
 90
        0
176
     1
290
     0
176
     1
 90
        1
176
     1
 40
0.0
176
     1
 90
        0
176
     1
290
     0
176
     1
290
     1
176
     1
290
     1
176
     1
290
     0
176
     1
290
     0
176
     1
290
     0
176
     1
290
     0
176
     1
290
     0
176
     1
290
     0
176
     1
 90
       50
176
     1
 40
0.0
176
     1
 40
1.0
176
     1
 90
        0
176
     1
 62
    18
420
        0
176
     1
 90
       50
176
     1
 90
        3
176
     1
 62
     5
420
      255
176
     1
290
     0
176
     1
 90
       50
176
     1
 90
       50
176
     1
 90
       50
176
     1
290
     0
176
     1
 90
       50
176
     1
 62
   256
176
     0
 40
1.0
176
     0
 90
        2
176
     1
  1
strokes_ogs.tif
176
     1
290
     0
176
     1
 40
1.0
176
     1
 40
1.0
176
     1
  0
VISUALSTYLE
  5
34
102
{ACAD_REACTORS
330
2A
102
}
330
2A
100
AcDbVisualStyle
  2
Conceptual
 70
     9
177
     3
291
     0
 70
    58
 90
        3
176
     1
 90
        2
176
     1
 90
        0
176
     1
 90
        0
176
     1
 40
0.6
176
     1
 40
30.0
176
     1
 62
     7
420
 16777215
176
     1
 90
        2
176
     1
 90
        2
176
     1
 62
     7
176
     1
 62
   257
176
     1
 90
        1
176
     1
 90
        1
176
     1
 40
179.0
176
     1
 90
        8
176
     1
 62
     7
176
     1
 40
1.0
176
     1
 90
        1
176
     1
 90
        6
176
     1
 90
        2
176
     1
 62
     7
176
     1
 90
        3
176
     1
 90
        0
176
     1
 90
        0
176
     1
290
     0
176
     1
 90
        1
176
     1
 40
0.0
176
     1
 90
        0
176
     1
290
     0
176
     1
290
     1
176
     1
290
     1
176
     1
290
     0
176
     1
290
     0
176
     1
290
     0
176
     1
290
     0
176
     1
290
     0
176
     1
290
     0
176
     1
 90
       50
176
     1
 40
0.0
176
     1
 40
1.0
176
     1
 90
        0
176
     1
 62
    18
420
        0
176
     1
 90
       50
176
     1
 90
        3
176
     1
 62
     5
420
      255
176
     1
290
     0
176
     1
 90
       50
176
     1
 90
       50
176
     1
 90
       50
176
     1
290
     0
176
     1
 90
       50
176
     1
 62
   256
176
     0
 40
1.0
176
     0
 90
        2
176
     1
  1
strokes_ogs.tif
176
     1
290
     0
176
     1
 40
1.0
176
     1
 40
1.0
176
     1
  0
VISUALSTYLE
  5
35
102
{ACAD_REACTORS
330
2A
102
}
330
2A
100
AcDbVisualStyle
  2
Dim
 70
    11
177
     3
291
     1
 70
    58
 90
        2
176
     1
 90
        2
176
     1
 90
        0
176
     1
 90
        0
176
     1
 40
0.6
176
     1
 40
30.0
176
     1
 62
     7
420
 16777215
176
     1
 90
        1
176
     1
 90
        4
176
     1
 62
     7
176
     1
 62
   257
176
     1
 90
        1
176
     1
 90
        1
176
     1
 40
1.0
176
     1
 90
        8
176
     1
 62
     7
176
     1
 40
1.0
176
     1
 90
        1
176
     1
 90
        6
176
     1
 90
        2
176
     1
 62
     7
176
     1
 90
        5
176
     1
 90
        0
176
     1
 90
        0
176
     1
290
     0
176
     1
 90
        1
176
     1
 40
-50.0
176
     1
 90
        0
176
     1
290
     0
176
     1
290
     1
176
     1
290
     1
176
     1
290
     0
176
     1
290
     0
176
     1
290
     0
176
     1
290
     0
176
     1
290
     0
176
     1
290
     0
176
     1
 90
       50
176
     1
 40
0.0
176
     1
 40
1.0
176
     1
 90
        0
176
     1
 62
    18
420
        0
176
     1
 90
       50
176
     1
 90
        3
176
     1
 62
     5
420
      255
176
     1
290
     0
176
     1
 90
       50
176
     1
 90
       50
176
     1
 90
       50
176
     1
290
     0
176
     1
 90
       50
176
     1
 62
   256
176
     0
 40
1.0
176
     0
 90
        2
176
     1
  1
strokes_ogs.tif
176
     1
290
     0
176
     1
 40
1.0
176
     1
 40
1.0
176
     1
  0
VISUALSTYLE
  5
3D
102
{ACAD_REACTORS
330
2A
102
}
330
2A
100
AcDbVisualStyle
  2
EdgeColorOff
 70
    22
177
     3
291
     1
 70
    58
 90
        2
176
     0
 90
        2
176
     0
 90
        0
176
     0
 90
        0
176
     0
 40
0.6
176
     0
 40
30.0
176
     0
 62
     7
420
 16777215
176
     0
 90
        1
176
     0
 90
        4
176
     0
 62
     7
176
     0
 62
   257
176
     0
 90
        1
176
     0
 90
        1
176
     0
 40
1.0
176
     0
 90
        8
176
     2
 62
     7
176
     0
 40
1.0
176
     0
 90
        1
176
     0
 90
        6
176
     0
 90
        2
176
     0
 62
     7
176
     0
 90
        5
176
     0
 90
        0
176
     0
 90
        0
176
     0
290
     0
176
     0
 90
        1
176
     0
 40
0.0
176
     0
 90
        0
176
     0
290
     0
176
     0
290
     1
176
     0
290
     1
176
     0
290
     0
176
     0
290
     0
176
     0
290
     0
176
     0
290
     0
176
     0
290
     0
176
     0
290
     0
176
     0
 90
       50
176
     0
 40
0.0
176
     0
 40
1.0
176
     0
 90
        0
176
     0
 62
    18
420
        0
176
     0
 90
       50
176
     0
 90
        3
176
     0
 62
     5
420
      255
176
     0
290
     0
176
     0
 90
       50
176
     0
 90
       50
176
     0
 90
       50
176
     0
290
     0
176
     0
 90
       50
176
     0
 62
   256
176
     0
 40
1.0
176
     0
 90
        2
176
     0
  1
strokes_ogs.tif
176
     0
290
     0
176
     0
 40
1.0
176
     0
 40
1.0
176
     0
  0
VISUALSTYLE
  5
39
102
{ACAD_REACTORS
330
2A
102
}
330
2A
100
AcDbVisualStyle
  2
Facepattern
 70
    15
177
     3
291
     1
 70
    58
 90
        2
176
     1
 90
        2
176
     1
 90
        0
176
     1
 90
        0
176
     1
 40
0.6
176
     1
 40
30.0
176
     1
 62
     7
420
 16777215
176
     1
 90
        1
176
     1
 90
        4
176
     1
 62
     7
176
     1
 62
   257
176
     1
 90
        1
176
     1
 90
        1
176
     1
 40
1.0
176
     1
 90
        8
176
     1
 62
     7
176
     1
 40
1.0
176
     1
 90
        1
176
     1
 90
        6
176
     1
 90
        2
176
     1
 62
     7
176
     1
 90
        5
176
     1
 90
        0
176
     1
 90
        0
176
     1
290
     0
176
     1
 90
        1
176
     1
 40
0.0
176
     1
 90
        0
176
     1
290
     0
176
     1
290
     1
176
     1
290
     1
176
     1
290
     0
176
     1
290
     0
176
     1
290
     0
176
     1
290
     0
176
     1
290
     0
176
     1
290
     0
176
     1
 90
       50
176
     1
 40
0.0
176
     1
 40
1.0
176
     1
 90
        0
176
     1
 62
    18
420
        0
176
     1
 90
       50
176
     1
 90
        3
176
     1
 62
     5
420
      255
176
     1
290
     0
176
     1
 90
       50
176
     1
 90
       50
176
     1
 90
       50
176
     1
290
     0
176
     1
 90
       50
176
     1
 62
   256
176
     0
 40
1.0
176
     0
 90
        2
176
     1
  1
strokes_ogs.tif
176
     1
290
     0
176
     1
 40
1.0
176
     1
 40
1.0
176
     1
  0
VISUALSTYLE
  5
2B
102
{ACAD_REACTORS
330
2A
102
}
330
2A
100
AcDbVisualStyle
  2
Flat
 70
     0
177
     3
291
     1
 70
    58
 90
        2
176
     1
 90
        1
176
     1
 90
        1
176
     1
 90
        2
176
     1
 40
0.6
176
     1
 40
30.0
176
     1
 62
     7
420
 16777215
176
     1
 90
        0
176
     1
 90
        0
176
     1
 62
     7
176
     1
 62
   257
176
     1
 90
        1
176
     1
 90
        1
176
     1
 40
1.0
176
     1
 90
        8
176
     1
 62
     7
176
     1
 40
1.0
176
     1
 90
        1
176
     1
 90
        6
176
     1
 90
        2
176
     1
 62
     7
176
     1
 90
        5
176
     1
 90
        0
176
     1
 90
        0
176
     1
290
     0
176
     1
 90
       13
176
     1
 40
0.0
176
     1
 90
        0
176
     1
290
     0
176
     1
290
     1
176
     1
290
     1
176
     1
290
     0
176
     1
290
     0
176
     1
290
     0
176
     1
290
     0
176
     1
290
     0
176
     1
290
     0
176
     1
 90
       50
176
     1
 40
0.0
176
     1
 40
1.0
176
     1
 90
        0
176
     1
 62
    18
420
        0
176
     1
 90
       50
176
     1
 90
        3
176
     1
 62
     5
420
      255
176
     1
290
     0
176
     1
 90
       50
176
     1
 90
       50
176
     1
 90
       50
176
     1
290
     0
176
     1
 90
       50
176
     1
 62
   256
176
     0
 40
1.0
176
     0
 90
        2
176
     1
  1
strokes_ogs.tif
176
     1
290
     0
176
     1
 40
1.0
176
     1
 40
1.0
176
     1
  0
VISUALSTYLE
  5
2C
102
{ACAD_REACTORS
330
2A
102
}
330
2A
100
AcDbVisualStyle
  2
FlatWithEdges
 70
     1
177
     3
291
     1
 70
    58
 90
        2
176
     1
 90
        1
176
     1
 90
        1
176
     1
 90
        2
176
     1
 40
0.6
176
     1
 40
30.0
176
     1
 62
     7
420
 16777215
176
     1
 90
        1
176
     1
 90
        0
176
     1
 62
     7
176
     1
 62
   257
176
     1
 90
        1
176
     1
 90
        1
176
     1
 40
1.0
176
     1
 90
        0
176
     1
 62
   257
176
     1
 40
1.0
176
     1
 90
        1
176
     1
 90
        6
176
     1
 90
        2
176
     1
 62
     7
176
     1
 90
        5
176
     1
 90
        0
176
     1
 90
        0
176
     1
290
     0
176
     1
 90
       13
176
     1
 40
0.0
176
     1
 90
        0
176
     1
290
     0
176
     1
290
     1
176
     1
290
     1
176
     1
290
     0
176
     1
290
     0
176
     1
290
     0
176
     1
290
     0
176
     1
290
     0
176
     1
290
     0
176
     1
 90
       50
176
     1
 40
0.0
176
     1
 40
1.0
176
     1
 90
        0
176
     1
 62
    18
420
        0
176
     1
 90
       50
176
     1
 90
        3
176
     1
 62
     5
420
      255
176
     1
290
     0
176
     1
 90
       50
176
     1
 90
       50
176
     1
 90
       50
176
     1
290
     0
176
     1
 90
       50
176
     1
 62
   256
176
     0
 40
1.0
176
     0
 90
        2
176
     1
  1
strokes_ogs.tif
176
     1
290
     0
176
     1
 40
1.0
176
     1
 40
1.0
176
     1
  0
VISUALSTYLE
  5
2D
102
{ACAD_REACTORS
330
2A
102
}
330
2A
100
AcDbVisualStyle
  2
Gouraud
 70
     2
177
     3
291
     1
 70
    58
 90
        2
176
     1
 90
        2
176
     1
 90
        1
176
     1
 90
        2
176
     1
 40
0.6
176
     1
 40
30.0
176
     1
 62
     7
420
 16777215
176
     1
 90
        0
176
     1
 90
        0
176
     1
 62
     7
176
     1
 62
   257
176
     1
 90
        1
176
     1
 90
        1
176
     1
 40
1.0
176
     1
 90
        0
176
     1
 62
     7
176
     1
 40
1.0
176
     1
 90
        1
176
     1
 90
        6
176
     1
 90
        2
176
     1
 62
     7
176
     1
 90
        5
176
     1
 90
        0
176
     1
 90
        0
176
     1
290
     0
176
     1
 90
       13
176
     1
 40
0.0
176
     1
 90
        0
176
     1
290
     0
176
     1
290
     1
176
     1
290
     1
176
     1
290
     0
176
     1
290
     0
176
     1
290
     0
176
     1
290
     0
176
     1
290
     0
176
     1
290
     0
176
     1
 90
       50
176
     1
 40
0.0
176
     1
 40
1.0
176
     1
 90
        0
176
     1
 62
    18
420
        0
176
     1
 90
       50
176
     1
 90
        3
176
     1
 62
     5
420
      255
176
     1
290
     0
176
     1
 90
       50
176
     1
 90
       50
176
     1
 90
       50
176
     1
290
     0
176
     1
 90
       50
176
     1
 62
   256
176
     0
 40
1.0
176
     0
 90
        2
176
     1
  1
strokes_ogs.tif
176
     1
290
     0
176
     1
 40
1.0
176
     1
 40
1.0
176
     1
  0
VISUALSTYLE
  5
2E
102
{ACAD_REACTORS
330
2A
102
}
330
2A
100
AcDbVisualStyle
  2
GouraudWithEdges
 70
     3
177
     3
291
     1
 70
    58
 90
        2
176
     1
 90
        2
176
     1
 90
        1
176
     1
 90
        2
176
     1
 40
0.6
176
     1
 40
30.0
176
     1
 62
     7
420
 16777215
176
     1
 90
        1
176
     1
 90
        0
176
     1
 62
     7
176
     1
 62
   257
176
     1
 90
        1
176
     1
 90
        1
176
     1
 40
1.0
176
     1
 90
        0
176
     1
 62
   257
176
     1
 40
1.0
176
     1
 90
        1
176
     1
 90
        6
176
     1
 90
        2
176
     1
 62
     7
176
     1
 90
        5
176
     1
 90
        0
176
     1
 90
        0
176
     1
290
     0
176
     1
 90
       13
176
     1
 40
0.0
176
     1
 90
        0
176
     1
290
     0
176
     1
290
     1
176
     1
290
     1
176
     1
290
     0
176
     1
290
     0
176
     1
290
     0
176
     1
290
     0
176
     1
290
     0
176
     1
290
     0
176
     1
 90
       50
176
     1
 40
0.0
176
     1
 40
1.0
176
     1
 90
        0
176
     1
 62
    18
420
        0
176
     1
 90
       50
176
     1
 90
        3
176
     1
 62
     5
420
      255
176
     1
290
     0
176
     1
 90
       50
176
     1
 90
       50
176
     1
 90
       50
176
     1
290
     0
176
     1
 90
       50
176
     1
 62
   256
176
     0
 40
1.0
176
     0
 90
        2
176
     1
  1
strokes_ogs.tif
176
     1
290
     0
176
     1
 40
1.0
176
     1
 40
1.0
176
     1
  0
VISUALSTYLE
  5
31
102
{ACAD_REACTORS
330
2A
102
}
330
2A
100
AcDbVisualStyle
  2
Hidden
 70
     6
177
     3
291
     0
 70
    58
 90
        1
176
     1
 90
        2
176
     1
 90
        2
176
     1
 90
        0
176
     1
 40
0.6
176
     1
 40
30.0
176
     1
 62
     7
420
 16777215
176
     1
 90
        2
176
     1
 90
        2
176
     1
 62
     7
176
     1
 62
   257
176
     1
 90
        2
176
     1
 90
        1
176
     1
 40
40.0
176
     1
 90
        0
176
     1
 62
   257
176
     1
 40
1.0
176
     1
 90
        1
176
     1
 90
        6
176
     1
 90
        2
176
     1
 62
     7
176
     1
 90
        3
176
     1
 90
        0
176
     1
 90
        0
176
     1
290
     0
176
     1
 90
        1
176
     1
 40
0.0
176
     1
 90
        0
176
     1
290
     0
176
     1
290
     1
176
     1
290
     1
176
     1
290
     0
176
     1
290
     0
176
     1
290
     0
176
     1
290
     0
176
     1
290
     0
176
     1
290
     0
176
     1
 90
       50
176
     1
 40
0.0
176
     1
 40
1.0
176
     1
 90
        0
176
     1
 62
    18
420
        0
176
     1
 90
       50
176
     1
 90
        3
176
     1
 62
     5
420
      255
176
     1
290
     0
176
     1
 90
       50
176
     1
 90
       50
176
     1
 90
       50
176
     1
290
     0
176
     1
 90
       50
176
     1
 62
   256
176
     0
 40
1.0
176
     0
 90
        2
176
     1
  1
strokes_ogs.tif
176
     1
290
     0
176
     1
 40
1.0
176
     1
 40
1.0
176
     1
  0
VISUALSTYLE
  5
3B
102
{ACAD_REACTORS
330
2A
102
}
330
2A
100
AcDbVisualStyle
  2
JitterOff
 70
    20
177
     3
291
     1
 70
    58
 90
        2
176
     0
 90
        2
176
     0
 90
        0
176
     0
 90
        0
176
     0
 40
0.6
176
     0
 40
30.0
176
     0
 62
     7
420
 16777215
176
     0
 90
        1
176
     0
 90
        4
176
     0
 62
     7
176
     0
 62
   257
176
     0
 90
        1
176
     0
 90
        1
176
     0
 40
1.0
176
     0
 90
       10
176
     2
 62
     7
176
     0
 40
1.0
176
     0
 90
        1
176
     0
 90
        6
176
     0
 90
        2
176
     0
 62
     7
176
     0
 90
        5
176
     0
 90
        0
176
     0
 90
        0
176
     0
290
     0
176
     0
 90
        1
176
     0
 40
0.0
176
     0
 90
        0
176
     0
290
     0
176
     0
290
     1
176
     0
290
     1
176
     0
290
     0
176
     0
290
     0
176
     0
290
     0
176
     0
290
     0
176
     0
290
     0
176
     0
290
     0
176
     0
 90
       50
176
     0
 40
0.0
176
     0
 40
1.0
176
     0
 90
        0
176
     0
 62
    18
420
        0
176
     0
 90
       50
176
     0
 90
        3
176
     0
 62
     5
420
      255
176
     0
290
     0
176
     0
 90
       50
176
     0
 90
       50
176
     0
 90
       50
176
     0
290
     0
176
     0
 90
       50
176
     0
 62
   256
176
     0
 40
1.0
176
     0
 90
        2
176
     0
  1
strokes_ogs.tif
176
     0
290
     0
176
     0
 40
1.0
176
     0
 40
1.0
176
     0
  0
VISUALSTYLE
  5
38
102
{ACAD_REACTORS
330
2A
102
}
330
2A
100
AcDbVisualStyle
  2
Linepattern
 70
    14
177
     3
291
     1
 70
    58
 90
        2
176
     1
 90
        2
176
     1
 90
        0
176
     1
 90
        0
176
     1
 40
0.6
176
     1
 40
30.0
176
     1
 62
     7
420
 16777215
176
     1
 90
        1
176
     1
 90
        4
176
     1
 62
     7
176
     1
 62
   257
176
     1
 90
        7
176
     1
 90
        7
176
     1
 40
1.0
176
     1
 90
        8
176
     1
 62
     7
176
     1
 40
1.0
176
     1
 90
        1
176
     1
 90
        6
176
     1
 90
        2
176
     1
 62
     7
176
     1
 90
        5
176
     1
 90
        0
176
     1
 90
        0
176
     1
290
     0
176
     1
 90
        1
176
     1
 40
0.0
176
     1
 90
        0
176
     1
290
     0
176
     1
290
     1
176
     1
290
     1
176
     1
290
     0
176
     1
290
     0
176
     1
290
     0
176
     1
290
     0
176
     1
290
     0
176
     1
290
     0
176
     1
 90
       50
176
     1
 40
0.0
176
     1
 40
1.0
176
     1
 90
        0
176
     1
 62
    18
420
        0
176
     1
 90
       50
176
     1
 90
        3
176
     1
 62
     5
420
      255
176
     1
290
     0
176
     1
 90
       50
176
     1
 90
       50
176
     1
 90
       50
176
     1
290
     0
176
     1
 90
       50
176
     1
 62
   256
176
     0
 40
1.0
176
     0
 90
        2
176
     1
  1
strokes_ogs.tif
176
     1
290
     0
176
     1
 40
1.0
176
     1
 40
1.0
176
     1
  0
VISUALSTYLE
  5
3C
102
{ACAD_REACTORS
330
2A
102
}
330
2A
100
AcDbVisualStyle
  2
OverhangOff
 70
    21
177
     3
291
     1
 70
    58
 90
        2
176
     0
 90
        2
176
     0
 90
        0
176
     0
 90
        0
176
     0
 40
0.6
176
     0
 40
30.0
176
     0
 62
     7
420
 16777215
176
     0
 90
        1
176
     0
 90
        4
176
     0
 62
     7
176
     0
 62
   257
176
     0
 90
        1
176
     0
 90
        1
176
     0
 40
1.0
176
     0
 90
        9
176
     2
 62
     7
176
     0
 40
1.0
176
     0
 90
        1
176
     0
 90
        6
176
     0
 90
        2
176
     0
 62
     7
176
     0
 90
        5
176
     0
 90
        0
176
     0
 90
        0
176
     0
290
     0
176
     0
 90
        1
176
     0
 40
0.0
176
     0
 90
        0
176
     0
290
     0
176
     0
290
     1
176
     0
290
     1
176
     0
290
     0
176
     0
290
     0
176
     0
290
     0
176
     0
290
     0
176
     0
290
     0
176
     0
290
     0
176
     0
 90
       50
176
     0
 40
0.0
176
     0
 40
1.0
176
     0
 90
        0
176
     0
 62
    18
420
        0
176
     0
 90
       50
176
     0
 90
        3
176
     0
 62
     5
420
      255
176
     0
290
     0
176
     0
 90
       50
176
     0
 90
       50
176
     0
 90
       50
176
     0
290
     0
176
     0
 90
       50
176
     0
 62
   256
176
     0
 40
1.0
176
     0
 90
        2
176
     0
  1
strokes_ogs.tif
176
     0
290
     0
176
     0
 40
1.0
176
     0
 40
1.0
176
     0
  0
VISUALSTYLE
  5
33
102
{ACAD_REACTORS
330
2A
102
}
330
2A
100
AcDbVisualStyle
  2
Realistic
 70
     8
177
     3
291
     0
 70
    58
 90
        2
176
     1
 90
        3
176
     1
 90
        0
176
     1
 90
        2
176
     1
 40
0.6
176
     1
 40
30.0
176
     1
 62
     7
420
 16777215
176
     1
 90
        0
176
     1
 90
        0
176
     1
 62
     7
176
     1
 62
   257
176
     1
 90
        1
176
     1
 90
        1
176
     1
 40
1.0
176
     1
 90
        8
176
     1
 62
   257
176
     1
 40
1.0
176
     1
 90
        1
176
     1
 90
        6
176
     1
 90
        2
176
     1
 62
     7
176
     1
 90
        3
176
     1
 90
        0
176
     1
 90
        0
176
     1
290
     0
176
     1
 90
       13
176
     1
 40
0.0
176
     1
 90
        0
176
     1
290
     0
176
     1
290
     1
176
     1
290
     1
176
     1
290
     0
176
     1
290
     0
176
     1
290
     0
176
     1
290
     0
176
     1
290
     0
176
     1
290
     0
176
     1
 90
       50
176
     1
 40
0.0
176
     1
 40
1.0
176
     1
 90
        0
176
     1
 62
    18
420
        0
176
     1
 90
       50
176
     1
 90
        3
176
     1
 62
     5
420
      255
176
     1
290
     0
176
     1
 90
       50
176
     1
 90
       50
176
     1
 90
       50
176
     1
290
     0
176
     1
 90
       50
176
     1
 62
   256
176
     0
 40
1.0
176
     0
 90
        2
176
     1
  1
strokes_ogs.tif
176
     1
290
     0
176
     1
 40
1.0
176
     1
 40
1.0
176
     1
  0
VISUALSTYLE
  5
42
102
{ACAD_REACTORS
330
2A
102
}
330
2A
100
AcDbVisualStyle
  2
Shaded
 70
    27
177
     3
291
     0
 70
    58
 90
        2
176
     1
 90
        2
176
     1
 90
        1
176
     1
 90
        2
176
     1
 40
0.6
176
     1
 40
30.0
176
     1
 62
     7
420
 16777215
176
     1
 90
        0
176
     1
 90
        4
176
     1
 62
     7
176
     1
 62
   257
176
     1
 90
        1
176
     1
 90
        1
176
     1
 40
1.0
176
     1
 90
        8
176
     1
 62
   257
176
     1
 40
1.0
176
     1
 90
        1
176
     1
 90
        6
176
     1
 90
        2
176
     1
 62
     8
420
  7895160
176
     1
 90
        3
176
     1
 90
        0
176
     1
 90
        0
176
     1
290
     0
176
     1
 90
        5
176
     1
 40
0.0
176
     1
 90
        0
176
     1
290
     0
176
     1
290
     1
176
     1
290
     1
176
     1
290
     0
176
     1
290
     0
176
     1
290
     0
176
     1
290
     0
176
     1
290
     0
176
     1
290
     0
176
     1
 90
       50
176
     1
 40
0.0
176
     1
 40
1.0
176
     1
 90
        0
176
     1
 62
    18
420
        0
176
     1
 90
       50
176
     1
 90
        3
176
     1
 62
     5
420
      255
176
     1
290
     0
176
     1
 90
       50
176
     1
 90
       50
176
     1
 90
       50
176
     1
290
     0
176
     1
 90
       50
176
     1
 62
   256
176
     0
 40
1.0
176
     0
 90
        2
176
     1
  1
strokes_ogs.tif
176
     1
290
     0
176
     1
 40
1.0
176
     1
 40
1.0
176
     1
  0
VISUALSTYLE
  5
41
102
{ACAD_REACTORS
330
2A
102
}
330
2A
100
AcDbVisualStyle
  2
Shaded with edges
 70
    26
177
     3
291
     0
 70
    58
 90
        2
176
     1
 90
        2
176
     1
 90
        1
176
     1
 90
        2
176
     1
 40
0.6
176
     1
 40
30.0
176
     1
 62
     7
420
 16777215
176
     1
 90
        1
176
     1
 90
       10
176
     1
 62
     7
176
     1
 62
   257
176
     1
 90
        2
176
     1
 90
        1
176
     1
 40
1.0
176
     1
 90
        8
176
     1
 62
   257
176
     1
 40
1.0
176
     1
 90
        1
176
     1
 90
        6
176
     1
 90
        2
176
     1
 62
     7
176
     1
 90
        3
176
     1
 90
        0
176
     1
 90
        0
176
     1
290
     0
176
     1
 90
        5
176
     1
 40
0.0
176
     1
 90
        0
176
     1
290
     0
176
     1
290
     1
176
     1
290
     1
176
     1
290
     0
176
     1
290
     0
176
     1
290
     0
176
     1
290
     0
176
     1
290
     0
176
     1
290
     0
176
     1
 90
       50
176
     1
 40
0.0
176
     1
 40
1.0
176
     1
 90
        0
176
     1
 62
    18
420
        0
176
     1
 90
       50
176
     1
 90
        3
176
     1
 62
     5
420
      255
176
     1
290
     0
176
     1
 90
       50
176
     1
 90
       50
176
     1
 90
       50
176
     1
290
     0
176
     1
 90
       50
176
     1
 62
   256
176
     0
 40
1.0
176
     0
 90
        2
176
     1
  1
strokes_ogs.tif
176
     1
290
     0
176
     1
 40
1.0
176
     1
 40
1.0
176
     1
  0
VISUALSTYLE
  5
3E
102
{ACAD_REACTORS
330
2A
102
}
330
2A
100
AcDbVisualStyle
  2
Shades of Gray
 70
    23
177
     3
291
     0
 70
    58
 90
        2
176
     1
 90
        2
176
     1
 90
        3
176
     1
 90
        0
176
     1
 40
0.6
176
     1
 40
30.0
176
     1
 62
     7
420
 16777215
176
     1
 90
        2
176
     1
 90
        2
176
     1
 62
     7
176
     1
 62
     7
176
     1
 90
        1
176
     1
 90
        1
176
     1
 40
40.0
176
     1
 90
        8
176
     1
 62
     7
176
     1
 40
1.0
176
     1
 90
        1
176
     1
 90
        6
176
     1
 90
        2
176
     1
 62
     7
176
     1
 90
        3
176
     1
 90
        0
176
     1
 90
        0
176
     1
290
     0
176
     1
 90
        1
176
     1
 40
0.0
176
     1
 90
        0
176
     1
290
     0
176
     1
290
     1
176
     1
290
     1
176
     1
290
     0
176
     1
290
     0
176
     1
290
     0
176
     1
290
     0
176
     1
290
     0
176
     1
290
     0
176
     1
 90
       50
176
     1
 40
0.0
176
     1
 40
1.0
176
     1
 90
        0
176
     1
 62
    18
420
        0
176
     1
 90
       50
176
     1
 90
        3
176
     1
 62
     5
420
      255
176
     1
290
     0
176
     1
 90
       50
176
     1
 90
       50
176
     1
 90
       50
176
     1
290
     0
176
     1
 90
       50
176
     1
 62
   256
176
     0
 40
1.0
176
     0
 90
        2
176
     1
  1
strokes_ogs.tif
176
     1
290
     0
176
     1
 40
1.0
176
     1
 40
1.0
176
     1
  0
VISUALSTYLE
  5
3F
102
{ACAD_REACTORS
330
2A
102
}
330
2A
100
AcDbVisualStyle
  2
Sketchy
 70
    24
177
     3
291
     0
 70
    58
 90
        1
176
     1
 90
        2
176
     1
 90
        2
176
     1
 90
        0
176
     1
 40
0.6
176
     1
 40
30.0
176
     1
 62
     7
420
 16777215
176
     1
 90
        2
176
     1
 90
        2
176
     1
 62
     7
176
     1
 62
     7
176
     1
 90
        1
176
     1
 90
        1
176
     1
 40
40.0
176
     1
 90
       11
176
     1
 62
     7
176
     1
 40
1.0
176
     1
 90
        1
176
     1
 90
        6
176
     1
 90
        2
176
     1
 62
     7
176
     1
 90
        6
176
     1
 90
        0
176
     1
 90
        0
176
     1
290
     0
176
     1
 90
        1
176
     1
 40
0.0
176
     1
 90
        0
176
     1
290
     0
176
     1
290
     1
176
     1
290
     1
176
     1
290
     0
176
     1
290
     0
176
     1
290
     0
176
     1
290
     0
176
     1
290
     0
176
     1
290
     0
176
     1
 90
       50
176
     1
 40
0.0
176
     1
 40
1.0
176
     1
 90
        0
176
     1
 62
    18
420
        0
176
     1
 90
       50
176
     1
 90
        3
176
     1
 62
     5
420
      255
176
     1
290
     0
176
     1
 90
       50
176
     1
 90
       50
176
     1
 90
       50
176
     1
290
     0
176
     1
 90
       50
176
     1
 62
   256
176
     0
 40
1.0
176
     0
 90
        2
176
     1
  1
strokes_ogs.tif
176
     1
290
     0
176
     1
 40
1.0
176
     1
 40
1.0
176
     1
  0
VISUALSTYLE
  5
37
102
{ACAD_REACTORS
330
2A
102
}
330
2A
100
AcDbVisualStyle
  2
Thicken
 70
    13
177
     3
291
     1
 70
    58
 90
        2
176
     1
 90
        2
176
     1
 90
        0
176
     1
 90
        0
176
     1
 40
0.6
176
     1
 40
30.0
176
     1
 62
     7
420
 16777215
176
     1
 90
        1
176
     1
 90
        4
176
     1
 62
     7
176
     1
 62
   257
176
     1
 90
        1
176
     1
 90
        1
176
     1
 40
1.0
176
     1
 90
       12
176
     1
 62
     7
176
     1
 40
1.0
176
     1
 90
        1
176
     1
 90
        6
176
     1
 90
        2
176
     1
 62
     7
176
     1
 90
        5
176
     1
 90
        0
176
     1
 90
        0
176
     1
290
     0
176
     1
 90
        1
176
     1
 40
0.0
176
     1
 90
        0
176
     1
290
     0
176
     1
290
     1
176
     1
290
     1
176
     1
290
     0
176
     1
290
     0
176
     1
290
     0
176
     1
290
     0
176
     1
290
     0
176
     1
290
     0
176
     1
 90
       50
176
     1
 40
0.0
176
     1
 40
1.0
176
     1
 90
        0
176
     1
 62
    18
420
        0
176
     1
 90
       50
176
     1
 90
        3
176
     1
 62
     5
420
      255
176
     1
290
     0
176
     1
 90
       50
176
     1
 90
       50
176
     1
 90
       50
176
     1
290
     0
176
     1
 90
       50
176
     1
 62
   256
176
     0
 40
1.0
176
     0
 90
        2
176
     1
  1
strokes_ogs.tif
176
     1
290
     0
176
     1
 40
1.0
176
     1
 40
1.0
176
     1
  0
VISUALSTYLE
  5
30
102
{ACAD_REACTORS
330
2A
102
}
330
2A
100
AcDbVisualStyle
  2
Wireframe
 70
     5
177
     3
291
     0
 70
    58
 90
        0
176
     1
 90
        2
176
     1
 90
        0
176
     1
 90
        0
176
     1
 40
0.6
176
     1
 40
30.0
176
     1
 62
     7
420
 16777215
176
     1
 90
        1
176
     1
 90
        4
176
     1
 62
     7
176
     1
 62
   257
176
     1
 90
        1
176
     1
 90
        1
176
     1
 40
1.0
176
     1
 90
        0
176
     1
 62
   257
176
     1
 40
1.0
176
     1
 90
        1
176
     1
 90
        6
176
     1
 90
        2
176
     1
 62
     7
176
     1
 90
        3
176
     1
 90
        0
176
     1
 90
        0
176
     1
290
     0
176
     1
 90
        1
176
     1
 40
0.0
176
     1
 90
        0
176
     1
290
     0
176
     1
290
     1
176
     1
290
     1
176
     1
290
     0
176
     1
290
     0
176
     1
290
     0
176
     1
290
     0
176
     1
290
     0
176
     1
290
     0
176
     1
 90
       50
176
     1
 40
0.0
176
     1
 40
1.0
176
     1
 90
        0
176
     1
 62
    18
420
        0
176
     1
 90
       50
176
     1
 90
        3
176
     1
 62
     5
420
      255
176
     1
290
     0
176
     1
 90
       50
176
     1
 90
       50
176
     1
 90
       50
176
     1
290
     0
176
     1
 90
       50
176
     1
 62
   256
176
     0
 40
1.0
176
     0
 90
        2
176
     1
  1
strokes_ogs.tif
176
     1
290
     0
176
     1
 40
1.0
176
     1
 40
1.0
176
     1
  0
VISUALSTYLE
  5
40
102
{ACAD_REACTORS
330
2A
102
}
330
2A
100
AcDbVisualStyle
  2
X-Ray
 70
    25
177
     3
291
     0
 70
    58
 90
        2
176
     1
 90
        2
176
     1
 90
        1
176
     1
 90
        1
176
     1
 40
0.5
176
     1
 40
30.0
176
     1
 62
     7
420
 16777215
176
     1
 90
        1
176
     1
 90
        0
176
     1
 62
     7
176
     1
 62
   257
176
     1
 90
        1
176
     1
 90
        1
176
     1
 40
1.0
176
     1
 90
        8
176
     1
 62
     7
176
     1
 40
1.0
176
     1
 90
        1
176
     1
 90
        6
176
     1
 90
        2
176
     1
 62
     7
176
     1
 90
        3
176
     1
 90
        0
176
     1
 90
        0
176
     1
290
     0
176
     1
 90
       13
176
     1
 40
0.0
176
     1
 90
        0
176
     1
290
     0
176
     1
290
     1
176
     1
290
     1
176
     1
290
     0
176
     1
290
     0
176
     1
290
     0
176
     1
290
     0
176
     1
290
     0
176
     1
290
     0
176
     1
 90
       50
176
     1
 40
0.0
176
     1
 40
1.0
176
     1
 90
        0
176
     1
 62
    18
420
        0
176
     1
 90
       50
176
     1
 90
        3
176
     1
 62
     5
420
      255
176
     1
290
     0
176
     1
 90
       50
176
     1
 90
       50
176
     1
 90
       50
176
     1
290
     0
176
     1
 90
       50
176
     1
 62
   256
176
     0
 40
1.0
176
     0
 90
        2
176
     1
  1
strokes_ogs.tif
176
     1
290
     0
176
     1
 40
1.0
176
     1
 40
1.0
176
     1
  0
DICTIONARYVAR
  5
17D
102
{ACAD_REACTORS
330
17C
102
}
330
17C
100
DictionaryVariables
280
     0
  1
1:1
  0
DICTIONARYVAR
  5
182
102
{ACAD_REACTORS
330
17C
102
}
330
17C
100
DictionaryVariables
280
     0
  1
Standard
  0
DICTIONARYVAR
  5
181
102
{ACAD_REACTORS
330
17C
102
}
330
17C
100
DictionaryVariables
280
     0
  1
Standard
  0
DICTIONARY
  5
17E
330
6A
100
AcDbDictionary
280
     1
281
     1
  3
ACAD_ROUNDTRIP_2008_TABLESTYLE_CELLSTYLEMAP
360
17F
  0
CELLSTYLEMAP
  5
17F
102
{ACAD_REACTORS
330
17E
102
}
330
17E
100
AcDbCellStyleMap
 90
        3
300
CELLSTYLE
  1
TABLEFORMAT_BEGIN
 90
        5
170
     1
 91
        0
 92
    32768
 62
   257
 93
        1
300
CONTENTFORMAT
  1
CONTENTFORMAT_BEGIN
 90
        0
 91
        0
 92
        4
 93
        0
300

 40
0.0
140
1.0
 94
        5
 62
     0
340
11
144
0.25
309
CONTENTFORMAT_END
171
     1
301
MARGIN
  1
CELLMARGIN_BEGIN
 40
0.06
 40
0.06
 40
0.06
 40
0.06
 40
0.06
 40
0.06
309
CELLMARGIN_END
 94
        6
 95
        1
302
GRIDFORMAT
  1
GRIDFORMAT_BEGIN
 90
        0
 91
        1
 62
     0
 92
       -2
340
14
 93
        0
 40
0.045
309
GRIDFORMAT_END
 95
        2
302
GRIDFORMAT
  1
GRIDFORMAT_BEGIN
 90
        0
 91
        1
 62
     0
 92
       -2
340
14
 93
        0
 40
0.045
309
GRIDFORMAT_END
 95
        4
302
GRIDFORMAT
  1
GRIDFORMAT_BEGIN
 90
        0
 91
        1
 62
     0
 92
       -2
340
14
 93
        0
 40
0.045
309
GRIDFORMAT_END
 95
        8
302
GRIDFORMAT
  1
GRIDFORMAT_BEGIN
 90
        0
 91
        1
 62
     0
 92
       -2
340
14
 93
        0
 40
0.045
309
GRIDFORMAT_END
 95
       16
302
GRIDFORMAT
  1
GRIDFORMAT_BEGIN
 90
        0
 91
        1
 62
     0
 92
       -2
340
14
 93
        0
 40
0.045
309
GRIDFORMAT_END
 95
       32
302
GRIDFORMAT
  1
GRIDFORMAT_BEGIN
 90
        0
 91
        1
 62
     0
 92
       -2
340
14
 93
        0
 40
0.045
309
GRIDFORMAT_END
309
TABLEFORMAT_END
  1
CELLSTYLE_BEGIN
 90
        1
 91
        1
300
_TITLE
309
CELLSTYLE_END
300
CELLSTYLE
  1
TABLEFORMAT_BEGIN
 90
        5
170
     1
 91
        0
 92
        0
 62
   257
 93
        1
300
CONTENTFORMAT
  1
CONTENTFORMAT_BEGIN
 90
        0
 91
        0
 92
        4
 93
        0
300

 40
0.0
140
1.0
 94
        5
 62
     0
340
11
144
0.18
309
CONTENTFORMAT_END
171
     1
301
MARGIN
  1
CELLMARGIN_BEGIN
 40
0.06
 40
0.06
 40
0.06
 40
0.06
 40
0.06
 40
0.06
309
CELLMARGIN_END
 94
        6
 95
        1
302
GRIDFORMAT
  1
GRIDFORMAT_BEGIN
 90
        0
 91
        1
 62
     0
 92
       -2
340
14
 93
        0
 40
0.045
309
GRIDFORMAT_END
 95
        2
302
GRIDFORMAT
  1
GRIDFORMAT_BEGIN
 90
        0
 91
        1
 62
     0
 92
       -2
340
14
 93
        0
 40
0.045
309
GRIDFORMAT_END
 95
        4
302
GRIDFORMAT
  1
GRIDFORMAT_BEGIN
 90
        0
 91
        1
 62
     0
 92
       -2
340
14
 93
        0
 40
0.045
309
GRIDFORMAT_END
 95
        8
302
GRIDFORMAT
  1
GRIDFORMAT_BEGIN
 90
        0
 91
        1
 62
     0
 92
       -2
340
14
 93
        0
 40
0.045
309
GRIDFORMAT_END
 95
       16
302
GRIDFORMAT
  1
GRIDFORMAT_BEGIN
 90
        0
 91
        1
 62
     0
 92
       -2
340
14
 93
        0
 40
0.045
309
GRIDFORMAT_END
 95
       32
302
GRIDFORMAT
  1
GRIDFORMAT_BEGIN
 90
        0
 91
        1
 62
     0
 92
       -2
340
14
 93
        0
 40
0.045
309
GRIDFORMAT_END
309
TABLEFORMAT_END
  1
CELLSTYLE_BEGIN
 90
        2
 91
        1
300
_HEADER
309
CELLSTYLE_END
300
CELLSTYLE
  1
TABLEFORMAT_BEGIN
 90
        5
170
     1
 91
        0
 92
        0
 62
   257
 93
        1
300
CONTENTFORMAT
  1
CONTENTFORMAT_BEGIN
 90
        0
 91
        0
 92
        4
 93
        0
300

 40
0.0
140
1.0
 94
        2
 62
     0
340
11
144
0.18
309
CONTENTFORMAT_END
171
     1
301
MARGIN
  1
CELLMARGIN_BEGIN
 40
0.06
 40
0.06
 40
0.06
 40
0.06
 40
0.06
 40
0.06
309
CELLMARGIN_END
 94
        6
 95
        1
302
GRIDFORMAT
  1
GRIDFORMAT_BEGIN
 90
        0
 91
        1
 62
     0
 92
       -2
340
14
 93
        0
 40
0.045
309
GRIDFORMAT_END
 95
        2
302
GRIDFORMAT
  1
GRIDFORMAT_BEGIN
 90
        0
 91
        1
 62
     0
 92
       -2
340
14
 93
        0
 40
0.045
309
GRIDFORMAT_END
 95
        4
302
GRIDFORMAT
  1
GRIDFORMAT_BEGIN
 90
        0
 91
        1
 62
     0
 92
       -2
340
14
 93
        0
 40
0.045
309
GRIDFORMAT_END
 95
        8
302
GRIDFORMAT
  1
GRIDFORMAT_BEGIN
 90
        0
 91
        1
 62
     0
 92
       -2
340
14
 93
        0
 40
0.045
309
GRIDFORMAT_END
 95
       16
302
GRIDFORMAT
  1
GRIDFORMAT_BEGIN
 90
        0
 91
        1
 62
     0
 92
       -2
340
14
 93
        0
 40
0.045
309
GRIDFORMAT_END
 95
       32
302
GRIDFORMAT
  1
GRIDFORMAT_BEGIN
 90
        0
 91
        1
 62
     0
 92
       -2
340
14
 93
        0
 40
0.045
309
GRIDFORMAT_END
309
TABLEFORMAT_END
  1
CELLSTYLE_BEGIN
 90
        3
 91
        2
300
_DATA
309
CELLSTYLE_END
  0
ENDSEC
  0
EOF