0
SECTION
  2
HEADER
  9
$ACADVER
  1
AC1027
  9
$ACADMAINTVER
 70
     8
  9
$DWGCODEPAGE
  3
ANSI_1252
  9
$REQUIREDVERSIONS
160
                 0
  9
$COMMENTS
  1
File was created by Cadenas
  9
$CUSTOMPROPERTYTAG
  1
NN
  9
$CUSTOMPROPERTY
  1
D-Lok Wide Slot Take Up Inch Bore
  9
$CUSTOMPROPERTYTAG
  1
NT
  9
$CUSTOMPROPERTY
  1
DL Normal Duty Wide Slot Take-Up Bearings
  9
$CUSTOMPROPERTYTAG
  1
NB
  9
$CUSTOMPROPERTY
  1
062306
  9
$CUSTOMPROPERTYTAG
  1
NBSYN
  9
$CUSTOMPROPERTY
  1
$PN.
  9
$CUSTOMPROPERTYTAG
  1
LINA
  9
$CUSTOMPROPERTY
  1
062306
  9
$CUSTOMPROPERTYTAG
  1
SERIES
  9
$CUSTOMPROPERTY
  1
211
  9
$CUSTOMPROPERTYTAG
  1
SS
  9
$CUSTOMPROPERTY
  1
2-3/16
  9
$CUSTOMPROPERTYTAG
  1
PN
  9
$CUSTOMPROPERTY
  1
062306
  9
$CUSTOMPROPERTYTAG
  1
DESCRIPTION
  9
$CUSTOMPROPERTY
  1
WSTU-DL-203
  9
$CUSTOMPROPERTYTAG
  1
W
  9
$CUSTOMPROPERTY
  1
10.0
  9
$CUSTOMPROPERTYTAG
  1
FS
  9
$CUSTOMPROPERTY
  1
WS502
  9
$CUSTOMPROPERTYTAG
  1
A
  9
$CUSTOMPROPERTY
  1
2.25
  9
$CUSTOMPROPERTYTAG
  1
B
  9
$CUSTOMPROPERTY
  1
6.69
  9
$CUSTOMPROPERTYTAG
  1
C
  9
$CUSTOMPROPERTY
  1
1.063
  9
$CUSTOMPROPERTYTAG
  1
D
  9
$CUSTOMPROPERTY
  1
3.75
  9
$CUSTOMPROPERTYTAG
  1
E
  9
$CUSTOMPROPERTY
  1
4.19
  9
$CUSTOMPROPERTYTAG
  1
F
  9
$CUSTOMPROPERTY
  1
1-1/4
  9
$CUSTOMPROPERTYTAG
  1
G
  9
$CUSTOMPROPERTY
  1
0.75
  9
$CUSTOMPROPERTYTAG
  1
H
  9
$CUSTOMPROPERTY
  1
1.00
  9
$CUSTOMPROPERTYTAG
  1
J
  9
$CUSTOMPROPERTY
  1
4.00
  9
$CUSTOMPROPERTYTAG
  1
K
  9
$CUSTOMPROPERTY
  1
2.50
  9
$CUSTOMPROPERTYTAG
  1
L
  9
$CUSTOMPROPERTY
  1
3.69
  9
$CUSTOMPROPERTYTAG
  1
M
  9
$CUSTOMPROPERTY
  1
5.110/5.140
  9
$CUSTOMPROPERTYTAG
  1
N
  9
$CUSTOMPROPERTY
  1
5.88
  9
$CUSTOMPROPERTYTAG
  1
R
  9
$CUSTOMPROPERTY
  1
0.88
  9
$CUSTOMPROPERTYTAG
  1
S
  9
$CUSTOMPROPERTY
  1
1.37
  9
$CUSTOMPROPERTYTAG
  1
T
  9
$CUSTOMPROPERTY
  1
2.50
  9
$CUSTOMPROPERTYTAG
  1
COMPANY
  9
$CUSTOMPROPERTY
  1
baldor
  9
$INSBASE
 10
0.0
 20
0.0
 30
0.0
  9
$EXTMIN
 10
1.000000000000000E+20
 20
1.000000000000000E+20
 30
1.000000000000000E+20
  9
$EXTMAX
 10
-1.000000000000000E+20
 20
-1.000000000000000E+20
 30
-1.000000000000000E+20
  9
$LIMMIN
 10
0.0
 20
0.0
  9
$LIMMAX
 10
12.0
 20
9.0
  9
$ORTHOMODE
 70
     0
  9
$REGENMODE
 70
     1
  9
$FILLMODE
 70
     1
  9
$QTEXTMODE
 70
     0
  9
$MIRRTEXT
 70
     1
  9
$LTSCALE
 40
1.0
  9
$ATTMODE
 70
     1
  9
$TEXTSIZE
 40
0.2
  9
$TRACEWID
 40
0.05
  9
$TEXTSTYLE
  7
Standard
  9
$CLAYER
  8
0
  9
$CELTYPE
  6
ByLayer
  9
$CECOLOR
 62
   256
  9
$CELTSCALE
 40
1.0
  9
$DISPSILH
 70
     0
  9
$DIMSCALE
 40
1.0
  9
$DIMASZ
 40
0.18
  9
$DIMEXO
 40
0.0625
  9
$DIMDLI
 40
0.38
  9
$DIMRND
 40
0.0
  9
$DIMDLE
 40
0.0
  9
$DIMEXE
 40
0.18
  9
$DIMTP
 40
0.0
  9
$DIMTM
 40
0.0
  9
$DIMTXT
 40
0.18
  9
$DIMCEN
 40
0.09
  9
$DIMTSZ
 40
0.0
  9
$DIMTOL
 70
     0
  9
$DIMLIM
 70
     0
  9
$DIMTIH
 70
     1
  9
$DIMTOH
 70
     1
  9
$DIMSE1
 70
     0
  9
$DIMSE2
 70
     0
  9
$DIMTAD
 70
     0
  9
$DIMZIN
 70
     0
  9
$DIMBLK
  1

  9
$DIMASO
 70
     1
  9
$DIMSHO
 70
     1
  9
$DIMPOST
  1

  9
$DIMAPOST
  1

  9
$DIMALT
 70
     0
  9
$DIMALTD
 70
     2
  9
$DIMALTF
 40
25.4
  9
$DIMLFAC
 40
1.0
  9
$DIMTOFL
 70
     0
  9
$DIMTVP
 40
0.0
  9
$DIMTIX
 70
     0
  9
$DIMSOXD
 70
     0
  9
$DIMSAH
 70
     0
  9
$DIMBLK1
  1

  9
$DIMBLK2
  1

  9
$DIMSTYLE
  2
Standard
  9
$DIMCLRD
 70
     0
  9
$DIMCLRE
 70
     0
  9
$DIMCLRT
 70
     0
  9
$DIMTFAC
 40
1.0
  9
$DIMGAP
 40
0.09
  9
$DIMJUST
 70
     0
  9
$DIMSD1
 70
     0
  9
$DIMSD2
 70
     0
  9
$DIMTOLJ
 70
     1
  9
$DIMTZIN
 70
     0
  9
$DIMALTZ
 70
     0
  9
$DIMALTTZ
 70
     0
  9
$DIMUPT
 70
     0
  9
$DIMDEC
 70
     4
  9
$DIMTDEC
 70
     4
  9
$DIMALTU
 70
     2
  9
$DIMALTTD
 70
     2
  9
$DIMTXSTY
  7
Standard
  9
$DIMAUNIT
 70
     0
  9
$DIMADEC
 70
     0
  9
$DIMALTRND
 40
0.0
  9
$DIMAZIN
 70
     0
  9
$DIMDSEP
 70
    46
  9
$DIMATFIT
 70
     3
  9
$DIMFRAC
 70
     0
  9
$DIMLDRBLK
  1

  9
$DIMLUNIT
 70
     2
  9
$DIMLWD
 70
    -2
  9
$DIMLWE
 70
    -2
  9
$DIMTMOVE
 70
     0
  9
$DIMFXL
 40
1.0
  9
$DIMFXLON
 70
     0
  9
$DIMJOGANG
 40
0.7853981633974483
  9
$DIMTFILL
 70
     0
  9
$DIMTFILLCLR
 70
     0
  9
$DIMARCSYM
 70
     0
  9
$DIMLTYPE
  6

  9
$DIMLTEX1
  6

  9
$DIMLTEX2
  6

  9
$DIMTXTDIRECTION
 70
     0
  9
$LUNITS
 70
     2
  9
$LUPREC
 70
     4
  9
$SKETCHINC
 40
0.1
  9
$FILLETRAD
 40
0.5
  9
$AUNITS
 70
     0
  9
$AUPREC
 70
     0
  9
$MENU
  1
.
  9
$ELEVATION
 40
0.0
  9
$PELEVATION
 40
0.0
  9
$THICKNESS
 40
0.0
  9
$LIMCHECK
 70
     0
  9
$CHAMFERA
 40
0.0
  9
$CHAMFERB
 40
0.0
  9
$CHAMFERC
 40
0.0
  9
$CHAMFERD
 40
0.0
  9
$SKPOLY
 70
     0
  9
$TDCREATE
 40
2458169.001350197
  9
$TDUCREATE
 40
2458168.95968353
  9
$TDUPDATE
 40
2458169.00135037
  9
$TDUUPDATE
 40
2458168.959683704
  9
$TDINDWG
 40
0.0000000116
  9
$TDUSRTIMER
 40
0.0000000116
  9
$USRTIMER
 70
     1
  9
$ANGBASE
 50
0.0
  9
$ANGDIR
 70
     0
  9
$PDMODE
 70
     0
  9
$PDSIZE
 40
0.0
  9
$PLINEWID
 40
0.0
  9
$SPLFRAME
 70
     0
  9
$SPLINETYPE
 70
     6
  9
$SPLINESEGS
 70
     8
  9
$HANDSEED
  5
1CC
  9
$SURFTAB1
 70
     6
  9
$SURFTAB2
 70
     6
  9
$SURFTYPE
 70
     6
  9
$SURFU
 70
     6
  9
$SURFV
 70
     6
  9
$UCSBASE
  2

  9
$UCSNAME
  2

  9
$UCSORG
 10
0.0
 20
0.0
 30
0.0
  9
$UCSXDIR
 10
1.0
 20
0.0
 30
0.0
  9
$UCSYDIR
 10
0.0
 20
1.0
 30
0.0
  9
$UCSORTHOREF
  2

  9
$UCSORTHOVIEW
 70
     0
  9
$UCSORGTOP
 10
0.0
 20
0.0
 30
0.0
  9
$UCSORGBOTTOM
 10
0.0
 20
0.0
 30
0.0
  9
$UCSORGLEFT
 10
0.0
 20
0.0
 30
0.0
  9
$UCSORGRIGHT
 10
0.0
 20
0.0
 30
0.0
  9
$UCSORGFRONT
 10
0.0
 20
0.0
 30
0.0
  9
$UCSORGBACK
 10
0.0
 20
0.0
 30
0.0
  9
$PUCSBASE
  2

  9
$PUCSNAME
  2

  9
$PUCSORG
 10
0.0
 20
0.0
 30
0.0
  9
$PUCSXDIR
 10
1.0
 20
0.0
 30
0.0
  9
$PUCSYDIR
 10
0.0
 20
1.0
 30
0.0
  9
$PUCSORTHOREF
  2

  9
$PUCSORTHOVIEW
 70
     0
  9
$PUCSORGTOP
 10
0.0
 20
0.0
 30
0.0
  9
$PUCSORGBOTTOM
 10
0.0
 20
0.0
 30
0.0
  9
$PUCSORGLEFT
 10
0.0
 20
0.0
 30
0.0
  9
$PUCSORGRIGHT
 10
0.0
 20
0.0
 30
0.0
  9
$PUCSORGFRONT
 10
0.0
 20
0.0
 30
0.0
  9
$PUCSORGBACK
 10
0.0
 20
0.0
 30
0.0
  9
$USERI1
 70
     0
  9
$USERI2
 70
     0
  9
$USERI3
 70
     0
  9
$USERI4
 70
     0
  9
$USERI5
 70
     0
  9
$USERR1
 40
0.0
  9
$USERR2
 40
0.0
  9
$USERR3
 40
0.0
  9
$USERR4
 40
0.0
  9
$USERR5
 40
0.0
  9
$WORLDVIEW
 70
     1
  9
$SHADEDGE
 70
     3
  9
$SHADEDIF
 70
    70
  9
$TILEMODE
 70
     1
  9
$MAXACTVP
 70
    64
  9
$PINSBASE
 10
0.0
 20
0.0
 30
0.0
  9
$PLIMCHECK
 70
     0
  9
$PEXTMIN
 10
1.000000000000000E+20
 20
1.000000000000000E+20
 30
1.000000000000000E+20
  9
$PEXTMAX
 10
-1.000000000000000E+20
 20
-1.000000000000000E+20
 30
-1.000000000000000E+20
  9
$PLIMMIN
 10
0.0
 20
0.0
  9
$PLIMMAX
 10
12.0
 20
9.0
  9
$UNITMODE
 70
     0
  9
$VISRETAIN
 70
     1
  9
$PLINEGEN
 70
     0
  9
$PSLTSCALE
 70
     1
  9
$TREEDEPTH
 70
  3020
  9
$CMLSTYLE
  2
Standard
  9
$CMLJUST
 70
     0
  9
$CMLSCALE
 40
1.0
  9
$PROXYGRAPHICS
 70
     1
  9
$MEASUREMENT
 70
     0
  9
$CELWEIGHT
370
    -1
  9
$ENDCAPS
280
     0
  9
$JOINSTYLE
280
     0
  9
$LWDISPLAY
290
     0
  9
$INSUNITS
 70
     1
  9
$HYPERLINKBASE
  1

  9
$STYLESHEET
  1

  9
$XEDIT
290
     1
  9
$CEPSNTYPE
380
     0
  9
$PSTYLEMODE
290
     1
  9
$FINGERPRINTGUID
  2
{4CB09F07-7899-491A-95F1-E95852624CD3}
  9
$VERSIONGUID
  2
{FAEB1C32-E019-11D5-929B-00C0DF256EC4}
  9
$EXTNAMES
290
     1
  9
$PSVPSCALE
 40
0.0
  9
$OLESTARTUP
290
     0
  9
$SORTENTS
280
   127
  9
$INDEXCTL
280
     0
  9
$HIDETEXT
280
     1
  9
$XCLIPFRAME
280
     2
  9
$HALOGAP
280
     0
  9
$OBSCOLOR
 70
   257
  9
$OBSLTYPE
280
     0
  9
$INTERSECTIONDISPLAY
280
     0
  9
$INTERSECTIONCOLOR
 70
   257
  9
$DIMASSOC
280
     2
  9
$PROJECTNAME
  1

  9
$CAMERADISPLAY
290
     0
  9
$LENSLENGTH
 40
50.0
  9
$CAMERAHEIGHT
 40
0.0
  9
$STEPSPERSEC
 40
2.0
  9
$STEPSIZE
 40
6.0
  9
$3DDWFPREC
 40
2.0
  9
$PSOLWIDTH
 40
0.25
  9
$PSOLHEIGHT
 40
4.0
  9
$LOFTANG1
 40
1.570796326794897
  9
$LOFTANG2
 40
1.570796326794897
  9
$LOFTMAG1
 40
0.0
  9
$LOFTMAG2
 40
0.0
  9
$LOFTPARAM
 70
     7
  9
$LOFTNORMALS
280
     1
  9
$LATITUDE
 40
37.795
  9
$LONGITUDE
 40
-122.394
  9
$NORTHDIRECTION
 40
0.0
  9
$TIMEZONE
 70
 -8000
  9
$LIGHTGLYPHDISPLAY
280
     1
  9
$TILEMODELIGHTSYNCH
280
     1
  9
$CMATERIAL
347
44
  9
$SOLIDHIST
280
     0
  9
$SHOWHIST
280
     1
  9
$DWFFRAME
280
     2
  9
$DGNFRAME
280
     2
  9
$REALWORLDSCALE
290
     1
  9
$INTERFERECOLOR
 62
   256
  9
$CSHADOW
280
     0
  9
$SHADOWPLANELOCATION
 40
0.0
  0
ENDSEC
  0
SECTION
  2
CLASSES
  0
CLASS
  1
ACDBDICTIONARYWDFLT
  2
AcDbDictionaryWithDefault
  3
ObjectDBX Classes
 90
        0
 91
        4
280
     0
281
     0
  0
CLASS
  1
VISUALSTYLE
  2
AcDbVisualStyle
  3
ObjectDBX Classes
 90
     4095
 91
        4
280
     0
281
     0
  0
CLASS
  1
MATERIAL
  2
AcDbMaterial
  3
ObjectDBX Classes
 90
     1153
 91
        4
280
     0
281
     0
  0
CLASS
  1
SCALE
  2
AcDbScale
  3
ObjectDBX Classes
 90
     1153
 91
        4
280
     0
281
     0
  0
CLASS
  1
TABLESTYLE
  2
AcDbTableStyle
  3
ObjectDBX Classes
 90
     4095
 91
        4
280
     0
281
     0
  0
CLASS
  1
MLEADERSTYLE
  2
AcDbMLeaderStyle
  3
ACDB_MLEADERSTYLE_CLASS
 90
     4095
 91
        4
280
     0
281
     0
  0
CLASS
  1
SUN
  2
AcDbSun
  3
SCENEOE
 90
     1153
 91
        4
280
     0
281
     0
  0
CLASS
  1
DICTIONARYVAR
  2
AcDbDictionaryVar
  3
ObjectDBX Classes
 90
        0
 91
        4
280
     0
281
     0
  0
CLASS
  1
CELLSTYLEMAP
  2
AcDbCellStyleMap
  3
ObjectDBX Classes
 90
     1152
 91
        4
280
     0
281
     0
  0
ENDSEC
  0
SECTION
  2
TABLES
  0
TABLE
  2
VPORT
  5
8
330
0
100
AcDbSymbolTable
 70
     1
  0
VPORT
  5
29
330
8
100
AcDbSymbolTableRecord
100
AcDbViewportTableRecord
  2
*Active
 70
     0
 10
0.0
 20
0.0
 11
1.0
 21
1.0
 12
0.7071531143983041
 22
0.0
 13
0.0
 23
0.0
 14
0.5
 24
0.5
 15
0.5
 25
0.5
 16
0.0
 26
0.0
 36
1.0
 17
0.0
 27
0.0
 37
0.0
 40
4.770743999999999
 41
1.505322366202727
 42
50.0
 43
0.0
 44
0.0
 50
0.0
 51
0.0
 71
     0
 72
   100
 73
     1
 74
     3
 75
     0
 76
     0
 77
     0
 78
     0
281
     0
 65
     1
110
0.0
120
0.0
130
0.0
111
1.0
121
0.0
131
0.0
112
0.0
122
1.0
132
0.0
 79
     0
146
0.0
348
2F
 60
     3
 61
     5
292
     1
282
     1
141
0.0
142
0.0
 63
   250
361
6D
  0
ENDTAB
  0
TABLE
  2
LTYPE
  5
5
330
0
100
AcDbSymbolTable
 70
     3
  0
LTYPE
  5
14
330
5
100
AcDbSymbolTableRecord
100
AcDbLinetypeTableRecord
  2
ByBlock
 70
     0
  3

 72
    65
 73
     0
 40
0.0
  0
LTYPE
  5
15
330
5
100
AcDbSymbolTableRecord
100
AcDbLinetypeTableRecord
  2
ByLayer
 70
     0
  3

 72
    65
 73
     0
 40
0.0
  0
LTYPE
  5
16
330
5
100
AcDbSymbolTableRecord
100
AcDbLinetypeTableRecord
  2
Continuous
 70
     0
  3
Solid line
 72
    65
 73
     0
 40
0.0
  0
LTYPE
  5
A7
330
5
100
AcDbSymbolTableRecord
100
AcDbLinetypeTableRecord
  2
Dashed
 70
     0
  3

 72
    65
 73
     2
 40
2.0
 49
1.0
 74
     0
 49
-1.0
 74
     0
  0
LTYPE
  5
198
330
5
100
AcDbSymbolTableRecord
100
AcDbLinetypeTableRecord
  2
Center
 70
     0
  3

 72
    65
 73
     4
 40
1.5
 49
0.45
 74
     0
 49
-0.5
 74
     0
 49
0.05
 74
     0
 49
-0.5
 74
     0
  0
ENDTAB
  0
TABLE
  2
LAYER
  5
2
330
0
100
AcDbSymbolTable
 70
     6
  0
LAYER
  5
10
330
2
100
AcDbSymbolTableRecord
100
AcDbLayerTableRecord
  2
0
 70
     0
 62
     7
  6
Continuous
370
    -3
390
F
347
46
348
0
  0
LAYER
  5
72
330
2
100
AcDbSymbolTableRecord
100
AcDbLayerTableRecord
  2
AM_6
 70
     0
 62
    -2
  6
Continuous
370
    35
390
F
347
46
348
0
  0
LAYER
  5
A8
330
2
100
AcDbSymbolTableRecord
100
AcDbLayerTableRecord
  2
AM_9
 70
     0
 62
     6
  6
Dashed
370
    25
390
F
347
46
348
0
  0
LAYER
  5
CD
330
2
100
AcDbSymbolTableRecord
100
AcDbLayerTableRecord
  2
AM_4
 70
     0
 62
     7
  6
Continuous
370
    50
390
F
347
46
348
0
  0
LAYER
  5
199
330
2
100
AcDbSymbolTableRecord
100
AcDbLayerTableRecord
  2
AM_7
 70
     0
 62
     7
  6
Center
370
    25
390
F
347
46
348
0
  0
LAYER
  5
1BF
330
2
100
AcDbSymbolTableRecord
100
AcDbLayerTableRecord
  2
ConnectionPoints
 70
     0
 62
     7
  6
Continuous
370
    50
390
F
347
46
348
0
  0
ENDTAB
  0
TABLE
  2
STYLE
  5
3
330
0
100
AcDbSymbolTable
 70
     1
  0
STYLE
  5
11
330
3
100
AcDbSymbolTableRecord
100
AcDbTextStyleTableRecord
  2
Standard
 70
     0
 40
0.0
 41
1.0
 50
0.0
 71
     0
 42
0.2
  3
txt
  4

  0
ENDTAB
  0
TABLE
  2
VIEW
  5
6
330
0
100
AcDbSymbolTable
 70
     0
  0
ENDTAB
  0
TABLE
  2
UCS
  5
7
330
0
100
AcDbSymbolTable
 70
     0
  0
ENDTAB
  0
TABLE
  2
APPID
  5
9
330
0
100
AcDbSymbolTable
 70
     1
  0
APPID
  5
12
330
9
100
AcDbSymbolTableRecord
100
AcDbRegAppTableRecord
  2
ACAD
 70
     0
  0
ENDTAB
  0
TABLE
  2
DIMSTYLE
  5
A
330
0
100
AcDbSymbolTable
 70
     1
100
AcDbDimStyleTable
  0
DIMSTYLE
105
27
330
A
100
AcDbSymbolTableRecord
100
AcDbDimStyleTableRecord
  2
Standard
 70
     0
178
     0
340
11
  0
ENDTAB
  0
TABLE
  2
BLOCK_RECORD
  5
1
330
0
100
AcDbSymbolTable
 70
     5
  0
BLOCK_RECORD
  5
1F
330
1
100
AcDbSymbolTableRecord
100
AcDbBlockTableRecord
  2
*Model_Space
340
22
 70
     0
280
     1
281
     0
  0
BLOCK_RECORD
  5
1B
330
1
100
AcDbSymbolTableRecord
100
AcDbBlockTableRecord
  2
*Paper_Space
340
1E
 70
     0
280
     1
281
     0
  0
BLOCK_RECORD
  5
23
330
1
100
AcDbSymbolTableRecord
100
AcDbBlockTableRecord
  2
*Paper_Space0
340
26
 70
     0
280
     1
281
     0
  0
BLOCK_RECORD
  5
6E
330
1
100
AcDbSymbolTableRecord
100
AcDbBlockTableRecord
  2
1_062306_4
340
0
102
{BLKREFS
331
6F
102
}
 70
     0
280
     1
281
     0
  0
BLOCK_RECORD
  5
8F
330
1
100
AcDbSymbolTableRecord
100
AcDbBlockTableRecord
  2
2_128663_0_in_062306_4
340
0
102
{BLKREFS
331
90
102
}
 70
     0
280
     1
281
     0
  0
BLOCK_RECORD
  5
D4
330
1
100
AcDbSymbolTableRecord
100
AcDbBlockTableRecord
  2
3_405016_Inch_0_in_062306_4
340
0
102
{BLKREFS
331
D5
102
}
 70
     0
280
     1
281
     0
  0
BLOCK_RECORD
  5
15E
330
1
100
AcDbSymbolTableRecord
100
AcDbBlockTableRecord
  2
4_062306H_0_in_062306_4
340
0
102
{BLKREFS
331
15F
102
}
 70
     0
280
     1
281
     0
  0
ENDTAB
  0
ENDSEC
  0
SECTION
  2
BLOCKS
  0
BLOCK
  5
20
330
1F
100
AcDbEntity
  8
0
100
AcDbBlockBegin
  2
*Model_Space
 70
     0
 10
0.0
 20
0.0
 30
0.0
  3
*Model_Space
  1

  0
ENDBLK
  5
21
330
1F
100
AcDbEntity
  8
0
100
AcDbBlockEnd
  0
BLOCK
  5
1C
330
1B
100
AcDbEntity
 67
     1
  8
0
100
AcDbBlockBegin
  2
*Paper_Space
 70
     0
 10
0.0
 20
0.0
 30
0.0
  3
*Paper_Space
  1

  0
ENDBLK
  5
1D
330
1B
100
AcDbEntity
 67
     1
  8
0
100
AcDbBlockEnd
  0
BLOCK
  5
24
330
23
100
AcDbEntity
  8
0
100
AcDbBlockBegin
  2
*Paper_Space0
 70
     0
 10
0.0
 20
0.0
 30
0.0
  3
*Paper_Space0
  1

  0
ENDBLK
  5
25
330
23
100
AcDbEntity
  8
0
100
AcDbBlockEnd
  0
BLOCK
  5
70
330
6E
100
AcDbEntity
  8
0
100
AcDbBlockBegin
  2
1_062306_4
 70
     2
 10
0.0
 20
0.0
 30
0.0
  3
1_062306_4
  1

  0
ATTDEF
  5
73
330
6E
100
AcDbEntity
  8
AM_6
100
AcDbText
 10
9.2275
 20
2.3386
 30
0.0
 40
0.5
  1
D-Lok Wide Slot Take Up Inch Bore
100
AcDbAttributeDefinition
  3

  2
NN
 70
     8
280
     0
  0
ATTDEF
  5
74
330
6E
100
AcDbEntity
  8
AM_6
100
AcDbText
 10
9.2275
 20
1.8386
 30
0.0
 40
0.5
  1
DL Normal Duty Wide Slot Take-Up Bearings
100
AcDbAttributeDefinition
  3

  2
NT
 70
     8
280
     0
  0
ATTDEF
  5
75
330
6E
100
AcDbEntity
  8
AM_6
100
AcDbText
 10
9.2275
 20
1.3386
 30
0.0
 40
0.5
  1
062306
100
AcDbAttributeDefinition
  3

  2
NB
 70
     8
280
     0
  0
ATTDEF
  5
76
330
6E
100
AcDbEntity
  8
AM_6
100
AcDbText
 10
9.2275
 20
0.8386
 30
0.0
 40
0.5
  1
$PN.
100
AcDbAttributeDefinition
  3

  2
NBSYN
 70
     8
280
     0
  0
ATTDEF
  5
77
330
6E
100
AcDbEntity
  8
AM_6
100
AcDbText
 10
9.2275
 20
0.3386
 30
0.0
 40
0.5
  1
062306
100
AcDbAttributeDefinition
  3

  2
LINA
 70
     8
280
     0
  0
ATTDEF
  5
78
330
6E
100
AcDbEntity
  8
AM_6
100
AcDbText
 10
9.2275
 20
-0.1614
 30
0.0
 40
0.5
  1
211
100
AcDbAttributeDefinition
  3

  2
SERIES
 70
     8
280
     0
  0
ATTDEF
  5
79
330
6E
100
AcDbEntity
  8
AM_6
100
AcDbText
 10
9.2275
 20
-0.6614
 30
0.0
 40
0.5
  1
2-3/16
100
AcDbAttributeDefinition
  3

  2
SS
 70
     8
280
     0
  0
ATTDEF
  5
7A
330
6E
100
AcDbEntity
  8
AM_6
100
AcDbText
 10
9.2275
 20
-1.1614
 30
0.0
 40
0.5
  1
062306
100
AcDbAttributeDefinition
  3

  2
PN
 70
     8
280
     0
  0
ATTDEF
  5
7B
330
6E
100
AcDbEntity
  8
AM_6
100
AcDbText
 10
9.2275
 20
-1.6614
 30
0.0
 40
0.5
  1
WSTU-DL-203
100
AcDbAttributeDefinition
  3

  2
DESCRIPTION
 70
     8
280
     0
  0
ATTDEF
  5
7C
330
6E
100
AcDbEntity
  8
AM_6
100
AcDbText
 10
9.2275
 20
-2.1614
 30
0.0
 40
0.5
  1
10.0
100
AcDbAttributeDefinition
  3

  2
W
 70
     8
280
     0
  0
ATTDEF
  5
7D
330
6E
100
AcDbEntity
  8
AM_6
100
AcDbText
 10
9.2275
 20
-2.6614
 30
0.0
 40
0.5
  1
WS502
100
AcDbAttributeDefinition
  3

  2
FS
 70
     8
280
     0
  0
ATTDEF
  5
7E
330
6E
100
AcDbEntity
  8
AM_6
100
AcDbText
 10
9.2275
 20
-3.1614
 30
0.0
 40
0.5
  1
2.25
100
AcDbAttributeDefinition
  3

  2
A
 70
     8
280
     0
  0
ATTDEF
  5
7F
330
6E
100
AcDbEntity
  8
AM_6
100
AcDbText
 10
9.2275
 20
-3.6614
 30
0.0
 40
0.5
  1
6.69
100
AcDbAttributeDefinition
  3

  2
B
 70
     8
280
     0
  0
ATTDEF
  5
80
330
6E
100
AcDbEntity
  8
AM_6
100
AcDbText
 10
9.2275
 20
-4.1614
 30
0.0
 40
0.5
  1
1.063
100
AcDbAttributeDefinition
  3

  2
C
 70
     8
280
     0
  0
ATTDEF
  5
81
330
6E
100
AcDbEntity
  8
AM_6
100
AcDbText
 10
9.2275
 20
-4.6614
 30
0.0
 40
0.5
  1
3.75
100
AcDbAttributeDefinition
  3

  2
D
 70
     8
280
     0
  0
ATTDEF
  5
82
330
6E
100
AcDbEntity
  8
AM_6
100
AcDbText
 10
9.2275
 20
-5.1614
 30
0.0
 40
0.5
  1
4.19
100
AcDbAttributeDefinition
  3

  2
E
 70
     8
280
     0
  0
ATTDEF
  5
83
330
6E
100
AcDbEntity
  8
AM_6
100
AcDbText
 10
9.2275
 20
-5.6614
 30
0.0
 40
0.5
  1
1-1/4
100
AcDbAttributeDefinition
  3

  2
F
 70
     8
280
     0
  0
ATTDEF
  5
84
330
6E
100
AcDbEntity
  8
AM_6
100
AcDbText
 10
9.2275
 20
-6.1614
 30
0.0
 40
0.5
  1
0.75
100
AcDbAttributeDefinition
  3

  2
G
 70
     8
280
     0
  0
ATTDEF
  5
85
330
6E
100
AcDbEntity
  8
AM_6
100
AcDbText
 10
9.2275
 20
-6.6614
 30
0.0
 40
0.5
  1
1.00
100
AcDbAttributeDefinition
  3

  2
H
 70
     8
280
     0
  0
ATTDEF
  5
86
330
6E
100
AcDbEntity
  8
AM_6
100
AcDbText
 10
9.2275
 20
-7.1614
 30
0.0
 40
0.5
  1
4.00
100
AcDbAttributeDefinition
  3

  2
J
 70
     8
280
     0
  0
ATTDEF
  5
87
330
6E
100
AcDbEntity
  8
AM_6
100
AcDbText
 10
9.2275
 20
-7.6614
 30
0.0
 40
0.5
  1
2.50
100
AcDbAttributeDefinition
  3

  2
K
 70
     8
280
     0
  0
ATTDEF
  5
88
330
6E
100
AcDbEntity
  8
AM_6
100
AcDbText
 10
9.2275
 20
-8.1614
 30
0.0
 40
0.5
  1
3.69
100
AcDbAttributeDefinition
  3

  2
L
 70
     8
280
     0
  0
ATTDEF
  5
89
330
6E
100
AcDbEntity
  8
AM_6
100
AcDbText
 10
9.2275
 20
-8.6614
 30
0.0
 40
0.5
  1
5.110/5.140
100
AcDbAttributeDefinition
  3

  2
M
 70
     8
280
     0
  0
ATTDEF
  5
8A
330
6E
100
AcDbEntity
  8
AM_6
100
AcDbText
 10
9.2275
 20
-9.1614
 30
0.0
 40
0.5
  1
5.88
100
AcDbAttributeDefinition
  3

  2
N
 70
     8
280
     0
  0
ATTDEF
  5
8B
330
6E
100
AcDbEntity
  8
AM_6
100
AcDbText
 10
9.2275
 20
-9.6614
 30
0.0
 40
0.5
  1
0.88
100
AcDbAttributeDefinition
  3

  2
R
 70
     8
280
     0
  0
ATTDEF
  5
8C
330
6E
100
AcDbEntity
  8
AM_6
100
AcDbText
 10
9.2275
 20
-10.1614
 30
0.0
 40
0.5
  1
1.37
100
AcDbAttributeDefinition
  3

  2
S
 70
     8
280
     0
  0
ATTDEF
  5
8D
330
6E
100
AcDbEntity
  8
AM_6
100
AcDbText
 10
9.2275
 20
-10.6614
 30
0.0
 40
0.5
  1
2.50
100
AcDbAttributeDefinition
  3

  2
T
 70
     8
280
     0
  0
ATTDEF
  5
8E
330
6E
100
AcDbEntity
  8
AM_6
100
AcDbText
 10
9.2275
 20
-11.1614
 30
0.0
 40
0.5
  1
baldor
100
AcDbAttributeDefinition
  3

  2
COMPANY
 70
     8
280
     0
  0
INSERT
  5
90
330
6E
100
AcDbEntity
  8
0
100
AcDbBlockReference
  2
2_128663_0_in_062306_4
 10
0.0
 20
0.0
 30
0.0
  0
INSERT
  5
D5
330
6E
100
AcDbEntity
  8
0
100
AcDbBlockReference
  2
3_405016_Inch_0_in_062306_4
 10
0.0
 20
0.0
 30
0.0
  0
INSERT
  5
15F
330
6E
100
AcDbEntity
  8
0
100
AcDbBlockReference
  2
4_062306H_0_in_062306_4
 10
0.0
 20
0.0
 30
0.0
  0
ENDBLK
  5
71
330
6E
100
AcDbEntity
  8
0
100
AcDbBlockEnd
  0
BLOCK
  5
91
330
8F
100
AcDbEntity
  8
0
100
AcDbBlockBegin
  2
2_128663_0_in_062306_4
 70
     2
 10
0.0
 20
0.0
 30
0.0
  3
2_128663_0_in_062306_4
  1

  0
ATTDEF
  5
93
330
8F
100
AcDbEntity
  8
AM_6
100
AcDbText
 10
6.968059542428211
 20
0.88
 30
0.0
 40
0.5
  1
D-Lok Insert Inch Bore
100
AcDbAttributeDefinition
  3

  2
NN
 70
     8
280
     0
  0
ATTDEF
  5
94
330
8F
100
AcDbEntity
  8
AM_6
100
AcDbText
 10
6.968059542428211
 20
0.38
 30
0.0
 40
0.5
  1
D-LOK
100
AcDbAttributeDefinition
  3

  2
NT
 70
     8
280
     0
  0
ATTDEF
  5
95
330
8F
100
AcDbEntity
  8
AM_6
100
AcDbText
 10
6.968059542428211
 20
-0.12
 30
0.0
 40
0.5
  1
128663
100
AcDbAttributeDefinition
  3

  2
NB
 70
     8
280
     0
  0
ATTDEF
  5
96
330
8F
100
AcDbEntity
  8
AM_6
100
AcDbText
 10
6.968059542428211
 20
-0.62
 30
0.0
 40
0.5
  1
$PN.
100
AcDbAttributeDefinition
  3

  2
NBSYN
 70
     8
280
     0
  0
ATTDEF
  5
97
330
8F
100
AcDbEntity
  8
AM_6
100
AcDbText
 10
6.968059542428211
 20
-1.12
 30
0.0
 40
0.5
  1
128663
100
AcDbAttributeDefinition
  3

  2
LINA
 70
     8
280
     0
  0
ATTDEF
  5
98
330
8F
100
AcDbEntity
  8
AM_6
100
AcDbText
 10
6.968059542428211
 20
-1.62
 30
0.0
 40
0.5
  1
211
100
AcDbAttributeDefinition
  3

  2
SERIES
 70
     8
280
     0
  0
ATTDEF
  5
99
330
8F
100
AcDbEntity
  8
AM_6
100
AcDbText
 10
6.968059542428211
 20
-2.12
 30
0.0
 40
0.5
  1
2-3/16
100
AcDbAttributeDefinition
  3

  2
SS
 70
     8
280
     0
  0
ATTDEF
  5
9A
330
8F
100
AcDbEntity
  8
AM_6
100
AcDbText
 10
6.968059542428211
 20
-2.62
 30
0.0
 40
0.5
  1
128663
100
AcDbAttributeDefinition
  3

  2
PN
 70
     8
280
     0
  0
ATTDEF
  5
9B
330
8F
100
AcDbEntity
  8
AM_6
100
AcDbText
 10
6.968059542428211
 20
-3.12
 30
0.0
 40
0.5
  1
INS-DL-203
100
AcDbAttributeDefinition
  3

  2
DESCRIPTION
 70
     8
280
     0
  0
ATTDEF
  5
9C
330
8F
100
AcDbEntity
  8
AM_6
100
AcDbText
 10
6.968059542428211
 20
-3.62
 30
0.0
 40
0.5
  1
3.4
100
AcDbAttributeDefinition
  3

  2
WEIGHT
 70
     8
280
     0
  0
ATTDEF
  5
9D
330
8F
100
AcDbEntity
  8
AM_6
100
AcDbText
 10
6.968059542428211
 20
-4.12
 30
0.0
 40
0.5
  1
2.25
100
AcDbAttributeDefinition
  3

  2
A
 70
     8
280
     0
  0
ATTDEF
  5
9E
330
8F
100
AcDbEntity
  8
AM_6
100
AcDbText
 10
6.968059542428211
 20
-4.62
 30
0.0
 40
0.5
  1
0.94
100
AcDbAttributeDefinition
  3

  2
C
 70
     8
280
     0
  0
ATTDEF
  5
9F
330
8F
100
AcDbEntity
  8
AM_6
100
AcDbText
 10
6.968059542428211
 20
-5.12
 30
0.0
 40
0.5
  1
3.9370
100
AcDbAttributeDefinition
  3

  2
D
 70
     8
280
     0
  0
ATTDEF
  5
A0
330
8F
100
AcDbEntity
  8
AM_6
100
AcDbText
 10
6.968059542428211
 20
-5.62
 30
0.0
 40
0.5
  1
0.25
100
AcDbAttributeDefinition
  3

  2
J
 70
     8
280
     0
  0
ATTDEF
  5
A1
330
8F
100
AcDbEntity
  8
AM_6
100
AcDbText
 10
6.968059542428211
 20
-6.12
 30
0.0
 40
0.5
  1
3.69
100
AcDbAttributeDefinition
  3

  2
L
 70
     8
280
     0
  0
ATTDEF
  5
A2
330
8F
100
AcDbEntity
  8
AM_6
100
AcDbText
 10
6.968059542428211
 20
-6.62
 30
0.0
 40
0.5
  1
5/16-24
100
AcDbAttributeDefinition
  3

  2
N
 70
     8
280
     0
  0
ATTDEF
  5
A3
330
8F
100
AcDbEntity
  8
AM_6
100
AcDbText
 10
6.968059542428211
 20
-7.12
 30
0.0
 40
0.5
  1
0.88
100
AcDbAttributeDefinition
  3

  2
W
 70
     8
280
     0
  0
ATTDEF
  5
A4
330
8F
100
AcDbEntity
  8
AM_6
100
AcDbText
 10
6.968059542428211
 20
-7.62
 30
0.0
 40
0.5
  1
1.37
100
AcDbAttributeDefinition
  3

  2
Y
 70
     8
280
     0
  0
ATTDEF
  5
A5
330
8F
100
AcDbEntity
  8
AM_6
100
AcDbText
 10
6.968059542428211
 20
-8.120000000000001
 30
0.0
 40
0.5
  1
2.71
100
AcDbAttributeDefinition
  3

  2
Z
 70
     8
280
     0
  0
ATTDEF
  5
A6
330
8F
100
AcDbEntity
  8
AM_6
100
AcDbText
 10
6.968059542428211
 20
-8.620000000000001
 30
0.0
 40
0.5
  1
baldor
100
AcDbAttributeDefinition
  3

  2
COMPANY
 70
     8
280
     0
  0
LINE
  5
A9
330
8F
100
AcDbEntity
  8
AM_9
100
AcDbLine
 10
1.09375
 20
-1.2962
 30
0.0
 11
1.09375
 21
0.8062000000000002
 31
0.0
  0
LINE
  5
AA
330
8F
100
AcDbEntity
  8
AM_9
100
AcDbLine
 10
-1.09375
 20
0.8062000000000002
 30
0.0
 11
-1.09375
 21
-1.2962
 31
0.0
  0
LINE
  5
AB
330
8F
100
AcDbEntity
  8
AM_9
100
AcDbLine
 10
1.09375
 20
0.8062000000000002
 30
0.0
 11
1.16755
 21
0.88
 31
0.0
  0
LINE
  5
AC
330
8F
100
AcDbEntity
  8
AM_9
100
AcDbLine
 10
-1.16755
 20
0.88
 30
0.0
 11
-1.09375
 21
0.8062000000000002
 31
0.0
  0
LINE
  5
AD
330
8F
100
AcDbEntity
  8
AM_9
100
AcDbLine
 10
-1.09375
 20
-1.2962
 30
0.0
 11
-1.16755
 21
-1.37
 31
0.0
  0
LINE
  5
AE
330
8F
100
AcDbEntity
  8
AM_9
100
AcDbLine
 10
1.16755
 20
-1.37
 30
0.0
 11
1.09375
 21
-1.2962
 31
0.0
  0
LINE
  5
AF
330
8F
100
AcDbEntity
  8
AM_9
100
AcDbLine
 10
-1.2812
 20
0.88
 30
0.0
 11
1.2812
 21
0.88
 31
0.0
  0
LINE
  5
B0
330
8F
100
AcDbEntity
  8
AM_9
100
AcDbLine
 10
-1.2812
 20
0.88
 30
0.0
 11
-1.355
 21
0.8062
 31
0.0
  0
LINE
  5
B1
330
8F
100
AcDbEntity
  8
AM_9
100
AcDbLine
 10
1.355
 20
0.8062
 30
0.0
 11
1.2812
 21
0.88
 31
0.0
  0
LINE
  5
B2
330
8F
100
AcDbEntity
  8
AM_9
100
AcDbLine
 10
1.355
 20
-0.685
 30
0.0
 11
1.355
 21
-0.47
 31
0.0
  0
LINE
  5
B3
330
8F
100
AcDbEntity
  8
AM_9
100
AcDbLine
 10
-1.355
 20
-0.47
 30
0.0
 11
-1.355
 21
-0.685
 31
0.0
  0
LINE
  5
B4
330
8F
100
AcDbEntity
  8
AM_9
100
AcDbLine
 10
-1.355
 20
0.8062
 30
0.0
 11
1.355
 21
0.8062
 31
0.0
  0
LINE
  5
B5
330
8F
100
AcDbEntity
  8
AM_9
100
AcDbLine
 10
1.355
 20
0.47
 30
0.0
 11
1.355
 21
0.8062
 31
0.0
  0
LINE
  5
B6
330
8F
100
AcDbEntity
  8
AM_9
100
AcDbLine
 10
-1.355
 20
0.8062
 30
0.0
 11
-1.355
 21
0.47
 31
0.0
  0
LINE
  5
B7
330
8F
100
AcDbEntity
  8
AM_9
100
AcDbLine
 10
1.845
 20
-1.250000000000001
 30
0.0
 11
1.845
 21
-0.7588
 31
0.0
  0
LINE
  5
B8
330
8F
100
AcDbEntity
  8
AM_9
100
AcDbLine
 10
-1.845
 20
-0.7588
 30
0.0
 11
-1.845
 21
-1.250000000000001
 31
0.0
  0
LINE
  5
B9
330
8F
100
AcDbEntity
  8
AM_9
100
AcDbLine
 10
-1.845
 20
-0.7588
 30
0.0
 11
1.845
 21
-0.7588
 31
0.0
  0
LINE
  5
BA
330
8F
100
AcDbEntity
  8
AM_9
100
AcDbLine
 10
-1.7712
 20
-0.6849999999999998
 30
0.0
 11
1.7712
 21
-0.6849999999999998
 31
0.0
  0
LINE
  5
BB
330
8F
100
AcDbEntity
  8
AM_9
100
AcDbLine
 10
-1.7712
 20
-0.6849999999999998
 30
0.0
 11
-1.845
 21
-0.7588
 31
0.0
  0
LINE
  5
BC
330
8F
100
AcDbEntity
  8
AM_9
100
AcDbLine
 10
1.845
 20
-0.7588
 30
0.0
 11
1.7712
 21
-0.6849999999999998
 31
0.0
  0
LINE
  5
BD
330
8F
100
AcDbEntity
  8
AM_9
100
AcDbLine
 10
1.885166666666667
 20
-0.3000000000000001
 30
0.0
 11
1.885166666666667
 21
-0.2
 31
0.0
  0
LINE
  5
BE
330
8F
100
AcDbEntity
  8
AM_9
100
AcDbLine
 10
-1.885166666666667
 20
-0.2
 30
0.0
 11
-1.885166666666667
 21
-0.3000000000000001
 31
0.0
  0
LINE
  5
BF
330
8F
100
AcDbEntity
  8
AM_9
100
AcDbLine
 10
-1.87196213904021
 20
0.47
 30
0.0
 11
1.87196213903881
 21
0.47
 31
0.0
  0
ARC
  5
C0
330
8F
100
AcDbEntity
  8
AM_9
100
AcDbCircle
 10
1.871962139040179
 20
0.4199999999999615
 30
0.0
 40
0.0500000000000386
100
AcDbArc
 50
12.64566792869444
 51
90.0
  0
ARC
  5
C1
330
8F
100
AcDbEntity
  8
AM_9
100
AcDbCircle
 10
-1.87196213904021
 20
0.4199999999999994
 30
0.0
 40
0.0500000000000005
100
AcDbArc
 50
90.0
 51
167.3543320713402
  0
LINE
  5
C2
330
8F
100
AcDbEntity
  8
AM_9
100
AcDbLine
 10
-1.87196213904021
 20
-0.47
 30
0.0
 11
1.871962139038809
 21
-0.47
 31
0.0
  0
ARC
  5
C3
330
8F
100
AcDbEntity
  8
AM_9
100
AcDbCircle
 10
1.871962139040209
 20
-0.4199999999999988
 30
0.0
 40
0.0500000000000013
100
AcDbArc
 50
270.0
 51
347.3543320713396
  0
ARC
  5
C4
330
8F
100
AcDbEntity
  8
AM_9
100
AcDbCircle
 10
-1.871962139040232
 20
-0.4200000000000277
 30
0.0
 40
0.0499999999999724
100
AcDbArc
 50
192.6456679286338
 51
270.0
  0
LINE
  5
C5
330
8F
100
AcDbEntity
  8
AM_9
100
AcDbLine
 10
-1.920749268022233
 20
-0.4309460516028148
 30
0.0
 11
1.920749268022035
 21
-0.4309460516028148
 31
0.0
  0
LINE
  5
C6
330
8F
100
AcDbEntity
  8
AM_9
100
AcDbLine
 10
-1.945505654065287
 20
-0.2999999999999999
 30
0.0
 11
1.945505654065089
 21
-0.2999999999999999
 31
0.0
  0
ARC
  5
C7
330
8F
100
AcDbEntity
  8
AM_9
100
AcDbCircle
 10
-0.0000000003330121
 20
0.0000000000629224
 30
0.0
 40
1.968500000338516
100
AcDbArc
 50
347.3543320716745
 51
351.2339465517911
  0
ARC
  5
C8
330
8F
100
AcDbEntity
  8
AM_9
100
AcDbCircle
 10
0.0000000003329077
 20
0.0000000000629022
 30
0.0
 40
1.96850000033841
100
AcDbArc
 50
188.7660534482089
 51
192.6456679283256
  0
LINE
  5
C9
330
8F
100
AcDbEntity
  8
AM_9
100
AcDbLine
 10
-1.958313624014294
 20
-0.1999999999999998
 30
0.0
 11
1.95831362401428
 21
-0.1999999999999998
 31
0.0
  0
LINE
  5
CA
330
8F
100
AcDbEntity
  8
AM_9
100
AcDbLine
 10
-1.920749268022233
 20
0.4309460516028147
 30
0.0
 11
1.920749268022219
 21
0.4309460516028146
 31
0.0
  0
ARC
  5
CB
330
8F
100
AcDbEntity
  8
AM_9
100
AcDbCircle
 10
-0.0000000000010754
 20
-0.0000000000000632
 30
0.0
 40
1.968500000001049
100
AcDbArc
 50
354.1686752533631
 51
12.64566792865426
  0
ARC
  5
CC
330
8F
100
AcDbEntity
  8
AM_9
100
AcDbCircle
 10
-0.0000000000077365
 20
0.0000000000004614
 30
0.0
 40
1.968499999992336
100
AcDbArc
 50
167.3543320713045
 51
185.8313247466781
  0
LINE
  5
CE
330
8F
100
AcDbEntity
  8
AM_4
100
AcDbLine
 10
-1.7712
 20
-1.37
 30
0.0
 11
1.7712
 21
-1.37
 31
0.0
  0
LINE
  5
CF
330
8F
100
AcDbEntity
  8
AM_4
100
AcDbLine
 10
1.7712
 20
-1.37
 30
0.0
 11
1.845
 21
-1.2962
 31
0.0
  0
LINE
  5
D0
330
8F
100
AcDbEntity
  8
AM_4
100
AcDbLine
 10
-1.845
 20
-1.2962
 30
0.0
 11
-1.7712
 21
-1.37
 31
0.0
  0
LINE
  5
D1
330
8F
100
AcDbEntity
  8
AM_4
100
AcDbLine
 10
-1.845
 20
-1.2962
 30
0.0
 11
1.845
 21
-1.2962
 31
0.0
  0
LINE
  5
D2
330
8F
100
AcDbEntity
  8
AM_4
100
AcDbLine
 10
1.845
 20
-1.2962
 30
0.0
 11
1.845
 21
-1.250000000000001
 31
0.0
  0
LINE
  5
D3
330
8F
100
AcDbEntity
  8
AM_4
100
AcDbLine
 10
-1.845
 20
-1.250000000000001
 30
0.0
 11
-1.845
 21
-1.2962
 31
0.0
  0
ENDBLK
  5
92
330
8F
100
AcDbEntity
  8
0
100
AcDbBlockEnd
  0
BLOCK
  5
D6
330
D4
100
AcDbEntity
  8
0
100
AcDbBlockBegin
  2
3_405016_Inch_0_in_062306_4
 70
     2
 10
0.0
 20
0.0
 30
0.0
  3
3_405016_Inch_0_in_062306_4
  1

  0
ATTDEF
  5
D8
330
D4
100
AcDbEntity
  8
AM_6
100
AcDbText
 10
3.018608870176917
 20
0.2187500000000013
 30
0.0
 40
0.5
  1
405016 -Inch
100
AcDbAttributeDefinition
  3

  2
NN
 70
     8
280
     0
  0
ATTDEF
  5
D9
330
D4
100
AcDbEntity
  8
AM_6
100
AcDbText
 10
3.018608870176917
 20
-0.2812499999999987
 30
0.0
 40
0.5
  1
Grease Fitting
100
AcDbAttributeDefinition
  3

  2
NT
 70
     8
280
     0
  0
ATTDEF
  5
DA
330
D4
100
AcDbEntity
  8
AM_6
100
AcDbText
 10
3.018608870176917
 20
-0.7812499999999987
 30
0.0
 40
0.5
  1
405016-Inch
100
AcDbAttributeDefinition
  3

  2
NB
 70
     8
280
     0
  0
ATTDEF
  5
DB
330
D4
100
AcDbEntity
  8
AM_6
100
AcDbText
 10
3.018608870176917
 20
-1.281249999999999
 30
0.0
 40
0.5
  1
$MN.-Inch
100
AcDbAttributeDefinition
  3

  2
NBSYN
 70
     8
280
     0
  0
ATTDEF
  5
DC
330
D4
100
AcDbEntity
  8
AM_6
100
AcDbText
 10
3.018608870176917
 20
-1.781249999999999
 30
0.0
 40
0.5
  1
405016
100
AcDbAttributeDefinition
  3

  2
LINA
 70
     8
280
     0
  0
ATTDEF
  5
DD
330
D4
100
AcDbEntity
  8
AM_6
100
AcDbText
 10
3.018608870176917
 20
-2.281249999999999
 30
0.0
 40
0.5
  1
405016
100
AcDbAttributeDefinition
  3

  2
MN
 70
     8
280
     0
  0
ATTDEF
  5
DE
330
D4
100
AcDbEntity
  8
AM_6
100
AcDbText
 10
3.018608870176917
 20
-2.781249999999999
 30
0.0
 40
0.5
  1
7/16 HEX
100
AcDbAttributeDefinition
  3

  2
H
 70
     8
280
     0
  0
ATTDEF
  5
DF
330
D4
100
AcDbEntity
  8
AM_6
100
AcDbText
 10
3.018608870176917
 20
-3.281249999999999
 30
0.0
 40
0.5
  1
0.383
100
AcDbAttributeDefinition
  3

  2
NDR
 70
     8
280
     0
  0
ATTDEF
  5
E0
330
D4
100
AcDbEntity
  8
AM_6
100
AcDbText
 10
3.018608870176917
 20
-3.781249999999999
 30
0.0
 40
0.5
  1
0.337
100
AcDbAttributeDefinition
  3

  2
KDR
 70
     8
280
     0
  0
ATTDEF
  5
E1
330
D4
100
AcDbEntity
  8
AM_6
100
AcDbText
 10
3.018608870176917
 20
-4.281249999999998
 30
0.0
 40
0.5
  1
0.1575
100
AcDbAttributeDefinition
  3

  2
BZE
 70
     8
280
     0
  0
ATTDEF
  5
E2
330
D4
100
AcDbEntity
  8
AM_6
100
AcDbText
 10
3.018608870176917
 20
-4.781249999999998
 30
0.0
 40
0.5
  1
0.4375
100
AcDbAttributeDefinition
  3

  2
HEX
 70
     8
280
     0
  0
ATTDEF
  5
E3
330
D4
100
AcDbEntity
  8
AM_6
100
AcDbText
 10
3.018608870176917
 20
-5.281249999999998
 30
0.0
 40
0.5
  1
0.281250
100
AcDbAttributeDefinition
  3

  2
HEX2
 70
     8
280
     0
  0
ATTDEF
  5
E4
330
D4
100
AcDbEntity
  8
AM_6
100
AcDbText
 10
3.018608870176917
 20
-5.781249999999998
 30
0.0
 40
0.5
  1
baldor
100
AcDbAttributeDefinition
  3

  2
COMPANY
 70
     8
280
     0
  0
LINE
  5
E5
330
D4
100
AcDbEntity
  8
AM_9
100
AcDbLine
 10
-2.678533947653623
 20
-0.151074129835757
 30
0.0
 11
-2.6898555208775
 21
-0.1791093260592887
 31
0.0
  0
LINE
  5
E6
330
D4
100
AcDbEntity
  8
AM_9
100
AcDbLine
 10
-2.527359101615127
 20
-0.2099962668917053
 30
0.0
 11
-2.539046347834672
 21
-0.2389369657326276
 31
0.0
  0
LWPOLYLINE
  5
E7
330
D4
100
AcDbEntity
  8
AM_9
100
AcDbPolyline
 90
        3
 70
     0
 43
0.0
 10
-2.311205296349721
 20
0.1093749999999999
 10
-2.293345646365797
 20
0.0546874999999999
 10
-2.271778681814797
 20
-0.0000000000000001
  0
LWPOLYLINE
  5
E8
330
D4
100
AcDbEntity
  8
AM_9
100
AcDbPolyline
 90
        3
 70
     0
 43
0.0
 10
-2.271778681814797
 20
-0.0000000000000001
 10
-2.29325635273242
 20
-0.0544416102741497
 10
-2.311205296349721
 20
-0.109375
  0
LWPOLYLINE
  5
E9
330
D4
100
AcDbEntity
  8
AM_9
100
AcDbPolyline
 90
        3
 70
     0
 43
0.0
 10
-2.469428253193036
 20
-0.2987675689889718
 10
-2.485315537756133
 20
-0.2912216284034024
 10
-2.500525539454147
 20
-0.2813919000363599
  0
LWPOLYLINE
  5
EA
330
D4
100
AcDbEntity
  8
AM_9
100
AcDbPolyline
 90
        3
 70
     0
 43
0.0
 10
-2.200881684813586
 20
-0.0000000000000001
 10
-2.21083589224286
 20
0.0544416102741495
 10
-2.224602755971277
 20
0.1093749999999999
  0
LWPOLYLINE
  5
EB
330
D4
100
AcDbEntity
  8
AM_9
100
AcDbPolyline
 90
        3
 70
     0
 43
0.0
 10
-2.224602755971277
 20
-0.1093750000000001
 10
-2.210888563108893
 20
-0.0546875000000001
 10
-2.200881684813586
 20
-0.0000000000000001
  0
LWPOLYLINE
  5
EC
330
D4
100
AcDbEntity
  8
AM_9
100
AcDbPolyline
 90
        3
 70
     0
 43
0.0
 10
-2.482225631915613
 20
-0.2360765106845277
 10
-2.473060645339056
 20
-0.2462091938631851
 10
-2.457372603882058
 20
-0.2689146070947222
  0
LWPOLYLINE
  5
ED
330
D4
100
AcDbEntity
  8
AM_9
100
AcDbPolyline
 90
        3
 70
     0
 43
0.0
 10
-2.311205296349721
 20
-0.109375
 10
-2.324919489212105
 20
-0.1640625
 10
-2.334926367507412
 20
-0.2187500000000001
  0
LINE
  5
EE
330
D4
100
AcDbEntity
  8
AM_9
100
AcDbLine
 10
-2.271778681814797
 20
-0.0000000000000001
 30
0.0
 11
-2.200881684813586
 21
-0.0000000000000001
 31
0.0
  0
LWPOLYLINE
  5
EF
330
D4
100
AcDbEntity
  8
AM_9
100
AcDbPolyline
 90
        3
 70
     0
 43
0.0
 10
-2.334926367507412
 20
0.2187499999999999
 10
-2.324972160078138
 20
0.1643083897258503
 10
-2.311205296349721
 20
0.1093749999999999
  0
LWPOLYLINE
  5
F0
330
D4
100
AcDbEntity
  8
AM_9
100
AcDbPolyline
 90
        3
 70
     0
 43
0.0
 10
-2.457372603882058
 20
-0.2689146070947222
 10
-2.47036849173167
 20
-0.2634308483997528
 10
-2.48458239184591
 20
-0.2602304684431305
  0
LWPOLYLINE
  5
F1
330
D4
100
AcDbEntity
  8
AM_9
100
AcDbPolyline
 90
        3
 70
     0
 43
0.0
 10
-2.50005508869205
 20
-0.3052608483640279
 10
-2.486500344765465
 20
-0.3030753670497808
 10
-2.469428253193036
 20
-0.2987675689889718
  0
LINE
  5
F2
330
D4
100
AcDbEntity
  8
AM_9
100
AcDbLine
 10
-2.457372603882058
 20
-0.2689146070947222
 30
0.0
 11
-2.469428253193036
 21
-0.2987675689889718
 31
0.0
  0
ELLIPSE
  5
F3
330
D4
100
AcDbEntity
  8
AM_9
100
AcDbEllipse
 10
-2.711709896042127
 20
-0.4687500000000001
 30
0.0
 11
-0.09595382955731814
 21
0.03874944547499717
 31
0.0
210
0.0
220
0.0
230
1.0
 40
0.2113091308703516
 41
3.040609649696542
 42
6.384168311072829
  0
ELLIPSE
  5
F4
330
D4
100
AcDbEntity
  8
AM_9
100
AcDbEllipse
 10
-2.683716233844644
 20
-0.399430321788976
 30
0.0
 11
-0.1290248947933268
 21
0.05210467522533582
 31
0.0
210
0.0
220
0.0
230
1.0
 40
0.2113091308703466
 41
3.036953100241573
 42
5.801105639492178
  0
ELLIPSE
  5
F5
330
D4
100
AcDbEntity
  8
AM_9
100
AcDbEllipse
 10
-2.673041252367283
 20
-0.3729962569746696
 30
0.0
 11
-0.1235034625626126
 21
0.04987493162724026
 31
0.0
210
0.0
220
0.0
230
1.0
 40
0.2113091308703446
 41
3.401377040161925
 42
6.032939787435414
  0
LWPOLYLINE
  5
F6
330
D4
100
AcDbEntity
  8
AM_9
100
AcDbPolyline
 90
        5
 70
     0
 43
0.0
 10
-2.6898555208775
 20
-0.1791093260592887
 10
-2.711717909376127
 20
-0.1842540823997054
 10
-2.73261399630612
 20
-0.1862220679364951
 10
-2.752531615861029
 20
-0.1844124966919381
 10
-2.771045402482291
 20
-0.1791093260592887
  0
LWPOLYLINE
  5
F7
330
D4
100
AcDbEntity
  8
AM_9
100
AcDbPolyline
 90
        5
 70
     0
 43
0.0
 10
-2.539046347834672
 20
-0.2389369657326276
 10
-2.5778876365221
 20
-0.2295338871417796
 10
-2.616022683234019
 20
-0.216687117104632
 10
-2.653641477595203
 20
-0.1996402057054678
 10
-2.6898555208775
 20
-0.1791093260592887
  0
LWPOLYLINE
  5
F8
330
D4
100
AcDbEntity
  8
AM_9
100
AcDbPolyline
 90
        3
 70
     0
 43
0.0
 10
-2.512547069635954
 20
-0.2711532636537956
 10
-2.526282247400527
 20
-0.2561815527589921
 10
-2.539046347834672
 20
-0.2389369657326276
  0
ELLIPSE
  5
F9
330
D4
100
AcDbEntity
  8
AM_9
100
AcDbEllipse
 10
-2.622040349103299
 20
-0.2467045921760285
 30
0.0
 11
-0.1303939210191909
 21
0.05265753494274391
 31
0.0
210
0.0
220
0.0
230
1.0
 40
0.2113091308703386
 41
3.806340372003042
 42
6.919181903097252
  0
LINE
  5
FA
330
D4
100
AcDbEntity
  8
AM_9
100
AcDbLine
 10
-2.256289852499516
 20
0.2000413016192557
 30
0.0
 11
-2.264029370506201
 21
0.2187499999999999
 31
0.0
  0
LWPOLYLINE
  5
FB
330
D4
100
AcDbEntity
  8
AM_9
100
AcDbPolyline
 90
        3
 70
     0
 43
0.0
 10
-2.224602755971277
 20
0.1093749999999999
 10
-2.2424624059552
 20
0.1640624999999999
 10
-2.256289852499516
 20
0.2000413016192557
  0
LWPOLYLINE
  5
FC
330
D4
100
AcDbEntity
  8
AM_9
100
AcDbPolyline
 90
        3
 70
     0
 43
0.0
 10
-2.256289730417551
 20
-0.2000409996967266
 10
-2.242551699588578
 20
-0.1643083897258505
 10
-2.224602755971277
 20
-0.1093750000000001
  0
LINE
  5
FD
330
D4
100
AcDbEntity
  8
AM_9
100
AcDbLine
 10
-2.264029370506201
 20
-0.2187500000000001
 30
0.0
 11
-2.256289730417551
 21
-0.2000409996967266
 31
0.0
  0
LINE
  5
FE
330
D4
100
AcDbEntity
  8
AM_9
100
AcDbLine
 10
-2.689668748505513
 20
-0.1204089378707286
 30
0.0
 11
-2.690754193495225
 21
-0.1230967854582228
 31
0.0
  0
LINE
  5
FF
330
D4
100
AcDbEntity
  8
AM_9
100
AcDbLine
 10
-2.5
 20
-0.2382619325905788
 30
0.0
 11
-2.481880040734935
 21
-0.193392142543456
 31
0.0
  0
ELLIPSE
  5
100
330
D4
100
AcDbEntity
  8
AM_9
100
AcDbEllipse
 10
-2.603740441564782
 20
-0.2013892028241844
 30
0.0
 11
-0.1019970226638858
 21
0.041189893999646
 31
0.0
210
0.0
220
0.0
230
1.0
 40
0.2113091308703445
 41
3.141592653589793
 42
6.283185307179586
  0
LWPOLYLINE
  5
101
330
D4
100
AcDbEntity
  8
AM_9
100
AcDbPolyline
 90
        4
 70
     0
 43
0.0
 10
-2.689673478160533
 20
-0.1204206514110939
 10
-2.689812644145062
 20
-0.1208367673933812
 10
-2.689235060187936
 20
-0.1245107513506023
 10
-2.687330616813728
 20
-0.1273593585431942
  0
LWPOLYLINE
  5
102
330
D4
100
AcDbEntity
  8
AM_9
100
AcDbPolyline
 90
        5
 70
     0
 43
0.0
 10
-2.481879096533447
 20
-0.1933898041312626
 10
-2.481972432664598
 20
-0.1936098952159724
 10
-2.485187969617237
 20
-0.1971856748420371
 10
-2.491206332860019
 20
-0.1994144431868155
 10
-2.498070303440462
 20
-0.1999999999699529
  0
LWPOLYLINE
  5
103
330
D4
100
AcDbEntity
  8
AM_9
100
AcDbPolyline
 90
        3
 70
     0
 43
0.0
 10
-2.5913674346529
 20
-0.1745741884610188
 10
-2.56397835927947
 20
-0.1876759562813858
 10
-2.527359101615127
 20
-0.2099962668917053
  0
LWPOLYLINE
  5
104
330
D4
100
AcDbEntity
  8
AM_9
100
AcDbPolyline
 90
        3
 70
     0
 43
0.0
 10
-2.678533947653623
 20
-0.151074129835757
 10
-2.6493293401541
 20
-0.1564222384464442
 10
-2.620658841211806
 20
-0.1639312493177433
  0
LWPOLYLINE
  5
105
330
D4
100
AcDbEntity
  8
AM_9
100
AcDbPolyline
 90
        3
 70
     0
 43
0.0
 10
-2.527359101615127
 20
-0.2099962668917053
 10
-2.510385419281604
 20
-0.2163479371246913
 10
-2.49424716209742
 20
-0.2258378743019629
  0
LWPOLYLINE
  5
106
330
D4
100
AcDbEntity
  8
AM_9
100
AcDbPolyline
 90
        4
 70
     0
 43
0.0
 10
-2.715444827998119
 20
-0.141958509815605
 10
-2.71156970855207
 20
-0.1420496512545706
 10
-2.697080793437319
 20
-0.1441228263802215
 10
-2.678533947653623
 20
-0.1510741298357571
  0
ELLIPSE
  5
107
330
D4
100
AcDbEntity
  8
AM_9
100
AcDbEllipse
 10
-2.603740441564874
 20
-0.2013892028241067
 30
0.0
 11
-0.1303939210192935
 21
0.0526575349428343
 31
0.0
210
0.0
220
0.0
230
1.0
 40
0.2113091308700863
 41
3.814164134970124
 42
4.697947219396966
  0
ELLIPSE
  5
108
330
D4
100
AcDbEntity
  8
AM_9
100
AcDbEllipse
 10
-2.603740441564779
 20
-0.2013892028241913
 30
0.0
 11
-0.1303939210191785
 21
0.05265753494273648
 31
0.0
210
0.0
220
0.0
230
1.0
 40
0.21130913087036
 41
-1.289653043822737
 42
-0.6725714813802908
  0
LINE
  5
109
330
D4
100
AcDbEntity
  8
AM_9
100
AcDbLine
 10
-2.500525539454147
 20
-0.2813919000363599
 30
0.0
 11
-2.512547069635954
 21
-0.2711532636537956
 31
0.0
  0
ELLIPSE
  5
10A
330
D4
100
AcDbEntity
  8
AM_9
100
AcDbEllipse
 10
-2.622040349103315
 20
-0.2467045921760208
 30
0.0
 11
-0.1303939210191759
 21
0.05265753494273379
 31
0.0
210
0.0
220
0.0
230
1.0
 40
0.2113091308703492
 41
2.800469246484381
 42
3.607080702195131
  0
ELLIPSE
  5
10B
330
D4
100
AcDbEntity
  8
AM_9
100
AcDbEllipse
 10
-2.622040349110849
 20
-0.2467045921629074
 30
0.0
 11
-0.1303939210304419
 21
0.05265753495413519
 31
0.0
210
0.0
220
0.0
230
1.0
 40
0.2113091309017716
 41
-3.777589249497233
 42
-3.764628581850301
  0
LINE
  5
10C
330
D4
100
AcDbEntity
  8
AM_9
100
AcDbLine
 10
-2.48458239184591
 20
-0.2602304684431305
 30
0.0
 11
-2.5
 21
-0.260230468443123
 31
0.0
  0
ELLIPSE
  5
10D
330
D4
100
AcDbEntity
  8
AM_9
100
AcDbEllipse
 10
-2.60374044156478
 20
-0.2013892028241869
 30
0.0
 11
-0.1303939210191745
 21
0.05265753494273526
 31
0.0
210
0.0
220
0.0
230
1.0
 40
0.2113091308703492
 41
2.800469246484378
 42
3.607080702195127
  0
LINE
  5
10E
330
D4
100
AcDbEntity
  8
AM_9
100
AcDbLine
 10
-2.49424716209742
 20
-0.2258378743019629
 30
0.0
 11
-2.482225631915613
 21
-0.2360765106845277
 31
0.0
  0
LWPOLYLINE
  5
10F
330
D4
100
AcDbEntity
  8
AM_9
100
AcDbPolyline
 90
       17
 70
     0
 43
0.0
 10
-2.488555205885523
 20
-0.1790373738501779
 10
-2.496522670961716
 20
-0.1733931390117467
 10
-2.507278744395897
 20
-0.1670729780242511
 10
-2.519921795918341
 20
-0.1606047421316795
 10
-2.534812219064182
 20
-0.1538031670974777
 10
-2.550714095871062
 20
-0.1472336073736393
 10
-2.568075065692781
 20
-0.1407130262602577
 10
-2.585430542823026
 20
-0.1347930597680667
 10
-2.603288254407314
 20
-0.1293028157827817
 10
-2.620118015907389
 20
-0.1247141396218193
 10
-2.636434759808094
 20
-0.1208880884981781
 10
-2.650833810667927
 20
-0.1181545989145989
 10
-2.663766163533675
 20
-0.1164278875396128
 10
-2.674125891693375
 20
-0.1158549073091554
 10
-2.682236066510072
 20
-0.1164156227038168
 10
-2.687412707700914
 20
-0.1180609686233502
 10
-2.689673478160533
 20
-0.1204206514110939
  0
LWPOLYLINE
  5
110
330
D4
100
AcDbEntity
  8
AM_9
100
AcDbPolyline
 90
        4
 70
     0
 43
0.0
 10
-2.488555205885523
 20
-0.1790373738501784
 10
-2.483600545413455
 20
-0.1842628795203941
 10
-2.481492660946712
 20
-0.1891729979031393
 10
-2.481879096533447
 20
-0.1933898041312626
  0
LINE
  5
111
330
D4
100
AcDbEntity
  8
AM_9
100
AcDbLine
 10
-2.405926824888644
 20
0.1999999999999999
 30
0.0
 11
-2.5
 21
0.1999999999999999
 31
0.0
  0
LINE
  5
112
330
D4
100
AcDbEntity
  8
AM_9
100
AcDbLine
 10
-2.498218087667369
 20
-0.2
 30
0.0
 11
-2.405926824888644
 21
-0.2
 31
0.0
  0
LWPOLYLINE
  5
113
330
D4
100
AcDbEntity
  8
AM_9
100
AcDbPolyline
 90
        3
 70
     0
 43
0.0
 10
-2.498070303440462
 20
-0.1999999999699529
 10
-2.499557420679765
 20
-0.1999786710855128
 10
-2.499955045741818
 20
-0.1999660950801365
  0
LINE
  5
114
330
D4
100
AcDbEntity
  8
AM_9
100
AcDbLine
 10
-2.251666049839541
 20
0.1999999999999999
 30
0.0
 11
-2.3193242845102
 21
0.1999999999999999
 31
0.0
  0
LINE
  5
115
330
D4
100
AcDbEntity
  8
AM_9
100
AcDbLine
 10
-2.3193242845102
 20
-0.2
 30
0.0
 11
-2.251666049839541
 21
-0.2
 31
0.0
  0
LWPOLYLINE
  5
116
330
D4
100
AcDbEntity
  8
AM_9
100
AcDbPolyline
 90
        3
 70
     0
 43
0.0
 10
-2.461221738892643
 20
-0.2187500000000001
 10
-2.482699409810265
 20
-0.1643083897258504
 10
-2.500072688704332
 20
-0.1113595132489763
  0
LINE
  5
117
330
D4
100
AcDbEntity
  8
AM_9
100
AcDbLine
 10
-2.461221738892643
 20
-0.2187500000000001
 30
0.0
 11
-2.264029370506201
 21
-0.2187500000000001
 31
0.0
  0
LINE
  5
118
330
D4
100
AcDbEntity
  8
AM_9
100
AcDbLine
 10
-2.392142434256308
 20
-0.2073932100451004
 30
0.0
 11
-2.390324741891432
 21
-0.2187500000000001
 31
0.0
  0
LWPOLYLINE
  5
119
330
D4
100
AcDbEntity
  8
AM_9
100
AcDbPolyline
 90
        3
 70
     0
 43
0.0
 10
-2.414045813049123
 20
-0.109375
 10
-2.400331620186738
 20
-0.1640625
 10
-2.392142434256308
 20
-0.2073932100451004
  0
LINE
  5
11A
330
D4
100
AcDbEntity
  8
AM_9
100
AcDbLine
 10
-2.419811146415153
 20
-0.0902930765949598
 30
0.0
 11
-2.414045813049123
 21
-0.109375
 31
0.0
  0
LWPOLYLINE
  5
11B
330
D4
100
AcDbEntity
  8
AM_9
100
AcDbPolyline
 90
        3
 70
     0
 43
0.0
 10
-2.438780160602401
 20
-0.0363158710195567
 10
-2.431994756666424
 20
-0.0544416102741496
 10
-2.419811146415153
 20
-0.0902930765949598
  0
LINE
  5
11C
330
D4
100
AcDbEntity
  8
AM_9
100
AcDbLine
 10
-2.453472427584046
 20
-0.0000000000000001
 30
0.0
 11
-2.438780160602401
 21
-0.0363158710195567
 31
0.0
  0
LINE
  5
11D
330
D4
100
AcDbEntity
  8
AM_9
100
AcDbLine
 10
-2.461221738892643
 20
0.2187499999999999
 30
0.0
 11
-2.264029370506201
 21
0.2187499999999999
 31
0.0
  0
LWPOLYLINE
  5
11E
330
D4
100
AcDbEntity
  8
AM_9
100
AcDbPolyline
 90
        3
 70
     0
 43
0.0
 10
-2.500072399011207
 20
0.1113605071097992
 10
-2.482788703443644
 20
0.1640624999999999
 10
-2.461221738892643
 20
0.2187499999999999
  0
LINE
  5
11F
330
D4
100
AcDbEntity
  8
AM_9
100
AcDbLine
 10
-2.5
 20
-0.0000000000000001
 30
0.0
 11
-2.453472427584046
 21
-0.0000000000000001
 31
0.0
  0
LINE
  5
120
330
D4
100
AcDbEntity
  8
AM_9
100
AcDbLine
 10
-2.438748445416003
 20
0.0363982391991624
 30
0.0
 11
-2.453472427584046
 21
-0.0000000000000001
 31
0.0
  0
LWPOLYLINE
  5
121
330
D4
100
AcDbEntity
  8
AM_9
100
AcDbPolyline
 90
        3
 70
     0
 43
0.0
 10
-2.42034756703352
 20
0.0885993354810216
 10
-2.431905463033046
 20
0.0546874999999999
 10
-2.438748445416003
 20
0.0363982391991624
  0
LINE
  5
122
330
D4
100
AcDbEntity
  8
AM_9
100
AcDbLine
 10
-2.414045813049123
 20
0.1093749999999999
 30
0.0
 11
-2.42034756703352
 21
0.0885993354810216
 31
0.0
  0
LWPOLYLINE
  5
123
330
D4
100
AcDbEntity
  8
AM_9
100
AcDbPolyline
 90
        3
 70
     0
 43
0.0
 10
-2.392514391198695
 20
0.2051613007245003
 10
-2.400278949320706
 20
0.1643083897258503
 10
-2.414045813049123
 20
0.1093749999999999
  0
LINE
  5
124
330
D4
100
AcDbEntity
  8
AM_9
100
AcDbLine
 10
-2.390324741891432
 20
0.2187499999999999
 30
0.0
 11
-2.392514391198695
 21
0.2051613007245003
 31
0.0
  0
LINE
  5
125
330
D4
100
AcDbEntity
  8
AM_9
100
AcDbLine
 10
-2.081121432217138
 20
0.1853871066562612
 30
0.0
 11
-2.249938321901206
 21
0.1914800577488989
 31
0.0
  0
LINE
  5
126
330
D4
100
AcDbEntity
  8
AM_9
100
AcDbLine
 10
-2.249938321901206
 20
-0.191480057748899
 30
0.0
 11
-2.081121432217138
 21
-0.1853871066562613
 31
0.0
  0
LINE
  5
127
330
D4
100
AcDbEntity
  8
AM_9
100
AcDbLine
 10
-2.015554694934988
 20
0.1319978794387896
 30
0.0
 11
-2.029268821994056
 21
0.1513925839218323
 31
0.0
  0
LINE
  5
128
330
D4
100
AcDbEntity
  8
AM_9
100
AcDbLine
 10
-2.029268821994056
 20
-0.1513925839218325
 30
0.0
 11
-2.015554694934988
 21
-0.1319978794387898
 31
0.0
  0
ELLIPSE
  5
129
330
D4
100
AcDbEntity
  8
AM_9
100
AcDbEllipse
 10
-2.405926824888644
 20
0.0
 30
0.0
 11
1.339457436567408E-17
 21
0.2187499999999984
 31
0.0
210
0.0
220
0.0
230
1.0
 40
0.5000000000000058
 41
0.0
 42
6.283185307179586
  0
ELLIPSE
  5
12A
330
D4
100
AcDbEntity
  8
AM_9
100
AcDbEllipse
 10
-2.405926824888643
 20
0.0000000000000002
 30
0.0
 11
1.224646799147355E-17
 21
0.2000000000000003
 31
0.0
210
0.0
220
0.0
230
1.0
 40
0.4999999999999996
 41
0.0
 42
6.283185307179586
  0
ELLIPSE
  5
12B
330
D4
100
AcDbEntity
  8
AM_9
100
AcDbEllipse
 10
-2.3193242845102
 20
0.0000000000000006
 30
0.0
 11
1.339457436567422E-17
 21
0.2187500000000007
 31
0.0
210
0.0
220
0.0
230
1.0
 40
0.5000000000000004
 41
0.0
 42
6.283185307179586
  0
ELLIPSE
  5
12C
330
D4
100
AcDbEntity
  8
AM_9
100
AcDbEllipse
 10
-2.3193242845102
 20
-0.0000000000000004
 30
0.0
 11
1.224646799147351E-17
 21
0.1999999999999996
 31
0.0
210
0.0
220
0.0
230
1.0
 40
0.4999999999999992
 41
0.0
 42
6.283185307179586
  0
ELLIPSE
  5
12D
330
D4
100
AcDbEntity
  8
AM_9
100
AcDbEllipse
 10
-2.251666049839559
 20
0.000000000000001
 30
0.0
 11
1.224646799147346E-17
 21
0.1999999999999988
 31
0.0
210
0.0
220
0.0
230
1.0
 40
0.5000000000000122
 41
0.0
 42
6.283185307179586
  0
ELLIPSE
  5
12E
330
D4
100
AcDbEntity
  8
AM_9
100
AcDbEllipse
 10
-2.251666049839541
 20
0.0000000000000004
 30
0.0
 11
1.172668097677222E-17
 21
0.1915112338502299
 31
0.0
210
0.0
220
0.0
230
1.0
 40
0.5000000000000003
 41
0.0
 42
6.283185307179586
  0
ELLIPSE
  5
12F
330
D4
100
AcDbEntity
  8
AM_9
100
AcDbEllipse
 10
-2.082794183350297
 20
0.0
 30
0.0
 11
1.135353457964642E-17
 21
0.1854172907249861
 31
0.0
210
0.0
220
0.0
230
1.0
 40
0.4999999999999963
 41
0.0
 42
6.283185307179586
  0
ELLIPSE
  5
130
330
D4
100
AcDbEntity
  8
AM_9
100
AcDbEllipse
 10
-2.062222992761694
 20
0.0000000000000003
 30
0.0
 11
9.899048221688919E-18
 21
0.1616637258772247
 31
0.0
210
0.0
220
0.0
230
1.0
 40
0.499999999999995
 41
0.0
 42
6.283185307179586
  0
LINE
  5
131
330
D4
100
AcDbEntity
  8
AM_4
100
AcDbLine
 10
-2.502882299384443
 20
-0.3055458577949631
 30
0.0
 11
-2.50005508869205
 21
-0.3052608483640279
 31
0.0
  0
LINE
  5
132
330
D4
100
AcDbEntity
  8
AM_4
100
AcDbLine
 10
-2.617070354170781
 20
-0.5093460834378319
 30
0.0
 11
-2.556458603903517
 21
-0.4540180898723598
 31
0.0
  0
LINE
  5
133
330
D4
100
AcDbEntity
  8
AM_4
100
AcDbLine
 10
-2.813193771203392
 20
-0.3503396289636352
 30
0.0
 11
-2.808000348912662
 21
-0.4322420068738781
 31
0.0
  0
ELLIPSE
  5
134
330
D4
100
AcDbEntity
  8
AM_4
100
AcDbEllipse
 10
-2.711709896042127
 20
-0.4687500000000001
 30
0.0
 11
-0.09595382955731811
 21
0.03874944547499725
 31
0.0
210
0.0
220
0.0
230
1.0
 40
0.2113091308703426
 41
0.100983003893254
 42
3.040609649696542
  0
LINE
  5
135
330
D4
100
AcDbEntity
  8
AM_4
100
AcDbLine
 10
-2.759723829258415
 20
-0.151074129835757
 30
0.0
 11
-2.771045402482291
 21
-0.1791093260592887
 31
0.0
  0
LWPOLYLINE
  5
136
330
D4
100
AcDbEntity
  8
AM_4
100
AcDbPolyline
 90
        8
 70
     0
 43
0.0
 10
-2.789747515260756
 20
-0.3181015737800376
 10
-2.792382359845937
 20
-0.3190323893649307
 10
-2.798500286767448
 20
-0.3220978495877308
 10
-2.803931780702863
 20
-0.3263420714371429
 10
-2.808405097564654
 20
-0.3317842996158095
 10
-2.811550673975919
 20
-0.3382131596341954
 10
-2.813125705862487
 20
-0.3454660683142474
 10
-2.81316032533756
 20
-0.3508118166874972
  0
LWPOLYLINE
  5
137
330
D4
100
AcDbEntity
  8
AM_4
100
AcDbPolyline
 90
        8
 70
     0
 43
0.0
 10
-2.556812099178137
 20
-0.4543359931413697
 10
-2.553495887548491
 20
-0.4509200700303861
 10
-2.54961076981967
 20
-0.4449680238838583
 10
-2.547089604389225
 20
-0.4376881893294921
 10
-2.54645094208558
 20
-0.4305884168265287
 10
-2.547299392650545
 20
-0.4239941181297053
 10
-2.54931365507131
 20
-0.4178943605963433
 10
-2.551349200405646
 20
-0.4138066399772758
  0
ELLIPSE
  5
138
330
D4
100
AcDbEntity
  8
AM_4
100
AcDbEllipse
 10
-2.683716233844644
 20
-0.399430321788976
 30
0.0
 11
-0.1290248947933268
 21
0.05210467522533575
 31
0.0
210
0.0
220
0.0
230
1.0
 40
0.2113091308703544
 41
0.1046548025859924
 42
3.036953100241588
  0
LWPOLYLINE
  5
139
330
D4
100
AcDbEntity
  8
AM_4
100
AcDbPolyline
 90
        3
 70
     0
 43
0.0
 10
-2.550618134797828
 20
-0.2987675689889718
 10
-2.537084869297438
 20
-0.3030606061861223
 10
-2.523525584672452
 20
-0.305456396233367
  0
ELLIPSE
  5
13A
330
D4
100
AcDbEntity
  8
AM_4
100
AcDbEllipse
 10
-2.622040349103315
 20
-0.2467045921760183
 30
0.0
 11
-0.1303939210191781
 21
0.05265753494273576
 31
0.0
210
0.0
220
0.0
230
1.0
 40
0.2113091308703554
 41
1.711945269609648
 42
2.505596057672098
  0
LWPOLYLINE
  5
13B
330
D4
100
AcDbEntity
  8
AM_4
100
AcDbPolyline
 90
        4
 70
     0
 43
0.0
 10
-2.771045402482291
 20
-0.1791093260592887
 10
-2.756168284439216
 20
-0.1988355121406939
 10
-2.739739012196542
 20
-0.2156330920108724
 10
-2.734241993585198
 20
-0.2201680623457972
  0
LWPOLYLINE
  5
13C
330
D4
100
AcDbEntity
  8
AM_4
100
AcDbPolyline
 90
        3
 70
     0
 43
0.0
 10
-2.734241993585198
 20
-0.2201680623457972
 10
-2.721301471986571
 20
-0.2290462109660021
 10
-2.701426111044255
 20
-0.2389369657326275
  0
LWPOLYLINE
  5
13D
330
D4
100
AcDbEntity
  8
AM_4
100
AcDbPolyline
 90
        3
 70
     0
 43
0.0
 10
-2.504338791799178
 20
-0.2602304684431209
 10
-2.513587427213072
 20
-0.2616913382589203
 10
-2.53856248548685
 20
-0.2689146070947222
  0
LINE
  5
13E
330
D4
100
AcDbEntity
  8
AM_4
100
AcDbLine
 10
-2.690754193495225
 20
-0.1230967854582228
 30
0.0
 11
-2.705737464228668
 21
-0.1601993088245384
 31
0.0
  0
LINE
  5
13F
330
D4
100
AcDbEntity
  8
AM_4
100
AcDbLine
 10
-2.501743418900893
 20
-0.2425790968238377
 30
0.0
 11
-2.5
 21
-0.2382619325905788
 31
0.0
  0
ELLIPSE
  5
140
330
D4
100
AcDbEntity
  8
AM_4
100
AcDbEllipse
 10
-2.603740441564781
 20
-0.2013892028241881
 30
0.0
 11
-0.1019970226638876
 21
0.04118989399964963
 31
0.0
210
0.0
220
0.0
230
1.0
 40
0.2113091308703492
 41
0.0
 42
3.141592653589793
  0
LWPOLYLINE
  5
141
330
D4
100
AcDbEntity
  8
AM_4
100
AcDbPolyline
 90
        4
 70
     0
 43
0.0
 10
-2.759723829258415
 20
-0.151074129835757
 10
-2.743107987270886
 20
-0.145877822676052
 10
-2.727053374615753
 20
-0.1427138007556462
 10
-2.715444827998119
 20
-0.141958509815605
  0
LWPOLYLINE
  5
142
330
D4
100
AcDbEntity
  8
AM_4
100
AcDbPolyline
 90
        6
 70
     0
 43
0.0
 10
-2.689738864824709
 20
-0.2099962668917053
 10
-2.700048001182038
 20
-0.1943573015029059
 10
-2.711391828016249
 20
-0.1805491420332303
 10
-2.724105802593056
 20
-0.1688997677199809
 10
-2.738001728782747
 20
-0.1598729403210871
 10
-2.759723829258415
 20
-0.151074129835757
  0
LINE
  5
143
330
D4
100
AcDbEntity
  8
AM_4
100
AcDbLine
 10
-2.714114974455289
 20
-0.1419585097669024
 30
0.0
 11
-2.715553451103443
 21
-0.1419585097669024
 31
0.0
  0
ELLIPSE
  5
144
330
D4
100
AcDbEntity
  8
AM_4
100
AcDbEllipse
 10
-2.603740441564805
 20
-0.2013892028241276
 30
0.0
 11
-0.1303939210191376
 21
0.05265753494268036
 31
0.0
210
0.0
220
0.0
230
1.0
 40
0.2113091308701928
 41
5.610613825799212
 42
7.795870906981919
  0
ELLIPSE
  5
145
330
D4
100
AcDbEntity
  8
AM_4
100
AcDbEllipse
 10
-2.622040349103314
 20
-0.2467045921760216
 30
0.0
 11
-0.1303939210191749
 21
0.0526575349427345
 31
0.0
210
0.0
220
0.0
230
1.0
 40
0.2113091308703425
 41
0.6359965959176881
 42
1.512685599801936
  0
LINE
  5
146
330
D4
100
AcDbEntity
  8
AM_4
100
AcDbLine
 10
-2.522638699337713
 20
-0.3055458577949631
 30
0.0
 11
-2.502882299384443
 21
-0.3055458577949631
 31
0.0
  0
LWPOLYLINE
  5
147
330
D4
100
AcDbEntity
  8
AM_4
100
AcDbPolyline
 90
       16
 70
     0
 43
0.0
 10
-2.550834614858851
 20
-0.4147321524540111
 10
-2.55325512042052
 20
-0.4094341380941735
 10
-2.555834515441884
 20
-0.4018224106140987
 10
-2.557775381275118
 20
-0.3925767294192975
 10
-2.558577343006722
 20
-0.3820892255001391
 10
-2.557887194651835
 20
-0.3709119522471284
 10
-2.555544853768967
 20
-0.3595825800872474
 10
-2.551154262453135
 20
-0.3477011845126876
 10
-2.545235962495192
 20
-0.3370613311197675
 10
-2.53821877939992
 20
-0.327926310505496
 10
-2.530551626459404
 20
-0.3204110620009064
 10
-2.522743339573121
 20
-0.3145612807532799
 10
-2.515353172361326
 20
-0.3103278744043475
 10
-2.508888753632438
 20
-0.3075252776648634
 10
-2.503674532002611
 20
-0.3058508220196792
 10
-2.500907758579058
 20
-0.3051852289709945
  0
LWPOLYLINE
  5
148
330
D4
100
AcDbEntity
  8
AM_4
100
AcDbPolyline
 90
       17
 70
     0
 43
0.0
 10
-2.749788437976465
 20
-0.2047058586849579
 10
-2.748686242096124
 20
-0.2064098516551305
 10
-2.746129657450457
 20
-0.2110084982390575
 10
-2.743402792687758
 20
-0.2172740021744997
 10
-2.740922308644546
 20
-0.2252771574207506
 10
-2.739199980732031
 20
-0.2348490193221869
 10
-2.738713695539742
 20
-0.2455435511902891
 10
-2.73977216951756
 20
-0.2568002251539082
 10
-2.742891558019655
 20
-0.2693055885953075
 10
-2.747803495631103
 20
-0.2808623836036503
 10
-2.754107414998484
 20
-0.2910561601856674
 10
-2.761375428035505
 20
-0.2996999509752816
 10
-2.769143719420473
 20
-0.3067023223368027
 10
-2.776883079131706
 20
-0.3120419987074058
 10
-2.784035002091704
 20
-0.3158070646017765
 10
-2.790137773676872
 20
-0.3182257666423357
 10
-2.790235191228023
 20
-0.3182585934432852
  0
ELLIPSE
  5
149
330
D4
100
AcDbEntity
  8
AM_4
100
AcDbEllipse
 10
-2.673041252367299
 20
-0.3729962569746644
 30
0.0
 11
-0.1235034625625957
 21
0.04987493162723568
 31
0.0
210
0.0
220
0.0
230
1.0
 40
0.2113091308703531
 41
6.041085925723963
 42
9.664810467347284
  0
ELLIPSE
  5
14A
330
D4
100
AcDbEntity
  8
AM_4
100
AcDbEllipse
 10
-2.60374044156478
 20
-0.2013892028241894
 30
0.0
 11
-0.1303939210191807
 21
0.05265753494271945
 31
0.0
210
0.0
220
0.0
230
1.0
 40
0.2113091308703544
 41
1.711945269609608
 42
2.51855672532034
  0
LINE
  5
14B
330
D4
100
AcDbEntity
  8
AM_4
100
AcDbLine
 10
-2.5
 20
-0.260230468443123
 30
0.0
 11
-2.504338791799178
 21
-0.2602304684431209
 31
0.0
  0
LWPOLYLINE
  5
14C
330
D4
100
AcDbEntity
  8
AM_4
100
AcDbPolyline
 90
        3
 70
     0
 43
0.0
 10
-2.53856248548685
 20
-0.2689146070947222
 10
-2.566624785455693
 20
-0.251275593729576
 10
-2.59641289029368
 20
-0.2360765106845275
  0
LINE
  5
14D
330
D4
100
AcDbEntity
  8
AM_4
100
AcDbLine
 10
-2.59641289029368
 20
-0.2360765106845275
 30
0.0
 11
-2.622421699319664
 21
-0.2258378743019627
 31
0.0
  0
LWPOLYLINE
  5
14E
330
D4
100
AcDbEntity
  8
AM_4
100
AcDbPolyline
 90
        3
 70
     0
 43
0.0
 10
-2.622421699319664
 20
-0.2258378743019627
 10
-2.645411734011904
 20
-0.2189176876709014
 10
-2.689738864824709
 20
-0.2099962668917053
  0
LINE
  5
14F
330
D4
100
AcDbEntity
  8
AM_4
100
AcDbLine
 10
-2.689738864824709
 20
-0.2099962668917053
 30
0.0
 11
-2.701426111044254
 21
-0.2389369657326276
 31
0.0
  0
LWPOLYLINE
  5
150
330
D4
100
AcDbEntity
  8
AM_4
100
AcDbPolyline
 90
        3
 70
     0
 43
0.0
 10
-2.701426111044254
 20
-0.2389369657326276
 10
-2.671746289810452
 20
-0.2560939713202353
 10
-2.640721606858196
 20
-0.2711532636537956
  0
LINE
  5
151
330
D4
100
AcDbEntity
  8
AM_4
100
AcDbLine
 10
-2.640721606858196
 20
-0.2711532636537956
 30
0.0
 11
-2.614712797832213
 21
-0.2813919000363599
 31
0.0
  0
LWPOLYLINE
  5
152
330
D4
100
AcDbEntity
  8
AM_4
100
AcDbPolyline
 90
        3
 70
     0
 43
0.0
 10
-2.614712797832213
 20
-0.2813919000363599
 10
-2.583062246978189
 20
-0.2911775952746243
 10
-2.550618134797828
 20
-0.2987675689889718
  0
LINE
  5
153
330
D4
100
AcDbEntity
  8
AM_4
100
AcDbLine
 10
-2.53856248548685
 20
-0.2689146070947222
 30
0.0
 11
-2.550618134797828
 21
-0.2987675689889718
 31
0.0
  0
ARC
  5
154
330
D4
100
AcDbEntity
  8
AM_4
100
AcDbCircle
 10
-2.533124306069484
 20
0.0000000000000005
 30
0.0
 40
0.1999999999999995
100
AcDbArc
 50
90.0
 51
219.6369037298823
  0
LWPOLYLINE
  5
155
330
D4
100
AcDbEntity
  8
AM_4
100
AcDbPolyline
 90
       10
 70
     0
 43
0.0
 10
-2.687330616813728
 20
-0.1273593585431942
 10
-2.685663356378812
 20
-0.1291842652280563
 10
-2.679385809111149
 20
-0.134472979061152
 10
-2.670228210048428
 20
-0.1405186270901959
 10
-2.658932020886416
 20
-0.1468270783017121
 10
-2.645190869745667
 20
-0.1535654953592165
 10
-2.630129380006185
 20
-0.1601799433259583
 10
-2.613335957186525
 20
-0.1668493358980661
 10
-2.595936621032529
 20
-0.1731116383367606
 10
-2.577693406253426
 20
-0.1790373738502115
  0
ELLIPSE
  5
156
330
D4
100
AcDbEntity
  8
AM_4
100
AcDbEllipse
 10
-2.533124306069483
 20
-0.0000000000000001
 30
0.0
 11
1.224646799147353E-17
 21
0.2
 31
0.0
210
0.0
220
0.0
230
1.0
 40
0.5000000000000004
 41
0.0
 42
2.679646633022825
  0
LINE
  5
157
330
D4
100
AcDbEntity
  8
AM_4
100
AcDbLine
 10
-2.5
 20
0.1999999999999999
 30
0.0
 11
-2.533124306069483
 21
0.1999999999999999
 31
0.0
  0
LWPOLYLINE
  5
158
330
D4
100
AcDbEntity
  8
AM_4
100
AcDbPolyline
 90
        7
 70
     0
 43
0.0
 10
-2.499955045741818
 20
-0.1999660950801365
 10
-2.510431021156515
 20
-0.1988321115509053
 10
-2.522829342870497
 20
-0.1961649429984259
 10
-2.537252773236489
 20
-0.1920694300574958
 10
-2.552765753097307
 20
-0.1870948030566195
 10
-2.569859156884277
 20
-0.181500594761393
 10
-2.577693406253443
 20
-0.1790373738501784
  0
LWPOLYLINE
  5
159
330
D4
100
AcDbEntity
  8
AM_4
100
AcDbPolyline
 90
        3
 70
     0
 43
0.0
 10
-2.500648353427567
 20
-0.109375
 10
-2.514362546289951
 20
-0.0546875
 10
-2.524369424585259
 20
-0.0000000000000001
  0
LINE
  5
15A
330
D4
100
AcDbEntity
  8
AM_4
100
AcDbLine
 10
-2.500072688704332
 20
-0.1113595132489763
 30
0.0
 11
-2.500648353427567
 21
-0.109375
 31
0.0
  0
LINE
  5
15B
330
D4
100
AcDbEntity
  8
AM_4
100
AcDbLine
 10
-2.500648353427567
 20
0.1093749999999999
 30
0.0
 11
-2.500072399011207
 21
0.1113605071097992
 31
0.0
  0
LWPOLYLINE
  5
15C
330
D4
100
AcDbEntity
  8
AM_4
100
AcDbPolyline
 90
        3
 70
     0
 43
0.0
 10
-2.524369424585259
 20
-0.0000000000000001
 10
-2.514415217155984
 20
0.0544416102741495
 10
-2.500648353427567
 20
0.1093749999999999
  0
LINE
  5
15D
330
D4
100
AcDbEntity
  8
AM_4
100
AcDbLine
 10
-2.524369424585259
 20
-0.0000000000000001
 30
0.0
 11
-2.5
 21
-0.0000000000000001
 31
0.0
  0
ENDBLK
  5
D7
330
D4
100
AcDbEntity
  8
0
100
AcDbBlockEnd
  0
BLOCK
  5
160
330
15E
100
AcDbEntity
  8
0
100
AcDbBlockBegin
  2
4_062306H_0_in_062306_4
 70
     2
 10
0.0
 20
0.0
 30
0.0
  3
4_062306H_0_in_062306_4
  1

  0
ATTDEF
  5
162
330
15E
100
AcDbEntity
  8
AM_6
100
AcDbText
 10
9.2275
 20
2.3386
 30
0.0
 40
0.5
  1
WSTU-DL -Inch - housing
100
AcDbAttributeDefinition
  3

  2
NN
 70
     8
280
     0
  0
ATTDEF
  5
163
330
15E
100
AcDbEntity
  8
AM_6
100
AcDbText
 10
9.2275
 20
1.8386
 30
0.0
 40
0.5
  1
DL Normal Duty Wide Slot Take-Up Bearings
100
AcDbAttributeDefinition
  3

  2
NT
 70
     8
280
     0
  0
ATTDEF
  5
164
330
15E
100
AcDbEntity
  8
AM_6
100
AcDbText
 10
9.2275
 20
1.3386
 30
0.0
 40
0.5
  1
062306H
100
AcDbAttributeDefinition
  3

  2
NB
 70
     8
280
     0
  0
ATTDEF
  5
165
330
15E
100
AcDbEntity
  8
AM_6
100
AcDbText
 10
9.2275
 20
0.8386
 30
0.0
 40
0.5
  1
$PN.H
100
AcDbAttributeDefinition
  3

  2
NBSYN
 70
     8
280
     0
  0
ATTDEF
  5
166
330
15E
100
AcDbEntity
  8
AM_6
100
AcDbText
 10
9.2275
 20
0.3386
 30
0.0
 40
0.5
  1
062306
100
AcDbAttributeDefinition
  3

  2
LINA
 70
     8
280
     0
  0
ATTDEF
  5
167
330
15E
100
AcDbEntity
  8
AM_6
100
AcDbText
 10
9.2275
 20
-0.1614
 30
0.0
 40
0.5
  1
062306
100
AcDbAttributeDefinition
  3

  2
PN
 70
     8
280
     0
  0
ATTDEF
  5
168
330
15E
100
AcDbEntity
  8
AM_6
100
AcDbText
 10
9.2275
 20
-0.6614
 30
0.0
 40
0.5
  1
211
100
AcDbAttributeDefinition
  3

  2
SERIES
 70
     8
280
     0
  0
ATTDEF
  5
169
330
15E
100
AcDbEntity
  8
AM_6
100
AcDbText
 10
9.2275
 20
-1.1614
 30
0.0
 40
0.5
  1
3.93700
100
AcDbAttributeDefinition
  3

  2
BOD
 70
     8
280
     0
  0
ATTDEF
  5
16A
330
15E
100
AcDbEntity
  8
AM_6
100
AcDbText
 10
9.2275
 20
-1.6614
 30
0.0
 40
0.5
  1
2-3/16
100
AcDbAttributeDefinition
  3

  2
SS
 70
     8
280
     0
  0
ATTDEF
  5
16B
330
15E
100
AcDbEntity
  8
AM_6
100
AcDbText
 10
9.2275
 20
-2.1614
 30
0.0
 40
0.5
  1
2.18750
100
AcDbAttributeDefinition
  3

  2
SS2
 70
     8
280
     0
  0
ATTDEF
  5
16C
330
15E
100
AcDbEntity
  8
AM_6
100
AcDbText
 10
9.2275
 20
-2.6614
 30
0.0
 40
0.5
  1
WSTU-DL-203
100
AcDbAttributeDefinition
  3

  2
DESCRIPTION
 70
     8
280
     0
  0
ATTDEF
  5
16D
330
15E
100
AcDbEntity
  8
AM_6
100
AcDbText
 10
9.2275
 20
-3.1614
 30
0.0
 40
0.5
  1
DL
100
AcDbAttributeDefinition
  3

  2
DESC
 70
     8
280
     0
  0
ATTDEF
  5
16E
330
15E
100
AcDbEntity
  8
AM_6
100
AcDbText
 10
9.2275
 20
-3.6614
 30
0.0
 40
0.5
  1
10.0
100
AcDbAttributeDefinition
  3

  2
W
 70
     8
280
     0
  0
ATTDEF
  5
16F
330
15E
100
AcDbEntity
  8
AM_6
100
AcDbText
 10
9.2275
 20
-4.1614
 30
0.0
 40
0.5
  1
WS502
100
AcDbAttributeDefinition
  3

  2
FS
 70
     8
280
     0
  0
ATTDEF
  5
170
330
15E
100
AcDbEntity
  8
AM_6
100
AcDbText
 10
9.2275
 20
-4.6614
 30
0.0
 40
0.5
  1
2.25
100
AcDbAttributeDefinition
  3

  2
A
 70
     8
280
     0
  0
ATTDEF
  5
171
330
15E
100
AcDbEntity
  8
AM_6
100
AcDbText
 10
9.2275
 20
-5.1614
 30
0.0
 40
0.5
  1
6.69
100
AcDbAttributeDefinition
  3

  2
B
 70
     8
280
     0
  0
ATTDEF
  5
172
330
15E
100
AcDbEntity
  8
AM_6
100
AcDbText
 10
9.2275
 20
-5.6614
 30
0.0
 40
0.5
  1
1.063
100
AcDbAttributeDefinition
  3

  2
C
 70
     8
280
     0
  0
ATTDEF
  5
173
330
15E
100
AcDbEntity
  8
AM_6
100
AcDbText
 10
9.2275
 20
-6.1614
 30
0.0
 40
0.5
  1
3.75
100
AcDbAttributeDefinition
  3

  2
D
 70
     8
280
     0
  0
ATTDEF
  5
174
330
15E
100
AcDbEntity
  8
AM_6
100
AcDbText
 10
9.2275
 20
-6.6614
 30
0.0
 40
0.5
  1
4.19
100
AcDbAttributeDefinition
  3

  2
E
 70
     8
280
     0
  0
ATTDEF
  5
175
330
15E
100
AcDbEntity
  8
AM_6
100
AcDbText
 10
9.2275
 20
-7.1614
 30
0.0
 40
0.5
  1
1-1/4
100
AcDbAttributeDefinition
  3

  2
F
 70
     8
280
     0
  0
ATTDEF
  5
176
330
15E
100
AcDbEntity
  8
AM_6
100
AcDbText
 10
9.2275
 20
-7.6614
 30
0.0
 40
0.5
  1
0.75
100
AcDbAttributeDefinition
  3

  2
G
 70
     8
280
     0
  0
ATTDEF
  5
177
330
15E
100
AcDbEntity
  8
AM_6
100
AcDbText
 10
9.2275
 20
-8.1614
 30
0.0
 40
0.5
  1
1.00
100
AcDbAttributeDefinition
  3

  2
H
 70
     8
280
     0
  0
ATTDEF
  5
178
330
15E
100
AcDbEntity
  8
AM_6
100
AcDbText
 10
9.2275
 20
-8.6614
 30
0.0
 40
0.5
  1
4.00
100
AcDbAttributeDefinition
  3

  2
J
 70
     8
280
     0
  0
ATTDEF
  5
179
330
15E
100
AcDbEntity
  8
AM_6
100
AcDbText
 10
9.2275
 20
-9.1614
 30
0.0
 40
0.5
  1
2.50
100
AcDbAttributeDefinition
  3

  2
K
 70
     8
280
     0
  0
ATTDEF
  5
17A
330
15E
100
AcDbEntity
  8
AM_6
100
AcDbText
 10
9.2275
 20
-9.6614
 30
0.0
 40
0.5
  1
3.69
100
AcDbAttributeDefinition
  3

  2
L
 70
     8
280
     0
  0
ATTDEF
  5
17B
330
15E
100
AcDbEntity
  8
AM_6
100
AcDbText
 10
9.2275
 20
-10.1614
 30
0.0
 40
0.5
  1
5.110/5.140
100
AcDbAttributeDefinition
  3

  2
M
 70
     8
280
     0
  0
ATTDEF
  5
17C
330
15E
100
AcDbEntity
  8
AM_6
100
AcDbText
 10
9.2275
 20
-10.6614
 30
0.0
 40
0.5
  1
5.88
100
AcDbAttributeDefinition
  3

  2
N
 70
     8
280
     0
  0
ATTDEF
  5
17D
330
15E
100
AcDbEntity
  8
AM_6
100
AcDbText
 10
9.2275
 20
-11.1614
 30
0.0
 40
0.5
  1
0.88
100
AcDbAttributeDefinition
  3

  2
R
 70
     8
280
     0
  0
ATTDEF
  5
17E
330
15E
100
AcDbEntity
  8
AM_6
100
AcDbText
 10
9.2275
 20
-11.6614
 30
0.0
 40
0.5
  1
1.37
100
AcDbAttributeDefinition
  3

  2
S
 70
     8
280
     0
  0
ATTDEF
  5
17F
330
15E
100
AcDbEntity
  8
AM_6
100
AcDbText
 10
9.2275
 20
-12.1614
 30
0.0
 40
0.5
  1
2.50
100
AcDbAttributeDefinition
  3

  2
T
 70
     8
280
     0
  0
ATTDEF
  5
180
330
15E
100
AcDbEntity
  8
AM_6
100
AcDbText
 10
9.2275
 20
-12.6614
 30
0.0
 40
0.5
  1
5630
100
AcDbAttributeDefinition
  3

  2
CAPS
 70
     8
280
     0
  0
ATTDEF
  5
181
330
15E
100
AcDbEntity
  8
AM_6
100
AcDbText
 10
9.2275
 20
-13.1614
 30
0.0
 40
0.5
  1
9975
100
AcDbAttributeDefinition
  3

  2
CAPD
 70
     8
280
     0
  0
ATTDEF
  5
182
330
15E
100
AcDbEntity
  8
AM_6
100
AcDbText
 10
9.2275
 20
-13.6614
 30
0.0
 40
0.5
  1
baldor
100
AcDbAttributeDefinition
  3

  2
COMPANY
 70
     8
280
     0
  0
ELLIPSE
  5
183
330
15E
100
AcDbEntity
  8
AM_9
100
AcDbEllipse
 10
-2.25166604983954
 20
-0.0000000000000001
 30
0.0
 11
2.143131898507868E-17
 21
0.35
 31
0.0
210
0.0
220
0.0
230
1.0
 40
0.5000000000000008
 41
0.0
 42
6.283185307179586
  0
LINE
  5
184
330
15E
100
AcDbEntity
  8
AM_9
100
AcDbLine
 10
-2.166367112724604
 20
-0.4499954682804876
 30
0.0
 11
-2.165026247470244
 21
-0.4499999962974511
 31
0.0
  0
LWPOLYLINE
  5
185
330
15E
100
AcDbEntity
  8
AM_9
100
AcDbPolyline
 90
       25
 70
     0
 43
0.0
 10
-2.440063509461097
 20
-0.0000000000000001
 10
-2.439914022176221
 20
-0.0154628152041306
 10
-2.438835129846172
 20
-0.0442712079011847
 10
-2.436714862499708
 20
-0.0729193596021653
 10
-2.433553283457678
 20
-0.1013068008110168
 10
-2.429349036486663
 20
-0.1293389328105617
 10
-2.424098734871585
 20
-0.1569232965995089
 10
-2.417796059688448
 20
-0.1839696244833056
 10
-2.410430714235007
 20
-0.2103893646877182
 10
-2.401987407808677
 20
-0.2360943583876614
 10
-2.392445247541153
 20
-0.2609942188195906
 10
-2.381778282160816
 20
-0.2849918563459518
 10
-2.369958496192842
 20
-0.3079766864112012
 10
-2.356963136701259
 20
-0.3298157706080166
 10
-2.342799831616516
 20
-0.3503294842517826
 10
-2.327528586408769
 20
-0.3692968834810069
 10
-2.311253395089174
 20
-0.3865041736546929
 10
-2.294126031377361
 20
-0.4017630840757615
 10
-2.276321185485742
 20
-0.414944893689398
 10
-2.258007456791972
 20
-0.4259918319273213
 10
-2.23933179307711
 20
-0.434902985466839
 10
-2.220420073561105
 20
-0.441710421266349
 10
-2.201384825708303
 20
-0.4464604036019949
 10
-2.182331525701632
 20
-0.4492037436699032
 10
-2.166367112724604
 20
-0.4499954682804876
  0
LWPOLYLINE
  5
186
330
15E
100
AcDbEntity
  8
AM_9
100
AcDbPolyline
 90
       26
 70
     0
 43
0.0
 10
-2.16677681077717
 20
0.4499921721567252
 10
-2.174094058535729
 20
0.4497824491404081
 10
-2.192798677573076
 20
0.4479413660635917
 10
-2.211181456413626
 20
0.4442718595060112
 10
-2.229182606354313
 20
0.4388228630517246
 10
-2.246759057672807
 20
0.4316294755440251
 10
-2.263881427990699
 20
0.4227087734925553
 10
-2.280528901030328
 20
0.4120577650024516
 10
-2.296680972458035
 20
0.3996559034122794
 10
-2.312306864950239
 20
0.3854747091833338
 10
-2.327355056229314
 20
0.3694958038193676
 10
-2.34174749395167
 20
0.3517346228425217
 10
-2.35538373188585
 20
0.3322606942282418
 10
-2.368156328570978
 20
0.3112021052227483
 10
-2.37997097794888
 20
0.2887290082493829
 10
-2.390754750568912
 20
0.2650392546622842
 10
-2.400468135756015
 20
0.2403188646159165
 10
-2.409103629300008
 20
0.2147102040105806
 10
-2.416664239584725
 20
0.188336698335119
 10
-2.423157008211769
 20
0.1613085811028544
 10
-2.428589372624693
 20
0.1337283693261397
 10
-2.432967586384251
 20
0.1056948324019697
 10
-2.436296315645441
 20
0.0773054421845984
 10
-2.438578788243686
 20
0.0486576515039638
 10
-2.439817123549974
 20
0.0198493681737861
 10
-2.440063509461097
 20
-0.0000000000000001
  0
LINE
  5
187
330
15E
100
AcDbEntity
  8
AM_9
100
AcDbLine
 10
-2.165153444540427
 20
0.4499999784311501
 30
0.0
 11
-2.16677681077717
 21
0.4499921721567252
 31
0.0
  0
LINE
  5
188
330
15E
100
AcDbEntity
  8
AM_9
100
AcDbLine
 10
3.44
 20
-0.625
 30
0.0
 11
4.19
 21
-0.625
 31
0.0
  0
LINE
  5
189
330
15E
100
AcDbEntity
  8
AM_9
100
AcDbLine
 10
4.19
 20
0.625
 30
0.0
 11
3.44
 21
0.625
 31
0.0
  0
LINE
  5
18A
330
15E
100
AcDbEntity
  8
AM_9
100
AcDbLine
 10
3.333699999999999
 20
-1.063
 30
0.0
 11
3.333699999999999
 21
1.063
 31
0.0
  0
LINE
  5
18B
330
15E
100
AcDbEntity
  8
AM_9
100
AcDbLine
 10
3.44
 20
-1.063
 30
0.0
 11
3.44
 21
1.063
 31
0.0
  0
LINE
  5
18C
330
15E
100
AcDbEntity
  8
AM_9
100
AcDbLine
 10
2.546300000000001
 20
-1.063
 30
0.0
 11
2.5463
 21
1.063
 31
0.0
  0
LINE
  5
18D
330
15E
100
AcDbEntity
  8
AM_9
100
AcDbLine
 10
2.440000000000001
 20
-1.063
 30
0.0
 11
2.440000000000001
 21
1.063
 31
0.0
  0
LWPOLYLINE
  5
18E
330
15E
100
AcDbEntity
  8
AM_9
100
AcDbPolyline
 90
       29
 70
     0
 43
0.0
 10
-2.165063509461096
 20
0.4500000000000001
 10
-2.139625267729278
 20
0.4471783023486731
 10
-2.113586439806102
 20
0.4388241951523654
 10
-2.087485512157708
 20
0.4251041570475877
 10
-2.061645794963589
 20
0.4060965016803194
 10
-2.036395778542575
 20
0.382055642365409
 10
-2.012311202303114
 20
0.3534307784643736
 10
-1.989539535282844
 20
0.3200805866437464
 10
-1.968657518177258
 20
0.2826271999259741
 10
-1.950193539538812
 20
0.2417526002581019
 10
-1.934399852093066
 20
0.1974508613969314
 10
-1.921660451198932
 20
0.1504576668652119
 10
-1.912336929540166
 20
0.1016636261114869
 10
-1.906719033506396
 20
0.0520597906004988
 10
-1.904732967231662
 20
0.0016259837237424
 10
-1.906437360504936
 20
-0.0486667690934704
 10
-1.911778917543821
 20
-0.0977265622197037
 10
-1.920586584866101
 20
-0.1457156008381513
 10
-1.932614012387572
 20
-0.1917497283469314
 10
-1.947785608510142
 20
-0.2356182571676715
 10
-1.965727712711565
 20
-0.2767011253949209
 10
-1.985978066095369
 20
-0.3142635656857701
 10
-2.008577426600934
 20
-0.3483833854171926
 10
-2.032869160140273
 20
-0.3782275481203719
 10
-2.058266155036566
 20
-0.4032364813120439
 10
-2.084439167261164
 20
-0.4231148522979765
 10
-2.111008528167206
 20
-0.4377029843826927
 10
-2.137383403399535
 20
-0.4467073513569666
 10
-2.165063509461097
 20
-0.4500000000000002
  0
LWPOLYLINE
  5
18F
330
15E
100
AcDbEntity
  8
AM_9
100
AcDbPolyline
 90
       29
 70
     0
 43
0.0
 10
-2.165063509461097
 20
-0.4500000000000002
 10
-2.188646443770359
 20
-0.447428388211415
 10
-2.211174363769216
 20
-0.4397770188020486
 10
-2.23313858790378
 20
-0.4265432153574473
 10
-2.253602706552328
 20
-0.4080888332453509
 10
-2.272290617799272
 20
-0.3847637734792924
 10
-2.289282846587761
 20
-0.3564169383239927
 10
-2.304394388190802
 20
-0.3235872445730978
 10
-2.317495193214888
 20
-0.2868713111202831
 10
-2.328710813319324
 20
-0.2460343868986163
 10
-2.337931863157699
 20
-0.2019211547682603
 10
-2.345112699727575
 20
-0.1553534463082589
 10
-2.350256942620283
 20
-0.1069674178738333
 10
-2.353450813667463
 20
-0.0570394518032223
 10
-2.354684486622697
 20
-0.0065328598339807
 10
-2.353978837548784
 20
0.043321488189982
 10
-2.35137363536555
 20
0.092785109367682
 10
-2.346876459473126
 20
0.1409284119151872
 10
-2.340456795520762
 20
0.1872083593436662
 10
-2.332088190577055
 20
0.2313102893699548
 10
-2.321807879162757
 20
0.2724428675499831
 10
-2.309370617065477
 20
0.3107031836992689
 10
-2.29489729063549
 20
0.3451992199102455
 10
-2.278505685800999
 20
0.3753004524102855
 10
-2.260018813776859
 20
0.4008439161496014
 10
-2.23963167672121
 20
0.4213909131886711
 10
-2.217620281852016
 20
0.4365368357338443
 10
-2.19205907992326
 20
0.4466067215940633
 10
-2.165063509461096
 20
0.4500000000000001
  0
LINE
  5
190
330
15E
100
AcDbEntity
  8
AM_9
100
AcDbLine
 10
-0.7291666666666665
 20
-0.4783499999999997
 30
0.0
 11
-0.7291666666666665
 21
1.063
 31
0.0
  0
LINE
  5
191
330
15E
100
AcDbEntity
  8
AM_9
100
AcDbLine
 10
0.7291666666666665
 20
-0.4783499999999997
 30
0.0
 11
0.7291666666666665
 21
1.063
 31
0.0
  0
LINE
  5
192
330
15E
100
AcDbEntity
  8
AM_9
100
AcDbLine
 10
1.9685
 20
-1.063
 30
0.0
 11
1.9685
 21
1.063
 31
0.0
  0
LINE
  5
193
330
15E
100
AcDbEntity
  8
AM_9
100
AcDbLine
 10
-1.9685
 20
1.063
 30
0.0
 11
-1.9685
 21
-1.063
 31
0.0
  0
LINE
  5
194
330
15E
100
AcDbEntity
  8
AM_9
100
AcDbLine
 10
0.7291666666666665
 20
-0.4783499999999997
 30
0.0
 11
-0.7291666666666665
 21
-0.4783499999999997
 31
0.0
  0
LINE
  5
195
330
15E
100
AcDbEntity
  8
AM_9
100
AcDbLine
 10
1.875
 20
-1.063
 30
0.0
 11
-1.875
 21
-1.063
 31
0.0
  0
LINE
  5
196
330
15E
100
AcDbEntity
  8
AM_9
100
AcDbLine
 10
1.875
 20
1.063
 30
0.0
 11
-1.875
 21
1.063
 31
0.0
  0
ELLIPSE
  5
197
330
15E
100
AcDbEntity
  8
AM_9
100
AcDbEllipse
 10
-2.165063509461097
 20
0.0000000000000001
 30
0.0
 11
-8.266365894244634E-17
 21
-0.4500000000000001
 31
0.0
210
0.0
220
0.0
230
1.0
 40
0.5000000000000007
 41
0.0
 42
6.283185307179586
  0
LINE
  5
19A
330
15E
100
AcDbEntity
  8
AM_7
100
AcDbLine
 10
4.2275
 20
0.0
 30
0.0
 11
3.4025
 21
0.0
 31
0.0
  0
LINE
  5
19B
330
15E
100
AcDbEntity
  8
AM_7
100
AcDbLine
 10
0.0
 20
2.3386
 30
0.0
 11
0.0
 21
-2.3386
 31
0.0
  0
LINE
  5
19C
330
15E
100
AcDbEntity
  8
AM_4
100
AcDbLine
 10
3.44
 20
-1.063
 30
0.0
 11
3.44
 21
-1.25
 31
0.0
  0
LINE
  5
19D
330
15E
100
AcDbEntity
  8
AM_4
100
AcDbLine
 10
3.44
 20
-1.25
 30
0.0
 11
4.19
 21
-1.25
 31
0.0
  0
LINE
  5
19E
330
15E
100
AcDbEntity
  8
AM_4
100
AcDbLine
 10
4.19
 20
1.25
 30
0.0
 11
3.44
 21
1.25
 31
0.0
  0
LINE
  5
19F
330
15E
100
AcDbEntity
  8
AM_4
100
AcDbLine
 10
3.44
 20
1.25
 30
0.0
 11
3.44
 21
1.063
 31
0.0
  0
LINE
  5
1A0
330
15E
100
AcDbEntity
  8
AM_4
100
AcDbLine
 10
4.19
 20
1.25
 30
0.0
 11
4.19
 21
-1.25
 31
0.0
  0
LINE
  5
1A1
330
15E
100
AcDbEntity
  8
AM_4
100
AcDbLine
 10
-2.45
 20
1.063
 30
0.0
 11
-2.5
 21
1.013
 31
0.0
  0
LINE
  5
1A2
330
15E
100
AcDbEntity
  8
AM_4
100
AcDbLine
 10
-2.45
 20
1.063
 30
0.0
 11
-1.875
 21
1.063
 31
0.0
  0
LINE
  5
1A3
330
15E
100
AcDbEntity
  8
AM_4
100
AcDbLine
 10
-2.5
 20
-1.013
 30
0.0
 11
-2.45
 21
-1.063
 31
0.0
  0
LINE
  5
1A4
330
15E
100
AcDbEntity
  8
AM_4
100
AcDbLine
 10
-2.45
 20
-1.063
 30
0.0
 11
-1.875
 21
-1.063
 31
0.0
  0
LINE
  5
1A5
330
15E
100
AcDbEntity
  8
AM_4
100
AcDbLine
 10
-2.5
 20
1.013
 30
0.0
 11
-2.5
 21
-1.013
 31
0.0
  0
LINE
  5
1A6
330
15E
100
AcDbEntity
  8
AM_4
100
AcDbLine
 10
-2.5
 20
1.013
 30
0.0
 11
-1.875
 21
1.013
 31
0.0
  0
LINE
  5
1A7
330
15E
100
AcDbEntity
  8
AM_4
100
AcDbLine
 10
-2.5
 20
-1.013
 30
0.0
 11
-1.875
 21
-1.013
 31
0.0
  0
LINE
  5
1A8
330
15E
100
AcDbEntity
  8
AM_4
100
AcDbLine
 10
4.190000000000001
 20
1.063
 30
0.0
 11
1.875
 21
1.063
 31
0.0
  0
LINE
  5
1A9
330
15E
100
AcDbEntity
  8
AM_4
100
AcDbLine
 10
4.0837
 20
0.9566999999999998
 30
0.0
 11
1.875
 21
0.9566999999999997
 31
0.0
  0
LINE
  5
1AA
330
15E
100
AcDbEntity
  8
AM_4
100
AcDbLine
 10
4.0837
 20
-0.9566999999999986
 30
0.0
 11
4.0837
 21
0.9566999999999998
 31
0.0
  0
LINE
  5
1AB
330
15E
100
AcDbEntity
  8
AM_4
100
AcDbLine
 10
4.083700000000001
 20
0.9566999999999992
 30
0.0
 11
4.190000000000001
 21
1.063
 31
0.0
  0
LINE
  5
1AC
330
15E
100
AcDbEntity
  8
AM_4
100
AcDbLine
 10
4.19
 20
-1.063
 30
0.0
 11
1.875
 21
-1.063
 31
0.0
  0
LINE
  5
1AD
330
15E
100
AcDbEntity
  8
AM_4
100
AcDbLine
 10
4.190000000000001
 20
-1.062999999999999
 30
0.0
 11
4.0837
 21
-0.9566999999999986
 31
0.0
  0
LINE
  5
1AE
330
15E
100
AcDbEntity
  8
AM_4
100
AcDbLine
 10
4.0837
 20
-0.9566999999999986
 30
0.0
 11
1.875
 21
-0.9566999999999996
 31
0.0
  0
LINE
  5
1AF
330
15E
100
AcDbEntity
  8
AM_4
100
AcDbLine
 10
-1.875
 20
1.25
 30
0.0
 11
-1.875
 21
-1.25
 31
0.0
  0
LINE
  5
1B0
330
15E
100
AcDbEntity
  8
AM_4
100
AcDbLine
 10
-1.7687
 20
-1.1437
 30
0.0
 11
-1.7687
 21
-0.5314999999999999
 31
0.0
  0
LINE
  5
1B1
330
15E
100
AcDbEntity
  8
AM_4
100
AcDbLine
 10
1.7687
 20
-1.1437
 30
0.0
 11
-1.7687
 21
-1.1437
 31
0.0
  0
LINE
  5
1B2
330
15E
100
AcDbEntity
  8
AM_4
100
AcDbLine
 10
-1.7687
 20
-1.143699999999999
 30
0.0
 11
-1.875
 21
-1.25
 31
0.0
  0
LINE
  5
1B3
330
15E
100
AcDbEntity
  8
AM_4
100
AcDbLine
 10
1.875
 20
-1.25
 30
0.0
 11
-1.875
 21
-1.25
 31
0.0
  0
LINE
  5
1B4
330
15E
100
AcDbEntity
  8
AM_4
100
AcDbLine
 10
1.875
 20
1.25
 30
0.0
 11
-1.875
 21
1.25
 31
0.0
  0
LINE
  5
1B5
330
15E
100
AcDbEntity
  8
AM_4
100
AcDbLine
 10
1.7687
 20
1.1437
 30
0.0
 11
-1.7687
 21
1.1437
 31
0.0
  0
LINE
  5
1B6
330
15E
100
AcDbEntity
  8
AM_4
100
AcDbLine
 10
1.7687
 20
1.1437
 30
0.0
 11
1.875
 21
1.250000000000001
 31
0.0
  0
LINE
  5
1B7
330
15E
100
AcDbEntity
  8
AM_4
100
AcDbLine
 10
1.7687
 20
0.5315000000000003
 30
0.0
 11
1.7687
 21
1.1437
 31
0.0
  0
LINE
  5
1B8
330
15E
100
AcDbEntity
  8
AM_4
100
AcDbLine
 10
-1.875
 20
-0.5314999999999999
 30
0.0
 11
1.875
 21
-0.5314999999999999
 31
0.0
  0
LINE
  5
1B9
330
15E
100
AcDbEntity
  8
AM_4
100
AcDbLine
 10
1.7687
 20
-1.1437
 30
0.0
 11
1.7687
 21
-0.5314999999999999
 31
0.0
  0
LINE
  5
1BA
330
15E
100
AcDbEntity
  8
AM_4
100
AcDbLine
 10
1.875
 20
-1.25
 30
0.0
 11
1.7687
 21
-1.1437
 31
0.0
  0
LINE
  5
1BB
330
15E
100
AcDbEntity
  8
AM_4
100
AcDbLine
 10
1.875
 20
1.25
 30
0.0
 11
1.875
 21
-1.25
 31
0.0
  0
LINE
  5
1BC
330
15E
100
AcDbEntity
  8
AM_4
100
AcDbLine
 10
1.875
 20
0.5315000000000003
 30
0.0
 11
-1.875
 21
0.5315000000000003
 31
0.0
  0
LINE
  5
1BD
330
15E
100
AcDbEntity
  8
AM_4
100
AcDbLine
 10
-1.7687
 20
0.5315000000000002
 30
0.0
 11
-1.7687
 21
1.1437
 31
0.0
  0
LINE
  5
1BE
330
15E
100
AcDbEntity
  8
AM_4
100
AcDbLine
 10
-1.875
 20
1.25
 30
0.0
 11
-1.7687
 21
1.1437
 31
0.0
  0
ENDBLK
  5
161
330
15E
100
AcDbEntity
  8
0
100
AcDbBlockEnd
  0
ENDSEC
  0
SECTION
  2
ENTITIES
  0
INSERT
  5
6F
330
1F
100
AcDbEntity
  8
0
100
AcDbBlockReference
  2
1_062306_4
 10
0.0
 20
0.0
 30
0.0
  0
POINT
  5
1C0
330
1F
100
AcDbEntity
  8
ConnectionPoints
100
AcDbPoint
 10
-2.251666049839541
 20
-0.0000000000000001
 30
-1.3
  0
POINT
  5
1C1
330
1F
100
AcDbEntity
  8
ConnectionPoints
100
AcDbPoint
 10
-2.251666049839541
 20
-0.0000000000000001
 30
-1.3
  0
POINT
  5
1C2
330
1F
100
AcDbEntity
  8
ConnectionPoints
100
AcDbPoint
 10
0.0
 20
-1.37
 30
0.0000000000000001
  0
ENDSEC
  0
SECTION
  2
OBJECTS
  0
DICTIONARY
  5
C
330
0
100
AcDbDictionary
281
     1
  3
ACAD_DETAILVIEWSTYLE
350
1CA
  3
ACAD_GROUP
350
D
  3
ACAD_LAYOUT
350
1A
  3
ACAD_MATERIAL
350
43
  3
ACAD_MLEADERSTYLE
350
6B
  3
ACAD_MLINESTYLE
350
17
  3
ACAD_PLOTSETTINGS
350
19
  3
ACAD_PLOTSTYLENAME
350
E
  3
ACAD_SCALELIST
350
47
  3
ACAD_SECTIONVIEWSTYLE
350
1CB
  3
ACAD_TABLESTYLE
350
69
  3
ACAD_VISUALSTYLE
350
2A
  3
ACDB_RECOMPOSE_DATA
350
1C7
  3
AcDbVariableDictionary
350
1C3
  0
SUN
  5
6D
330
29
100
AcDbSun
 90
        1
290
     0
 63
     7
421
 16777215
 40
1.0
291
     1
 91
  2455826
 92
 54000000
292
     0
 70
     2
 71
   256
280
     1
  0
DICTIONARY
  5
1CA
102
{ACAD_REACTORS
330
C
102
}
330
C
100
AcDbDictionary
281
     1
  0
DICTIONARY
  5
D
102
{ACAD_REACTORS
330
C
102
}
330
C
100
AcDbDictionary
281
     1
  0
DICTIONARY
  5
1A
102
{ACAD_REACTORS
330
C
102
}
330
C
100
AcDbDictionary
281
     1
  3
Layout1
350
1E
  3
Layout2
350
26
  3
Model
350
22
  0
DICTIONARY
  5
43
102
{ACAD_REACTORS
330
C
102
}
330
C
100
AcDbDictionary
281
     1
  3
ByBlock
350
45
  3
ByLayer
350
44
  3
Global
350
46
  0
DICTIONARY
  5
6B
102
{ACAD_REACTORS
330
C
102
}
330
C
100
AcDbDictionary
281
     1
  3
Standard
350
6C
  0
DICTIONARY
  5
17
102
{ACAD_REACTORS
330
C
102
}
330
C
100
AcDbDictionary
281
     1
  3
Standard
350
18
  0
DICTIONARY
  5
19
102
{ACAD_REACTORS
330
C
102
}
330
C
100
AcDbDictionary
281
     1
  0
ACDBDICTIONARYWDFLT
  5
E
102
{ACAD_REACTORS
330
C
102
}
330
C
100
AcDbDictionary
281
     1
  3
Normal
350
F
100
AcDbDictionaryWithDefault
340
F
  0
DICTIONARY
  5
47
102
{ACAD_REACTORS
330
C
102
}
330
C
100
AcDbDictionary
281
     1
  3
A0
350
48
  3
A1
350
49
  3
A2
350
4A
  3
A3
350
4B
  3
A4
350
4C
  3
A5
350
4D
  3
A6
350
4E
  3
A7
350
4F
  3
A8
350
50
  3
A9
350
51
  3
B0
350
52
  3
B1
350
53
  3
B2
350
54
  3
B3
350
55
  3
B4
350
56
  3
B5
350
57
  3
B6
350
58
  3
B7
350
59
  3
B8
350
5A
  3
B9
350
5B
  3
C0
350
5C
  3
C1
350
5D
  3
C2
350
5E
  3
C3
350
5F
  3
C4
350
60
  3
C5
350
61
  3
C6
350
62
  3
C7
350
63
  3
C8
350
64
  3
C9
350
65
  3
D0
350
66
  3
D1
350
67
  3
D2
350
68
  0
DICTIONARY
  5
1CB
102
{ACAD_REACTORS
330
C
102
}
330
C
100
AcDbDictionary
281
     1
  0
DICTIONARY
  5
69
102
{ACAD_REACTORS
330
C
102
}
330
C
100
AcDbDictionary
281
     1
  3
Standard
350
6A
  0
DICTIONARY
  5
2A
102
{ACAD_REACTORS
330
C
102
}
330
C
100
AcDbDictionary
281
     1
  3
2dWireframe
350
2F
  3
Basic
350
32
  3
Brighten
350
36
  3
ColorChange
350
3A
  3
Conceptual
350
34
  3
Dim
350
35
  3
EdgeColorOff
350
3D
  3
Facepattern
350
39
  3
Flat
350
2B
  3
FlatWithEdges
350
2C
  3
Gouraud
350
2D
  3
GouraudWithEdges
350
2E
  3
Hidden
350
31
  3
JitterOff
350
3B
  3
Linepattern
350
38
  3
OverhangOff
350
3C
  3
Realistic
350
33
  3
Shaded
350
42
  3
Shaded with edges
350
41
  3
Shades of Gray
350
3E
  3
Sketchy
350
3F
  3
Thicken
350
37
  3
Wireframe
350
30
  3
X-Ray
350
40
  0
XRECORD
  5
1C7
102
{ACAD_REACTORS
330
C
102
}
330
C
100
AcDbXrecord
280
     1
 90
        1
330
6A
  0
DICTIONARY
  5
1C3
102
{ACAD_REACTORS
330
C
102
}
330
C
100
AcDbDictionary
281
     1
  3
CANNOSCALE
350
1C4
  3
CMLEADERSTYLE
350
1C9
  3
CTABLESTYLE
350
1C8
  0
LAYOUT
  5
1E
102
{ACAD_REACTORS
330
1A
102
}
330
1A
100
AcDbPlotSettings
  1

  2
none_device
  4

  6

 40
0.0
 41
0.0
 42
0.0
 43
0.0
 44
0.0
 45
0.0
 46
0.0
 47
0.0
 48
0.0
 49
0.0
140
0.0
141
0.0
142
1.0
143
1.0
 70
   688
 72
     0
 73
     0
 74
     5
  7

 75
    16
 76
     0
 77
     2
 78
   300
147
1.0
148
0.0
149
0.0
100
AcDbLayout
  1
Layout1
 70
     1
 71
     1
 10
0.0
 20
0.0
 11
12.0
 21
9.0
 12
0.0
 22
0.0
 32
0.0
 14
1.000000000000000E+20
 24
1.000000000000000E+20
 34
1.000000000000000E+20
 15
-1.000000000000000E+20
 25
-1.000000000000000E+20
 35
-1.000000000000000E+20
146
0.0
 13
0.0
 23
0.0
 33
0.0
 16
1.0
 26
0.0
 36
0.0
 17
0.0
 27
1.0
 37
0.0
 76
     0
330
1B
  0
LAYOUT
  5
26
102
{ACAD_REACTORS
330
1A
102
}
330
1A
100
AcDbPlotSettings
  1

  2
none_device
  4

  6

 40
0.0
 41
0.0
 42
0.0
 43
0.0
 44
0.0
 45
0.0
 46
0.0
 47
0.0
 48
0.0
 49
0.0
140
0.0
141
0.0
142
1.0
143
1.0
 70
   688
 72
     0
 73
     0
 74
     5
  7

 75
    16
 76
     0
 77
     2
 78
   300
147
1.0
148
0.0
149
0.0
100
AcDbLayout
  1
Layout2
 70
     1
 71
     2
 10
0.0
 20
0.0
 11
0.0
 21
0.0
 12
0.0
 22
0.0
 32
0.0
 14
0.0
 24
0.0
 34
0.0
 15
0.0
 25
0.0
 35
0.0
146
0.0
 13
0.0
 23
0.0
 33
0.0
 16
1.0
 26
0.0
 36
0.0
 17
0.0
 27
1.0
 37
0.0
 76
     0
330
23
  0
LAYOUT
  5
22
102
{ACAD_REACTORS
330
1A
102
}
330
1A
100
AcDbPlotSettings
  1

  2
none_device
  4
Letter_(8.50_x_11.00_Inches)
  6

 40
6.35
 41
6.35
 42
6.35000508
 43
6.35000508
 44
215.9
 45
279.4
 46
0.0
 47
0.0
 48
0.0
 49
0.0
140
0.0
141
0.0
142
1.0
143
1.0
 70
  1712
 72
     0
 73
     0
 74
     0
  7

 75
     0
 76
     0
 77
     2
 78
   300
147
1.0
148
0.0
149
0.0
100
AcDbLayout
  1
Model
 70
     1
 71
     0
 10
0.0
 20
0.0
 11
12.0
 21
9.0
 12
0.0
 22
0.0
 32
0.0
 14
1.000000000000000E+20
 24
1.000000000000000E+20
 34
1.000000000000000E+20
 15
-1.000000000000000E+20
 25
-1.000000000000000E+20
 35
-1.000000000000000E+20
146
0.0
 13
0.0
 23
0.0
 33
0.0
 16
1.0
 26
0.0
 36
0.0
 17
0.0
 27
1.0
 37
0.0
 76
     0
330
1F
331
29
  0
MATERIAL
  5
45
102
{ACAD_REACTORS
330
43
102
}
330
43
100
AcDbMaterial
  1
ByBlock
 72
     1
 94
      127
  0
MATERIAL
  5
44
102
{ACAD_REACTORS
330
43
102
}
330
43
100
AcDbMaterial
  1
ByLayer
 72
     1
 94
      127
  0
MATERIAL
  5
46
102
{ACAD_REACTORS
330
43
102
}
330
43
100
AcDbMaterial
  1
Global
 72
     1
 94
      127
  0
MLEADERSTYLE
  5
6C
102
{ACAD_REACTORS
330
6B
102
}
330
6B
100
AcDbMLeaderStyle
179
     2
170
     2
171
     1
172
     0
 90
        2
 40
0.0
 41
0.0
173
     1
 91
-1056964608
340
14
 92
       -2
290
     1
 42
0.09
291
     1
 43
0.36
  3
Standard
341
0
 44
0.18
300

342
11
174
     1
178
     6
175
     1
176
     0
 93
-1056964608
 45
0.18
292
     0
297
     0
 46
0.18
343
0
 94
-1056964608
 47
1.0
 49
1.0
140
1.0
293
     1
141
0.0
294
     1
177
     0
142
1.0
295
     0
296
     0
143
0.125
271
     0
272
     9
273
     9
298
     0
  0
MLINESTYLE
  5
18
102
{ACAD_REACTORS
330
17
102
}
330
17
100
AcDbMlineStyle
  2
Standard
 70
     0
  3

 62
   256
 51
90.0
 52
90.0
 71
     2
 49
0.5
 62
   256
  6
BYLAYER
 49
-0.5
 62
   256
  6
BYLAYER
  0
ACDBPLACEHOLDER
  5
F
102
{ACAD_REACTORS
330
E
102
}
330
E
  0
SCALE
  5
48
102
{ACAD_REACTORS
330
47
102
}
330
47
100
AcDbScale
 70
     0
300
1:1
140
1.0
141
1.0
290
     1
  0
SCALE
  5
49
102
{ACAD_REACTORS
330
47
102
}
330
47
100
AcDbScale
 70
     0
300
1:2
140
1.0
141
2.0
290
     0
  0
SCALE
  5
4A
102
{ACAD_REACTORS
330
47
102
}
330
47
100
AcDbScale
 70
     0
300
1:4
140
1.0
141
4.0
290
     0
  0
SCALE
  5
4B
102
{ACAD_REACTORS
330
47
102
}
330
47
100
AcDbScale
 70
     0
300
1:5
140
1.0
141
5.0
290
     0
  0
SCALE
  5
4C
102
{ACAD_REACTORS
330
47
102
}
330
47
100
AcDbScale
 70
     0
300
1:8
140
1.0
141
8.0
290
     0
  0
SCALE
  5
4D
102
{ACAD_REACTORS
330
47
102
}
330
47
100
AcDbScale
 70
     0
300
1:10
140
1.0
141
10.0
290
     0
  0
SCALE
  5
4E
102
{ACAD_REACTORS
330
47
102
}
330
47
100
AcDbScale
 70
     0
300
1:16
140
1.0
141
16.0
290
     0
  0
SCALE
  5
4F
102
{ACAD_REACTORS
330
47
102
}
330
47
100
AcDbScale
 70
     0
300
1:20
140
1.0
141
20.0
290
     0
  0
SCALE
  5
50
102
{ACAD_REACTORS
330
47
102
}
330
47
100
AcDbScale
 70
     0
300
1:30
140
1.0
141
30.0
290
     0
  0
SCALE
  5
51
102
{ACAD_REACTORS
330
47
102
}
330
47
100
AcDbScale
 70
     0
300
1:40
140
1.0
141
40.0
290
     0
  0
SCALE
  5
52
102
{ACAD_REACTORS
330
47
102
}
330
47
100
AcDbScale
 70
     0
300
1:50
140
1.0
141
50.0
290
     0
  0
SCALE
  5
53
102
{ACAD_REACTORS
330
47
102
}
330
47
100
AcDbScale
 70
     0
300
1:100
140
1.0
141
100.0
290
     0
  0
SCALE
  5
54
102
{ACAD_REACTORS
330
47
102
}
330
47
100
AcDbScale
 70
     0
300
2:1
140
2.0
141
1.0
290
     0
  0
SCALE
  5
55
102
{ACAD_REACTORS
330
47
102
}
330
47
100
AcDbScale
 70
     0
300
4:1
140
4.0
141
1.0
290
     0
  0
SCALE
  5
56
102
{ACAD_REACTORS
330
47
102
}
330
47
100
AcDbScale
 70
     0
300
8:1
140
8.0
141
1.0
290
     0
  0
SCALE
  5
57
102
{ACAD_REACTORS
330
47
102
}
330
47
100
AcDbScale
 70
     0
300
10:1
140
10.0
141
1.0
290
     0
  0
SCALE
  5
58
102
{ACAD_REACTORS
330
47
102
}
330
47
100
AcDbScale
 70
     0
300
100:1
140
100.0
141
1.0
290
     0
  0
SCALE
  5
59
102
{ACAD_REACTORS
330
47
102
}
330
47
100
AcDbScale
 70
     0
300
1/128" = 1'-0"
140
0.0078125
141
12.0
290
     0
  0
SCALE
  5
5A
102
{ACAD_REACTORS
330
47
102
}
330
47
100
AcDbScale
 70
     0
300
1/64" = 1'-0"
140
0.015625
141
12.0
290
     0
  0
SCALE
  5
5B
102
{ACAD_REACTORS
330
47
102
}
330
47
100
AcDbScale
 70
     0
300
1/32" = 1'-0"
140
0.03125
141
12.0
290
     0
  0
SCALE
  5
5C
102
{ACAD_REACTORS
330
47
102
}
330
47
100
AcDbScale
 70
     0
300
1/16" = 1'-0"
140
0.0625
141
12.0
290
     0
  0
SCALE
  5
5D
102
{ACAD_REACTORS
330
47
102
}
330
47
100
AcDbScale
 70
     0
300
3/32" = 1'-0"
140
0.09375
141
12.0
290
     0
  0
SCALE
  5
5E
102
{ACAD_REACTORS
330
47
102
}
330
47
100
AcDbScale
 70
     0
300
1/8" = 1'-0"
140
0.125
141
12.0
290
     0
  0
SCALE
  5
5F
102
{ACAD_REACTORS
330
47
102
}
330
47
100
AcDbScale
 70
     0
300
3/16" = 1'-0"
140
0.1875
141
12.0
290
     0
  0
SCALE
  5
60
102
{ACAD_REACTORS
330
47
102
}
330
47
100
AcDbScale
 70
     0
300
1/4" = 1'-0"
140
0.25
141
12.0
290
     0
  0
SCALE
  5
61
102
{ACAD_REACTORS
330
47
102
}
330
47
100
AcDbScale
 70
     0
300
3/8" = 1'-0"
140
0.375
141
12.0
290
     0
  0
SCALE
  5
62
102
{ACAD_REACTORS
330
47
102
}
330
47
100
AcDbScale
 70
     0
300
1/2" = 1'-0"
140
0.5
141
12.0
290
     0
  0
SCALE
  5
63
102
{ACAD_REACTORS
330
47
102
}
330
47
100
AcDbScale
 70
     0
300
3/4" = 1'-0"
140
0.75
141
12.0
290
     0
  0
SCALE
  5
64
102
{ACAD_REACTORS
330
47
102
}
330
47
100
AcDbScale
 70
     0
300
1" = 1'-0"
140
1.0
141
12.0
290
     0
  0
SCALE
  5
65
102
{ACAD_REACTORS
330
47
102
}
330
47
100
AcDbScale
 70
     0
300
1-1/2" = 1'-0"
140
1.5
141
12.0
290
     0
  0
SCALE
  5
66
102
{ACAD_REACTORS
330
47
102
}
330
47
100
AcDbScale
 70
     0
300
3" = 1'-0"
140
3.0
141
12.0
290
     0
  0
SCALE
  5
67
102
{ACAD_REACTORS
330
47
102
}
330
47
100
AcDbScale
 70
     0
300
6" = 1'-0"
140
6.0
141
12.0
290
     0
  0
SCALE
  5
68
102
{ACAD_REACTORS
330
47
102
}
330
47
100
AcDbScale
 70
     0
300
1'-0" = 1'-0"
140
12.0
141
12.0
290
     0
  0
TABLESTYLE
  5
6A
102
{ACAD_REACTORS
330
69
102
}
102
{ACAD_XDICTIONARY
360
1C5
102
}
330
69
100
AcDbTableStyle
  3
Standard
 70
     0
 71
     0
 40
0.06
 41
0.06
280
     0
281
     0
  7
Standard
140
0.18
170
     2
 62
     0
 63
   257
283
     0
 90
        4
 91
        0
  1

274
    -2
284
     1
 64
     0
275
    -2
285
     1
 65
     0
276
    -2
286
     1
 66
     0
277
    -2
287
     1
 67
     0
278
    -2
288
     1
 68
     0
279
    -2
289
     1
 69
     0
  7
Standard
140
0.25
170
     5
 62
     0
 63
   257
283
     0
 90
        4
 91
        0
  1

274
    -2
284
     1
 64
     0
275
    -2
285
     1
 65
     0
276
    -2
286
     1
 66
     0
277
    -2
287
     1
 67
     0
278
    -2
288
     1
 68
     0
279
    -2
289
     1
 69
     0
  7
Standard
140
0.18
170
     5
 62
     0
 63
   257
283
     0
 90
        4
 91
        0
  1

274
    -2
284
     1
 64
     0
275
    -2
285
     1
 65
     0
276
    -2
286
     1
 66
     0
277
    -2
287
     1
 67
     0
278
    -2
288
     1
 68
     0
279
    -2
289
     1
 69
     0
  0
VISUALSTYLE
  5
2F
102
{ACAD_REACTORS
330
2A
102
}
330
2A
100
AcDbVisualStyle
  2
2dWireframe
 70
     4
177
     3
291
     0
 70
    58
 90
        0
176
     1
 90
        2
176
     1
 90
        0
176
     1
 90
        0
176
     1
 40
0.6
176
     1
 40
30.0
176
     1
 62
     7
420
 16777215
176
     1
 90
        1
176
     1
 90
        4
176
     1
 62
     7
176
     1
 62
   257
176
     1
 90
        1
176
     1
 90
        1
176
     1
 40
1.0
176
     1
 90
        0
176
     1
 62
   257
176
     1
 40
1.0
176
     1
 90
        1
176
     1
 90
        6
176
     1
 90
        2
176
     1
 62
     7
176
     1
 90
        5
176
     1
 90
        0
176
     1
 90
        0
176
     1
290
     0
176
     1
 90
        1
176
     1
 40
0.0
176
     1
 90
        0
176
     1
290
     1
176
     1
290
     1
176
     1
290
     0
176
     1
290
     0
176
     1
290
     0
176
     1
290
     0
176
     1
290
     0
176
     1
290
     0
176
     1
290
     0
176
     1
 90
       50
176
     1
 40
0.0
176
     1
 40
1.0
176
     1
 90
        0
176
     1
 62
    18
420
        0
176
     1
 90
       50
176
     1
 90
        3
176
     1
 62
     5
420
      255
176
     1
290
     0
176
     1
 90
       50
176
     1
 90
       50
176
     1
 90
       50
176
     1
290
     0
176
     1
 90
       50
176
     1
 62
   256
176
     0
 40
1.0
176
     0
 90
        2
176
     1
  1
strokes_ogs.tif
176
     1
290
     0
176
     1
 40
1.0
176
     1
 40
1.0
176
     1
  0
VISUALSTYLE
  5
32
102
{ACAD_REACTORS
330
2A
102
}
330
2A
100
AcDbVisualStyle
  2
Basic
 70
     7
177
     3
291
     1
 70
    58
 90
        1
176
     1
 90
        0
176
     1
 90
        1
176
     1
 90
        0
176
     1
 40
0.6
176
     1
 40
30.0
176
     1
 62
     7
420
 16777215
176
     1
 90
        0
176
     1
 90
        4
176
     1
 62
     7
176
     1
 62
   257
176
     1
 90
        1
176
     1
 90
        1
176
     1
 40
1.0
176
     1
 90
        8
176
     1
 62
     7
176
     1
 40
1.0
176
     1
 90
        1
176
     1
 90
        6
176
     1
 90
        2
176
     1
 62
     7
176
     1
 90
        5
176
     1
 90
        0
176
     1
 90
        0
176
     1
290
     0
176
     1
 90
        1
176
     1
 40
0.0
176
     1
 90
        0
176
     1
290
     0
176
     1
290
     1
176
     1
290
     1
176
     1
290
     0
176
     1
290
     0
176
     1
290
     0
176
     1
290
     0
176
     1
290
     0
176
     1
290
     0
176
     1
 90
       50
176
     1
 40
0.0
176
     1
 40
1.0
176
     1
 90
        0
176
     1
 62
    18
420
        0
176
     1
 90
       50
176
     1
 90
        3
176
     1
 62
     5
420
      255
176
     1
290
     0
176
     1
 90
       50
176
     1
 90
       50
176
     1
 90
       50
176
     1
290
     0
176
     1
 90
       50
176
     1
 62
   256
176
     0
 40
1.0
176
     0
 90
        2
176
     1
  1
strokes_ogs.tif
176
     1
290
     0
176
     1
 40
1.0
176
     1
 40
1.0
176
     1
  0
VISUALSTYLE
  5
36
102
{ACAD_REACTORS
330
2A
102
}
330
2A
100
AcDbVisualStyle
  2
Brighten
 70
    12
177
     3
291
     1
 70
    58
 90
        2
176
     1
 90
        2
176
     1
 90
        0
176
     1
 90
        0
176
     1
 40
0.6
176
     1
 40
30.0
176
     1
 62
     7
420
 16777215
176
     1
 90
        1
176
     1
 90
        4
176
     1
 62
     7
176
     1
 62
   257
176
     1
 90
        1
176
     1
 90
        1
176
     1
 40
1.0
176
     1
 90
        8
176
     1
 62
     7
176
     1
 40
1.0
176
     1
 90
        1
176
     1
 90
        6
176
     1
 90
        2
176
     1
 62
     7
176
     1
 90
        5
176
     1
 90
        0
176
     1
 90
        0
176
     1
290
     0
176
     1
 90
        1
176
     1
 40
50.0
176
     1
 90
        0
176
     1
290
     0
176
     1
290
     1
176
     1
290
     1
176
     1
290
     0
176
     1
290
     0
176
     1
290
     0
176
     1
290
     0
176
     1
290
     0
176
     1
290
     0
176
     1
 90
       50
176
     1
 40
0.0
176
     1
 40
1.0
176
     1
 90
        0
176
     1
 62
    18
420
        0
176
     1
 90
       50
176
     1
 90
        3
176
     1
 62
     5
420
      255
176
     1
290
     0
176
     1
 90
       50
176
     1
 90
       50
176
     1
 90
       50
176
     1
290
     0
176
     1
 90
       50
176
     1
 62
   256
176
     0
 40
1.0
176
     0
 90
        2
176
     1
  1
strokes_ogs.tif
176
     1
290
     0
176
     1
 40
1.0
176
     1
 40
1.0
176
     1
  0
VISUALSTYLE
  5
3A
102
{ACAD_REACTORS
330
2A
102
}
330
2A
100
AcDbVisualStyle
  2
ColorChange
 70
    16
177
     3
291
     1
 70
    58
 90
        2
176
     1
 90
        2
176
     1
 90
        3
176
     1
 90
        0
176
     1
 40
0.6
176
     1
 40
30.0
176
     1
 62
     8
420
  8421504
176
     1
 90
        1
176
     1
 90
        4
176
     1
 62
     7
176
     1
 62
   257
176
     1
 90
        1
176
     1
 90
        1
176
     1
 40
1.0
176
     1
 90
        8
176
     1
 62
     8
420
  8421504
176
     1
 40
1.0
176
     1
 90
        1
176
     1
 90
        6
176
     1
 90
        2
176
     1
 62
     7
176
     1
 90
        5
176
     1
 90
        0
176
     1
 90
        0
176
     1
290
     0
176
     1
 90
        1
176
     1
 40
0.0
176
     1
 90
        0
176
     1
290
     0
176
     1
290
     1
176
     1
290
     1
176
     1
290
     0
176
     1
290
     0
176
     1
290
     0
176
     1
290
     0
176
     1
290
     0
176
     1
290
     0
176
     1
 90
       50
176
     1
 40
0.0
176
     1
 40
1.0
176
     1
 90
        0
176
     1
 62
    18
420
        0
176
     1
 90
       50
176
     1
 90
        3
176
     1
 62
     5
420
      255
176
     1
290
     0
176
     1
 90
       50
176
     1
 90
       50
176
     1
 90
       50
176
     1
290
     0
176
     1
 90
       50
176
     1
 62
   256
176
     0
 40
1.0
176
     0
 90
        2
176
     1
  1
strokes_ogs.tif
176
     1
290
     0
176
     1
 40
1.0
176
     1
 40
1.0
176
     1
  0
VISUALSTYLE
  5
34
102
{ACAD_REACTORS
330
2A
102
}
330
2A
100
AcDbVisualStyle
  2
Conceptual
 70
     9
177
     3
291
     0
 70
    58
 90
        3
176
     1
 90
        2
176
     1
 90
        0
176
     1
 90
        0
176
     1
 40
0.6
176
     1
 40
30.0
176
     1
 62
     7
420
 16777215
176
     1
 90
        2
176
     1
 90
        2
176
     1
 62
     7
176
     1
 62
   257
176
     1
 90
        1
176
     1
 90
        1
176
     1
 40
179.0
176
     1
 90
        8
176
     1
 62
     7
176
     1
 40
1.0
176
     1
 90
        1
176
     1
 90
        6
176
     1
 90
        2
176
     1
 62
     7
176
     1
 90
        3
176
     1
 90
        0
176
     1
 90
        0
176
     1
290
     0
176
     1
 90
        1
176
     1
 40
0.0
176
     1
 90
        0
176
     1
290
     0
176
     1
290
     1
176
     1
290
     1
176
     1
290
     0
176
     1
290
     0
176
     1
290
     0
176
     1
290
     0
176
     1
290
     0
176
     1
290
     0
176
     1
 90
       50
176
     1
 40
0.0
176
     1
 40
1.0
176
     1
 90
        0
176
     1
 62
    18
420
        0
176
     1
 90
       50
176
     1
 90
        3
176
     1
 62
     5
420
      255
176
     1
290
     0
176
     1
 90
       50
176
     1
 90
       50
176
     1
 90
       50
176
     1
290
     0
176
     1
 90
       50
176
     1
 62
   256
176
     0
 40
1.0
176
     0
 90
        2
176
     1
  1
strokes_ogs.tif
176
     1
290
     0
176
     1
 40
1.0
176
     1
 40
1.0
176
     1
  0
VISUALSTYLE
  5
35
102
{ACAD_REACTORS
330
2A
102
}
330
2A
100
AcDbVisualStyle
  2
Dim
 70
    11
177
     3
291
     1
 70
    58
 90
        2
176
     1
 90
        2
176
     1
 90
        0
176
     1
 90
        0
176
     1
 40
0.6
176
     1
 40
30.0
176
     1
 62
     7
420
 16777215
176
     1
 90
        1
176
     1
 90
        4
176
     1
 62
     7
176
     1
 62
   257
176
     1
 90
        1
176
     1
 90
        1
176
     1
 40
1.0
176
     1
 90
        8
176
     1
 62
     7
176
     1
 40
1.0
176
     1
 90
        1
176
     1
 90
        6
176
     1
 90
        2
176
     1
 62
     7
176
     1
 90
        5
176
     1
 90
        0
176
     1
 90
        0
176
     1
290
     0
176
     1
 90
        1
176
     1
 40
-50.0
176
     1
 90
        0
176
     1
290
     0
176
     1
290
     1
176
     1
290
     1
176
     1
290
     0
176
     1
290
     0
176
     1
290
     0
176
     1
290
     0
176
     1
290
     0
176
     1
290
     0
176
     1
 90
       50
176
     1
 40
0.0
176
     1
 40
1.0
176
     1
 90
        0
176
     1
 62
    18
420
        0
176
     1
 90
       50
176
     1
 90
        3
176
     1
 62
     5
420
      255
176
     1
290
     0
176
     1
 90
       50
176
     1
 90
       50
176
     1
 90
       50
176
     1
290
     0
176
     1
 90
       50
176
     1
 62
   256
176
     0
 40
1.0
176
     0
 90
        2
176
     1
  1
strokes_ogs.tif
176
     1
290
     0
176
     1
 40
1.0
176
     1
 40
1.0
176
     1
  0
VISUALSTYLE
  5
3D
102
{ACAD_REACTORS
330
2A
102
}
330
2A
100
AcDbVisualStyle
  2
EdgeColorOff
 70
    22
177
     3
291
     1
 70
    58
 90
        2
176
     0
 90
        2
176
     0
 90
        0
176
     0
 90
        0
176
     0
 40
0.6
176
     0
 40
30.0
176
     0
 62
     7
420
 16777215
176
     0
 90
        1
176
     0
 90
        4
176
     0
 62
     7
176
     0
 62
   257
176
     0
 90
        1
176
     0
 90
        1
176
     0
 40
1.0
176
     0
 90
        8
176
     2
 62
     7
176
     0
 40
1.0
176
     0
 90
        1
176
     0
 90
        6
176
     0
 90
        2
176
     0
 62
     7
176
     0
 90
        5
176
     0
 90
        0
176
     0
 90
        0
176
     0
290
     0
176
     0
 90
        1
176
     0
 40
0.0
176
     0
 90
        0
176
     0
290
     0
176
     0
290
     1
176
     0
290
     1
176
     0
290
     0
176
     0
290
     0
176
     0
290
     0
176
     0
290
     0
176
     0
290
     0
176
     0
290
     0
176
     0
 90
       50
176
     0
 40
0.0
176
     0
 40
1.0
176
     0
 90
        0
176
     0
 62
    18
420
        0
176
     0
 90
       50
176
     0
 90
        3
176
     0
 62
     5
420
      255
176
     0
290
     0
176
     0
 90
       50
176
     0
 90
       50
176
     0
 90
       50
176
     0
290
     0
176
     0
 90
       50
176
     0
 62
   256
176
     0
 40
1.0
176
     0
 90
        2
176
     0
  1
strokes_ogs.tif
176
     0
290
     0
176
     0
 40
1.0
176
     0
 40
1.0
176
     0
  0
VISUALSTYLE
  5
39
102
{ACAD_REACTORS
330
2A
102
}
330
2A
100
AcDbVisualStyle
  2
Facepattern
 70
    15
177
     3
291
     1
 70
    58
 90
        2
176
     1
 90
        2
176
     1
 90
        0
176
     1
 90
        0
176
     1
 40
0.6
176
     1
 40
30.0
176
     1
 62
     7
420
 16777215
176
     1
 90
        1
176
     1
 90
        4
176
     1
 62
     7
176
     1
 62
   257
176
     1
 90
        1
176
     1
 90
        1
176
     1
 40
1.0
176
     1
 90
        8
176
     1
 62
     7
176
     1
 40
1.0
176
     1
 90
        1
176
     1
 90
        6
176
     1
 90
        2
176
     1
 62
     7
176
     1
 90
        5
176
     1
 90
        0
176
     1
 90
        0
176
     1
290
     0
176
     1
 90
        1
176
     1
 40
0.0
176
     1
 90
        0
176
     1
290
     0
176
     1
290
     1
176
     1
290
     1
176
     1
290
     0
176
     1
290
     0
176
     1
290
     0
176
     1
290
     0
176
     1
290
     0
176
     1
290
     0
176
     1
 90
       50
176
     1
 40
0.0
176
     1
 40
1.0
176
     1
 90
        0
176
     1
 62
    18
420
        0
176
     1
 90
       50
176
     1
 90
        3
176
     1
 62
     5
420
      255
176
     1
290
     0
176
     1
 90
       50
176
     1
 90
       50
176
     1
 90
       50
176
     1
290
     0
176
     1
 90
       50
176
     1
 62
   256
176
     0
 40
1.0
176
     0
 90
        2
176
     1
  1
strokes_ogs.tif
176
     1
290
     0
176
     1
 40
1.0
176
     1
 40
1.0
176
     1
  0
VISUALSTYLE
  5
2B
102
{ACAD_REACTORS
330
2A
102
}
330
2A
100
AcDbVisualStyle
  2
Flat
 70
     0
177
     3
291
     1
 70
    58
 90
        2
176
     1
 90
        1
176
     1
 90
        1
176
     1
 90
        2
176
     1
 40
0.6
176
     1
 40
30.0
176
     1
 62
     7
420
 16777215
176
     1
 90
        0
176
     1
 90
        0
176
     1
 62
     7
176
     1
 62
   257
176
     1
 90
        1
176
     1
 90
        1
176
     1
 40
1.0
176
     1
 90
        8
176
     1
 62
     7
176
     1
 40
1.0
176
     1
 90
        1
176
     1
 90
        6
176
     1
 90
        2
176
     1
 62
     7
176
     1
 90
        5
176
     1
 90
        0
176
     1
 90
        0
176
     1
290
     0
176
     1
 90
       13
176
     1
 40
0.0
176
     1
 90
        0
176
     1
290
     0
176
     1
290
     1
176
     1
290
     1
176
     1
290
     0
176
     1
290
     0
176
     1
290
     0
176
     1
290
     0
176
     1
290
     0
176
     1
290
     0
176
     1
 90
       50
176
     1
 40
0.0
176
     1
 40
1.0
176
     1
 90
        0
176
     1
 62
    18
420
        0
176
     1
 90
       50
176
     1
 90
        3
176
     1
 62
     5
420
      255
176
     1
290
     0
176
     1
 90
       50
176
     1
 90
       50
176
     1
 90
       50
176
     1
290
     0
176
     1
 90
       50
176
     1
 62
   256
176
     0
 40
1.0
176
     0
 90
        2
176
     1
  1
strokes_ogs.tif
176
     1
290
     0
176
     1
 40
1.0
176
     1
 40
1.0
176
     1
  0
VISUALSTYLE
  5
2C
102
{ACAD_REACTORS
330
2A
102
}
330
2A
100
AcDbVisualStyle
  2
FlatWithEdges
 70
     1
177
     3
291
     1
 70
    58
 90
        2
176
     1
 90
        1
176
     1
 90
        1
176
     1
 90
        2
176
     1
 40
0.6
176
     1
 40
30.0
176
     1
 62
     7
420
 16777215
176
     1
 90
        1
176
     1
 90
        0
176
     1
 62
     7
176
     1
 62
   257
176
     1
 90
        1
176
     1
 90
        1
176
     1
 40
1.0
176
     1
 90
        0
176
     1
 62
   257
176
     1
 40
1.0
176
     1
 90
        1
176
     1
 90
        6
176
     1
 90
        2
176
     1
 62
     7
176
     1
 90
        5
176
     1
 90
        0
176
     1
 90
        0
176
     1
290
     0
176
     1
 90
       13
176
     1
 40
0.0
176
     1
 90
        0
176
     1
290
     0
176
     1
290
     1
176
     1
290
     1
176
     1
290
     0
176
     1
290
     0
176
     1
290
     0
176
     1
290
     0
176
     1
290
     0
176
     1
290
     0
176
     1
 90
       50
176
     1
 40
0.0
176
     1
 40
1.0
176
     1
 90
        0
176
     1
 62
    18
420
        0
176
     1
 90
       50
176
     1
 90
        3
176
     1
 62
     5
420
      255
176
     1
290
     0
176
     1
 90
       50
176
     1
 90
       50
176
     1
 90
       50
176
     1
290
     0
176
     1
 90
       50
176
     1
 62
   256
176
     0
 40
1.0
176
     0
 90
        2
176
     1
  1
strokes_ogs.tif
176
     1
290
     0
176
     1
 40
1.0
176
     1
 40
1.0
176
     1
  0
VISUALSTYLE
  5
2D
102
{ACAD_REACTORS
330
2A
102
}
330
2A
100
AcDbVisualStyle
  2
Gouraud
 70
     2
177
     3
291
     1
 70
    58
 90
        2
176
     1
 90
        2
176
     1
 90
        1
176
     1
 90
        2
176
     1
 40
0.6
176
     1
 40
30.0
176
     1
 62
     7
420
 16777215
176
     1
 90
        0
176
     1
 90
        0
176
     1
 62
     7
176
     1
 62
   257
176
     1
 90
        1
176
     1
 90
        1
176
     1
 40
1.0
176
     1
 90
        0
176
     1
 62
     7
176
     1
 40
1.0
176
     1
 90
        1
176
     1
 90
        6
176
     1
 90
        2
176
     1
 62
     7
176
     1
 90
        5
176
     1
 90
        0
176
     1
 90
        0
176
     1
290
     0
176
     1
 90
       13
176
     1
 40
0.0
176
     1
 90
        0
176
     1
290
     0
176
     1
290
     1
176
     1
290
     1
176
     1
290
     0
176
     1
290
     0
176
     1
290
     0
176
     1
290
     0
176
     1
290
     0
176
     1
290
     0
176
     1
 90
       50
176
     1
 40
0.0
176
     1
 40
1.0
176
     1
 90
        0
176
     1
 62
    18
420
        0
176
     1
 90
       50
176
     1
 90
        3
176
     1
 62
     5
420
      255
176
     1
290
     0
176
     1
 90
       50
176
     1
 90
       50
176
     1
 90
       50
176
     1
290
     0
176
     1
 90
       50
176
     1
 62
   256
176
     0
 40
1.0
176
     0
 90
        2
176
     1
  1
strokes_ogs.tif
176
     1
290
     0
176
     1
 40
1.0
176
     1
 40
1.0
176
     1
  0
VISUALSTYLE
  5
2E
102
{ACAD_REACTORS
330
2A
102
}
330
2A
100
AcDbVisualStyle
  2
GouraudWithEdges
 70
     3
177
     3
291
     1
 70
    58
 90
        2
176
     1
 90
        2
176
     1
 90
        1
176
     1
 90
        2
176
     1
 40
0.6
176
     1
 40
30.0
176
     1
 62
     7
420
 16777215
176
     1
 90
        1
176
     1
 90
        0
176
     1
 62
     7
176
     1
 62
   257
176
     1
 90
        1
176
     1
 90
        1
176
     1
 40
1.0
176
     1
 90
        0
176
     1
 62
   257
176
     1
 40
1.0
176
     1
 90
        1
176
     1
 90
        6
176
     1
 90
        2
176
     1
 62
     7
176
     1
 90
        5
176
     1
 90
        0
176
     1
 90
        0
176
     1
290
     0
176
     1
 90
       13
176
     1
 40
0.0
176
     1
 90
        0
176
     1
290
     0
176
     1
290
     1
176
     1
290
     1
176
     1
290
     0
176
     1
290
     0
176
     1
290
     0
176
     1
290
     0
176
     1
290
     0
176
     1
290
     0
176
     1
 90
       50
176
     1
 40
0.0
176
     1
 40
1.0
176
     1
 90
        0
176
     1
 62
    18
420
        0
176
     1
 90
       50
176
     1
 90
        3
176
     1
 62
     5
420
      255
176
     1
290
     0
176
     1
 90
       50
176
     1
 90
       50
176
     1
 90
       50
176
     1
290
     0
176
     1
 90
       50
176
     1
 62
   256
176
     0
 40
1.0
176
     0
 90
        2
176
     1
  1
strokes_ogs.tif
176
     1
290
     0
176
     1
 40
1.0
176
     1
 40
1.0
176
     1
  0
VISUALSTYLE
  5
31
102
{ACAD_REACTORS
330
2A
102
}
330
2A
100
AcDbVisualStyle
  2
Hidden
 70
     6
177
     3
291
     0
 70
    58
 90
        1
176
     1
 90
        2
176
     1
 90
        2
176
     1
 90
        0
176
     1
 40
0.6
176
     1
 40
30.0
176
     1
 62
     7
420
 16777215
176
     1
 90
        2
176
     1
 90
        2
176
     1
 62
     7
176
     1
 62
   257
176
     1
 90
        2
176
     1
 90
        1
176
     1
 40
40.0
176
     1
 90
        0
176
     1
 62
   257
176
     1
 40
1.0
176
     1
 90
        1
176
     1
 90
        6
176
     1
 90
        2
176
     1
 62
     7
176
     1
 90
        3
176
     1
 90
        0
176
     1
 90
        0
176
     1
290
     0
176
     1
 90
        1
176
     1
 40
0.0
176
     1
 90
        0
176
     1
290
     0
176
     1
290
     1
176
     1
290
     1
176
     1
290
     0
176
     1
290
     0
176
     1
290
     0
176
     1
290
     0
176
     1
290
     0
176
     1
290
     0
176
     1
 90
       50
176
     1
 40
0.0
176
     1
 40
1.0
176
     1
 90
        0
176
     1
 62
    18
420
        0
176
     1
 90
       50
176
     1
 90
        3
176
     1
 62
     5
420
      255
176
     1
290
     0
176
     1
 90
       50
176
     1
 90
       50
176
     1
 90
       50
176
     1
290
     0
176
     1
 90
       50
176
     1
 62
   256
176
     0
 40
1.0
176
     0
 90
        2
176
     1
  1
strokes_ogs.tif
176
     1
290
     0
176
     1
 40
1.0
176
     1
 40
1.0
176
     1
  0
VISUALSTYLE
  5
3B
102
{ACAD_REACTORS
330
2A
102
}
330
2A
100
AcDbVisualStyle
  2
JitterOff
 70
    20
177
     3
291
     1
 70
    58
 90
        2
176
     0
 90
        2
176
     0
 90
        0
176
     0
 90
        0
176
     0
 40
0.6
176
     0
 40
30.0
176
     0
 62
     7
420
 16777215
176
     0
 90
        1
176
     0
 90
        4
176
     0
 62
     7
176
     0
 62
   257
176
     0
 90
        1
176
     0
 90
        1
176
     0
 40
1.0
176
     0
 90
       10
176
     2
 62
     7
176
     0
 40
1.0
176
     0
 90
        1
176
     0
 90
        6
176
     0
 90
        2
176
     0
 62
     7
176
     0
 90
        5
176
     0
 90
        0
176
     0
 90
        0
176
     0
290
     0
176
     0
 90
        1
176
     0
 40
0.0
176
     0
 90
        0
176
     0
290
     0
176
     0
290
     1
176
     0
290
     1
176
     0
290
     0
176
     0
290
     0
176
     0
290
     0
176
     0
290
     0
176
     0
290
     0
176
     0
290
     0
176
     0
 90
       50
176
     0
 40
0.0
176
     0
 40
1.0
176
     0
 90
        0
176
     0
 62
    18
420
        0
176
     0
 90
       50
176
     0
 90
        3
176
     0
 62
     5
420
      255
176
     0
290
     0
176
     0
 90
       50
176
     0
 90
       50
176
     0
 90
       50
176
     0
290
     0
176
     0
 90
       50
176
     0
 62
   256
176
     0
 40
1.0
176
     0
 90
        2
176
     0
  1
strokes_ogs.tif
176
     0
290
     0
176
     0
 40
1.0
176
     0
 40
1.0
176
     0
  0
VISUALSTYLE
  5
38
102
{ACAD_REACTORS
330
2A
102
}
330
2A
100
AcDbVisualStyle
  2
Linepattern
 70
    14
177
     3
291
     1
 70
    58
 90
        2
176
     1
 90
        2
176
     1
 90
        0
176
     1
 90
        0
176
     1
 40
0.6
176
     1
 40
30.0
176
     1
 62
     7
420
 16777215
176
     1
 90
        1
176
     1
 90
        4
176
     1
 62
     7
176
     1
 62
   257
176
     1
 90
        7
176
     1
 90
        7
176
     1
 40
1.0
176
     1
 90
        8
176
     1
 62
     7
176
     1
 40
1.0
176
     1
 90
        1
176
     1
 90
        6
176
     1
 90
        2
176
     1
 62
     7
176
     1
 90
        5
176
     1
 90
        0
176
     1
 90
        0
176
     1
290
     0
176
     1
 90
        1
176
     1
 40
0.0
176
     1
 90
        0
176
     1
290
     0
176
     1
290
     1
176
     1
290
     1
176
     1
290
     0
176
     1
290
     0
176
     1
290
     0
176
     1
290
     0
176
     1
290
     0
176
     1
290
     0
176
     1
 90
       50
176
     1
 40
0.0
176
     1
 40
1.0
176
     1
 90
        0
176
     1
 62
    18
420
        0
176
     1
 90
       50
176
     1
 90
        3
176
     1
 62
     5
420
      255
176
     1
290
     0
176
     1
 90
       50
176
     1
 90
       50
176
     1
 90
       50
176
     1
290
     0
176
     1
 90
       50
176
     1
 62
   256
176
     0
 40
1.0
176
     0
 90
        2
176
     1
  1
strokes_ogs.tif
176
     1
290
     0
176
     1
 40
1.0
176
     1
 40
1.0
176
     1
  0
VISUALSTYLE
  5
3C
102
{ACAD_REACTORS
330
2A
102
}
330
2A
100
AcDbVisualStyle
  2
OverhangOff
 70
    21
177
     3
291
     1
 70
    58
 90
        2
176
     0
 90
        2
176
     0
 90
        0
176
     0
 90
        0
176
     0
 40
0.6
176
     0
 40
30.0
176
     0
 62
     7
420
 16777215
176
     0
 90
        1
176
     0
 90
        4
176
     0
 62
     7
176
     0
 62
   257
176
     0
 90
        1
176
     0
 90
        1
176
     0
 40
1.0
176
     0
 90
        9
176
     2
 62
     7
176
     0
 40
1.0
176
     0
 90
        1
176
     0
 90
        6
176
     0
 90
        2
176
     0
 62
     7
176
     0
 90
        5
176
     0
 90
        0
176
     0
 90
        0
176
     0
290
     0
176
     0
 90
        1
176
     0
 40
0.0
176
     0
 90
        0
176
     0
290
     0
176
     0
290
     1
176
     0
290
     1
176
     0
290
     0
176
     0
290
     0
176
     0
290
     0
176
     0
290
     0
176
     0
290
     0
176
     0
290
     0
176
     0
 90
       50
176
     0
 40
0.0
176
     0
 40
1.0
176
     0
 90
        0
176
     0
 62
    18
420
        0
176
     0
 90
       50
176
     0
 90
        3
176
     0
 62
     5
420
      255
176
     0
290
     0
176
     0
 90
       50
176
     0
 90
       50
176
     0
 90
       50
176
     0
290
     0
176
     0
 90
       50
176
     0
 62
   256
176
     0
 40
1.0
176
     0
 90
        2
176
     0
  1
strokes_ogs.tif
176
     0
290
     0
176
     0
 40
1.0
176
     0
 40
1.0
176
     0
  0
VISUALSTYLE
  5
33
102
{ACAD_REACTORS
330
2A
102
}
330
2A
100
AcDbVisualStyle
  2
Realistic
 70
     8
177
     3
291
     0
 70
    58
 90
        2
176
     1
 90
        3
176
     1
 90
        0
176
     1
 90
        2
176
     1
 40
0.6
176
     1
 40
30.0
176
     1
 62
     7
420
 16777215
176
     1
 90
        0
176
     1
 90
        0
176
     1
 62
     7
176
     1
 62
   257
176
     1
 90
        1
176
     1
 90
        1
176
     1
 40
1.0
176
     1
 90
        8
176
     1
 62
   257
176
     1
 40
1.0
176
     1
 90
        1
176
     1
 90
        6
176
     1
 90
        2
176
     1
 62
     7
176
     1
 90
        3
176
     1
 90
        0
176
     1
 90
        0
176
     1
290
     0
176
     1
 90
       13
176
     1
 40
0.0
176
     1
 90
        0
176
     1
290
     0
176
     1
290
     1
176
     1
290
     1
176
     1
290
     0
176
     1
290
     0
176
     1
290
     0
176
     1
290
     0
176
     1
290
     0
176
     1
290
     0
176
     1
 90
       50
176
     1
 40
0.0
176
     1
 40
1.0
176
     1
 90
        0
176
     1
 62
    18
420
        0
176
     1
 90
       50
176
     1
 90
        3
176
     1
 62
     5
420
      255
176
     1
290
     0
176
     1
 90
       50
176
     1
 90
       50
176
     1
 90
       50
176
     1
290
     0
176
     1
 90
       50
176
     1
 62
   256
176
     0
 40
1.0
176
     0
 90
        2
176
     1
  1
strokes_ogs.tif
176
     1
290
     0
176
     1
 40
1.0
176
     1
 40
1.0
176
     1
  0
VISUALSTYLE
  5
42
102
{ACAD_REACTORS
330
2A
102
}
330
2A
100
AcDbVisualStyle
  2
Shaded
 70
    27
177
     3
291
     0
 70
    58
 90
        2
176
     1
 90
        2
176
     1
 90
        1
176
     1
 90
        2
176
     1
 40
0.6
176
     1
 40
30.0
176
     1
 62
     7
420
 16777215
176
     1
 90
        0
176
     1
 90
        4
176
     1
 62
     7
176
     1
 62
   257
176
     1
 90
        1
176
     1
 90
        1
176
     1
 40
1.0
176
     1
 90
        8
176
     1
 62
   257
176
     1
 40
1.0
176
     1
 90
        1
176
     1
 90
        6
176
     1
 90
        2
176
     1
 62
     8
420
  7895160
176
     1
 90
        3
176
     1
 90
        0
176
     1
 90
        0
176
     1
290
     0
176
     1
 90
        5
176
     1
 40
0.0
176
     1
 90
        0
176
     1
290
     0
176
     1
290
     1
176
     1
290
     1
176
     1
290
     0
176
     1
290
     0
176
     1
290
     0
176
     1
290
     0
176
     1
290
     0
176
     1
290
     0
176
     1
 90
       50
176
     1
 40
0.0
176
     1
 40
1.0
176
     1
 90
        0
176
     1
 62
    18
420
        0
176
     1
 90
       50
176
     1
 90
        3
176
     1
 62
     5
420
      255
176
     1
290
     0
176
     1
 90
       50
176
     1
 90
       50
176
     1
 90
       50
176
     1
290
     0
176
     1
 90
       50
176
     1
 62
   256
176
     0
 40
1.0
176
     0
 90
        2
176
     1
  1
strokes_ogs.tif
176
     1
290
     0
176
     1
 40
1.0
176
     1
 40
1.0
176
     1
  0
VISUALSTYLE
  5
41
102
{ACAD_REACTORS
330
2A
102
}
330
2A
100
AcDbVisualStyle
  2
Shaded with edges
 70
    26
177
     3
291
     0
 70
    58
 90
        2
176
     1
 90
        2
176
     1
 90
        1
176
     1
 90
        2
176
     1
 40
0.6
176
     1
 40
30.0
176
     1
 62
     7
420
 16777215
176
     1
 90
        1
176
     1
 90
       10
176
     1
 62
     7
176
     1
 62
   257
176
     1
 90
        2
176
     1
 90
        1
176
     1
 40
1.0
176
     1
 90
        8
176
     1
 62
   257
176
     1
 40
1.0
176
     1
 90
        1
176
     1
 90
        6
176
     1
 90
        2
176
     1
 62
     7
176
     1
 90
        3
176
     1
 90
        0
176
     1
 90
        0
176
     1
290
     0
176
     1
 90
        5
176
     1
 40
0.0
176
     1
 90
        0
176
     1
290
     0
176
     1
290
     1
176
     1
290
     1
176
     1
290
     0
176
     1
290
     0
176
     1
290
     0
176
     1
290
     0
176
     1
290
     0
176
     1
290
     0
176
     1
 90
       50
176
     1
 40
0.0
176
     1
 40
1.0
176
     1
 90
        0
176
     1
 62
    18
420
        0
176
     1
 90
       50
176
     1
 90
        3
176
     1
 62
     5
420
      255
176
     1
290
     0
176
     1
 90
       50
176
     1
 90
       50
176
     1
 90
       50
176
     1
290
     0
176
     1
 90
       50
176
     1
 62
   256
176
     0
 40
1.0
176
     0
 90
        2
176
     1
  1
strokes_ogs.tif
176
     1
290
     0
176
     1
 40
1.0
176
     1
 40
1.0
176
     1
  0
VISUALSTYLE
  5
3E
102
{ACAD_REACTORS
330
2A
102
}
330
2A
100
AcDbVisualStyle
  2
Shades of Gray
 70
    23
177
     3
291
     0
 70
    58
 90
        2
176
     1
 90
        2
176
     1
 90
        3
176
     1
 90
        0
176
     1
 40
0.6
176
     1
 40
30.0
176
     1
 62
     7
420
 16777215
176
     1
 90
        2
176
     1
 90
        2
176
     1
 62
     7
176
     1
 62
     7
176
     1
 90
        1
176
     1
 90
        1
176
     1
 40
40.0
176
     1
 90
        8
176
     1
 62
     7
176
     1
 40
1.0
176
     1
 90
        1
176
     1
 90
        6
176
     1
 90
        2
176
     1
 62
     7
176
     1
 90
        3
176
     1
 90
        0
176
     1
 90
        0
176
     1
290
     0
176
     1
 90
        1
176
     1
 40
0.0
176
     1
 90
        0
176
     1
290
     0
176
     1
290
     1
176
     1
290
     1
176
     1
290
     0
176
     1
290
     0
176
     1
290
     0
176
     1
290
     0
176
     1
290
     0
176
     1
290
     0
176
     1
 90
       50
176
     1
 40
0.0
176
     1
 40
1.0
176
     1
 90
        0
176
     1
 62
    18
420
        0
176
     1
 90
       50
176
     1
 90
        3
176
     1
 62
     5
420
      255
176
     1
290
     0
176
     1
 90
       50
176
     1
 90
       50
176
     1
 90
       50
176
     1
290
     0
176
     1
 90
       50
176
     1
 62
   256
176
     0
 40
1.0
176
     0
 90
        2
176
     1
  1
strokes_ogs.tif
176
     1
290
     0
176
     1
 40
1.0
176
     1
 40
1.0
176
     1
  0
VISUALSTYLE
  5
3F
102
{ACAD_REACTORS
330
2A
102
}
330
2A
100
AcDbVisualStyle
  2
Sketchy
 70
    24
177
     3
291
     0
 70
    58
 90
        1
176
     1
 90
        2
176
     1
 90
        2
176
     1
 90
        0
176
     1
 40
0.6
176
     1
 40
30.0
176
     1
 62
     7
420
 16777215
176
     1
 90
        2
176
     1
 90
        2
176
     1
 62
     7
176
     1
 62
     7
176
     1
 90
        1
176
     1
 90
        1
176
     1
 40
40.0
176
     1
 90
       11
176
     1
 62
     7
176
     1
 40
1.0
176
     1
 90
        1
176
     1
 90
        6
176
     1
 90
        2
176
     1
 62
     7
176
     1
 90
        6
176
     1
 90
        0
176
     1
 90
        0
176
     1
290
     0
176
     1
 90
        1
176
     1
 40
0.0
176
     1
 90
        0
176
     1
290
     0
176
     1
290
     1
176
     1
290
     1
176
     1
290
     0
176
     1
290
     0
176
     1
290
     0
176
     1
290
     0
176
     1
290
     0
176
     1
290
     0
176
     1
 90
       50
176
     1
 40
0.0
176
     1
 40
1.0
176
     1
 90
        0
176
     1
 62
    18
420
        0
176
     1
 90
       50
176
     1
 90
        3
176
     1
 62
     5
420
      255
176
     1
290
     0
176
     1
 90
       50
176
     1
 90
       50
176
     1
 90
       50
176
     1
290
     0
176
     1
 90
       50
176
     1
 62
   256
176
     0
 40
1.0
176
     0
 90
        2
176
     1
  1
strokes_ogs.tif
176
     1
290
     0
176
     1
 40
1.0
176
     1
 40
1.0
176
     1
  0
VISUALSTYLE
  5
37
102
{ACAD_REACTORS
330
2A
102
}
330
2A
100
AcDbVisualStyle
  2
Thicken
 70
    13
177
     3
291
     1
 70
    58
 90
        2
176
     1
 90
        2
176
     1
 90
        0
176
     1
 90
        0
176
     1
 40
0.6
176
     1
 40
30.0
176
     1
 62
     7
420
 16777215
176
     1
 90
        1
176
     1
 90
        4
176
     1
 62
     7
176
     1
 62
   257
176
     1
 90
        1
176
     1
 90
        1
176
     1
 40
1.0
176
     1
 90
       12
176
     1
 62
     7
176
     1
 40
1.0
176
     1
 90
        1
176
     1
 90
        6
176
     1
 90
        2
176
     1
 62
     7
176
     1
 90
        5
176
     1
 90
        0
176
     1
 90
        0
176
     1
290
     0
176
     1
 90
        1
176
     1
 40
0.0
176
     1
 90
        0
176
     1
290
     0
176
     1
290
     1
176
     1
290
     1
176
     1
290
     0
176
     1
290
     0
176
     1
290
     0
176
     1
290
     0
176
     1
290
     0
176
     1
290
     0
176
     1
 90
       50
176
     1
 40
0.0
176
     1
 40
1.0
176
     1
 90
        0
176
     1
 62
    18
420
        0
176
     1
 90
       50
176
     1
 90
        3
176
     1
 62
     5
420
      255
176
     1
290
     0
176
     1
 90
       50
176
     1
 90
       50
176
     1
 90
       50
176
     1
290
     0
176
     1
 90
       50
176
     1
 62
   256
176
     0
 40
1.0
176
     0
 90
        2
176
     1
  1
strokes_ogs.tif
176
     1
290
     0
176
     1
 40
1.0
176
     1
 40
1.0
176
     1
  0
VISUALSTYLE
  5
30
102
{ACAD_REACTORS
330
2A
102
}
330
2A
100
AcDbVisualStyle
  2
Wireframe
 70
     5
177
     3
291
     0
 70
    58
 90
        0
176
     1
 90
        2
176
     1
 90
        0
176
     1
 90
        0
176
     1
 40
0.6
176
     1
 40
30.0
176
     1
 62
     7
420
 16777215
176
     1
 90
        1
176
     1
 90
        4
176
     1
 62
     7
176
     1
 62
   257
176
     1
 90
        1
176
     1
 90
        1
176
     1
 40
1.0
176
     1
 90
        0
176
     1
 62
   257
176
     1
 40
1.0
176
     1
 90
        1
176
     1
 90
        6
176
     1
 90
        2
176
     1
 62
     7
176
     1
 90
        3
176
     1
 90
        0
176
     1
 90
        0
176
     1
290
     0
176
     1
 90
        1
176
     1
 40
0.0
176
     1
 90
        0
176
     1
290
     0
176
     1
290
     1
176
     1
290
     1
176
     1
290
     0
176
     1
290
     0
176
     1
290
     0
176
     1
290
     0
176
     1
290
     0
176
     1
290
     0
176
     1
 90
       50
176
     1
 40
0.0
176
     1
 40
1.0
176
     1
 90
        0
176
     1
 62
    18
420
        0
176
     1
 90
       50
176
     1
 90
        3
176
     1
 62
     5
420
      255
176
     1
290
     0
176
     1
 90
       50
176
     1
 90
       50
176
     1
 90
       50
176
     1
290
     0
176
     1
 90
       50
176
     1
 62
   256
176
     0
 40
1.0
176
     0
 90
        2
176
     1
  1
strokes_ogs.tif
176
     1
290
     0
176
     1
 40
1.0
176
     1
 40
1.0
176
     1
  0
VISUALSTYLE
  5
40
102
{ACAD_REACTORS
330
2A
102
}
330
2A
100
AcDbVisualStyle
  2
X-Ray
 70
    25
177
     3
291
     0
 70
    58
 90
        2
176
     1
 90
        2
176
     1
 90
        1
176
     1
 90
        1
176
     1
 40
0.5
176
     1
 40
30.0
176
     1
 62
     7
420
 16777215
176
     1
 90
        1
176
     1
 90
        0
176
     1
 62
     7
176
     1
 62
   257
176
     1
 90
        1
176
     1
 90
        1
176
     1
 40
1.0
176
     1
 90
        8
176
     1
 62
     7
176
     1
 40
1.0
176
     1
 90
        1
176
     1
 90
        6
176
     1
 90
        2
176
     1
 62
     7
176
     1
 90
        3
176
     1
 90
        0
176
     1
 90
        0
176
     1
290
     0
176
     1
 90
       13
176
     1
 40
0.0
176
     1
 90
        0
176
     1
290
     0
176
     1
290
     1
176
     1
290
     1
176
     1
290
     0
176
     1
290
     0
176
     1
290
     0
176
     1
290
     0
176
     1
290
     0
176
     1
290
     0
176
     1
 90
       50
176
     1
 40
0.0
176
     1
 40
1.0
176
     1
 90
        0
176
     1
 62
    18
420
        0
176
     1
 90
       50
176
     1
 90
        3
176
     1
 62
     5
420
      255
176
     1
290
     0
176
     1
 90
       50
176
     1
 90
       50
176
     1
 90
       50
176
     1
290
     0
176
     1
 90
       50
176
     1
 62
   256
176
     0
 40
1.0
176
     0
 90
        2
176
     1
  1
strokes_ogs.tif
176
     1
290
     0
176
     1
 40
1.0
176
     1
 40
1.0
176
     1
  0
DICTIONARYVAR
  5
1C4
102
{ACAD_REACTORS
330
1C3
102
}
330
1C3
100
DictionaryVariables
280
     0
  1
1:1
  0
DICTIONARYVAR
  5
1C9
102
{ACAD_REACTORS
330
1C3
102
}
330
1C3
100
DictionaryVariables
280
     0
  1
Standard
  0
DICTIONARYVAR
  5
1C8
102
{ACAD_REACTORS
330
1C3
102
}
330
1C3
100
DictionaryVariables
280
     0
  1
Standard
  0
DICTIONARY
  5
1C5
330
6A
100
AcDbDictionary
280
     1
281
     1
  3
ACAD_ROUNDTRIP_2008_TABLESTYLE_CELLSTYLEMAP
360
1C6
  0
CELLSTYLEMAP
  5
1C6
102
{ACAD_REACTORS
330
1C5
102
}
330
1C5
100
AcDbCellStyleMap
 90
        3
300
CELLSTYLE
  1
TABLEFORMAT_BEGIN
 90
        5
170
     1
 91
        0
 92
    32768
 62
   257
 93
        1
300
CONTENTFORMAT
  1
CONTENTFORMAT_BEGIN
 90
        0
 91
        0
 92
        4
 93
        0
300

 40
0.0
140
1.0
 94
        5
 62
     0
340
11
144
0.25
309
CONTENTFORMAT_END
171
     1
301
MARGIN
  1
CELLMARGIN_BEGIN
 40
0.06
 40
0.06
 40
0.06
 40
0.06
 40
0.06
 40
0.06
309
CELLMARGIN_END
 94
        6
 95
        1
302
GRIDFORMAT
  1
GRIDFORMAT_BEGIN
 90
        0
 91
        1
 62
     0
 92
       -2
340
14
 93
        0
 40
0.045
309
GRIDFORMAT_END
 95
        2
302
GRIDFORMAT
  1
GRIDFORMAT_BEGIN
 90
        0
 91
        1
 62
     0
 92
       -2
340
14
 93
        0
 40
0.045
309
GRIDFORMAT_END
 95
        4
302
GRIDFORMAT
  1
GRIDFORMAT_BEGIN
 90
        0
 91
        1
 62
     0
 92
       -2
340
14
 93
        0
 40
0.045
309
GRIDFORMAT_END
 95
        8
302
GRIDFORMAT
  1
GRIDFORMAT_BEGIN
 90
        0
 91
        1
 62
     0
 92
       -2
340
14
 93
        0
 40
0.045
309
GRIDFORMAT_END
 95
       16
302
GRIDFORMAT
  1
GRIDFORMAT_BEGIN
 90
        0
 91
        1
 62
     0
 92
       -2
340
14
 93
        0
 40
0.045
309
GRIDFORMAT_END
 95
       32
302
GRIDFORMAT
  1
GRIDFORMAT_BEGIN
 90
        0
 91
        1
 62
     0
 92
       -2
340
14
 93
        0
 40
0.045
309
GRIDFORMAT_END
309
TABLEFORMAT_END
  1
CELLSTYLE_BEGIN
 90
        1
 91
        1
300
_TITLE
309
CELLSTYLE_END
300
CELLSTYLE
  1
TABLEFORMAT_BEGIN
 90
        5
170
     1
 91
        0
 92
        0
 62
   257
 93
        1
300
CONTENTFORMAT
  1
CONTENTFORMAT_BEGIN
 90
        0
 91
        0
 92
        4
 93
        0
300

 40
0.0
140
1.0
 94
        5
 62
     0
340
11
144
0.18
309
CONTENTFORMAT_END
171
     1
301
MARGIN
  1
CELLMARGIN_BEGIN
 40
0.06
 40
0.06
 40
0.06
 40
0.06
 40
0.06
 40
0.06
309
CELLMARGIN_END
 94
        6
 95
        1
302
GRIDFORMAT
  1
GRIDFORMAT_BEGIN
 90
        0
 91
        1
 62
     0
 92
       -2
340
14
 93
        0
 40
0.045
309
GRIDFORMAT_END
 95
        2
302
GRIDFORMAT
  1
GRIDFORMAT_BEGIN
 90
        0
 91
        1
 62
     0
 92
       -2
340
14
 93
        0
 40
0.045
309
GRIDFORMAT_END
 95
        4
302
GRIDFORMAT
  1
GRIDFORMAT_BEGIN
 90
        0
 91
        1
 62
     0
 92
       -2
340
14
 93
        0
 40
0.045
309
GRIDFORMAT_END
 95
        8
302
GRIDFORMAT
  1
GRIDFORMAT_BEGIN
 90
        0
 91
        1
 62
     0
 92
       -2
340
14
 93
        0
 40
0.045
309
GRIDFORMAT_END
 95
       16
302
GRIDFORMAT
  1
GRIDFORMAT_BEGIN
 90
        0
 91
        1
 62
     0
 92
       -2
340
14
 93
        0
 40
0.045
309
GRIDFORMAT_END
 95
       32
302
GRIDFORMAT
  1
GRIDFORMAT_BEGIN
 90
        0
 91
        1
 62
     0
 92
       -2
340
14
 93
        0
 40
0.045
309
GRIDFORMAT_END
309
TABLEFORMAT_END
  1
CELLSTYLE_BEGIN
 90
        2
 91
        1
300
_HEADER
309
CELLSTYLE_END
300
CELLSTYLE
  1
TABLEFORMAT_BEGIN
 90
        5
170
     1
 91
        0
 92
        0
 62
   257
 93
        1
300
CONTENTFORMAT
  1
CONTENTFORMAT_BEGIN
 90
        0
 91
        0
 92
        4
 93
        0
300

 40
0.0
140
1.0
 94
        2
 62
     0
340
11
144
0.18
309
CONTENTFORMAT_END
171
     1
301
MARGIN
  1
CELLMARGIN_BEGIN
 40
0.06
 40
0.06
 40
0.06
 40
0.06
 40
0.06
 40
0.06
309
CELLMARGIN_END
 94
        6
 95
        1
302
GRIDFORMAT
  1
GRIDFORMAT_BEGIN
 90
        0
 91
        1
 62
     0
 92
       -2
340
14
 93
        0
 40
0.045
309
GRIDFORMAT_END
 95
        2
302
GRIDFORMAT
  1
GRIDFORMAT_BEGIN
 90
        0
 91
        1
 62
     0
 92
       -2
340
14
 93
        0
 40
0.045
309
GRIDFORMAT_END
 95
        4
302
GRIDFORMAT
  1
GRIDFORMAT_BEGIN
 90
        0
 91
        1
 62
     0
 92
       -2
340
14
 93
        0
 40
0.045
309
GRIDFORMAT_END
 95
        8
302
GRIDFORMAT
  1
GRIDFORMAT_BEGIN
 90
        0
 91
        1
 62
     0
 92
       -2
340
14
 93
        0
 40
0.045
309
GRIDFORMAT_END
 95
       16
302
GRIDFORMAT
  1
GRIDFORMAT_BEGIN
 90
        0
 91
        1
 62
     0
 92
       -2
340
14
 93
        0
 40
0.045
309
GRIDFORMAT_END
 95
       32
302
GRIDFORMAT
  1
GRIDFORMAT_BEGIN
 90
        0
 91
        1
 62
     0
 92
       -2
340
14
 93
        0
 40
0.045
309
GRIDFORMAT_END
309
TABLEFORMAT_END
  1
CELLSTYLE_BEGIN
 90
        3
 91
        2
300
_DATA
309
CELLSTYLE_END
  0
ENDSEC
  0
EOF