0
SECTION
  2
HEADER
  9
$ACADVER
  1
AC1027
  9
$ACADMAINTVER
 70
     8
  9
$DWGCODEPAGE
  3
ANSI_1252
  9
$REQUIREDVERSIONS
160
                 0
  9
$COMMENTS
  1
File was created by Cadenas
  9
$CUSTOMPROPERTYTAG
  1
NN
  9
$CUSTOMPROPERTY
  1
Set Screw Light Duty Two-Bolt Pillow Block Inch Bore
  9
$CUSTOMPROPERTYTAG
  1
NT
  9
$CUSTOMPROPERTY
  1
SC Pillow Block Bearings -(Light Duty)
  9
$CUSTOMPROPERTYTAG
  1
NB
  9
$CUSTOMPROPERTY
  1
059637
  9
$CUSTOMPROPERTYTAG
  1
NBSYN
  9
$CUSTOMPROPERTY
  1
$PN.
  9
$CUSTOMPROPERTYTAG
  1
LINA
  9
$CUSTOMPROPERTY
  1
059637
  9
$CUSTOMPROPERTYTAG
  1
SERIES
  9
$CUSTOMPROPERTY
  1
203
  9
$CUSTOMPROPERTYTAG
  1
SS
  9
$CUSTOMPROPERTY
  1
1/2
  9
$CUSTOMPROPERTYTAG
  1
PN
  9
$CUSTOMPROPERTY
  1
059637
  9
$CUSTOMPROPERTYTAG
  1
DESCRIPTION
  9
$CUSTOMPROPERTY
  1
P2B-SL-008
  9
$CUSTOMPROPERTYTAG
  1
W
  9
$CUSTOMPROPERTY
  1
0.52
  9
$CUSTOMPROPERTYTAG
  1
A
  9
$CUSTOMPROPERTY
  1
1.00
  9
$CUSTOMPROPERTYTAG
  1
B
  9
$CUSTOMPROPERTY
  1
3.63
  9
$CUSTOMPROPERTYTAG
  1
C
  9
$CUSTOMPROPERTY
  1
1.00
  9
$CUSTOMPROPERTYTAG
  1
D
  9
$CUSTOMPROPERTY
  1
2.69
  9
$CUSTOMPROPERTYTAG
  1
F
  9
$CUSTOMPROPERTY
  1
1/4
  9
$CUSTOMPROPERTYTAG
  1
G
  9
$CUSTOMPROPERTY
  1
0.50
  9
$CUSTOMPROPERTYTAG
  1
H
  9
$CUSTOMPROPERTY
  1
0.13
  9
$CUSTOMPROPERTYTAG
  1
J
  9
$CUSTOMPROPERTY
  1
1.75
  9
$CUSTOMPROPERTYTAG
  1
L
  9
$CUSTOMPROPERTY
  1
0.96
  9
$CUSTOMPROPERTYTAG
  1
M
  9
$CUSTOMPROPERTY
  1
0.88
  9
$CUSTOMPROPERTYTAG
  1
R
  9
$CUSTOMPROPERTY
  1
0.36
  9
$CUSTOMPROPERTYTAG
  1
S
  9
$CUSTOMPROPERTY
  1
0.64
  9
$CUSTOMPROPERTYTAG
  1
COMPANY
  9
$CUSTOMPROPERTY
  1
baldor
  9
$INSBASE
 10
0.0
 20
0.0
 30
0.0
  9
$EXTMIN
 10
1.000000000000000E+20
 20
1.000000000000000E+20
 30
1.000000000000000E+20
  9
$EXTMAX
 10
-1.000000000000000E+20
 20
-1.000000000000000E+20
 30
-1.000000000000000E+20
  9
$LIMMIN
 10
0.0
 20
0.0
  9
$LIMMAX
 10
12.0
 20
9.0
  9
$ORTHOMODE
 70
     0
  9
$REGENMODE
 70
     1
  9
$FILLMODE
 70
     1
  9
$QTEXTMODE
 70
     0
  9
$MIRRTEXT
 70
     1
  9
$LTSCALE
 40
1.0
  9
$ATTMODE
 70
     1
  9
$TEXTSIZE
 40
0.2
  9
$TRACEWID
 40
0.05
  9
$TEXTSTYLE
  7
Standard
  9
$CLAYER
  8
0
  9
$CELTYPE
  6
ByLayer
  9
$CECOLOR
 62
   256
  9
$CELTSCALE
 40
1.0
  9
$DISPSILH
 70
     0
  9
$DIMSCALE
 40
1.0
  9
$DIMASZ
 40
0.18
  9
$DIMEXO
 40
0.0625
  9
$DIMDLI
 40
0.38
  9
$DIMRND
 40
0.0
  9
$DIMDLE
 40
0.0
  9
$DIMEXE
 40
0.18
  9
$DIMTP
 40
0.0
  9
$DIMTM
 40
0.0
  9
$DIMTXT
 40
0.18
  9
$DIMCEN
 40
0.09
  9
$DIMTSZ
 40
0.0
  9
$DIMTOL
 70
     0
  9
$DIMLIM
 70
     0
  9
$DIMTIH
 70
     1
  9
$DIMTOH
 70
     1
  9
$DIMSE1
 70
     0
  9
$DIMSE2
 70
     0
  9
$DIMTAD
 70
     0
  9
$DIMZIN
 70
     0
  9
$DIMBLK
  1

  9
$DIMASO
 70
     1
  9
$DIMSHO
 70
     1
  9
$DIMPOST
  1

  9
$DIMAPOST
  1

  9
$DIMALT
 70
     0
  9
$DIMALTD
 70
     2
  9
$DIMALTF
 40
25.4
  9
$DIMLFAC
 40
1.0
  9
$DIMTOFL
 70
     0
  9
$DIMTVP
 40
0.0
  9
$DIMTIX
 70
     0
  9
$DIMSOXD
 70
     0
  9
$DIMSAH
 70
     0
  9
$DIMBLK1
  1

  9
$DIMBLK2
  1

  9
$DIMSTYLE
  2
Standard
  9
$DIMCLRD
 70
     0
  9
$DIMCLRE
 70
     0
  9
$DIMCLRT
 70
     0
  9
$DIMTFAC
 40
1.0
  9
$DIMGAP
 40
0.09
  9
$DIMJUST
 70
     0
  9
$DIMSD1
 70
     0
  9
$DIMSD2
 70
     0
  9
$DIMTOLJ
 70
     1
  9
$DIMTZIN
 70
     0
  9
$DIMALTZ
 70
     0
  9
$DIMALTTZ
 70
     0
  9
$DIMUPT
 70
     0
  9
$DIMDEC
 70
     4
  9
$DIMTDEC
 70
     4
  9
$DIMALTU
 70
     2
  9
$DIMALTTD
 70
     2
  9
$DIMTXSTY
  7
Standard
  9
$DIMAUNIT
 70
     0
  9
$DIMADEC
 70
     0
  9
$DIMALTRND
 40
0.0
  9
$DIMAZIN
 70
     0
  9
$DIMDSEP
 70
    46
  9
$DIMATFIT
 70
     3
  9
$DIMFRAC
 70
     0
  9
$DIMLDRBLK
  1

  9
$DIMLUNIT
 70
     2
  9
$DIMLWD
 70
    -2
  9
$DIMLWE
 70
    -2
  9
$DIMTMOVE
 70
     0
  9
$DIMFXL
 40
1.0
  9
$DIMFXLON
 70
     0
  9
$DIMJOGANG
 40
0.7853981633974483
  9
$DIMTFILL
 70
     0
  9
$DIMTFILLCLR
 70
     0
  9
$DIMARCSYM
 70
     0
  9
$DIMLTYPE
  6

  9
$DIMLTEX1
  6

  9
$DIMLTEX2
  6

  9
$DIMTXTDIRECTION
 70
     0
  9
$LUNITS
 70
     2
  9
$LUPREC
 70
     4
  9
$SKETCHINC
 40
0.1
  9
$FILLETRAD
 40
0.5
  9
$AUNITS
 70
     0
  9
$AUPREC
 70
     0
  9
$MENU
  1
.
  9
$ELEVATION
 40
0.0
  9
$PELEVATION
 40
0.0
  9
$THICKNESS
 40
0.0
  9
$LIMCHECK
 70
     0
  9
$CHAMFERA
 40
0.0
  9
$CHAMFERB
 40
0.0
  9
$CHAMFERC
 40
0.0
  9
$CHAMFERD
 40
0.0
  9
$SKPOLY
 70
     0
  9
$TDCREATE
 40
2458169.002828889
  9
$TDUCREATE
 40
2458168.961162222
  9
$TDUPDATE
 40
2458169.002829074
  9
$TDUUPDATE
 40
2458168.961162407
  9
$TDINDWG
 40
0.0000000116
  9
$TDUSRTIMER
 40
0.0000000116
  9
$USRTIMER
 70
     1
  9
$ANGBASE
 50
0.0
  9
$ANGDIR
 70
     0
  9
$PDMODE
 70
     0
  9
$PDSIZE
 40
0.0
  9
$PLINEWID
 40
0.0
  9
$SPLFRAME
 70
     0
  9
$SPLINETYPE
 70
     6
  9
$SPLINESEGS
 70
     8
  9
$HANDSEED
  5
18E
  9
$SURFTAB1
 70
     6
  9
$SURFTAB2
 70
     6
  9
$SURFTYPE
 70
     6
  9
$SURFU
 70
     6
  9
$SURFV
 70
     6
  9
$UCSBASE
  2

  9
$UCSNAME
  2

  9
$UCSORG
 10
0.0
 20
0.0
 30
0.0
  9
$UCSXDIR
 10
1.0
 20
0.0
 30
0.0
  9
$UCSYDIR
 10
0.0
 20
1.0
 30
0.0
  9
$UCSORTHOREF
  2

  9
$UCSORTHOVIEW
 70
     0
  9
$UCSORGTOP
 10
0.0
 20
0.0
 30
0.0
  9
$UCSORGBOTTOM
 10
0.0
 20
0.0
 30
0.0
  9
$UCSORGLEFT
 10
0.0
 20
0.0
 30
0.0
  9
$UCSORGRIGHT
 10
0.0
 20
0.0
 30
0.0
  9
$UCSORGFRONT
 10
0.0
 20
0.0
 30
0.0
  9
$UCSORGBACK
 10
0.0
 20
0.0
 30
0.0
  9
$PUCSBASE
  2

  9
$PUCSNAME
  2

  9
$PUCSORG
 10
0.0
 20
0.0
 30
0.0
  9
$PUCSXDIR
 10
1.0
 20
0.0
 30
0.0
  9
$PUCSYDIR
 10
0.0
 20
1.0
 30
0.0
  9
$PUCSORTHOREF
  2

  9
$PUCSORTHOVIEW
 70
     0
  9
$PUCSORGTOP
 10
0.0
 20
0.0
 30
0.0
  9
$PUCSORGBOTTOM
 10
0.0
 20
0.0
 30
0.0
  9
$PUCSORGLEFT
 10
0.0
 20
0.0
 30
0.0
  9
$PUCSORGRIGHT
 10
0.0
 20
0.0
 30
0.0
  9
$PUCSORGFRONT
 10
0.0
 20
0.0
 30
0.0
  9
$PUCSORGBACK
 10
0.0
 20
0.0
 30
0.0
  9
$USERI1
 70
     0
  9
$USERI2
 70
     0
  9
$USERI3
 70
     0
  9
$USERI4
 70
     0
  9
$USERI5
 70
     0
  9
$USERR1
 40
0.0
  9
$USERR2
 40
0.0
  9
$USERR3
 40
0.0
  9
$USERR4
 40
0.0
  9
$USERR5
 40
0.0
  9
$WORLDVIEW
 70
     1
  9
$SHADEDGE
 70
     3
  9
$SHADEDIF
 70
    70
  9
$TILEMODE
 70
     1
  9
$MAXACTVP
 70
    64
  9
$PINSBASE
 10
0.0
 20
0.0
 30
0.0
  9
$PLIMCHECK
 70
     0
  9
$PEXTMIN
 10
1.000000000000000E+20
 20
1.000000000000000E+20
 30
1.000000000000000E+20
  9
$PEXTMAX
 10
-1.000000000000000E+20
 20
-1.000000000000000E+20
 30
-1.000000000000000E+20
  9
$PLIMMIN
 10
0.0
 20
0.0
  9
$PLIMMAX
 10
12.0
 20
9.0
  9
$UNITMODE
 70
     0
  9
$VISRETAIN
 70
     1
  9
$PLINEGEN
 70
     0
  9
$PSLTSCALE
 70
     1
  9
$TREEDEPTH
 70
  3020
  9
$CMLSTYLE
  2
Standard
  9
$CMLJUST
 70
     0
  9
$CMLSCALE
 40
1.0
  9
$PROXYGRAPHICS
 70
     1
  9
$MEASUREMENT
 70
     0
  9
$CELWEIGHT
370
    -1
  9
$ENDCAPS
280
     0
  9
$JOINSTYLE
280
     0
  9
$LWDISPLAY
290
     0
  9
$INSUNITS
 70
     1
  9
$HYPERLINKBASE
  1

  9
$STYLESHEET
  1

  9
$XEDIT
290
     1
  9
$CEPSNTYPE
380
     0
  9
$PSTYLEMODE
290
     1
  9
$FINGERPRINTGUID
  2
{C7976D7D-F9F3-4E8F-8262-9A3C8724A359}
  9
$VERSIONGUID
  2
{FAEB1C32-E019-11D5-929B-00C0DF256EC4}
  9
$EXTNAMES
290
     1
  9
$PSVPSCALE
 40
0.0
  9
$OLESTARTUP
290
     0
  9
$SORTENTS
280
   127
  9
$INDEXCTL
280
     0
  9
$HIDETEXT
280
     1
  9
$XCLIPFRAME
280
     2
  9
$HALOGAP
280
     0
  9
$OBSCOLOR
 70
   257
  9
$OBSLTYPE
280
     0
  9
$INTERSECTIONDISPLAY
280
     0
  9
$INTERSECTIONCOLOR
 70
   257
  9
$DIMASSOC
280
     2
  9
$PROJECTNAME
  1

  9
$CAMERADISPLAY
290
     0
  9
$LENSLENGTH
 40
50.0
  9
$CAMERAHEIGHT
 40
0.0
  9
$STEPSPERSEC
 40
2.0
  9
$STEPSIZE
 40
6.0
  9
$3DDWFPREC
 40
2.0
  9
$PSOLWIDTH
 40
0.25
  9
$PSOLHEIGHT
 40
4.0
  9
$LOFTANG1
 40
1.570796326794897
  9
$LOFTANG2
 40
1.570796326794897
  9
$LOFTMAG1
 40
0.0
  9
$LOFTMAG2
 40
0.0
  9
$LOFTPARAM
 70
     7
  9
$LOFTNORMALS
280
     1
  9
$LATITUDE
 40
37.795
  9
$LONGITUDE
 40
-122.394
  9
$NORTHDIRECTION
 40
0.0
  9
$TIMEZONE
 70
 -8000
  9
$LIGHTGLYPHDISPLAY
280
     1
  9
$TILEMODELIGHTSYNCH
280
     1
  9
$CMATERIAL
347
44
  9
$SOLIDHIST
280
     0
  9
$SHOWHIST
280
     1
  9
$DWFFRAME
280
     2
  9
$DGNFRAME
280
     2
  9
$REALWORLDSCALE
290
     1
  9
$INTERFERECOLOR
 62
   256
  9
$CSHADOW
280
     0
  9
$SHADOWPLANELOCATION
 40
0.0
  0
ENDSEC
  0
SECTION
  2
CLASSES
  0
CLASS
  1
ACDBDICTIONARYWDFLT
  2
AcDbDictionaryWithDefault
  3
ObjectDBX Classes
 90
        0
 91
        4
280
     0
281
     0
  0
CLASS
  1
VISUALSTYLE
  2
AcDbVisualStyle
  3
ObjectDBX Classes
 90
     4095
 91
        4
280
     0
281
     0
  0
CLASS
  1
MATERIAL
  2
AcDbMaterial
  3
ObjectDBX Classes
 90
     1153
 91
        4
280
     0
281
     0
  0
CLASS
  1
SCALE
  2
AcDbScale
  3
ObjectDBX Classes
 90
     1153
 91
        4
280
     0
281
     0
  0
CLASS
  1
TABLESTYLE
  2
AcDbTableStyle
  3
ObjectDBX Classes
 90
     4095
 91
        4
280
     0
281
     0
  0
CLASS
  1
MLEADERSTYLE
  2
AcDbMLeaderStyle
  3
ACDB_MLEADERSTYLE_CLASS
 90
     4095
 91
        4
280
     0
281
     0
  0
CLASS
  1
SUN
  2
AcDbSun
  3
SCENEOE
 90
     1153
 91
        4
280
     0
281
     0
  0
CLASS
  1
DICTIONARYVAR
  2
AcDbDictionaryVar
  3
ObjectDBX Classes
 90
        0
 91
        4
280
     0
281
     0
  0
CLASS
  1
CELLSTYLEMAP
  2
AcDbCellStyleMap
  3
ObjectDBX Classes
 90
     1152
 91
        4
280
     0
281
     0
  0
ENDSEC
  0
SECTION
  2
TABLES
  0
TABLE
  2
VPORT
  5
8
330
0
100
AcDbSymbolTable
 70
     1
  0
VPORT
  5
29
330
8
100
AcDbSymbolTableRecord
100
AcDbViewportTableRecord
  2
*Active
 70
     0
 10
0.0
 20
0.0
 11
1.0
 21
1.0
 12
0.0
 22
-0.0950000000000006
 13
0.0
 23
0.0
 14
0.5
 24
0.5
 15
0.5
 25
0.5
 16
0.0
 26
0.0
 36
1.0
 17
0.0
 27
0.0
 37
0.0
 40
1.213800000000001
 41
3.050420168067223
 42
50.0
 43
0.0
 44
0.0
 50
0.0
 51
0.0
 71
     0
 72
   100
 73
     1
 74
     3
 75
     0
 76
     0
 77
     0
 78
     0
281
     0
 65
     1
110
0.0
120
0.0
130
0.0
111
1.0
121
0.0
131
0.0
112
0.0
122
1.0
132
0.0
 79
     0
146
0.0
348
2F
 60
     3
 61
     5
292
     1
282
     1
141
0.0
142
0.0
 63
   250
361
6D
  0
ENDTAB
  0
TABLE
  2
LTYPE
  5
5
330
0
100
AcDbSymbolTable
 70
     3
  0
LTYPE
  5
14
330
5
100
AcDbSymbolTableRecord
100
AcDbLinetypeTableRecord
  2
ByBlock
 70
     0
  3

 72
    65
 73
     0
 40
0.0
  0
LTYPE
  5
15
330
5
100
AcDbSymbolTableRecord
100
AcDbLinetypeTableRecord
  2
ByLayer
 70
     0
  3

 72
    65
 73
     0
 40
0.0
  0
LTYPE
  5
16
330
5
100
AcDbSymbolTableRecord
100
AcDbLinetypeTableRecord
  2
Continuous
 70
     0
  3
Solid line
 72
    65
 73
     0
 40
0.0
  0
LTYPE
  5
A7
330
5
100
AcDbSymbolTableRecord
100
AcDbLinetypeTableRecord
  2
Dashed
 70
     0
  3

 72
    65
 73
     2
 40
2.0
 49
1.0
 74
     0
 49
-1.0
 74
     0
  0
LTYPE
  5
AD
330
5
100
AcDbSymbolTableRecord
100
AcDbLinetypeTableRecord
  2
Center
 70
     0
  3

 72
    65
 73
     4
 40
1.5
 49
0.45
 74
     0
 49
-0.5
 74
     0
 49
0.05
 74
     0
 49
-0.5
 74
     0
  0
ENDTAB
  0
TABLE
  2
LAYER
  5
2
330
0
100
AcDbSymbolTable
 70
     7
  0
LAYER
  5
10
330
2
100
AcDbSymbolTableRecord
100
AcDbLayerTableRecord
  2
0
 70
     0
 62
     7
  6
Continuous
370
    -3
390
F
347
46
348
0
  0
LAYER
  5
72
330
2
100
AcDbSymbolTableRecord
100
AcDbLayerTableRecord
  2
AM_6
 70
     0
 62
    -2
  6
Continuous
370
    35
390
F
347
46
348
0
  0
LAYER
  5
A8
330
2
100
AcDbSymbolTableRecord
100
AcDbLayerTableRecord
  2
AM_9
 70
     0
 62
     6
  6
Dashed
370
    25
390
F
347
46
348
0
  0
LAYER
  5
AE
330
2
100
AcDbSymbolTableRecord
100
AcDbLayerTableRecord
  2
AM_7
 70
     0
 62
     7
  6
Center
370
    25
390
F
347
46
348
0
  0
LAYER
  5
B5
330
2
100
AcDbSymbolTableRecord
100
AcDbLayerTableRecord
  2
AM_4
 70
     0
 62
     7
  6
Continuous
370
    50
390
F
347
46
348
0
  0
LAYER
  5
136
330
2
100
AcDbSymbolTableRecord
100
AcDbLayerTableRecord
  2
AM_5
 70
     0
 62
     3
  6
Continuous
370
    25
390
F
347
46
348
0
  0
LAYER
  5
180
330
2
100
AcDbSymbolTableRecord
100
AcDbLayerTableRecord
  2
ConnectionPoints
 70
     0
 62
     7
  6
Continuous
370
    50
390
F
347
46
348
0
  0
ENDTAB
  0
TABLE
  2
STYLE
  5
3
330
0
100
AcDbSymbolTable
 70
     1
  0
STYLE
  5
11
330
3
100
AcDbSymbolTableRecord
100
AcDbTextStyleTableRecord
  2
Standard
 70
     0
 40
0.0
 41
1.0
 50
0.0
 71
     0
 42
0.2
  3
txt
  4

  0
ENDTAB
  0
TABLE
  2
VIEW
  5
6
330
0
100
AcDbSymbolTable
 70
     0
  0
ENDTAB
  0
TABLE
  2
UCS
  5
7
330
0
100
AcDbSymbolTable
 70
     0
  0
ENDTAB
  0
TABLE
  2
APPID
  5
9
330
0
100
AcDbSymbolTable
 70
     1
  0
APPID
  5
12
330
9
100
AcDbSymbolTableRecord
100
AcDbRegAppTableRecord
  2
ACAD
 70
     0
  0
ENDTAB
  0
TABLE
  2
DIMSTYLE
  5
A
330
0
100
AcDbSymbolTable
 70
     1
100
AcDbDimStyleTable
  0
DIMSTYLE
105
27
330
A
100
AcDbSymbolTableRecord
100
AcDbDimStyleTableRecord
  2
Standard
 70
     0
178
     0
340
11
  0
ENDTAB
  0
TABLE
  2
BLOCK_RECORD
  5
1
330
0
100
AcDbSymbolTable
 70
     5
  0
BLOCK_RECORD
  5
1F
330
1
100
AcDbSymbolTableRecord
100
AcDbBlockTableRecord
  2
*Model_Space
340
22
 70
     0
280
     1
281
     0
  0
BLOCK_RECORD
  5
1B
330
1
100
AcDbSymbolTableRecord
100
AcDbBlockTableRecord
  2
*Paper_Space
340
1E
 70
     0
280
     1
281
     0
  0
BLOCK_RECORD
  5
23
330
1
100
AcDbSymbolTableRecord
100
AcDbBlockTableRecord
  2
*Paper_Space0
340
26
 70
     0
280
     1
281
     0
  0
BLOCK_RECORD
  5
6E
330
1
100
AcDbSymbolTableRecord
100
AcDbBlockTableRecord
  2
1_059637_4
340
0
102
{BLKREFS
331
6F
102
}
 70
     0
280
     1
281
     0
  0
BLOCK_RECORD
  5
8A
330
1
100
AcDbSymbolTableRecord
100
AcDbBlockTableRecord
  2
2_059637HU_0_in_059637_4
340
0
102
{BLKREFS
331
8B
102
}
 70
     0
280
     1
281
     0
  0
BLOCK_RECORD
  5
DE
330
1
100
AcDbSymbolTableRecord
100
AcDbBlockTableRecord
  2
3_123328_0_in_059637_4
340
0
102
{BLKREFS
331
DF
102
}
 70
     0
280
     1
281
     0
  0
BLOCK_RECORD
  5
139
330
1
100
AcDbSymbolTableRecord
100
AcDbBlockTableRecord
  2
4_059637HL_0_in_059637_4
340
0
102
{BLKREFS
331
13A
102
}
 70
     0
280
     1
281
     0
  0
ENDTAB
  0
ENDSEC
  0
SECTION
  2
BLOCKS
  0
BLOCK
  5
20
330
1F
100
AcDbEntity
  8
0
100
AcDbBlockBegin
  2
*Model_Space
 70
     0
 10
0.0
 20
0.0
 30
0.0
  3
*Model_Space
  1

  0
ENDBLK
  5
21
330
1F
100
AcDbEntity
  8
0
100
AcDbBlockEnd
  0
BLOCK
  5
1C
330
1B
100
AcDbEntity
 67
     1
  8
0
100
AcDbBlockBegin
  2
*Paper_Space
 70
     0
 10
0.0
 20
0.0
 30
0.0
  3
*Paper_Space
  1

  0
ENDBLK
  5
1D
330
1B
100
AcDbEntity
 67
     1
  8
0
100
AcDbBlockEnd
  0
BLOCK
  5
24
330
23
100
AcDbEntity
  8
0
100
AcDbBlockBegin
  2
*Paper_Space0
 70
     0
 10
0.0
 20
0.0
 30
0.0
  3
*Paper_Space0
  1

  0
ENDBLK
  5
25
330
23
100
AcDbEntity
  8
0
100
AcDbBlockEnd
  0
BLOCK
  5
70
330
6E
100
AcDbEntity
  8
0
100
AcDbBlockBegin
  2
1_059637_4
 70
     2
 10
0.0
 20
0.0
 30
0.0
  3
1_059637_4
  1

  0
ATTDEF
  5
73
330
6E
100
AcDbEntity
  8
AM_6
100
AcDbText
 10
6.815
 20
0.5
 30
0.0
 40
0.5
  1
Set Screw Light Duty Two-Bolt Pillow Block Inch Bore
100
AcDbAttributeDefinition
  3

  2
NN
 70
     8
280
     0
  0
ATTDEF
  5
74
330
6E
100
AcDbEntity
  8
AM_6
100
AcDbText
 10
6.815
 20
0.0
 30
0.0
 40
0.5
  1
SC Pillow Block Bearings -(Light Duty)
100
AcDbAttributeDefinition
  3

  2
NT
 70
     8
280
     0
  0
ATTDEF
  5
75
330
6E
100
AcDbEntity
  8
AM_6
100
AcDbText
 10
6.815
 20
-0.5
 30
0.0
 40
0.5
  1
059637
100
AcDbAttributeDefinition
  3

  2
NB
 70
     8
280
     0
  0
ATTDEF
  5
76
330
6E
100
AcDbEntity
  8
AM_6
100
AcDbText
 10
6.815
 20
-1.0
 30
0.0
 40
0.5
  1
$PN.
100
AcDbAttributeDefinition
  3

  2
NBSYN
 70
     8
280
     0
  0
ATTDEF
  5
77
330
6E
100
AcDbEntity
  8
AM_6
100
AcDbText
 10
6.815
 20
-1.5
 30
0.0
 40
0.5
  1
059637
100
AcDbAttributeDefinition
  3

  2
LINA
 70
     8
280
     0
  0
ATTDEF
  5
78
330
6E
100
AcDbEntity
  8
AM_6
100
AcDbText
 10
6.815
 20
-2.0
 30
0.0
 40
0.5
  1
203
100
AcDbAttributeDefinition
  3

  2
SERIES
 70
     8
280
     0
  0
ATTDEF
  5
79
330
6E
100
AcDbEntity
  8
AM_6
100
AcDbText
 10
6.815
 20
-2.5
 30
0.0
 40
0.5
  1
1/2
100
AcDbAttributeDefinition
  3

  2
SS
 70
     8
280
     0
  0
ATTDEF
  5
7A
330
6E
100
AcDbEntity
  8
AM_6
100
AcDbText
 10
6.815
 20
-3.0
 30
0.0
 40
0.5
  1
059637
100
AcDbAttributeDefinition
  3

  2
PN
 70
     8
280
     0
  0
ATTDEF
  5
7B
330
6E
100
AcDbEntity
  8
AM_6
100
AcDbText
 10
6.815
 20
-3.5
 30
0.0
 40
0.5
  1
P2B-SL-008
100
AcDbAttributeDefinition
  3

  2
DESCRIPTION
 70
     8
280
     0
  0
ATTDEF
  5
7C
330
6E
100
AcDbEntity
  8
AM_6
100
AcDbText
 10
6.815
 20
-4.0
 30
0.0
 40
0.5
  1
0.52
100
AcDbAttributeDefinition
  3

  2
W
 70
     8
280
     0
  0
ATTDEF
  5
7D
330
6E
100
AcDbEntity
  8
AM_6
100
AcDbText
 10
6.815
 20
-4.5
 30
0.0
 40
0.5
  1
1.00
100
AcDbAttributeDefinition
  3

  2
A
 70
     8
280
     0
  0
ATTDEF
  5
7E
330
6E
100
AcDbEntity
  8
AM_6
100
AcDbText
 10
6.815
 20
-5.0
 30
0.0
 40
0.5
  1
3.63
100
AcDbAttributeDefinition
  3

  2
B
 70
     8
280
     0
  0
ATTDEF
  5
7F
330
6E
100
AcDbEntity
  8
AM_6
100
AcDbText
 10
6.815
 20
-5.5
 30
0.0
 40
0.5
  1
1.00
100
AcDbAttributeDefinition
  3

  2
C
 70
     8
280
     0
  0
ATTDEF
  5
80
330
6E
100
AcDbEntity
  8
AM_6
100
AcDbText
 10
6.815
 20
-6.0
 30
0.0
 40
0.5
  1
2.69
100
AcDbAttributeDefinition
  3

  2
D
 70
     8
280
     0
  0
ATTDEF
  5
81
330
6E
100
AcDbEntity
  8
AM_6
100
AcDbText
 10
6.815
 20
-6.5
 30
0.0
 40
0.5
  1
1/4
100
AcDbAttributeDefinition
  3

  2
F
 70
     8
280
     0
  0
ATTDEF
  5
82
330
6E
100
AcDbEntity
  8
AM_6
100
AcDbText
 10
6.815
 20
-7.0
 30
0.0
 40
0.5
  1
0.50
100
AcDbAttributeDefinition
  3

  2
G
 70
     8
280
     0
  0
ATTDEF
  5
83
330
6E
100
AcDbEntity
  8
AM_6
100
AcDbText
 10
6.815
 20
-7.5
 30
0.0
 40
0.5
  1
0.13
100
AcDbAttributeDefinition
  3

  2
H
 70
     8
280
     0
  0
ATTDEF
  5
84
330
6E
100
AcDbEntity
  8
AM_6
100
AcDbText
 10
6.815
 20
-8.0
 30
0.0
 40
0.5
  1
1.75
100
AcDbAttributeDefinition
  3

  2
J
 70
     8
280
     0
  0
ATTDEF
  5
85
330
6E
100
AcDbEntity
  8
AM_6
100
AcDbText
 10
6.815
 20
-8.5
 30
0.0
 40
0.5
  1
0.96
100
AcDbAttributeDefinition
  3

  2
L
 70
     8
280
     0
  0
ATTDEF
  5
86
330
6E
100
AcDbEntity
  8
AM_6
100
AcDbText
 10
6.815
 20
-9.0
 30
0.0
 40
0.5
  1
0.88
100
AcDbAttributeDefinition
  3

  2
M
 70
     8
280
     0
  0
ATTDEF
  5
87
330
6E
100
AcDbEntity
  8
AM_6
100
AcDbText
 10
6.815
 20
-9.5
 30
0.0
 40
0.5
  1
0.36
100
AcDbAttributeDefinition
  3

  2
R
 70
     8
280
     0
  0
ATTDEF
  5
88
330
6E
100
AcDbEntity
  8
AM_6
100
AcDbText
 10
6.815
 20
-10.0
 30
0.0
 40
0.5
  1
0.64
100
AcDbAttributeDefinition
  3

  2
S
 70
     8
280
     0
  0
ATTDEF
  5
89
330
6E
100
AcDbEntity
  8
AM_6
100
AcDbText
 10
6.815
 20
-10.5
 30
0.0
 40
0.5
  1
baldor
100
AcDbAttributeDefinition
  3

  2
COMPANY
 70
     8
280
     0
  0
INSERT
  5
8B
330
6E
100
AcDbEntity
  8
0
100
AcDbBlockReference
  2
2_059637HU_0_in_059637_4
 10
0.0
 20
0.0
 30
0.0
  0
INSERT
  5
DF
330
6E
100
AcDbEntity
  8
0
100
AcDbBlockReference
  2
3_123328_0_in_059637_4
 10
0.0
 20
0.0
 30
0.0
  0
INSERT
  5
13A
330
6E
100
AcDbEntity
  8
0
100
AcDbBlockReference
  2
4_059637HL_0_in_059637_4
 10
0.0
 20
0.0
 30
0.0
  0
ENDBLK
  5
71
330
6E
100
AcDbEntity
  8
0
100
AcDbBlockEnd
  0
BLOCK
  5
8C
330
8A
100
AcDbEntity
  8
0
100
AcDbBlockBegin
  2
2_059637HU_0_in_059637_4
 70
     2
 10
0.0
 20
0.0
 30
0.0
  3
2_059637HU_0_in_059637_4
  1

  0
ATTDEF
  5
8E
330
8A
100
AcDbEntity
  8
AM_6
100
AcDbText
 10
6.815
 20
0.4999999999999999
 30
0.0
 40
0.5
  1
P2B-SL -I-Housing-(UP)
100
AcDbAttributeDefinition
  3

  2
NN
 70
     8
280
     0
  0
ATTDEF
  5
8F
330
8A
100
AcDbEntity
  8
AM_6
100
AcDbText
 10
6.815
 20
-0.0000000000000001
 30
0.0
 40
0.5
  1
SC Pillow Block Bearings -(Light Duty)
100
AcDbAttributeDefinition
  3

  2
NT
 70
     8
280
     0
  0
ATTDEF
  5
90
330
8A
100
AcDbEntity
  8
AM_6
100
AcDbText
 10
6.815
 20
-0.5
 30
0.0
 40
0.5
  1
059637HU
100
AcDbAttributeDefinition
  3

  2
NB
 70
     8
280
     0
  0
ATTDEF
  5
91
330
8A
100
AcDbEntity
  8
AM_6
100
AcDbText
 10
6.815
 20
-1.0
 30
0.0
 40
0.5
  1
$PN.HU
100
AcDbAttributeDefinition
  3

  2
NBSYN
 70
     8
280
     0
  0
ATTDEF
  5
92
330
8A
100
AcDbEntity
  8
AM_6
100
AcDbText
 10
6.815
 20
-1.5
 30
0.0
 40
0.5
  1
059637
100
AcDbAttributeDefinition
  3

  2
LINA
 70
     8
280
     0
  0
ATTDEF
  5
93
330
8A
100
AcDbEntity
  8
AM_6
100
AcDbText
 10
6.815
 20
-2.0
 30
0.0
 40
0.5
  1
203
100
AcDbAttributeDefinition
  3

  2
SERIES
 70
     8
280
     0
  0
ATTDEF
  5
94
330
8A
100
AcDbEntity
  8
AM_6
100
AcDbText
 10
6.815
 20
-2.5
 30
0.0
 40
0.5
  1
1/2
100
AcDbAttributeDefinition
  3

  2
SS
 70
     8
280
     0
  0
ATTDEF
  5
95
330
8A
100
AcDbEntity
  8
AM_6
100
AcDbText
 10
6.815
 20
-3.0
 30
0.0
 40
0.5
  1
059637
100
AcDbAttributeDefinition
  3

  2
PN
 70
     8
280
     0
  0
ATTDEF
  5
96
330
8A
100
AcDbEntity
  8
AM_6
100
AcDbText
 10
6.815
 20
-3.5
 30
0.0
 40
0.5
  1
P2B-SL-008
100
AcDbAttributeDefinition
  3

  2
DESCRIPTION
 70
     8
280
     0
  0
ATTDEF
  5
97
330
8A
100
AcDbEntity
  8
AM_6
100
AcDbText
 10
6.815
 20
-4.0
 30
0.0
 40
0.5
  1
0.52
100
AcDbAttributeDefinition
  3

  2
W
 70
     8
280
     0
  0
ATTDEF
  5
98
330
8A
100
AcDbEntity
  8
AM_6
100
AcDbText
 10
6.815
 20
-4.5
 30
0.0
 40
0.5
  1
1.00
100
AcDbAttributeDefinition
  3

  2
A
 70
     8
280
     0
  0
ATTDEF
  5
99
330
8A
100
AcDbEntity
  8
AM_6
100
AcDbText
 10
6.815
 20
-5.0
 30
0.0
 40
0.5
  1
3.63
100
AcDbAttributeDefinition
  3

  2
B
 70
     8
280
     0
  0
ATTDEF
  5
9A
330
8A
100
AcDbEntity
  8
AM_6
100
AcDbText
 10
6.815
 20
-5.5
 30
0.0
 40
0.5
  1
1.00
100
AcDbAttributeDefinition
  3

  2
C
 70
     8
280
     0
  0
ATTDEF
  5
9B
330
8A
100
AcDbEntity
  8
AM_6
100
AcDbText
 10
6.815
 20
-6.0
 30
0.0
 40
0.5
  1
2.69
100
AcDbAttributeDefinition
  3

  2
D
 70
     8
280
     0
  0
ATTDEF
  5
9C
330
8A
100
AcDbEntity
  8
AM_6
100
AcDbText
 10
6.815
 20
-6.5
 30
0.0
 40
0.5
  1
1/4
100
AcDbAttributeDefinition
  3

  2
F
 70
     8
280
     0
  0
ATTDEF
  5
9D
330
8A
100
AcDbEntity
  8
AM_6
100
AcDbText
 10
6.815
 20
-7.0
 30
0.0
 40
0.5
  1
0.50
100
AcDbAttributeDefinition
  3

  2
G
 70
     8
280
     0
  0
ATTDEF
  5
9E
330
8A
100
AcDbEntity
  8
AM_6
100
AcDbText
 10
6.815
 20
-7.5
 30
0.0
 40
0.5
  1
0.13
100
AcDbAttributeDefinition
  3

  2
H
 70
     8
280
     0
  0
ATTDEF
  5
9F
330
8A
100
AcDbEntity
  8
AM_6
100
AcDbText
 10
6.815
 20
-8.0
 30
0.0
 40
0.5
  1
1.75
100
AcDbAttributeDefinition
  3

  2
J
 70
     8
280
     0
  0
ATTDEF
  5
A0
330
8A
100
AcDbEntity
  8
AM_6
100
AcDbText
 10
6.815
 20
-8.5
 30
0.0
 40
0.5
  1
0.96
100
AcDbAttributeDefinition
  3

  2
L
 70
     8
280
     0
  0
ATTDEF
  5
A1
330
8A
100
AcDbEntity
  8
AM_6
100
AcDbText
 10
6.815
 20
-9.0
 30
0.0
 40
0.5
  1
0.88
100
AcDbAttributeDefinition
  3

  2
M
 70
     8
280
     0
  0
ATTDEF
  5
A2
330
8A
100
AcDbEntity
  8
AM_6
100
AcDbText
 10
6.815
 20
-9.5
 30
0.0
 40
0.5
  1
0.36
100
AcDbAttributeDefinition
  3

  2
R
 70
     8
280
     0
  0
ATTDEF
  5
A3
330
8A
100
AcDbEntity
  8
AM_6
100
AcDbText
 10
6.815
 20
-10.0
 30
0.0
 40
0.5
  1
0.64
100
AcDbAttributeDefinition
  3

  2
S
 70
     8
280
     0
  0
ATTDEF
  5
A4
330
8A
100
AcDbEntity
  8
AM_6
100
AcDbText
 10
6.815
 20
-10.5
 30
0.0
 40
0.5
  1
1000
100
AcDbAttributeDefinition
  3

  2
CAPS
 70
     8
280
     0
  0
ATTDEF
  5
A5
330
8A
100
AcDbEntity
  8
AM_6
100
AcDbText
 10
6.815
 20
-11.0
 30
0.0
 40
0.5
  1
2158
100
AcDbAttributeDefinition
  3

  2
CAPD
 70
     8
280
     0
  0
ATTDEF
  5
A6
330
8A
100
AcDbEntity
  8
AM_6
100
AcDbText
 10
6.815
 20
-11.5
 30
0.0
 40
0.5
  1
baldor
100
AcDbAttributeDefinition
  3

  2
COMPANY
 70
     8
280
     0
  0
LINE
  5
A9
330
8A
100
AcDbEntity
  8
AM_9
100
AcDbLine
 10
0.9173999999999998
 20
-0.5000000000000001
 30
0.0
 11
0.9173999999999998
 21
0.4999999999999999
 31
0.0
  0
LINE
  5
AA
330
8A
100
AcDbEntity
  8
AM_9
100
AcDbLine
 10
-0.9174
 20
-0.5000000000000001
 30
0.0
 11
-0.9174
 21
0.4999999999999999
 31
0.0
  0
LINE
  5
AB
330
8A
100
AcDbEntity
  8
AM_9
100
AcDbLine
 10
-0.7873999999999999
 20
-0.3999999499999999
 30
0.0
 11
-0.7873999999999999
 21
0.3999999499999999
 31
0.0
  0
LINE
  5
AC
330
8A
100
AcDbEntity
  8
AM_9
100
AcDbLine
 10
0.7874000000000001
 20
-0.3999999499999999
 30
0.0
 11
0.7874000000000001
 21
0.3999999499999999
 31
0.0
  0
LINE
  5
AF
330
8A
100
AcDbEntity
  8
AM_7
100
AcDbLine
 10
1.08874999975
 20
-0.0000000000000001
 30
0.0
 11
1.60125000025
 21
0.0
 31
0.0
  0
LINE
  5
B0
330
8A
100
AcDbEntity
  8
AM_7
100
AcDbLine
 10
1.469999995
 20
-0.13125000525
 30
0.0
 11
1.469999995
 21
0.13125000525
 31
0.0
  0
LINE
  5
B1
330
8A
100
AcDbEntity
  8
AM_7
100
AcDbLine
 10
-1.60125000025
 20
0.0
 30
0.0
 11
-1.08874999975
 21
0.0000000000000001
 31
0.0
  0
LINE
  5
B2
330
8A
100
AcDbEntity
  8
AM_7
100
AcDbLine
 10
-1.220000005
 20
-0.1312500052499999
 30
0.0
 11
-1.220000005
 21
0.1312500052500001
 31
0.0
  0
LINE
  5
B3
330
8A
100
AcDbEntity
  8
AM_7
100
AcDbLine
 10
1.220000005
 20
-0.13125000525
 30
0.0
 11
1.220000005
 21
0.1312500052499999
 31
0.0
  0
LINE
  5
B4
330
8A
100
AcDbEntity
  8
AM_7
100
AcDbLine
 10
-1.469999995
 20
-0.1312500052500002
 30
0.0
 11
-1.469999995
 21
0.1312500052500002
 31
0.0
  0
LINE
  5
B6
330
8A
100
AcDbEntity
  8
AM_4
100
AcDbLine
 10
1.815
 20
-0.3999999500000005
 30
0.0
 11
1.815
 21
0.39999995
 31
0.0
  0
ARC
  5
B7
330
8A
100
AcDbEntity
  8
AM_4
100
AcDbCircle
 10
1.71499995
 20
0.3999999499999999
 30
0.0
 40
0.1000000499999998
100
AcDbArc
 50
0.0000008537736463
 51
90.0
  0
LINE
  5
B8
330
8A
100
AcDbEntity
  8
AM_4
100
AcDbLine
 10
1.71499995
 20
0.4999999999999998
 30
0.0
 11
0.8048166975080228
 21
0.4999999999999999
 31
0.0
  0
LINE
  5
B9
330
8A
100
AcDbEntity
  8
AM_4
100
AcDbLine
 10
1.71499995
 20
-0.5000000000000001
 30
0.0
 11
0.8048166975080229
 21
-0.5000000000000001
 31
0.0
  0
ARC
  5
BA
330
8A
100
AcDbEntity
  8
AM_4
100
AcDbCircle
 10
1.71499995
 20
-0.3999999500000004
 30
0.0
 40
0.1000000499999997
100
AcDbArc
 50
270.0
 51
0.0000008537736463
  0
ARC
  5
BB
330
8A
100
AcDbEntity
  8
AM_4
100
AcDbCircle
 10
1.220000005
 20
-0.0000000000000001
 30
0.0
 40
0.125000005
100
AcDbArc
 50
90.0
 51
270.0
  0
LINE
  5
BC
330
8A
100
AcDbEntity
  8
AM_4
100
AcDbLine
 10
1.469999995
 20
0.125000005
 30
0.0
 11
1.220000005
 21
0.1250000049999999
 31
0.0
  0
ARC
  5
BD
330
8A
100
AcDbEntity
  8
AM_4
100
AcDbCircle
 10
1.469999995
 20
0.0
 30
0.0
 40
0.125000005
100
AcDbArc
 50
270.0
 51
90.0
  0
LINE
  5
BE
330
8A
100
AcDbEntity
  8
AM_4
100
AcDbLine
 10
1.220000005
 20
-0.1250000050000001
 30
0.0
 11
1.469999995
 21
-0.1250000050000001
 31
0.0
  0
ARC
  5
BF
330
8A
100
AcDbEntity
  8
AM_4
100
AcDbCircle
 10
-1.469999995
 20
0.0
 30
0.0
 40
0.1250000050000001
100
AcDbArc
 50
90.0
 51
270.0
  0
LINE
  5
C0
330
8A
100
AcDbEntity
  8
AM_4
100
AcDbLine
 10
-1.220000005
 20
0.1250000050000001
 30
0.0
 11
-1.469999995
 21
0.1250000050000001
 31
0.0
  0
ARC
  5
C1
330
8A
100
AcDbEntity
  8
AM_4
100
AcDbCircle
 10
-1.220000005
 20
0.0000000000000001
 30
0.0
 40
0.125000005
100
AcDbArc
 50
270.0
 51
90.0
  0
LINE
  5
C2
330
8A
100
AcDbEntity
  8
AM_4
100
AcDbLine
 10
-1.469999995
 20
-0.1250000050000001
 30
0.0
 11
-1.220000005
 21
-0.1250000049999999
 31
0.0
  0
LINE
  5
C3
330
8A
100
AcDbEntity
  8
AM_4
100
AcDbLine
 10
-0.8048166975080234
 20
0.4999999999999999
 30
0.0
 11
-1.71499995
 21
0.4999999999999999
 31
0.0
  0
ARC
  5
C4
330
8A
100
AcDbEntity
  8
AM_4
100
AcDbCircle
 10
-1.71499995
 20
0.3999999500000008
 30
0.0
 40
0.1000000499999992
100
AcDbArc
 50
90.0
 51
179.9999991462263
  0
LINE
  5
C5
330
8A
100
AcDbEntity
  8
AM_4
100
AcDbLine
 10
-1.815
 20
-0.3999999500000005
 30
0.0
 11
-1.815
 21
0.3999999500000003
 31
0.0
  0
ARC
  5
C6
330
8A
100
AcDbEntity
  8
AM_4
100
AcDbCircle
 10
-1.71499995
 20
-0.3999999500000004
 30
0.0
 40
0.1000000499999998
100
AcDbArc
 50
179.9999991462263
 51
270.0
  0
LINE
  5
C7
330
8A
100
AcDbEntity
  8
AM_4
100
AcDbLine
 10
-0.8048166975080234
 20
-0.5000000000000001
 30
0.0
 11
-1.71499995
 21
-0.5000000000000001
 31
0.0
  0
LINE
  5
C8
330
8A
100
AcDbEntity
  8
AM_4
100
AcDbLine
 10
-0.9350000000000002
 20
-0.5000000000000001
 30
0.0
 11
-0.9350000000000002
 21
0.4999999999999999
 31
0.0
  0
LINE
  5
C9
330
8A
100
AcDbEntity
  8
AM_4
100
AcDbLine
 10
0.9349999999999997
 20
-0.5000000000000001
 30
0.0
 11
0.9349999999999997
 21
0.4999999999999999
 31
0.0
  0
LINE
  5
CA
330
8A
100
AcDbEntity
  8
AM_4
100
AcDbLine
 10
-0.87
 20
-0.4895999948000001
 30
0.0
 11
-0.87
 21
0.4895999947999999
 31
0.0
  0
LWPOLYLINE
  5
CB
330
8A
100
AcDbEntity
  8
AM_4
100
AcDbPolyline
 90
       19
 70
     0
 43
0.0
 10
-0.9350000000000002
 20
0.4999999999999998
 10
-0.9293348767214024
 20
0.4999604248403665
 10
-0.9237128684516496
 20
0.4998420005523271
 10
-0.9181767620683362
 20
0.4996456284162205
 10
-0.9127686906838317
 20
0.4993728029425749
 10
-0.9075298129868545
 20
0.4990256004979816
 10
-0.9025
 20
0.4986066635026901
 10
-0.8977175316371822
 20
0.498119180320196
 10
-0.893218805370375
 20
0.4975668609918684
 10
-0.8890380592228745
 20
0.4969539090012952
 10
-0.8852071111972665
 20
0.4962849892832354
 10
-0.8817551171212156
 20
0.4955651927206482
 10
-0.8787083487540115
 20
0.4947999973999999
 10
-0.8760899938426178
 20
0.493995226919718
 10
-0.873919979648916
 20
0.4931570060690915
 10
-0.8722148212912106
 20
0.4922917142149251
 10
-0.8709874960542064
 20
0.4914059367507064
 10
-0.8702473446240365
 20
0.4905064149777854
 10
-0.87
 20
0.4895999947999998
  0
LWPOLYLINE
  5
CC
330
8A
100
AcDbEntity
  8
AM_4
100
AcDbPolyline
 90
        7
 70
     0
 43
0.0
 10
-0.8048166975080231
 20
0.4999999999999998
 10
-0.7995799876852356
 20
0.4983904590394363
 10
-0.7952399592978321
 20
0.4967140173381833
 10
-0.7918296425824213
 20
0.4949834336298503
 10
-0.7893749921084131
 20
0.493211878701413
 10
-0.7878946892480733
 20
0.4914128351555708
 10
-0.7874000000000002
 20
0.4895999947999998
  0
LINE
  5
CD
330
8A
100
AcDbEntity
  8
AM_4
100
AcDbLine
 10
0.8699999999999998
 20
0.4895999947999996
 30
0.0
 11
0.8699999999999998
 21
-0.4895999947999999
 31
0.0
  0
LWPOLYLINE
  5
CE
330
8A
100
AcDbEntity
  8
AM_4
100
AcDbPolyline
 90
       19
 70
     0
 43
0.0
 10
0.8699999999999999
 20
0.4895999947999998
 10
0.8702473446240364
 20
0.4905064149777854
 10
0.8709874960542063
 20
0.4914059367507064
 10
0.8722148212912104
 20
0.4922917142149251
 10
0.8739199796489158
 20
0.4931570060690915
 10
0.8760899938426177
 20
0.493995226919718
 10
0.8787083487540114
 20
0.4947999973999998
 10
0.8817551171212155
 20
0.4955651927206482
 10
0.8852071111972664
 20
0.4962849892832354
 10
0.8890380592228743
 20
0.4969539090012952
 10
0.8932188053703748
 20
0.4975668609918684
 10
0.8977175316371818
 20
0.498119180320196
 10
0.9024999999999999
 20
0.4986066635026901
 10
0.9075298129868544
 20
0.4990256004979816
 10
0.9127686906838314
 20
0.4993728029425749
 10
0.918176762068336
 20
0.4996456284162205
 10
0.9237128684516493
 20
0.4998420005523271
 10
0.929334876721402
 20
0.4999604248403665
 10
0.9349999999999998
 20
0.4999999999999998
  0
LWPOLYLINE
  5
CF
330
8A
100
AcDbEntity
  8
AM_4
100
AcDbPolyline
 90
        7
 70
     0
 43
0.0
 10
0.7873999999999999
 20
0.4895999947999999
 10
0.787894689248073
 20
0.4914128351555709
 10
0.7893749921084128
 20
0.4932118787014131
 10
0.791829642582421
 20
0.4949834336298505
 10
0.7952399592978318
 20
0.4967140173381833
 10
0.7995799876852353
 20
0.4983904590394364
 10
0.8048166975080228
 20
0.4999999999999999
  0
LWPOLYLINE
  5
D0
330
8A
100
AcDbEntity
  8
AM_4
100
AcDbPolyline
 90
       19
 70
     0
 43
0.0
 10
-0.87
 20
-0.4895999948
 10
-0.8702473446240365
 20
-0.4905064149777856
 10
-0.8709874960542064
 20
-0.4914059367507066
 10
-0.8722148212912106
 20
-0.4922917142149253
 10
-0.873919979648916
 20
-0.4931570060690917
 10
-0.8760899938426178
 20
-0.4939952269197183
 10
-0.8787083487540115
 20
-0.4947999974
 10
-0.8817551171212156
 20
-0.4955651927206484
 10
-0.8852071111972665
 20
-0.4962849892832357
 10
-0.8890380592228744
 20
-0.4969539090012954
 10
-0.8932188053703749
 20
-0.4975668609918685
 10
-0.8977175316371819
 20
-0.4981191803201962
 10
-0.9025
 20
-0.4986066635026903
 10
-0.9075298129868545
 20
-0.4990256004979817
 10
-0.9127686906838315
 20
-0.4993728029425751
 10
-0.9181767620683361
 20
-0.4996456284162207
 10
-0.9237128684516495
 20
-0.4998420005523274
 10
-0.9293348767214022
 20
-0.4999604248403667
 10
-0.935
 20
-0.5000000000000001
  0
LWPOLYLINE
  5
D1
330
8A
100
AcDbEntity
  8
AM_4
100
AcDbPolyline
 90
        7
 70
     0
 43
0.0
 10
-0.7874000000000002
 20
-0.4895999948
 10
-0.7878946892480733
 20
-0.491412835155571
 10
-0.7893749921084131
 20
-0.4932118787014132
 10
-0.7918296425824213
 20
-0.4949834336298505
 10
-0.7952399592978321
 20
-0.4967140173381834
 10
-0.7995799876852356
 20
-0.4983904590394365
 10
-0.8048166975080231
 20
-0.5000000000000001
  0
LWPOLYLINE
  5
D2
330
8A
100
AcDbEntity
  8
AM_4
100
AcDbPolyline
 90
        7
 70
     0
 43
0.0
 10
0.8048166975080229
 20
-0.5000000000000001
 10
0.7995799876852353
 20
-0.4983904590394365
 10
0.7952399592978318
 20
-0.4967140173381834
 10
0.791829642582421
 20
-0.4949834336298505
 10
0.7893749921084129
 20
-0.4932118787014132
 10
0.787894689248073
 20
-0.491412835155571
 10
0.7873999999999999
 20
-0.4895999948
  0
LWPOLYLINE
  5
D3
330
8A
100
AcDbEntity
  8
AM_4
100
AcDbPolyline
 90
       19
 70
     0
 43
0.0
 10
0.935
 20
-0.5000000000000001
 10
0.9293348767214022
 20
-0.4999604248403667
 10
0.9237128684516495
 20
-0.4998420005523274
 10
0.9181767620683361
 20
-0.4996456284162207
 10
0.9127686906838315
 20
-0.4993728029425751
 10
0.9075298129868545
 20
-0.4990256004979817
 10
0.9025
 20
-0.4986066635026903
 10
0.8977175316371819
 20
-0.4981191803201962
 10
0.8932188053703749
 20
-0.4975668609918685
 10
0.8890380592228744
 20
-0.4969539090012954
 10
0.8852071111972664
 20
-0.4962849892832357
 10
0.8817551171212155
 20
-0.4955651927206484
 10
0.8787083487540115
 20
-0.4947999974000001
 10
0.8760899938426177
 20
-0.4939952269197183
 10
0.8739199796489158
 20
-0.4931570060690917
 10
0.8722148212912104
 20
-0.4922917142149253
 10
0.8709874960542063
 20
-0.4914059367507067
 10
0.8702473446240364
 20
-0.4905064149777856
 10
0.8699999999999999
 20
-0.4895999948
  0
LINE
  5
D4
330
8A
100
AcDbEntity
  8
AM_4
100
AcDbLine
 10
0.7874000000000001
 20
-0.39999995
 30
0.0
 11
0.7873999999999999
 21
-0.4895999948000001
 31
0.0
  0
LINE
  5
D5
330
8A
100
AcDbEntity
  8
AM_4
100
AcDbLine
 10
0.8699999999999998
 20
-0.4125593304070496
 30
0.0
 11
0.7873999999999999
 21
-0.4125593304070496
 31
0.0
  0
LINE
  5
D6
330
8A
100
AcDbEntity
  8
AM_4
100
AcDbLine
 10
-0.7874000000000001
 20
-0.4895999948
 30
0.0
 11
-0.7873999999999997
 21
-0.39999995
 31
0.0
  0
LINE
  5
D7
330
8A
100
AcDbEntity
  8
AM_4
100
AcDbLine
 10
-0.7874000000000002
 20
-0.4125593304070496
 30
0.0
 11
-0.87
 21
-0.4125593304070496
 31
0.0
  0
LINE
  5
D8
330
8A
100
AcDbEntity
  8
AM_4
100
AcDbLine
 10
-0.7874000000000002
 20
0.39999995
 30
0.0
 11
-0.7874000000000001
 21
0.4895999947999997
 31
0.0
  0
LINE
  5
D9
330
8A
100
AcDbEntity
  8
AM_4
100
AcDbLine
 10
-0.7874000000000002
 20
0.4125593304070496
 30
0.0
 11
-0.87
 21
0.4125593304070496
 31
0.0
  0
LINE
  5
DA
330
8A
100
AcDbEntity
  8
AM_4
100
AcDbLine
 10
0.7873999999999999
 20
0.4895999947999998
 30
0.0
 11
0.7873999999999999
 21
0.39999995
 31
0.0
  0
LINE
  5
DB
330
8A
100
AcDbEntity
  8
AM_4
100
AcDbLine
 10
0.8699999999999998
 20
0.4125593304070496
 30
0.0
 11
0.7873999999999999
 21
0.4125593304070496
 31
0.0
  0
LINE
  5
DC
330
8A
100
AcDbEntity
  8
AM_4
100
AcDbLine
 10
0.87
 20
0.3999999499999999
 30
0.0
 11
-0.87
 21
0.3999999499999999
 31
0.0
  0
LINE
  5
DD
330
8A
100
AcDbEntity
  8
AM_4
100
AcDbLine
 10
-0.8700000000000003
 20
-0.39999995
 30
0.0
 11
0.87
 21
-0.39999995
 31
0.0
  0
ENDBLK
  5
8D
330
8A
100
AcDbEntity
  8
0
100
AcDbBlockEnd
  0
BLOCK
  5
E0
330
DE
100
AcDbEntity
  8
0
100
AcDbBlockBegin
  2
3_123328_0_in_059637_4
 70
     2
 10
0.0
 20
0.0
 30
0.0
  3
3_123328_0_in_059637_4
  1

  0
ATTDEF
  5
E2
330
DE
100
AcDbEntity
  8
AM_6
100
AcDbText
 10
5.787399164056818
 20
0.41
 30
0.0
 40
0.5
  1
Set Screw Insert Inch Bore
100
AcDbAttributeDefinition
  3

  2
NN
 70
     8
280
     0
  0
ATTDEF
  5
E3
330
DE
100
AcDbEntity
  8
AM_6
100
AcDbText
 10
5.787399164056818
 20
-0.09
 30
0.0
 40
0.5
  1
SC Normal Duty Bearing Inserts
100
AcDbAttributeDefinition
  3

  2
NT
 70
     8
280
     0
  0
ATTDEF
  5
E4
330
DE
100
AcDbEntity
  8
AM_6
100
AcDbText
 10
5.787399164056818
 20
-0.5900000000000001
 30
0.0
 40
0.5
  1
123328
100
AcDbAttributeDefinition
  3

  2
NB
 70
     8
280
     0
  0
ATTDEF
  5
E5
330
DE
100
AcDbEntity
  8
AM_6
100
AcDbText
 10
5.787399164056818
 20
-1.09
 30
0.0
 40
0.5
  1
$PN.
100
AcDbAttributeDefinition
  3

  2
NBSYN
 70
     8
280
     0
  0
ATTDEF
  5
E6
330
DE
100
AcDbEntity
  8
AM_6
100
AcDbText
 10
5.787399164056818
 20
-1.59
 30
0.0
 40
0.5
  1
123328
100
AcDbAttributeDefinition
  3

  2
LINA
 70
     8
280
     0
  0
ATTDEF
  5
E7
330
DE
100
AcDbEntity
  8
AM_6
100
AcDbText
 10
5.787399164056818
 20
-2.09
 30
0.0
 40
0.5
  1
203
100
AcDbAttributeDefinition
  3

  2
SERIES
 70
     8
280
     0
  0
ATTDEF
  5
E8
330
DE
100
AcDbEntity
  8
AM_6
100
AcDbText
 10
5.787399164056818
 20
-2.59
 30
0.0
 40
0.5
  1
1/2
100
AcDbAttributeDefinition
  3

  2
SS
 70
     8
280
     0
  0
ATTDEF
  5
E9
330
DE
100
AcDbEntity
  8
AM_6
100
AcDbText
 10
5.787399164056818
 20
-3.09
 30
0.0
 40
0.5
  1
123328
100
AcDbAttributeDefinition
  3

  2
PN
 70
     8
280
     0
  0
ATTDEF
  5
EA
330
DE
100
AcDbEntity
  8
AM_6
100
AcDbText
 10
5.787399164056818
 20
-3.59
 30
0.0
 40
0.5
  1
INS-SC-008
100
AcDbAttributeDefinition
  3

  2
DESCRIPTION
 70
     8
280
     0
  0
ATTDEF
  5
EB
330
DE
100
AcDbEntity
  8
AM_6
100
AcDbText
 10
5.787399164056818
 20
-4.09
 30
0.0
 40
0.5
  1
1
100
AcDbAttributeDefinition
  3

  2
A
 70
     8
280
     0
  0
ATTDEF
  5
EC
330
DE
100
AcDbEntity
  8
AM_6
100
AcDbText
 10
5.787399164056818
 20
-4.59
 30
0.0
 40
0.5
  1
0.51
100
AcDbAttributeDefinition
  3

  2
C
 70
     8
280
     0
  0
ATTDEF
  5
ED
330
DE
100
AcDbEntity
  8
AM_6
100
AcDbText
 10
5.787399164056818
 20
-5.09
 30
0.0
 40
0.5
  1
1.5748
100
AcDbAttributeDefinition
  3

  2
D
 70
     8
280
     0
  0
ATTDEF
  5
EE
330
DE
100
AcDbEntity
  8
AM_6
100
AcDbText
 10
5.787399164056818
 20
-5.59
 30
0.0
 40
0.5
  1
0.15
100
AcDbAttributeDefinition
  3

  2
J
 70
     8
280
     0
  0
ATTDEF
  5
EF
330
DE
100
AcDbEntity
  8
AM_6
100
AcDbText
 10
5.787399164056818
 20
-6.09
 30
0.0
 40
0.5
  1
0.96
100
AcDbAttributeDefinition
  3

  2
L
 70
     8
280
     0
  0
ATTDEF
  5
F0
330
DE
100
AcDbEntity
  8
AM_6
100
AcDbText
 10
5.787399164056818
 20
-6.59
 30
0.0
 40
0.5
  1
10 - 32
100
AcDbAttributeDefinition
  3

  2
N
 70
     8
280
     0
  0
ATTDEF
  5
F1
330
DE
100
AcDbEntity
  8
AM_6
100
AcDbText
 10
5.787399164056818
 20
-7.09
 30
0.0
 40
0.5
  1
0.36
100
AcDbAttributeDefinition
  3

  2
W
 70
     8
280
     0
  0
ATTDEF
  5
F2
330
DE
100
AcDbEntity
  8
AM_6
100
AcDbText
 10
5.787399164056818
 20
-7.59
 30
0.0
 40
0.5
  1
0.64
100
AcDbAttributeDefinition
  3

  2
Y
 70
     8
280
     0
  0
ATTDEF
  5
F3
330
DE
100
AcDbEntity
  8
AM_6
100
AcDbText
 10
5.787399164056818
 20
-8.09
 30
0.0
 40
0.5
  1
baldor
100
AcDbAttributeDefinition
  3

  2
COMPANY
 70
     8
280
     0
  0
LINE
  5
F4
330
DE
100
AcDbEntity
  8
AM_9
100
AcDbLine
 10
-0.7579752212329147
 20
0.2133333333333318
 30
0.0
 11
-0.7660363636363635
 21
0.2133333333333318
 31
0.0
  0
LINE
  5
F5
330
DE
100
AcDbEntity
  8
AM_9
100
AcDbLine
 10
-0.8124
 20
0.1669696969697087
 30
0.0
 11
-0.8124
 21
0.1330303030302913
 31
0.0
  0
ARC
  5
F6
330
DE
100
AcDbEntity
  8
AM_9
100
AcDbCircle
 10
-0.7660363636363534
 20
0.1330303030303116
 30
0.0
 40
0.0463636363636466
100
AcDbArc
 50
179.9999991462263
 51
249.4559178308693
  0
ARC
  5
F7
330
DE
100
AcDbEntity
  8
AM_9
100
AcDbCircle
 10
-0.7660363636363635
 20
0.1669696969696955
 30
0.0
 40
0.0463636363636364
100
AcDbArc
 50
90.0
 51
180.0
  0
LINE
  5
F8
330
DE
100
AcDbEntity
  8
AM_9
100
AcDbLine
 10
-0.7660363636363635
 20
0.2133333333333319
 30
0.0
 11
-0.7660363636363635
 21
0.1722531282522179
 31
0.0
  0
LINE
  5
F9
330
DE
100
AcDbEntity
  8
AM_9
100
AcDbLine
 10
0.25
 20
-0.6208
 30
0.0
 11
0.25
 21
0.3407999999999999
 31
0.0
  0
LINE
  5
FA
330
DE
100
AcDbEntity
  8
AM_9
100
AcDbLine
 10
-0.25
 20
0.3407999999999999
 30
0.0
 11
-0.25
 21
-0.6208
 31
0.0
  0
LWPOLYLINE
  5
FB
330
DE
100
AcDbEntity
  8
AM_9
100
AcDbPolyline
 90
       11
 70
     0
 43
0.0
 10
0.1862352086024951
 20
-0.4475
 10
0.1868964223144532
 20
-0.459201944092236
 10
0.1889116606845623
 20
-0.470903888184472
 10
0.1920335300391776
 20
-0.4816102862961523
 10
0.1962416566593316
 20
-0.4916577791020912
 10
0.2012230779947281
 20
-0.5004826892757583
 10
0.2068853037552071
 20
-0.5080600145324664
 10
0.2127588454151191
 20
-0.513865816874216
 10
0.2188058500639603
 20
-0.5178962139816498
 10
0.2242646920428533
 20
-0.5197523044825624
 10
0.226575732492336
 20
-0.5199499999430292
  0
LINE
  5
FC
330
DE
100
AcDbEntity
  8
AM_9
100
AcDbLine
 10
0.22650951502419
 20
-0.51995
 30
0.0
 11
0.4264223886561056
 21
-0.51995
 31
0.0
  0
LINE
  5
FD
330
DE
100
AcDbEntity
  8
AM_9
100
AcDbLine
 10
0.4264223886561056
 20
-0.37505
 30
0.0
 11
0.2265215524939353
 21
-0.37505
 31
0.0
  0
LWPOLYLINE
  5
FE
330
DE
100
AcDbEntity
  8
AM_9
100
AcDbPolyline
 90
        7
 70
     0
 43
0.0
 10
0.2441796142460329
 20
-0.3998647215481619
 10
0.2427863928564958
 20
-0.3937418528417017
 10
0.2402647575971072
 20
-0.3863962444842179
 10
0.2369309883516263
 20
-0.380609431115123
 10
0.2329905822825924
 20
-0.3769119109998577
 10
0.228213829275751
 20
-0.3751572000696634
 10
0.2265793179277128
 20
-0.3750500002172544
  0
LWPOLYLINE
  5
FF
330
DE
100
AcDbEntity
  8
AM_9
100
AcDbPolyline
 90
       16
 70
     0
 43
0.0
 10
0.226575732492336
 20
-0.5199499999430292
 10
0.229428623089277
 20
-0.5196153816018884
 10
0.2337229787900932
 20
-0.5175860703932366
 10
0.2374797224227675
 20
-0.5136459205128645
 10
0.2405005473299485
 20
-0.508055387585343
 10
0.2429323831906506
 20
-0.5007067978200898
 10
0.2447601101196513
 20
-0.4918439998674293
 10
0.2460757817175574
 20
-0.4814399960988386
 10
0.2469017648289118
 20
-0.4702524019731525
 10
0.2473579371068166
 20
-0.4580042598300081
 10
0.2474709237785556
 20
-0.4462219446924437
 10
0.247284763869231
 20
-0.4341219986817644
 10
0.2468034125009821
 20
-0.4230136393652462
 10
0.245947804110603
 20
-0.4122793352278932
 10
0.2446558291288589
 20
-0.4025223463258893
 10
0.2441796142460329
 20
-0.3998647215481619
  0
LWPOLYLINE
  5
100
330
DE
100
AcDbEntity
  8
AM_9
100
AcDbPolyline
 90
       11
 70
     0
 43
0.0
 10
0.2265793179277128
 20
-0.3750500002172544
 10
0.223187836123549
 20
-0.3754668784406796
 10
0.2176072723780574
 20
-0.3777452925901165
 10
0.2120372937163462
 20
-0.3817457131042211
 10
0.2063431093228895
 20
-0.387574930519016
 10
0.2009070131528278
 20
-0.3950082930762568
 10
0.1958750144901254
 20
-0.4041003269419082
 10
0.1916767223914524
 20
-0.4144173106351012
 10
0.1884759906724758
 20
-0.4260574193383692
 10
0.186817610160436
 20
-0.4365150896481912
 10
0.1862352086024951
 20
-0.4475
  0
LINE
  5
101
330
DE
100
AcDbEntity
  8
AM_9
100
AcDbLine
 10
0.25
 20
0.3407999999999999
 30
0.0
 11
0.2692
 21
0.36
 31
0.0
  0
LINE
  5
102
330
DE
100
AcDbEntity
  8
AM_9
100
AcDbLine
 10
-0.2692
 20
0.36
 30
0.0
 11
-0.25
 21
0.3407999999999999
 31
0.0
  0
LINE
  5
103
330
DE
100
AcDbEntity
  8
AM_9
100
AcDbLine
 10
-0.25
 20
-0.6208
 30
0.0
 11
-0.2692
 21
-0.64
 31
0.0
  0
LINE
  5
104
330
DE
100
AcDbEntity
  8
AM_9
100
AcDbLine
 10
0.2692
 20
-0.64
 30
0.0
 11
0.25
 21
-0.6208
 31
0.0
  0
ELLIPSE
  5
105
330
DE
100
AcDbEntity
  8
AM_9
100
AcDbEllipse
 10
0.4264223886561057
 20
-0.4475000000000001
 30
0.0
 11
-1.330884908973383E-17
 21
-0.07244999999999985
 31
0.0
210
0.0
220
0.0
230
1.0
 40
0.4226182617407009
 41
2.285806712449231
 42
5.879773830306713
  0
LINE
  5
106
330
DE
100
AcDbEntity
  8
AM_9
100
AcDbLine
 10
0.4121446575980784
 20
-0.5115909083329413
 30
0.0
 11
0.4177493936078671
 21
-0.5185816203743253
 31
0.0
  0
LINE
  5
107
330
DE
100
AcDbEntity
  8
AM_9
100
AcDbLine
 10
0.4177303657340639
 20
-0.3764421128374239
 30
0.0
 11
0.4121446575980784
 21
-0.3834090916670587
 31
0.0
  0
LWPOLYLINE
  5
108
330
DE
100
AcDbEntity
  8
AM_9
100
AcDbPolyline
 90
        4
 70
     0
 43
0.0
 10
0.4053423462272425
 20
-0.3998440693638037
 10
0.408595897939115
 20
-0.3917948713948411
 10
0.4138180901621628
 20
-0.3820084949206765
 10
0.417830369436667
 20
-0.3763173812227532
  0
LWPOLYLINE
  5
109
330
DE
100
AcDbEntity
  8
AM_9
100
AcDbPolyline
 90
       10
 70
     0
 43
0.0
 10
0.417830369436667
 20
-0.3763173812227532
 10
0.4196292553496245
 20
-0.3741983264655155
 10
0.4253268655591587
 20
-0.3690593767928142
 10
0.4310804629817566
 20
-0.3661556447752792
 10
0.4362357956696156
 20
-0.36562354118919
 10
0.4410879044019616
 20
-0.3671413831947845
 10
0.4453794274866246
 20
-0.3705436406724683
 10
0.4491917596622216
 20
-0.3756852005666945
 10
0.4517625712796732
 20
-0.3807152296432365
 10
0.4540203231887182
 20
-0.3865749498385497
  0
ARC
  5
10A
330
DE
100
AcDbEntity
  8
AM_9
100
AcDbCircle
 10
0.0
 20
-0.4475
 30
0.0
 40
0.07245
100
AcDbArc
 50
40.9670774060144
 51
139.0329225939856
  0
LINE
  5
10B
330
DE
100
AcDbEntity
  8
AM_9
100
AcDbLine
 10
0.4799999999999996
 20
0.255
 30
0.0
 11
0.4799999999999996
 21
0.3407999999999999
 31
0.0
  0
LINE
  5
10C
330
DE
100
AcDbEntity
  8
AM_9
100
AcDbLine
 10
-0.4799999999999996
 20
0.3407999999999999
 30
0.0
 11
-0.4799999999999996
 21
0.255
 31
0.0
  0
LINE
  5
10D
330
DE
100
AcDbEntity
  8
AM_9
100
AcDbLine
 10
-0.4799999999999999
 20
0.3407999999999999
 30
0.0
 11
0.4799999999999999
 21
0.3407999999999999
 31
0.0
  0
LINE
  5
10E
330
DE
100
AcDbEntity
  8
AM_9
100
AcDbLine
 10
-0.4607999999999999
 20
0.36
 30
0.0
 11
0.4607999999999999
 21
0.36
 31
0.0
  0
LINE
  5
10F
330
DE
100
AcDbEntity
  8
AM_9
100
AcDbLine
 10
-0.4607999999999999
 20
0.36
 30
0.0
 11
-0.4799999999999999
 21
0.3407999999999999
 31
0.0
  0
LINE
  5
110
330
DE
100
AcDbEntity
  8
AM_9
100
AcDbLine
 10
0.4799999999999999
 20
0.3407999999999999
 30
0.0
 11
0.4607999999999999
 21
0.36
 31
0.0
  0
LINE
  5
111
330
DE
100
AcDbEntity
  8
AM_9
100
AcDbLine
 10
-0.06179532648143
 20
-0.3999855047249494
 30
0.0
 11
-0.0543690683724858
 21
-0.3903838947955867
 31
0.0
  0
LWPOLYLINE
  5
112
330
DE
100
AcDbEntity
  8
AM_9
100
AcDbPolyline
 90
       13
 70
     0
 43
0.0
 10
-0.0543690683724858
 20
-0.3903838947955867
 10
-0.0460314973390504
 20
-0.3823970078986342
 10
-0.0363616844919547
 20
-0.3756065982830077
 10
-0.0247776614011108
 20
-0.3700624602121755
 10
-0.011955134005908
 20
-0.3665823359969984
 10
-0.0000536524478845
 20
-0.3655550683570572
 10
0.0122186731024835
 20
-0.3666284247977267
 10
0.0233701938410758
 20
-0.3695523428769401
 10
0.0341812947928327
 20
-0.3743673484023369
 10
0.0441123598908861
 20
-0.3808644605890938
 10
0.0531229145164474
 20
-0.389033206102513
 10
0.0610977400085969
 20
-0.3989469211462598
 10
0.0617731284034262
 20
-0.399951924955228
  0
LWPOLYLINE
  5
113
330
DE
100
AcDbEntity
  8
AM_9
100
AcDbPolyline
 90
        3
 70
     0
 43
0.0
 10
0.4540203231887182
 20
-0.3865749498385497
 10
0.4565035449397428
 20
-0.395342901342205
 10
0.4575027158978489
 20
-0.3998829303615172
  0
LINE
  5
114
330
DE
100
AcDbEntity
  8
AM_9
100
AcDbLine
 10
0.4799999999999999
 20
-0.3999999499999999
 30
0.0
 11
0.4799999999999999
 21
-0.255
 31
0.0
  0
LINE
  5
115
330
DE
100
AcDbEntity
  8
AM_9
100
AcDbLine
 10
-0.4799999999999999
 20
-0.255
 30
0.0
 11
-0.4799999999999999
 21
-0.3999999499999999
 31
0.0
  0
LINE
  5
116
330
DE
100
AcDbEntity
  8
AM_9
100
AcDbLine
 10
0.7373999999999999
 20
-0.18
 30
0.0
 11
0.7373999999999999
 21
-0.12
 31
0.0
  0
LINE
  5
117
330
DE
100
AcDbEntity
  8
AM_9
100
AcDbLine
 10
-0.7373999999999999
 20
-0.12
 30
0.0
 11
-0.7373999999999999
 21
-0.18
 31
0.0
  0
LINE
  5
118
330
DE
100
AcDbEntity
  8
AM_9
100
AcDbLine
 10
-0.7232079645579133
 20
0.255
 30
0.0
 11
0.7232079645549679
 21
0.255
 31
0.0
  0
ARC
  5
119
330
DE
100
AcDbEntity
  8
AM_9
100
AcDbCircle
 10
0.723207964557913
 20
0.2249999999999998
 30
0.0
 40
0.0300000000000001
100
AcDbArc
 50
17.28164042390496
 51
90.0
  0
ARC
  5
11A
330
DE
100
AcDbEntity
  8
AM_9
100
AcDbCircle
 10
-0.723207964557913
 20
0.2249999999999998
 30
0.0
 40
0.0300000000000002
100
AcDbArc
 50
90.0
 51
162.7183595760951
  0
LINE
  5
11B
330
DE
100
AcDbEntity
  8
AM_9
100
AcDbLine
 10
-0.7232079645579129
 20
-0.2550000000000001
 30
0.0
 11
0.7232079645549676
 21
-0.2550000000000001
 31
0.0
  0
ARC
  5
11C
330
DE
100
AcDbEntity
  8
AM_9
100
AcDbCircle
 10
0.7232079645579129
 20
-0.2249999999999996
 30
0.0
 40
0.0300000000000004
100
AcDbArc
 50
270.0
 51
342.7183595760947
  0
ARC
  5
11D
330
DE
100
AcDbEntity
  8
AM_9
100
AcDbCircle
 10
-0.7232079645579129
 20
-0.2249999999999996
 30
0.0
 40
0.0300000000000004
100
AcDbArc
 50
197.2816404239053
 51
270.0
  0
LINE
  5
11E
330
DE
100
AcDbEntity
  8
AM_9
100
AcDbLine
 10
-0.7518536457524437
 20
-0.2339120675996832
 30
0.0
 11
0.751853645752385
 21
-0.2339120675996832
 31
0.0
  0
LINE
  5
11F
330
DE
100
AcDbEntity
  8
AM_9
100
AcDbLine
 10
-0.7665499070510675
 20
-0.18
 30
0.0
 11
0.7665499070510088
 21
-0.18
 31
0.0
  0
ARC
  5
120
330
DE
100
AcDbEntity
  8
AM_9
100
AcDbCircle
 10
-0.0000000000868687
 20
0.0000000000236674
 30
0.0
 40
0.7874000000899218
100
AcDbArc
 50
342.7183595763273
 51
346.7853111882468
  0
ARC
  5
121
330
DE
100
AcDbEntity
  8
AM_9
100
AcDbCircle
 10
0.0000000000868176
 20
0.000000000023653
 30
0.0
 40
0.7874000000898687
100
AcDbArc
 50
193.214688811753
 51
197.2816404236727
  0
LINE
  5
122
330
DE
100
AcDbEntity
  8
AM_9
100
AcDbLine
 10
-0.7782022616261148
 20
-0.12
 30
0.0
 11
0.7782022616261148
 21
-0.12
 31
0.0
  0
LINE
  5
123
330
DE
100
AcDbEntity
  8
AM_9
100
AcDbLine
 10
-0.7518536457524436
 20
0.2339120675996831
 30
0.0
 11
0.7518536457524434
 21
0.2339120675996831
 31
0.0
  0
ARC
  5
124
330
DE
100
AcDbEntity
  8
AM_9
100
AcDbCircle
 10
-0.0000000000000031
 20
-0.0000000000000012
 30
0.0
 40
0.787400000000003
100
AcDbArc
 50
351.2339465521249
 51
17.28164042390478
  0
ARC
  5
125
330
DE
100
AcDbEntity
  8
AM_9
100
AcDbCircle
 10
0.000000000002145
 20
-0.000000000000636
 30
0.0
 40
0.7874000000022366
100
AcDbArc
 50
162.7183595760974
 51
164.2896197048497
  0
ARC
  5
126
330
DE
100
AcDbEntity
  8
AM_9
100
AcDbCircle
 10
0.0000000000000148
 20
-0.000000000000001
 30
0.0
 40
0.7874000000000145
100
AcDbArc
 50
173.4548135864701
 51
188.766053447875
  0
LINE
  5
127
330
DE
100
AcDbEntity
  8
AM_9
100
AcDbLine
 10
-0.7822846899303459
 20
0.0896070527221543
 30
0.0
 11
-0.7579496347983506
 21
0.2133333333264513
 31
0.0
  0
LINE
  5
128
330
DE
100
AcDbEntity
  8
AM_7
100
AcDbLine
 10
0.0
 20
-0.6900000000000001
 30
0.0
 11
0.0
 21
0.41
 31
0.0
  0
LINE
  5
129
330
DE
100
AcDbEntity
  8
AM_7
100
AcDbLine
 10
-0.82902
 20
0.15
 30
0.0
 11
-0.46338
 21
0.15
 31
0.0
  0
LINE
  5
12A
330
DE
100
AcDbEntity
  8
AM_7
100
AcDbLine
 10
-0.0760725
 20
-0.4475
 30
0.0
 11
0.0760725
 21
-0.4475
 31
0.0
  0
ELLIPSE
  5
12B
330
DE
100
AcDbEntity
  8
AM_4
100
AcDbEllipse
 10
0.4264223886561056
 20
-0.4475
 30
0.0
 11
-1.330884908973386E-17
 21
-0.07245000000000001
 31
0.0
210
0.0
220
0.0
230
1.0
 40
0.4226182617406991
 41
5.879773830306716
 42
8.568992019628814
  0
LWPOLYLINE
  5
12C
330
DE
100
AcDbEntity
  8
AM_4
100
AcDbPolyline
 90
       12
 70
     0
 43
0.0
 10
0.417830412122349
 20
-0.5186826720403428
 10
0.4150410303786222
 20
-0.5148827948330262
 10
0.4102800774223697
 20
-0.5067101953990694
 10
0.4060959405579138
 20
-0.4971963413995313
 10
0.4023989628703377
 20
-0.4857273624034226
 10
0.3996651244418176
 20
-0.4733222181195447
 10
0.3979439352962242
 20
-0.4594720438590804
 10
0.3974905445602963
 20
-0.4453025892898402
 10
0.3983873813208927
 20
-0.4307930606333707
 10
0.4006054943919363
 20
-0.4167563336265387
 10
0.4040647563632015
 20
-0.4036272121431893
 10
0.4053423462272425
 20
-0.3998440693638037
  0
ARC
  5
12D
330
DE
100
AcDbEntity
  8
AM_4
100
AcDbCircle
 10
0.0
 20
-0.4475
 30
0.0
 40
0.07245
100
AcDbArc
 50
139.0329225939855
 51
40.96707740601442
  0
LINE
  5
12E
330
DE
100
AcDbEntity
  8
AM_4
100
AcDbLine
 10
-0.4608
 20
-0.64
 30
0.0
 11
0.4608
 21
-0.64
 31
0.0
  0
LINE
  5
12F
330
DE
100
AcDbEntity
  8
AM_4
100
AcDbLine
 10
0.4608
 20
-0.64
 30
0.0
 11
0.48
 21
-0.6208
 31
0.0
  0
LINE
  5
130
330
DE
100
AcDbEntity
  8
AM_4
100
AcDbLine
 10
-0.48
 20
-0.6208
 30
0.0
 11
-0.4608
 21
-0.64
 31
0.0
  0
LINE
  5
131
330
DE
100
AcDbEntity
  8
AM_4
100
AcDbLine
 10
-0.48
 20
-0.6208
 30
0.0
 11
0.4799999999999999
 21
-0.6208
 31
0.0
  0
LWPOLYLINE
  5
132
330
DE
100
AcDbEntity
  8
AM_4
100
AcDbPolyline
 90
       28
 70
     0
 43
0.0
 10
0.0617731284034262
 20
-0.399951924955228
 10
0.0675875975165407
 20
-0.4102709741045044
 10
0.0724319423735711
 20
-0.4230462401772893
 10
0.0752523600422615
 20
-0.4367991470645543
 10
0.0758334231476517
 20
-0.451056565977811
 10
0.0740190782690765
 20
-0.4656149223524649
 10
0.0698863453027059
 20
-0.4794180547761124
 10
0.0632766215114392
 20
-0.4926890581180883
 10
0.054889755863428
 20
-0.5040327886772177
 10
0.0442790338608439
 20
-0.5140063874190787
 10
0.0330940726296744
 20
-0.5212147569270903
 10
0.0203452497354523
 20
-0.5264337373106464
 10
0.0083576274679853
 20
-0.5289444900473036
 10
-0.0042888152160591
 20
-0.5293134547159376
 10
-0.015751812099919
 20
-0.5276533055662455
 10
-0.0270916862294359
 20
-0.5240258170031933
 10
-0.0374912357701111
 20
-0.5187123918909478
 10
-0.0471596348592979
 20
-0.5116539778785266
 10
-0.0559057877294027
 20
-0.5028605848412409
 10
-0.0633576676105125
 20
-0.4925567493857025
 10
-0.0693982536139923
 20
-0.480632295728508
 10
-0.0735861473800121
 20
-0.4675580394351552
 10
-0.0756938382186239
 20
-0.4535982191308078
 10
-0.075502190755407
 20
-0.4390852673760101
 10
-0.0729493843736988
 20
-0.4249025374018428
 10
-0.0679120810723228
 20
-0.4109637767891778
 10
-0.0619875491663212
 20
-0.4002777867137696
 10
-0.06179532648143
 20
-0.3999855047249494
  0
LWPOLYLINE
  5
133
330
DE
100
AcDbEntity
  8
AM_4
100
AcDbPolyline
 90
       18
 70
     0
 43
0.0
 10
0.4575027158978489
 20
-0.3998829303615172
 10
0.458472489431628
 20
-0.4051426368978824
 10
0.4601454288769709
 20
-0.417587974088888
 10
0.461185994980759
 20
-0.4307923682114397
 10
0.4616230325312849
 20
-0.4450836123702966
 10
0.4614064203234446
 20
-0.4594407920008635
 10
0.4605043871213552
 20
-0.473715365761484
 10
0.4588917655297849
 20
-0.4872364583786247
 10
0.456551437345618
 20
-0.4994471087065114
 10
0.4534345821257742
 20
-0.5101040763388557
 10
0.4497047261110367
 20
-0.518411683507617
 10
0.4452536041198526
 20
-0.5245970528594828
 10
0.4405577321738722
 20
-0.5281223611900192
 10
0.4354024381180701
 20
-0.5294393143738513
 10
0.4303004349497805
 20
-0.5285811123872576
 10
0.4250830238753822
 20
-0.5257771925675638
 10
0.4199521712734917
 20
-0.5211500965623309
 10
0.417830412122349
 20
-0.5186826720403428
  0
LINE
  5
134
330
DE
100
AcDbEntity
  8
AM_4
100
AcDbLine
 10
0.4799999999999999
 20
-0.6208
 30
0.0
 11
0.4799999999999999
 21
-0.3999999499999999
 31
0.0
  0
LINE
  5
135
330
DE
100
AcDbEntity
  8
AM_4
100
AcDbLine
 10
-0.4799999999999999
 20
-0.3999999499999999
 30
0.0
 11
-0.4799999999999999
 21
-0.6208
 31
0.0
  0
ARC
  5
137
330
DE
100
AcDbEntity
  8
AM_5
100
AcDbCircle
 10
0.0
 20
-0.4475
 30
0.0
 40
0.095
100
AcDbArc
 50
75.00000000000001
 51
15.00000000000002
  0
ARC
  5
138
330
DE
100
AcDbEntity
  8
AM_5
100
AcDbCircle
 10
0.0
 20
-0.45
 30
0.0
 40
0.095
100
AcDbArc
 50
75.00000000000001
 51
15.0
  0
ENDBLK
  5
E1
330
DE
100
AcDbEntity
  8
0
100
AcDbBlockEnd
  0
BLOCK
  5
13B
330
139
100
AcDbEntity
  8
0
100
AcDbBlockBegin
  2
4_059637HL_0_in_059637_4
 70
     2
 10
0.0
 20
0.0
 30
0.0
  3
4_059637HL_0_in_059637_4
  1

  0
ATTDEF
  5
13D
330
139
100
AcDbEntity
  8
AM_6
100
AcDbText
 10
5.9174
 20
0.5
 30
0.0
 40
0.5
  1
P2B-SL -I-Housing-(Low)
100
AcDbAttributeDefinition
  3

  2
NN
 70
     8
280
     0
  0
ATTDEF
  5
13E
330
139
100
AcDbEntity
  8
AM_6
100
AcDbText
 10
5.9174
 20
0.0
 30
0.0
 40
0.5
  1
SC Pillow Block Bearings -(Light Duty)
100
AcDbAttributeDefinition
  3

  2
NT
 70
     8
280
     0
  0
ATTDEF
  5
13F
330
139
100
AcDbEntity
  8
AM_6
100
AcDbText
 10
5.9174
 20
-0.5
 30
0.0
 40
0.5
  1
059637HL
100
AcDbAttributeDefinition
  3

  2
NB
 70
     8
280
     0
  0
ATTDEF
  5
140
330
139
100
AcDbEntity
  8
AM_6
100
AcDbText
 10
5.9174
 20
-1.0
 30
0.0
 40
0.5
  1
$PN.HL
100
AcDbAttributeDefinition
  3

  2
NBSYN
 70
     8
280
     0
  0
ATTDEF
  5
141
330
139
100
AcDbEntity
  8
AM_6
100
AcDbText
 10
5.9174
 20
-1.5
 30
0.0
 40
0.5
  1
059637
100
AcDbAttributeDefinition
  3

  2
LINA
 70
     8
280
     0
  0
ATTDEF
  5
142
330
139
100
AcDbEntity
  8
AM_6
100
AcDbText
 10
5.9174
 20
-2.0
 30
0.0
 40
0.5
  1
203
100
AcDbAttributeDefinition
  3

  2
SERIES
 70
     8
280
     0
  0
ATTDEF
  5
143
330
139
100
AcDbEntity
  8
AM_6
100
AcDbText
 10
5.9174
 20
-2.5
 30
0.0
 40
0.5
  1
1/2
100
AcDbAttributeDefinition
  3

  2
SS
 70
     8
280
     0
  0
ATTDEF
  5
144
330
139
100
AcDbEntity
  8
AM_6
100
AcDbText
 10
5.9174
 20
-3.0
 30
0.0
 40
0.5
  1
059637
100
AcDbAttributeDefinition
  3

  2
PN
 70
     8
280
     0
  0
ATTDEF
  5
145
330
139
100
AcDbEntity
  8
AM_6
100
AcDbText
 10
5.9174
 20
-3.5
 30
0.0
 40
0.5
  1
P2B-SL-008
100
AcDbAttributeDefinition
  3

  2
DESCRIPTION
 70
     8
280
     0
  0
ATTDEF
  5
146
330
139
100
AcDbEntity
  8
AM_6
100
AcDbText
 10
5.9174
 20
-4.0
 30
0.0
 40
0.5
  1
0.52
100
AcDbAttributeDefinition
  3

  2
W
 70
     8
280
     0
  0
ATTDEF
  5
147
330
139
100
AcDbEntity
  8
AM_6
100
AcDbText
 10
5.9174
 20
-4.5
 30
0.0
 40
0.5
  1
1.00
100
AcDbAttributeDefinition
  3

  2
A
 70
     8
280
     0
  0
ATTDEF
  5
148
330
139
100
AcDbEntity
  8
AM_6
100
AcDbText
 10
5.9174
 20
-5.0
 30
0.0
 40
0.5
  1
3.63
100
AcDbAttributeDefinition
  3

  2
B
 70
     8
280
     0
  0
ATTDEF
  5
149
330
139
100
AcDbEntity
  8
AM_6
100
AcDbText
 10
5.9174
 20
-5.5
 30
0.0
 40
0.5
  1
1.00
100
AcDbAttributeDefinition
  3

  2
C
 70
     8
280
     0
  0
ATTDEF
  5
14A
330
139
100
AcDbEntity
  8
AM_6
100
AcDbText
 10
5.9174
 20
-6.0
 30
0.0
 40
0.5
  1
2.69
100
AcDbAttributeDefinition
  3

  2
D
 70
     8
280
     0
  0
ATTDEF
  5
14B
330
139
100
AcDbEntity
  8
AM_6
100
AcDbText
 10
5.9174
 20
-6.5
 30
0.0
 40
0.5
  1
1/4
100
AcDbAttributeDefinition
  3

  2
F
 70
     8
280
     0
  0
ATTDEF
  5
14C
330
139
100
AcDbEntity
  8
AM_6
100
AcDbText
 10
5.9174
 20
-7.0
 30
0.0
 40
0.5
  1
0.50
100
AcDbAttributeDefinition
  3

  2
G
 70
     8
280
     0
  0
ATTDEF
  5
14D
330
139
100
AcDbEntity
  8
AM_6
100
AcDbText
 10
5.9174
 20
-7.5
 30
0.0
 40
0.5
  1
0.13
100
AcDbAttributeDefinition
  3

  2
H
 70
     8
280
     0
  0
ATTDEF
  5
14E
330
139
100
AcDbEntity
  8
AM_6
100
AcDbText
 10
5.9174
 20
-8.0
 30
0.0
 40
0.5
  1
1.75
100
AcDbAttributeDefinition
  3

  2
J
 70
     8
280
     0
  0
ATTDEF
  5
14F
330
139
100
AcDbEntity
  8
AM_6
100
AcDbText
 10
5.9174
 20
-8.5
 30
0.0
 40
0.5
  1
0.96
100
AcDbAttributeDefinition
  3

  2
L
 70
     8
280
     0
  0
ATTDEF
  5
150
330
139
100
AcDbEntity
  8
AM_6
100
AcDbText
 10
5.9174
 20
-9.0
 30
0.0
 40
0.5
  1
0.88
100
AcDbAttributeDefinition
  3

  2
M
 70
     8
280
     0
  0
ATTDEF
  5
151
330
139
100
AcDbEntity
  8
AM_6
100
AcDbText
 10
5.9174
 20
-9.5
 30
0.0
 40
0.5
  1
0.36
100
AcDbAttributeDefinition
  3

  2
R
 70
     8
280
     0
  0
ATTDEF
  5
152
330
139
100
AcDbEntity
  8
AM_6
100
AcDbText
 10
5.9174
 20
-10.0
 30
0.0
 40
0.5
  1
0.64
100
AcDbAttributeDefinition
  3

  2
S
 70
     8
280
     0
  0
ATTDEF
  5
153
330
139
100
AcDbEntity
  8
AM_6
100
AcDbText
 10
5.9174
 20
-10.5
 30
0.0
 40
0.5
  1
1000
100
AcDbAttributeDefinition
  3

  2
CAPS
 70
     8
280
     0
  0
ATTDEF
  5
154
330
139
100
AcDbEntity
  8
AM_6
100
AcDbText
 10
5.9174
 20
-11.0
 30
0.0
 40
0.5
  1
2158
100
AcDbAttributeDefinition
  3

  2
CAPD
 70
     8
280
     0
  0
ATTDEF
  5
155
330
139
100
AcDbEntity
  8
AM_6
100
AcDbText
 10
5.9174
 20
-11.5
 30
0.0
 40
0.5
  1
baldor
100
AcDbAttributeDefinition
  3

  2
COMPANY
 70
     8
280
     0
  0
LINE
  5
156
330
139
100
AcDbEntity
  8
AM_9
100
AcDbLine
 10
0.8957333333333335
 20
-0.5000000000000001
 30
0.0
 11
0.8957333333333335
 21
0.4999999999999999
 31
0.0
  0
LINE
  5
157
330
139
100
AcDbEntity
  8
AM_9
100
AcDbLine
 10
-0.8957333333333333
 20
-0.5000000000000001
 30
0.0
 11
-0.8957333333333333
 21
0.4999999999999999
 31
0.0
  0
LINE
  5
158
330
139
100
AcDbEntity
  8
AM_9
100
AcDbLine
 10
-0.9174000000000002
 20
-0.5000000000000001
 30
0.0
 11
-0.9174000000000002
 21
0.4999999999999999
 31
0.0
  0
LINE
  5
159
330
139
100
AcDbEntity
  8
AM_9
100
AcDbLine
 10
0.9174
 20
-0.5000000000000001
 30
0.0
 11
0.9174
 21
0.4999999999999999
 31
0.0
  0
LINE
  5
15A
330
139
100
AcDbEntity
  8
AM_9
100
AcDbLine
 10
-0.7224
 20
-0.465
 30
0.0
 11
-0.7223999999999999
 21
0.4649999999999999
 31
0.0
  0
LINE
  5
15B
330
139
100
AcDbEntity
  8
AM_9
100
AcDbLine
 10
-0.6653282196091048
 20
-0.4004853246630676
 30
0.0
 11
-0.6653282196091048
 21
0.4004853246630674
 31
0.0
  0
LINE
  5
15C
330
139
100
AcDbEntity
  8
AM_9
100
AcDbLine
 10
0.7223999999999998
 20
-0.465
 30
0.0
 11
0.7223999999999999
 21
0.4650000000000001
 31
0.0
  0
LINE
  5
15D
330
139
100
AcDbEntity
  8
AM_9
100
AcDbLine
 10
0.6653282191780823
 20
-0.4004853246100993
 30
0.0
 11
0.6653282191780823
 21
0.4004853246100991
 31
0.0
  0
LINE
  5
15E
330
139
100
AcDbEntity
  8
AM_9
100
AcDbLine
 10
0.6312532529936695
 20
-0.4000000000000001
 30
0.0
 11
0.6312532529936695
 21
0.4
 31
0.0
  0
LINE
  5
15F
330
139
100
AcDbEntity
  8
AM_9
100
AcDbLine
 10
-0.6312532529936695
 20
-0.4
 30
0.0
 11
-0.6312532529936695
 21
0.4
 31
0.0
  0
LWPOLYLINE
  5
160
330
139
100
AcDbEntity
  8
AM_4
100
AcDbPolyline
 90
        4
 70
     0
 43
0.0
 10
0.720668930238074
 20
0.4500989105589656
 10
0.7217268883750885
 20
0.4556698643107998
 10
0.7222952800499315
 20
0.4613118260289187
 10
0.7223999999999999
 20
0.4650000000000005
  0
LINE
  5
161
330
139
100
AcDbEntity
  8
AM_4
100
AcDbLine
 10
0.7873999999999999
 20
0.4895999999999999
 30
0.0
 11
0.7873999999999999
 21
0.4635937350124597
 31
0.0
  0
LWPOLYLINE
  5
162
330
139
100
AcDbEntity
  8
AM_4
100
AcDbPolyline
 90
        7
 70
     0
 43
0.0
 10
0.7873999999999999
 20
0.4895999999999999
 10
0.787894689248073
 20
0.4914128394491512
 10
0.7893749921084129
 20
0.4932118820954721
 10
0.7918296425824211
 20
0.4949834361381324
 10
0.7952399592978318
 20
0.4967140189811738
 10
0.7995799876852354
 20
0.4983904598442065
 10
0.8048166975080229
 20
0.4999999999999999
  0
LINE
  5
163
330
139
100
AcDbEntity
  8
AM_4
100
AcDbLine
 10
0.804816697508023
 20
0.4999999999999999
 30
0.0
 11
0.7279040549976786
 21
0.4999999999999999
 31
0.0
  0
LWPOLYLINE
  5
164
330
139
100
AcDbEntity
  8
AM_4
100
AcDbPolyline
 90
        4
 70
     0
 43
0.0
 10
0.7223999999999999
 20
0.4930666666666665
 10
0.7230595856640973
 20
0.4954837859322016
 10
0.7250333228112172
 20
0.4978825094606294
 10
0.7279040549976786
 20
0.4999999999999998
  0
LINE
  5
165
330
139
100
AcDbEntity
  8
AM_4
100
AcDbLine
 10
0.7223999999999999
 20
0.4650000000000004
 30
0.0
 11
0.7223999999999999
 21
0.4930666666666665
 31
0.0
  0
LWPOLYLINE
  5
166
330
139
100
AcDbEntity
  8
AM_4
100
AcDbPolyline
 90
        4
 70
     0
 43
0.0
 10
0.7223999999999998
 20
-0.465
 10
0.7221526553759633
 20
-0.4593348767214022
 10
0.7214125039457933
 20
-0.4537128684516495
 10
0.7206689302380708
 20
-0.4500989105589522
  0
LINE
  5
167
330
139
100
AcDbEntity
  8
AM_4
100
AcDbLine
 10
0.7223999999999999
 20
-0.4930666666666667
 30
0.0
 11
0.7223999999999998
 21
-0.465
 31
0.0
  0
LWPOLYLINE
  5
168
330
139
100
AcDbEntity
  8
AM_4
100
AcDbPolyline
 90
        4
 70
     0
 43
0.0
 10
0.7279040549976786
 20
-0.5000000000000001
 10
0.7247659472183917
 20
-0.4976332509081326
 10
0.7229290044803697
 20
-0.4952317473528086
 10
0.7223999999999999
 20
-0.4930666666666667
  0
LINE
  5
169
330
139
100
AcDbEntity
  8
AM_4
100
AcDbLine
 10
0.804816697508023
 20
-0.5000000000000001
 30
0.0
 11
0.7279040549976786
 21
-0.5000000000000001
 31
0.0
  0
LWPOLYLINE
  5
16A
330
139
100
AcDbEntity
  8
AM_4
100
AcDbPolyline
 90
        7
 70
     0
 43
0.0
 10
0.804816697508023
 20
-0.5000000000000001
 10
0.7995799876852354
 20
-0.4983904598442066
 10
0.7952399592978319
 20
-0.496714018981174
 10
0.7918296425824211
 20
-0.4949834361381325
 10
0.7893749921084129
 20
-0.4932118820954722
 10
0.787894689248073
 20
-0.4914128394491514
 10
0.7873999999999999
 20
-0.4896000000000001
  0
LINE
  5
16B
330
139
100
AcDbEntity
  8
AM_4
100
AcDbLine
 10
0.7873999999999999
 20
-0.4635937350124598
 30
0.0
 11
0.7873999999999999
 21
-0.4896
 31
0.0
  0
LWPOLYLINE
  5
16C
330
139
100
AcDbEntity
  8
AM_4
100
AcDbPolyline
 90
        4
 70
     0
 43
0.0
 10
-0.7223999999999999
 20
0.465
 10
-0.7221526553759634
 20
0.4593348767214022
 10
-0.7214125039457934
 20
0.4537128684516494
 10
-0.7206689302380691
 20
0.4500989105589449
  0
LINE
  5
16D
330
139
100
AcDbEntity
  8
AM_4
100
AcDbLine
 10
-0.7223999999999999
 20
0.4930666666666665
 30
0.0
 11
-0.7223999999999999
 21
0.465
 31
0.0
  0
LWPOLYLINE
  5
16E
330
139
100
AcDbEntity
  8
AM_4
100
AcDbPolyline
 90
        4
 70
     0
 43
0.0
 10
-0.7279040549976786
 20
0.4999999999999998
 10
-0.7247659472183917
 20
0.4976332509081324
 10
-0.7229290044803697
 20
0.4952317473528084
 10
-0.7223999999999999
 20
0.4930666666666665
  0
LINE
  5
16F
330
139
100
AcDbEntity
  8
AM_4
100
AcDbLine
 10
-0.7279040549976783
 20
0.4999999999999999
 30
0.0
 11
-0.8048166975080229
 21
0.4999999999999999
 31
0.0
  0
LWPOLYLINE
  5
170
330
139
100
AcDbEntity
  8
AM_4
100
AcDbPolyline
 90
        7
 70
     0
 43
0.0
 10
-0.804816697508023
 20
0.5
 10
-0.7995799876852354
 20
0.4983904598442065
 10
-0.7952399592978319
 20
0.496714018981174
 10
-0.7918296425824211
 20
0.4949834361381324
 10
-0.7893749921084129
 20
0.4932118820954721
 10
-0.787894689248073
 20
0.4914128394491513
 10
-0.7873999999999999
 20
0.4896
  0
LINE
  5
171
330
139
100
AcDbEntity
  8
AM_4
100
AcDbLine
 10
-0.7873999999999999
 20
0.4635937350124597
 30
0.0
 11
-0.7873999999999999
 21
0.4895999999999999
 31
0.0
  0
LWPOLYLINE
  5
172
330
139
100
AcDbEntity
  8
AM_4
100
AcDbPolyline
 90
        4
 70
     0
 43
0.0
 10
-0.720668930238069
 20
-0.4500989105589434
 10
-0.7217268883750855
 20
-0.4556698643107772
 10
-0.7222952800499303
 20
-0.4613118260288959
 10
-0.7224
 20
-0.465
  0
LINE
  5
173
330
139
100
AcDbEntity
  8
AM_4
100
AcDbLine
 10
-0.7224
 20
-0.465
 30
0.0
 11
-0.7223999999999999
 21
-0.4930666666666667
 31
0.0
  0
LINE
  5
174
330
139
100
AcDbEntity
  8
AM_4
100
AcDbLine
 10
-0.7873999999999999
 20
-0.4896000000000001
 30
0.0
 11
-0.7873999999999999
 21
-0.4635937350124597
 31
0.0
  0
LWPOLYLINE
  5
175
330
139
100
AcDbEntity
  8
AM_4
100
AcDbPolyline
 90
        7
 70
     0
 43
0.0
 10
-0.7873999999999999
 20
-0.4896000000000001
 10
-0.787894689248073
 20
-0.4914128394491514
 10
-0.789374992108413
 20
-0.4932118820954722
 10
-0.7918296425824211
 20
-0.4949834361381326
 10
-0.7952399592978321
 20
-0.496714018981174
 10
-0.7995799876852356
 20
-0.4983904598442066
 10
-0.804816697508023
 20
-0.5000000000000001
  0
LINE
  5
176
330
139
100
AcDbEntity
  8
AM_4
100
AcDbLine
 10
-0.7279040549976783
 20
-0.5000000000000001
 30
0.0
 11
-0.8048166975080229
 21
-0.5000000000000001
 31
0.0
  0
LWPOLYLINE
  5
177
330
139
100
AcDbEntity
  8
AM_4
100
AcDbPolyline
 90
        4
 70
     0
 43
0.0
 10
-0.7223999999999999
 20
-0.4930666666666667
 10
-0.7230595856640973
 20
-0.4954837859322018
 10
-0.7250333228112172
 20
-0.4978825094606296
 10
-0.7279040549976786
 20
-0.5000000000000001
  0
LWPOLYLINE
  5
178
330
139
100
AcDbEntity
  8
AM_4
100
AcDbPolyline
 90
       10
 70
     0
 43
0.0
 10
0.7206689302380738
 20
-0.4500989105589522
 10
0.7188076730650012
 20
-0.4436904319907256
 10
0.7144986800836624
 20
-0.4339397242011032
 10
0.7084651444066956
 20
-0.4247836970032889
 10
0.701087900192907
 20
-0.4168713455752755
 10
0.6921959506189089
 20
-0.4100978887425409
 10
0.6834395663336342
 20
-0.4054437997757057
 10
0.6739438116886154
 20
-0.4021406149026925
 10
0.6656497651555526
 20
-0.4005256533582681
 10
0.6573999999999997
 20
-0.4000000000000002
  0
LWPOLYLINE
  5
179
330
139
100
AcDbEntity
  8
AM_4
100
AcDbPolyline
 90
       17
 70
     0
 43
0.0
 10
0.7206689302384486
 20
-0.4500989105589522
 10
0.7279440158265952
 20
-0.450428262721058
 10
0.735012011690709
 20
-0.4508578120768308
 10
0.741819126114491
 20
-0.4513842894963044
 10
0.7483135528469286
 20
-0.4520036881684207
 10
0.7544458653791457
 20
-0.4527112940952817
 10
0.7601693931099806
 20
-0.4535017219685199
 10
0.765440576537441
 20
-0.4543689561547466
 10
0.7702192987728165
 20
-0.4553063964781542
 10
0.7744691908544244
 20
-0.4563069084518398
 10
0.7781579085373689
 20
-0.4573628775755578
 10
0.7812573784527739
 20
-0.4584662672866653
 10
0.7837440117630721
 20
-0.4596086801232157
 10
0.7855988836873019
 20
-0.4607814216337152
 10
0.7868078775301178
 20
-0.4619755665471482
 10
0.7873617921183653
 20
-0.463182026699679
 10
0.7873999999999999
 20
-0.4635937350124598
  0
LWPOLYLINE
  5
17A
330
139
100
AcDbEntity
  8
AM_4
100
AcDbPolyline
 90
       17
 70
     0
 43
0.0
 10
0.7873999999999999
 20
0.4635937350124598
 10
0.7870702071679512
 20
0.4623851753796922
 10
0.7860833385943914
 20
0.4611858136154783
 10
0.7844469049450526
 20
0.4600047775870381
 10
0.7821733604681121
 20
0.4588510556916771
 10
0.7792800082098431
 20
0.4577334284496554
 10
0.7757888683279848
 20
0.4566604016791264
 10
0.7717265105050461
 20
0.4556401417617252
 10
0.7671238517369784
 20
0.4546804134914731
 10
0.7620159210361677
 20
0.4537885209800063
 10
0.7564415928395004
 20
0.4529712520678766
 10
0.7504432911504243
 20
0.4522348266649857
 10
0.744066666666667
 20
0.4515848494133155
 10
0.737360249350861
 20
0.4510262670322182
 10
0.7303750790882251
 20
0.4505633306708951
 10
0.7231643172422189
 20
0.4501995635545847
 10
0.7206689302388042
 20
0.4500989105589656
  0
LWPOLYLINE
  5
17B
330
139
100
AcDbEntity
  8
AM_4
100
AcDbPolyline
 90
       10
 70
     0
 43
0.0
 10
0.6574
 20
0.4
 10
0.6656586297938158
 20
0.4005267882455923
 10
0.6744210307063632
 20
0.4022681539113264
 10
0.682932059623007
 20
0.4052244704631803
 10
0.6913534557083663
 20
0.4095729051324175
 10
0.6987062362898635
 20
0.4148124034888505
 10
0.705422554975557
 20
0.4211955000756819
 10
0.7114615338579982
 20
0.4289119056069664
 10
0.716366752810429
 20
0.4376518362043494
 10
0.7206689302380799
 20
0.4500989105589656
  0
LWPOLYLINE
  5
17C
330
139
100
AcDbEntity
  8
AM_4
100
AcDbPolyline
 90
       10
 70
     0
 43
0.0
 10
-0.7206689302380708
 20
0.4500989105589449
 10
-0.7188076730650014
 20
0.4436904319907256
 10
-0.7144986800836627
 20
0.4339397242011032
 10
-0.7084651444066958
 20
0.4247836970032888
 10
-0.7010879001929071
 20
0.4168713455752753
 10
-0.6921959506189089
 20
0.4100978887425407
 10
-0.6834395663336342
 20
0.4054437997757055
 10
-0.6739438116886154
 20
0.4021406149026923
 10
-0.6656497651555526
 20
0.4005256533582679
 10
-0.6573999999999997
 20
0.4
  0
LWPOLYLINE
  5
17D
330
139
100
AcDbEntity
  8
AM_4
100
AcDbPolyline
 90
       10
 70
     0
 43
0.0
 10
-0.6574
 20
-0.4
 10
-0.6656586297938158
 20
-0.4005267882455923
 10
-0.6744210307063634
 20
-0.4022681539113263
 10
-0.6829320596230072
 20
-0.4052244704631802
 10
-0.6913534557083666
 20
-0.4095729051324175
 10
-0.6987062362898637
 20
-0.4148124034888505
 10
-0.7054225549755573
 20
-0.4211955000756819
 10
-0.7114615338579985
 20
-0.4289119056069664
 10
-0.7163667528104294
 20
-0.4376518362043494
 10
-0.7206689302380702
 20
-0.4500989105589434
  0
LWPOLYLINE
  5
17E
330
139
100
AcDbEntity
  8
AM_4
100
AcDbPolyline
 90
       17
 70
     0
 43
0.0
 10
-0.7206689302382566
 20
0.4500989105589449
 10
-0.7279440158264079
 20
0.450428262721048
 10
-0.7350120116905278
 20
0.4508578120768184
 10
-0.7418191261143173
 20
0.4513842894962894
 10
-0.7483135528467637
 20
0.4520036881684033
 10
-0.7544458653789909
 20
0.4527112940952621
 10
-0.7601693931098371
 20
0.4535017219684983
 10
-0.7654405765373099
 20
0.4543689561547231
 10
-0.7702192987726987
 20
0.4553063964781289
 10
-0.774469190854321
 20
0.4563069084518129
 10
-0.7781579085372803
 20
0.4573628775755296
 10
-0.7812573784527009
 20
0.4584662672866359
 10
-0.7837440117630156
 20
0.4596086801231855
 10
-0.785598883687262
 20
0.4607814216336843
 10
-0.7868078775300948
 20
0.4619755665471168
 10
-0.7873617921183595
 20
0.4631820266996474
 10
-0.7874000000000001
 20
0.4635937350124597
  0
LWPOLYLINE
  5
17F
330
139
100
AcDbEntity
  8
AM_4
100
AcDbPolyline
 90
       17
 70
     0
 43
0.0
 10
-0.7874000000000001
 20
-0.4635937350124597
 10
-0.7870702071679513
 20
-0.4623851753796922
 10
-0.7860833385943914
 20
-0.4611858136154783
 10
-0.7844469049450526
 20
-0.4600047775870381
 10
-0.7821733604681121
 20
-0.4588510556916771
 10
-0.779280008209843
 20
-0.4577334284496554
 10
-0.7757888683279848
 20
-0.4566604016791264
 10
-0.771726510505046
 20
-0.4556401417617251
 10
-0.7671238517369782
 20
-0.454680413491473
 10
-0.7620159210361676
 20
-0.4537885209800062
 10
-0.7564415928395003
 20
-0.4529712520678765
 10
-0.7504432911504242
 20
-0.4522348266649857
 10
-0.7440666666666669
 20
-0.4515848494133154
 10
-0.7373602493508609
 20
-0.4510262670322182
 10
-0.7303750790882247
 20
-0.4505633306708951
 10
-0.7231643172422186
 20
-0.4501995635545846
 10
-0.7206689302382185
 20
-0.4500989105589434
  0
ENDBLK
  5
13C
330
139
100
AcDbEntity
  8
0
100
AcDbBlockEnd
  0
ENDSEC
  0
SECTION
  2
ENTITIES
  0
INSERT
  5
6F
330
1F
100
AcDbEntity
  8
0
100
AcDbBlockReference
  2
1_059637_4
 10
0.0
 20
0.0
 30
0.0
  0
POINT
  5
181
330
1F
100
AcDbEntity
  8
ConnectionPoints
100
AcDbPoint
 10
0.0
 20
0.36
 30
0.0
  0
POINT
  5
182
330
1F
100
AcDbEntity
  8
ConnectionPoints
100
AcDbPoint
 10
0.0
 20
-0.64
 30
0.0
  0
POINT
  5
183
330
1F
100
AcDbEntity
  8
ConnectionPoints
100
AcDbPoint
 10
0.0
 20
0.0
 30
0.0
  0
POINT
  5
184
330
1F
100
AcDbEntity
  8
ConnectionPoints
100
AcDbPoint
 10
0.0
 20
-0.64
 30
0.0
  0
ENDSEC
  0
SECTION
  2
OBJECTS
  0
DICTIONARY
  5
C
330
0
100
AcDbDictionary
281
     1
  3
ACAD_DETAILVIEWSTYLE
350
18C
  3
ACAD_GROUP
350
D
  3
ACAD_LAYOUT
350
1A
  3
ACAD_MATERIAL
350
43
  3
ACAD_MLEADERSTYLE
350
6B
  3
ACAD_MLINESTYLE
350
17
  3
ACAD_PLOTSETTINGS
350
19
  3
ACAD_PLOTSTYLENAME
350
E
  3
ACAD_SCALELIST
350
47
  3
ACAD_SECTIONVIEWSTYLE
350
18D
  3
ACAD_TABLESTYLE
350
69
  3
ACAD_VISUALSTYLE
350
2A
  3
ACDB_RECOMPOSE_DATA
350
189
  3
AcDbVariableDictionary
350
185
  0
SUN
  5
6D
330
29
100
AcDbSun
 90
        1
290
     0
 63
     7
421
 16777215
 40
1.0
291
     1
 91
  2455826
 92
 54000000
292
     0
 70
     2
 71
   256
280
     1
  0
DICTIONARY
  5
18C
102
{ACAD_REACTORS
330
C
102
}
330
C
100
AcDbDictionary
281
     1
  0
DICTIONARY
  5
D
102
{ACAD_REACTORS
330
C
102
}
330
C
100
AcDbDictionary
281
     1
  0
DICTIONARY
  5
1A
102
{ACAD_REACTORS
330
C
102
}
330
C
100
AcDbDictionary
281
     1
  3
Layout1
350
1E
  3
Layout2
350
26
  3
Model
350
22
  0
DICTIONARY
  5
43
102
{ACAD_REACTORS
330
C
102
}
330
C
100
AcDbDictionary
281
     1
  3
ByBlock
350
45
  3
ByLayer
350
44
  3
Global
350
46
  0
DICTIONARY
  5
6B
102
{ACAD_REACTORS
330
C
102
}
330
C
100
AcDbDictionary
281
     1
  3
Standard
350
6C
  0
DICTIONARY
  5
17
102
{ACAD_REACTORS
330
C
102
}
330
C
100
AcDbDictionary
281
     1
  3
Standard
350
18
  0
DICTIONARY
  5
19
102
{ACAD_REACTORS
330
C
102
}
330
C
100
AcDbDictionary
281
     1
  0
ACDBDICTIONARYWDFLT
  5
E
102
{ACAD_REACTORS
330
C
102
}
330
C
100
AcDbDictionary
281
     1
  3
Normal
350
F
100
AcDbDictionaryWithDefault
340
F
  0
DICTIONARY
  5
47
102
{ACAD_REACTORS
330
C
102
}
330
C
100
AcDbDictionary
281
     1
  3
A0
350
48
  3
A1
350
49
  3
A2
350
4A
  3
A3
350
4B
  3
A4
350
4C
  3
A5
350
4D
  3
A6
350
4E
  3
A7
350
4F
  3
A8
350
50
  3
A9
350
51
  3
B0
350
52
  3
B1
350
53
  3
B2
350
54
  3
B3
350
55
  3
B4
350
56
  3
B5
350
57
  3
B6
350
58
  3
B7
350
59
  3
B8
350
5A
  3
B9
350
5B
  3
C0
350
5C
  3
C1
350
5D
  3
C2
350
5E
  3
C3
350
5F
  3
C4
350
60
  3
C5
350
61
  3
C6
350
62
  3
C7
350
63
  3
C8
350
64
  3
C9
350
65
  3
D0
350
66
  3
D1
350
67
  3
D2
350
68
  0
DICTIONARY
  5
18D
102
{ACAD_REACTORS
330
C
102
}
330
C
100
AcDbDictionary
281
     1
  0
DICTIONARY
  5
69
102
{ACAD_REACTORS
330
C
102
}
330
C
100
AcDbDictionary
281
     1
  3
Standard
350
6A
  0
DICTIONARY
  5
2A
102
{ACAD_REACTORS
330
C
102
}
330
C
100
AcDbDictionary
281
     1
  3
2dWireframe
350
2F
  3
Basic
350
32
  3
Brighten
350
36
  3
ColorChange
350
3A
  3
Conceptual
350
34
  3
Dim
350
35
  3
EdgeColorOff
350
3D
  3
Facepattern
350
39
  3
Flat
350
2B
  3
FlatWithEdges
350
2C
  3
Gouraud
350
2D
  3
GouraudWithEdges
350
2E
  3
Hidden
350
31
  3
JitterOff
350
3B
  3
Linepattern
350
38
  3
OverhangOff
350
3C
  3
Realistic
350
33
  3
Shaded
350
42
  3
Shaded with edges
350
41
  3
Shades of Gray
350
3E
  3
Sketchy
350
3F
  3
Thicken
350
37
  3
Wireframe
350
30
  3
X-Ray
350
40
  0
XRECORD
  5
189
102
{ACAD_REACTORS
330
C
102
}
330
C
100
AcDbXrecord
280
     1
 90
        1
330
6A
  0
DICTIONARY
  5
185
102
{ACAD_REACTORS
330
C
102
}
330
C
100
AcDbDictionary
281
     1
  3
CANNOSCALE
350
186
  3
CMLEADERSTYLE
350
18B
  3
CTABLESTYLE
350
18A
  0
LAYOUT
  5
1E
102
{ACAD_REACTORS
330
1A
102
}
330
1A
100
AcDbPlotSettings
  1

  2
none_device
  4

  6

 40
0.0
 41
0.0
 42
0.0
 43
0.0
 44
0.0
 45
0.0
 46
0.0
 47
0.0
 48
0.0
 49
0.0
140
0.0
141
0.0
142
1.0
143
1.0
 70
   688
 72
     0
 73
     0
 74
     5
  7

 75
    16
 76
     0
 77
     2
 78
   300
147
1.0
148
0.0
149
0.0
100
AcDbLayout
  1
Layout1
 70
     1
 71
     1
 10
0.0
 20
0.0
 11
12.0
 21
9.0
 12
0.0
 22
0.0
 32
0.0
 14
1.000000000000000E+20
 24
1.000000000000000E+20
 34
1.000000000000000E+20
 15
-1.000000000000000E+20
 25
-1.000000000000000E+20
 35
-1.000000000000000E+20
146
0.0
 13
0.0
 23
0.0
 33
0.0
 16
1.0
 26
0.0
 36
0.0
 17
0.0
 27
1.0
 37
0.0
 76
     0
330
1B
  0
LAYOUT
  5
26
102
{ACAD_REACTORS
330
1A
102
}
330
1A
100
AcDbPlotSettings
  1

  2
none_device
  4

  6

 40
0.0
 41
0.0
 42
0.0
 43
0.0
 44
0.0
 45
0.0
 46
0.0
 47
0.0
 48
0.0
 49
0.0
140
0.0
141
0.0
142
1.0
143
1.0
 70
   688
 72
     0
 73
     0
 74
     5
  7

 75
    16
 76
     0
 77
     2
 78
   300
147
1.0
148
0.0
149
0.0
100
AcDbLayout
  1
Layout2
 70
     1
 71
     2
 10
0.0
 20
0.0
 11
0.0
 21
0.0
 12
0.0
 22
0.0
 32
0.0
 14
0.0
 24
0.0
 34
0.0
 15
0.0
 25
0.0
 35
0.0
146
0.0
 13
0.0
 23
0.0
 33
0.0
 16
1.0
 26
0.0
 36
0.0
 17
0.0
 27
1.0
 37
0.0
 76
     0
330
23
  0
LAYOUT
  5
22
102
{ACAD_REACTORS
330
1A
102
}
330
1A
100
AcDbPlotSettings
  1

  2
none_device
  4
Letter_(8.50_x_11.00_Inches)
  6

 40
6.35
 41
6.35
 42
6.35000508
 43
6.35000508
 44
215.9
 45
279.4
 46
0.0
 47
0.0
 48
0.0
 49
0.0
140
0.0
141
0.0
142
1.0
143
1.0
 70
  1712
 72
     0
 73
     0
 74
     0
  7

 75
     0
 76
     0
 77
     2
 78
   300
147
1.0
148
0.0
149
0.0
100
AcDbLayout
  1
Model
 70
     1
 71
     0
 10
0.0
 20
0.0
 11
12.0
 21
9.0
 12
0.0
 22
0.0
 32
0.0
 14
1.000000000000000E+20
 24
1.000000000000000E+20
 34
1.000000000000000E+20
 15
-1.000000000000000E+20
 25
-1.000000000000000E+20
 35
-1.000000000000000E+20
146
0.0
 13
0.0
 23
0.0
 33
0.0
 16
1.0
 26
0.0
 36
0.0
 17
0.0
 27
1.0
 37
0.0
 76
     0
330
1F
331
29
  0
MATERIAL
  5
45
102
{ACAD_REACTORS
330
43
102
}
330
43
100
AcDbMaterial
  1
ByBlock
 72
     1
 94
      127
  0
MATERIAL
  5
44
102
{ACAD_REACTORS
330
43
102
}
330
43
100
AcDbMaterial
  1
ByLayer
 72
     1
 94
      127
  0
MATERIAL
  5
46
102
{ACAD_REACTORS
330
43
102
}
330
43
100
AcDbMaterial
  1
Global
 72
     1
 94
      127
  0
MLEADERSTYLE
  5
6C
102
{ACAD_REACTORS
330
6B
102
}
330
6B
100
AcDbMLeaderStyle
179
     2
170
     2
171
     1
172
     0
 90
        2
 40
0.0
 41
0.0
173
     1
 91
-1056964608
340
14
 92
       -2
290
     1
 42
0.09
291
     1
 43
0.36
  3
Standard
341
0
 44
0.18
300

342
11
174
     1
178
     6
175
     1
176
     0
 93
-1056964608
 45
0.18
292
     0
297
     0
 46
0.18
343
0
 94
-1056964608
 47
1.0
 49
1.0
140
1.0
293
     1
141
0.0
294
     1
177
     0
142
1.0
295
     0
296
     0
143
0.125
271
     0
272
     9
273
     9
298
     0
  0
MLINESTYLE
  5
18
102
{ACAD_REACTORS
330
17
102
}
330
17
100
AcDbMlineStyle
  2
Standard
 70
     0
  3

 62
   256
 51
90.0
 52
90.0
 71
     2
 49
0.5
 62
   256
  6
BYLAYER
 49
-0.5
 62
   256
  6
BYLAYER
  0
ACDBPLACEHOLDER
  5
F
102
{ACAD_REACTORS
330
E
102
}
330
E
  0
SCALE
  5
48
102
{ACAD_REACTORS
330
47
102
}
330
47
100
AcDbScale
 70
     0
300
1:1
140
1.0
141
1.0
290
     1
  0
SCALE
  5
49
102
{ACAD_REACTORS
330
47
102
}
330
47
100
AcDbScale
 70
     0
300
1:2
140
1.0
141
2.0
290
     0
  0
SCALE
  5
4A
102
{ACAD_REACTORS
330
47
102
}
330
47
100
AcDbScale
 70
     0
300
1:4
140
1.0
141
4.0
290
     0
  0
SCALE
  5
4B
102
{ACAD_REACTORS
330
47
102
}
330
47
100
AcDbScale
 70
     0
300
1:5
140
1.0
141
5.0
290
     0
  0
SCALE
  5
4C
102
{ACAD_REACTORS
330
47
102
}
330
47
100
AcDbScale
 70
     0
300
1:8
140
1.0
141
8.0
290
     0
  0
SCALE
  5
4D
102
{ACAD_REACTORS
330
47
102
}
330
47
100
AcDbScale
 70
     0
300
1:10
140
1.0
141
10.0
290
     0
  0
SCALE
  5
4E
102
{ACAD_REACTORS
330
47
102
}
330
47
100
AcDbScale
 70
     0
300
1:16
140
1.0
141
16.0
290
     0
  0
SCALE
  5
4F
102
{ACAD_REACTORS
330
47
102
}
330
47
100
AcDbScale
 70
     0
300
1:20
140
1.0
141
20.0
290
     0
  0
SCALE
  5
50
102
{ACAD_REACTORS
330
47
102
}
330
47
100
AcDbScale
 70
     0
300
1:30
140
1.0
141
30.0
290
     0
  0
SCALE
  5
51
102
{ACAD_REACTORS
330
47
102
}
330
47
100
AcDbScale
 70
     0
300
1:40
140
1.0
141
40.0
290
     0
  0
SCALE
  5
52
102
{ACAD_REACTORS
330
47
102
}
330
47
100
AcDbScale
 70
     0
300
1:50
140
1.0
141
50.0
290
     0
  0
SCALE
  5
53
102
{ACAD_REACTORS
330
47
102
}
330
47
100
AcDbScale
 70
     0
300
1:100
140
1.0
141
100.0
290
     0
  0
SCALE
  5
54
102
{ACAD_REACTORS
330
47
102
}
330
47
100
AcDbScale
 70
     0
300
2:1
140
2.0
141
1.0
290
     0
  0
SCALE
  5
55
102
{ACAD_REACTORS
330
47
102
}
330
47
100
AcDbScale
 70
     0
300
4:1
140
4.0
141
1.0
290
     0
  0
SCALE
  5
56
102
{ACAD_REACTORS
330
47
102
}
330
47
100
AcDbScale
 70
     0
300
8:1
140
8.0
141
1.0
290
     0
  0
SCALE
  5
57
102
{ACAD_REACTORS
330
47
102
}
330
47
100
AcDbScale
 70
     0
300
10:1
140
10.0
141
1.0
290
     0
  0
SCALE
  5
58
102
{ACAD_REACTORS
330
47
102
}
330
47
100
AcDbScale
 70
     0
300
100:1
140
100.0
141
1.0
290
     0
  0
SCALE
  5
59
102
{ACAD_REACTORS
330
47
102
}
330
47
100
AcDbScale
 70
     0
300
1/128" = 1'-0"
140
0.0078125
141
12.0
290
     0
  0
SCALE
  5
5A
102
{ACAD_REACTORS
330
47
102
}
330
47
100
AcDbScale
 70
     0
300
1/64" = 1'-0"
140
0.015625
141
12.0
290
     0
  0
SCALE
  5
5B
102
{ACAD_REACTORS
330
47
102
}
330
47
100
AcDbScale
 70
     0
300
1/32" = 1'-0"
140
0.03125
141
12.0
290
     0
  0
SCALE
  5
5C
102
{ACAD_REACTORS
330
47
102
}
330
47
100
AcDbScale
 70
     0
300
1/16" = 1'-0"
140
0.0625
141
12.0
290
     0
  0
SCALE
  5
5D
102
{ACAD_REACTORS
330
47
102
}
330
47
100
AcDbScale
 70
     0
300
3/32" = 1'-0"
140
0.09375
141
12.0
290
     0
  0
SCALE
  5
5E
102
{ACAD_REACTORS
330
47
102
}
330
47
100
AcDbScale
 70
     0
300
1/8" = 1'-0"
140
0.125
141
12.0
290
     0
  0
SCALE
  5
5F
102
{ACAD_REACTORS
330
47
102
}
330
47
100
AcDbScale
 70
     0
300
3/16" = 1'-0"
140
0.1875
141
12.0
290
     0
  0
SCALE
  5
60
102
{ACAD_REACTORS
330
47
102
}
330
47
100
AcDbScale
 70
     0
300
1/4" = 1'-0"
140
0.25
141
12.0
290
     0
  0
SCALE
  5
61
102
{ACAD_REACTORS
330
47
102
}
330
47
100
AcDbScale
 70
     0
300
3/8" = 1'-0"
140
0.375
141
12.0
290
     0
  0
SCALE
  5
62
102
{ACAD_REACTORS
330
47
102
}
330
47
100
AcDbScale
 70
     0
300
1/2" = 1'-0"
140
0.5
141
12.0
290
     0
  0
SCALE
  5
63
102
{ACAD_REACTORS
330
47
102
}
330
47
100
AcDbScale
 70
     0
300
3/4" = 1'-0"
140
0.75
141
12.0
290
     0
  0
SCALE
  5
64
102
{ACAD_REACTORS
330
47
102
}
330
47
100
AcDbScale
 70
     0
300
1" = 1'-0"
140
1.0
141
12.0
290
     0
  0
SCALE
  5
65
102
{ACAD_REACTORS
330
47
102
}
330
47
100
AcDbScale
 70
     0
300
1-1/2" = 1'-0"
140
1.5
141
12.0
290
     0
  0
SCALE
  5
66
102
{ACAD_REACTORS
330
47
102
}
330
47
100
AcDbScale
 70
     0
300
3" = 1'-0"
140
3.0
141
12.0
290
     0
  0
SCALE
  5
67
102
{ACAD_REACTORS
330
47
102
}
330
47
100
AcDbScale
 70
     0
300
6" = 1'-0"
140
6.0
141
12.0
290
     0
  0
SCALE
  5
68
102
{ACAD_REACTORS
330
47
102
}
330
47
100
AcDbScale
 70
     0
300
1'-0" = 1'-0"
140
12.0
141
12.0
290
     0
  0
TABLESTYLE
  5
6A
102
{ACAD_REACTORS
330
69
102
}
102
{ACAD_XDICTIONARY
360
187
102
}
330
69
100
AcDbTableStyle
  3
Standard
 70
     0
 71
     0
 40
0.06
 41
0.06
280
     0
281
     0
  7
Standard
140
0.18
170
     2
 62
     0
 63
   257
283
     0
 90
        4
 91
        0
  1

274
    -2
284
     1
 64
     0
275
    -2
285
     1
 65
     0
276
    -2
286
     1
 66
     0
277
    -2
287
     1
 67
     0
278
    -2
288
     1
 68
     0
279
    -2
289
     1
 69
     0
  7
Standard
140
0.25
170
     5
 62
     0
 63
   257
283
     0
 90
        4
 91
        0
  1

274
    -2
284
     1
 64
     0
275
    -2
285
     1
 65
     0
276
    -2
286
     1
 66
     0
277
    -2
287
     1
 67
     0
278
    -2
288
     1
 68
     0
279
    -2
289
     1
 69
     0
  7
Standard
140
0.18
170
     5
 62
     0
 63
   257
283
     0
 90
        4
 91
        0
  1

274
    -2
284
     1
 64
     0
275
    -2
285
     1
 65
     0
276
    -2
286
     1
 66
     0
277
    -2
287
     1
 67
     0
278
    -2
288
     1
 68
     0
279
    -2
289
     1
 69
     0
  0
VISUALSTYLE
  5
2F
102
{ACAD_REACTORS
330
2A
102
}
330
2A
100
AcDbVisualStyle
  2
2dWireframe
 70
     4
177
     3
291
     0
 70
    58
 90
        0
176
     1
 90
        2
176
     1
 90
        0
176
     1
 90
        0
176
     1
 40
0.6
176
     1
 40
30.0
176
     1
 62
     7
420
 16777215
176
     1
 90
        1
176
     1
 90
        4
176
     1
 62
     7
176
     1
 62
   257
176
     1
 90
        1
176
     1
 90
        1
176
     1
 40
1.0
176
     1
 90
        0
176
     1
 62
   257
176
     1
 40
1.0
176
     1
 90
        1
176
     1
 90
        6
176
     1
 90
        2
176
     1
 62
     7
176
     1
 90
        5
176
     1
 90
        0
176
     1
 90
        0
176
     1
290
     0
176
     1
 90
        1
176
     1
 40
0.0
176
     1
 90
        0
176
     1
290
     1
176
     1
290
     1
176
     1
290
     0
176
     1
290
     0
176
     1
290
     0
176
     1
290
     0
176
     1
290
     0
176
     1
290
     0
176
     1
290
     0
176
     1
 90
       50
176
     1
 40
0.0
176
     1
 40
1.0
176
     1
 90
        0
176
     1
 62
    18
420
        0
176
     1
 90
       50
176
     1
 90
        3
176
     1
 62
     5
420
      255
176
     1
290
     0
176
     1
 90
       50
176
     1
 90
       50
176
     1
 90
       50
176
     1
290
     0
176
     1
 90
       50
176
     1
 62
   256
176
     0
 40
1.0
176
     0
 90
        2
176
     1
  1
strokes_ogs.tif
176
     1
290
     0
176
     1
 40
1.0
176
     1
 40
1.0
176
     1
  0
VISUALSTYLE
  5
32
102
{ACAD_REACTORS
330
2A
102
}
330
2A
100
AcDbVisualStyle
  2
Basic
 70
     7
177
     3
291
     1
 70
    58
 90
        1
176
     1
 90
        0
176
     1
 90
        1
176
     1
 90
        0
176
     1
 40
0.6
176
     1
 40
30.0
176
     1
 62
     7
420
 16777215
176
     1
 90
        0
176
     1
 90
        4
176
     1
 62
     7
176
     1
 62
   257
176
     1
 90
        1
176
     1
 90
        1
176
     1
 40
1.0
176
     1
 90
        8
176
     1
 62
     7
176
     1
 40
1.0
176
     1
 90
        1
176
     1
 90
        6
176
     1
 90
        2
176
     1
 62
     7
176
     1
 90
        5
176
     1
 90
        0
176
     1
 90
        0
176
     1
290
     0
176
     1
 90
        1
176
     1
 40
0.0
176
     1
 90
        0
176
     1
290
     0
176
     1
290
     1
176
     1
290
     1
176
     1
290
     0
176
     1
290
     0
176
     1
290
     0
176
     1
290
     0
176
     1
290
     0
176
     1
290
     0
176
     1
 90
       50
176
     1
 40
0.0
176
     1
 40
1.0
176
     1
 90
        0
176
     1
 62
    18
420
        0
176
     1
 90
       50
176
     1
 90
        3
176
     1
 62
     5
420
      255
176
     1
290
     0
176
     1
 90
       50
176
     1
 90
       50
176
     1
 90
       50
176
     1
290
     0
176
     1
 90
       50
176
     1
 62
   256
176
     0
 40
1.0
176
     0
 90
        2
176
     1
  1
strokes_ogs.tif
176
     1
290
     0
176
     1
 40
1.0
176
     1
 40
1.0
176
     1
  0
VISUALSTYLE
  5
36
102
{ACAD_REACTORS
330
2A
102
}
330
2A
100
AcDbVisualStyle
  2
Brighten
 70
    12
177
     3
291
     1
 70
    58
 90
        2
176
     1
 90
        2
176
     1
 90
        0
176
     1
 90
        0
176
     1
 40
0.6
176
     1
 40
30.0
176
     1
 62
     7
420
 16777215
176
     1
 90
        1
176
     1
 90
        4
176
     1
 62
     7
176
     1
 62
   257
176
     1
 90
        1
176
     1
 90
        1
176
     1
 40
1.0
176
     1
 90
        8
176
     1
 62
     7
176
     1
 40
1.0
176
     1
 90
        1
176
     1
 90
        6
176
     1
 90
        2
176
     1
 62
     7
176
     1
 90
        5
176
     1
 90
        0
176
     1
 90
        0
176
     1
290
     0
176
     1
 90
        1
176
     1
 40
50.0
176
     1
 90
        0
176
     1
290
     0
176
     1
290
     1
176
     1
290
     1
176
     1
290
     0
176
     1
290
     0
176
     1
290
     0
176
     1
290
     0
176
     1
290
     0
176
     1
290
     0
176
     1
 90
       50
176
     1
 40
0.0
176
     1
 40
1.0
176
     1
 90
        0
176
     1
 62
    18
420
        0
176
     1
 90
       50
176
     1
 90
        3
176
     1
 62
     5
420
      255
176
     1
290
     0
176
     1
 90
       50
176
     1
 90
       50
176
     1
 90
       50
176
     1
290
     0
176
     1
 90
       50
176
     1
 62
   256
176
     0
 40
1.0
176
     0
 90
        2
176
     1
  1
strokes_ogs.tif
176
     1
290
     0
176
     1
 40
1.0
176
     1
 40
1.0
176
     1
  0
VISUALSTYLE
  5
3A
102
{ACAD_REACTORS
330
2A
102
}
330
2A
100
AcDbVisualStyle
  2
ColorChange
 70
    16
177
     3
291
     1
 70
    58
 90
        2
176
     1
 90
        2
176
     1
 90
        3
176
     1
 90
        0
176
     1
 40
0.6
176
     1
 40
30.0
176
     1
 62
     8
420
  8421504
176
     1
 90
        1
176
     1
 90
        4
176
     1
 62
     7
176
     1
 62
   257
176
     1
 90
        1
176
     1
 90
        1
176
     1
 40
1.0
176
     1
 90
        8
176
     1
 62
     8
420
  8421504
176
     1
 40
1.0
176
     1
 90
        1
176
     1
 90
        6
176
     1
 90
        2
176
     1
 62
     7
176
     1
 90
        5
176
     1
 90
        0
176
     1
 90
        0
176
     1
290
     0
176
     1
 90
        1
176
     1
 40
0.0
176
     1
 90
        0
176
     1
290
     0
176
     1
290
     1
176
     1
290
     1
176
     1
290
     0
176
     1
290
     0
176
     1
290
     0
176
     1
290
     0
176
     1
290
     0
176
     1
290
     0
176
     1
 90
       50
176
     1
 40
0.0
176
     1
 40
1.0
176
     1
 90
        0
176
     1
 62
    18
420
        0
176
     1
 90
       50
176
     1
 90
        3
176
     1
 62
     5
420
      255
176
     1
290
     0
176
     1
 90
       50
176
     1
 90
       50
176
     1
 90
       50
176
     1
290
     0
176
     1
 90
       50
176
     1
 62
   256
176
     0
 40
1.0
176
     0
 90
        2
176
     1
  1
strokes_ogs.tif
176
     1
290
     0
176
     1
 40
1.0
176
     1
 40
1.0
176
     1
  0
VISUALSTYLE
  5
34
102
{ACAD_REACTORS
330
2A
102
}
330
2A
100
AcDbVisualStyle
  2
Conceptual
 70
     9
177
     3
291
     0
 70
    58
 90
        3
176
     1
 90
        2
176
     1
 90
        0
176
     1
 90
        0
176
     1
 40
0.6
176
     1
 40
30.0
176
     1
 62
     7
420
 16777215
176
     1
 90
        2
176
     1
 90
        2
176
     1
 62
     7
176
     1
 62
   257
176
     1
 90
        1
176
     1
 90
        1
176
     1
 40
179.0
176
     1
 90
        8
176
     1
 62
     7
176
     1
 40
1.0
176
     1
 90
        1
176
     1
 90
        6
176
     1
 90
        2
176
     1
 62
     7
176
     1
 90
        3
176
     1
 90
        0
176
     1
 90
        0
176
     1
290
     0
176
     1
 90
        1
176
     1
 40
0.0
176
     1
 90
        0
176
     1
290
     0
176
     1
290
     1
176
     1
290
     1
176
     1
290
     0
176
     1
290
     0
176
     1
290
     0
176
     1
290
     0
176
     1
290
     0
176
     1
290
     0
176
     1
 90
       50
176
     1
 40
0.0
176
     1
 40
1.0
176
     1
 90
        0
176
     1
 62
    18
420
        0
176
     1
 90
       50
176
     1
 90
        3
176
     1
 62
     5
420
      255
176
     1
290
     0
176
     1
 90
       50
176
     1
 90
       50
176
     1
 90
       50
176
     1
290
     0
176
     1
 90
       50
176
     1
 62
   256
176
     0
 40
1.0
176
     0
 90
        2
176
     1
  1
strokes_ogs.tif
176
     1
290
     0
176
     1
 40
1.0
176
     1
 40
1.0
176
     1
  0
VISUALSTYLE
  5
35
102
{ACAD_REACTORS
330
2A
102
}
330
2A
100
AcDbVisualStyle
  2
Dim
 70
    11
177
     3
291
     1
 70
    58
 90
        2
176
     1
 90
        2
176
     1
 90
        0
176
     1
 90
        0
176
     1
 40
0.6
176
     1
 40
30.0
176
     1
 62
     7
420
 16777215
176
     1
 90
        1
176
     1
 90
        4
176
     1
 62
     7
176
     1
 62
   257
176
     1
 90
        1
176
     1
 90
        1
176
     1
 40
1.0
176
     1
 90
        8
176
     1
 62
     7
176
     1
 40
1.0
176
     1
 90
        1
176
     1
 90
        6
176
     1
 90
        2
176
     1
 62
     7
176
     1
 90
        5
176
     1
 90
        0
176
     1
 90
        0
176
     1
290
     0
176
     1
 90
        1
176
     1
 40
-50.0
176
     1
 90
        0
176
     1
290
     0
176
     1
290
     1
176
     1
290
     1
176
     1
290
     0
176
     1
290
     0
176
     1
290
     0
176
     1
290
     0
176
     1
290
     0
176
     1
290
     0
176
     1
 90
       50
176
     1
 40
0.0
176
     1
 40
1.0
176
     1
 90
        0
176
     1
 62
    18
420
        0
176
     1
 90
       50
176
     1
 90
        3
176
     1
 62
     5
420
      255
176
     1
290
     0
176
     1
 90
       50
176
     1
 90
       50
176
     1
 90
       50
176
     1
290
     0
176
     1
 90
       50
176
     1
 62
   256
176
     0
 40
1.0
176
     0
 90
        2
176
     1
  1
strokes_ogs.tif
176
     1
290
     0
176
     1
 40
1.0
176
     1
 40
1.0
176
     1
  0
VISUALSTYLE
  5
3D
102
{ACAD_REACTORS
330
2A
102
}
330
2A
100
AcDbVisualStyle
  2
EdgeColorOff
 70
    22
177
     3
291
     1
 70
    58
 90
        2
176
     0
 90
        2
176
     0
 90
        0
176
     0
 90
        0
176
     0
 40
0.6
176
     0
 40
30.0
176
     0
 62
     7
420
 16777215
176
     0
 90
        1
176
     0
 90
        4
176
     0
 62
     7
176
     0
 62
   257
176
     0
 90
        1
176
     0
 90
        1
176
     0
 40
1.0
176
     0
 90
        8
176
     2
 62
     7
176
     0
 40
1.0
176
     0
 90
        1
176
     0
 90
        6
176
     0
 90
        2
176
     0
 62
     7
176
     0
 90
        5
176
     0
 90
        0
176
     0
 90
        0
176
     0
290
     0
176
     0
 90
        1
176
     0
 40
0.0
176
     0
 90
        0
176
     0
290
     0
176
     0
290
     1
176
     0
290
     1
176
     0
290
     0
176
     0
290
     0
176
     0
290
     0
176
     0
290
     0
176
     0
290
     0
176
     0
290
     0
176
     0
 90
       50
176
     0
 40
0.0
176
     0
 40
1.0
176
     0
 90
        0
176
     0
 62
    18
420
        0
176
     0
 90
       50
176
     0
 90
        3
176
     0
 62
     5
420
      255
176
     0
290
     0
176
     0
 90
       50
176
     0
 90
       50
176
     0
 90
       50
176
     0
290
     0
176
     0
 90
       50
176
     0
 62
   256
176
     0
 40
1.0
176
     0
 90
        2
176
     0
  1
strokes_ogs.tif
176
     0
290
     0
176
     0
 40
1.0
176
     0
 40
1.0
176
     0
  0
VISUALSTYLE
  5
39
102
{ACAD_REACTORS
330
2A
102
}
330
2A
100
AcDbVisualStyle
  2
Facepattern
 70
    15
177
     3
291
     1
 70
    58
 90
        2
176
     1
 90
        2
176
     1
 90
        0
176
     1
 90
        0
176
     1
 40
0.6
176
     1
 40
30.0
176
     1
 62
     7
420
 16777215
176
     1
 90
        1
176
     1
 90
        4
176
     1
 62
     7
176
     1
 62
   257
176
     1
 90
        1
176
     1
 90
        1
176
     1
 40
1.0
176
     1
 90
        8
176
     1
 62
     7
176
     1
 40
1.0
176
     1
 90
        1
176
     1
 90
        6
176
     1
 90
        2
176
     1
 62
     7
176
     1
 90
        5
176
     1
 90
        0
176
     1
 90
        0
176
     1
290
     0
176
     1
 90
        1
176
     1
 40
0.0
176
     1
 90
        0
176
     1
290
     0
176
     1
290
     1
176
     1
290
     1
176
     1
290
     0
176
     1
290
     0
176
     1
290
     0
176
     1
290
     0
176
     1
290
     0
176
     1
290
     0
176
     1
 90
       50
176
     1
 40
0.0
176
     1
 40
1.0
176
     1
 90
        0
176
     1
 62
    18
420
        0
176
     1
 90
       50
176
     1
 90
        3
176
     1
 62
     5
420
      255
176
     1
290
     0
176
     1
 90
       50
176
     1
 90
       50
176
     1
 90
       50
176
     1
290
     0
176
     1
 90
       50
176
     1
 62
   256
176
     0
 40
1.0
176
     0
 90
        2
176
     1
  1
strokes_ogs.tif
176
     1
290
     0
176
     1
 40
1.0
176
     1
 40
1.0
176
     1
  0
VISUALSTYLE
  5
2B
102
{ACAD_REACTORS
330
2A
102
}
330
2A
100
AcDbVisualStyle
  2
Flat
 70
     0
177
     3
291
     1
 70
    58
 90
        2
176
     1
 90
        1
176
     1
 90
        1
176
     1
 90
        2
176
     1
 40
0.6
176
     1
 40
30.0
176
     1
 62
     7
420
 16777215
176
     1
 90
        0
176
     1
 90
        0
176
     1
 62
     7
176
     1
 62
   257
176
     1
 90
        1
176
     1
 90
        1
176
     1
 40
1.0
176
     1
 90
        8
176
     1
 62
     7
176
     1
 40
1.0
176
     1
 90
        1
176
     1
 90
        6
176
     1
 90
        2
176
     1
 62
     7
176
     1
 90
        5
176
     1
 90
        0
176
     1
 90
        0
176
     1
290
     0
176
     1
 90
       13
176
     1
 40
0.0
176
     1
 90
        0
176
     1
290
     0
176
     1
290
     1
176
     1
290
     1
176
     1
290
     0
176
     1
290
     0
176
     1
290
     0
176
     1
290
     0
176
     1
290
     0
176
     1
290
     0
176
     1
 90
       50
176
     1
 40
0.0
176
     1
 40
1.0
176
     1
 90
        0
176
     1
 62
    18
420
        0
176
     1
 90
       50
176
     1
 90
        3
176
     1
 62
     5
420
      255
176
     1
290
     0
176
     1
 90
       50
176
     1
 90
       50
176
     1
 90
       50
176
     1
290
     0
176
     1
 90
       50
176
     1
 62
   256
176
     0
 40
1.0
176
     0
 90
        2
176
     1
  1
strokes_ogs.tif
176
     1
290
     0
176
     1
 40
1.0
176
     1
 40
1.0
176
     1
  0
VISUALSTYLE
  5
2C
102
{ACAD_REACTORS
330
2A
102
}
330
2A
100
AcDbVisualStyle
  2
FlatWithEdges
 70
     1
177
     3
291
     1
 70
    58
 90
        2
176
     1
 90
        1
176
     1
 90
        1
176
     1
 90
        2
176
     1
 40
0.6
176
     1
 40
30.0
176
     1
 62
     7
420
 16777215
176
     1
 90
        1
176
     1
 90
        0
176
     1
 62
     7
176
     1
 62
   257
176
     1
 90
        1
176
     1
 90
        1
176
     1
 40
1.0
176
     1
 90
        0
176
     1
 62
   257
176
     1
 40
1.0
176
     1
 90
        1
176
     1
 90
        6
176
     1
 90
        2
176
     1
 62
     7
176
     1
 90
        5
176
     1
 90
        0
176
     1
 90
        0
176
     1
290
     0
176
     1
 90
       13
176
     1
 40
0.0
176
     1
 90
        0
176
     1
290
     0
176
     1
290
     1
176
     1
290
     1
176
     1
290
     0
176
     1
290
     0
176
     1
290
     0
176
     1
290
     0
176
     1
290
     0
176
     1
290
     0
176
     1
 90
       50
176
     1
 40
0.0
176
     1
 40
1.0
176
     1
 90
        0
176
     1
 62
    18
420
        0
176
     1
 90
       50
176
     1
 90
        3
176
     1
 62
     5
420
      255
176
     1
290
     0
176
     1
 90
       50
176
     1
 90
       50
176
     1
 90
       50
176
     1
290
     0
176
     1
 90
       50
176
     1
 62
   256
176
     0
 40
1.0
176
     0
 90
        2
176
     1
  1
strokes_ogs.tif
176
     1
290
     0
176
     1
 40
1.0
176
     1
 40
1.0
176
     1
  0
VISUALSTYLE
  5
2D
102
{ACAD_REACTORS
330
2A
102
}
330
2A
100
AcDbVisualStyle
  2
Gouraud
 70
     2
177
     3
291
     1
 70
    58
 90
        2
176
     1
 90
        2
176
     1
 90
        1
176
     1
 90
        2
176
     1
 40
0.6
176
     1
 40
30.0
176
     1
 62
     7
420
 16777215
176
     1
 90
        0
176
     1
 90
        0
176
     1
 62
     7
176
     1
 62
   257
176
     1
 90
        1
176
     1
 90
        1
176
     1
 40
1.0
176
     1
 90
        0
176
     1
 62
     7
176
     1
 40
1.0
176
     1
 90
        1
176
     1
 90
        6
176
     1
 90
        2
176
     1
 62
     7
176
     1
 90
        5
176
     1
 90
        0
176
     1
 90
        0
176
     1
290
     0
176
     1
 90
       13
176
     1
 40
0.0
176
     1
 90
        0
176
     1
290
     0
176
     1
290
     1
176
     1
290
     1
176
     1
290
     0
176
     1
290
     0
176
     1
290
     0
176
     1
290
     0
176
     1
290
     0
176
     1
290
     0
176
     1
 90
       50
176
     1
 40
0.0
176
     1
 40
1.0
176
     1
 90
        0
176
     1
 62
    18
420
        0
176
     1
 90
       50
176
     1
 90
        3
176
     1
 62
     5
420
      255
176
     1
290
     0
176
     1
 90
       50
176
     1
 90
       50
176
     1
 90
       50
176
     1
290
     0
176
     1
 90
       50
176
     1
 62
   256
176
     0
 40
1.0
176
     0
 90
        2
176
     1
  1
strokes_ogs.tif
176
     1
290
     0
176
     1
 40
1.0
176
     1
 40
1.0
176
     1
  0
VISUALSTYLE
  5
2E
102
{ACAD_REACTORS
330
2A
102
}
330
2A
100
AcDbVisualStyle
  2
GouraudWithEdges
 70
     3
177
     3
291
     1
 70
    58
 90
        2
176
     1
 90
        2
176
     1
 90
        1
176
     1
 90
        2
176
     1
 40
0.6
176
     1
 40
30.0
176
     1
 62
     7
420
 16777215
176
     1
 90
        1
176
     1
 90
        0
176
     1
 62
     7
176
     1
 62
   257
176
     1
 90
        1
176
     1
 90
        1
176
     1
 40
1.0
176
     1
 90
        0
176
     1
 62
   257
176
     1
 40
1.0
176
     1
 90
        1
176
     1
 90
        6
176
     1
 90
        2
176
     1
 62
     7
176
     1
 90
        5
176
     1
 90
        0
176
     1
 90
        0
176
     1
290
     0
176
     1
 90
       13
176
     1
 40
0.0
176
     1
 90
        0
176
     1
290
     0
176
     1
290
     1
176
     1
290
     1
176
     1
290
     0
176
     1
290
     0
176
     1
290
     0
176
     1
290
     0
176
     1
290
     0
176
     1
290
     0
176
     1
 90
       50
176
     1
 40
0.0
176
     1
 40
1.0
176
     1
 90
        0
176
     1
 62
    18
420
        0
176
     1
 90
       50
176
     1
 90
        3
176
     1
 62
     5
420
      255
176
     1
290
     0
176
     1
 90
       50
176
     1
 90
       50
176
     1
 90
       50
176
     1
290
     0
176
     1
 90
       50
176
     1
 62
   256
176
     0
 40
1.0
176
     0
 90
        2
176
     1
  1
strokes_ogs.tif
176
     1
290
     0
176
     1
 40
1.0
176
     1
 40
1.0
176
     1
  0
VISUALSTYLE
  5
31
102
{ACAD_REACTORS
330
2A
102
}
330
2A
100
AcDbVisualStyle
  2
Hidden
 70
     6
177
     3
291
     0
 70
    58
 90
        1
176
     1
 90
        2
176
     1
 90
        2
176
     1
 90
        0
176
     1
 40
0.6
176
     1
 40
30.0
176
     1
 62
     7
420
 16777215
176
     1
 90
        2
176
     1
 90
        2
176
     1
 62
     7
176
     1
 62
   257
176
     1
 90
        2
176
     1
 90
        1
176
     1
 40
40.0
176
     1
 90
        0
176
     1
 62
   257
176
     1
 40
1.0
176
     1
 90
        1
176
     1
 90
        6
176
     1
 90
        2
176
     1
 62
     7
176
     1
 90
        3
176
     1
 90
        0
176
     1
 90
        0
176
     1
290
     0
176
     1
 90
        1
176
     1
 40
0.0
176
     1
 90
        0
176
     1
290
     0
176
     1
290
     1
176
     1
290
     1
176
     1
290
     0
176
     1
290
     0
176
     1
290
     0
176
     1
290
     0
176
     1
290
     0
176
     1
290
     0
176
     1
 90
       50
176
     1
 40
0.0
176
     1
 40
1.0
176
     1
 90
        0
176
     1
 62
    18
420
        0
176
     1
 90
       50
176
     1
 90
        3
176
     1
 62
     5
420
      255
176
     1
290
     0
176
     1
 90
       50
176
     1
 90
       50
176
     1
 90
       50
176
     1
290
     0
176
     1
 90
       50
176
     1
 62
   256
176
     0
 40
1.0
176
     0
 90
        2
176
     1
  1
strokes_ogs.tif
176
     1
290
     0
176
     1
 40
1.0
176
     1
 40
1.0
176
     1
  0
VISUALSTYLE
  5
3B
102
{ACAD_REACTORS
330
2A
102
}
330
2A
100
AcDbVisualStyle
  2
JitterOff
 70
    20
177
     3
291
     1
 70
    58
 90
        2
176
     0
 90
        2
176
     0
 90
        0
176
     0
 90
        0
176
     0
 40
0.6
176
     0
 40
30.0
176
     0
 62
     7
420
 16777215
176
     0
 90
        1
176
     0
 90
        4
176
     0
 62
     7
176
     0
 62
   257
176
     0
 90
        1
176
     0
 90
        1
176
     0
 40
1.0
176
     0
 90
       10
176
     2
 62
     7
176
     0
 40
1.0
176
     0
 90
        1
176
     0
 90
        6
176
     0
 90
        2
176
     0
 62
     7
176
     0
 90
        5
176
     0
 90
        0
176
     0
 90
        0
176
     0
290
     0
176
     0
 90
        1
176
     0
 40
0.0
176
     0
 90
        0
176
     0
290
     0
176
     0
290
     1
176
     0
290
     1
176
     0
290
     0
176
     0
290
     0
176
     0
290
     0
176
     0
290
     0
176
     0
290
     0
176
     0
290
     0
176
     0
 90
       50
176
     0
 40
0.0
176
     0
 40
1.0
176
     0
 90
        0
176
     0
 62
    18
420
        0
176
     0
 90
       50
176
     0
 90
        3
176
     0
 62
     5
420
      255
176
     0
290
     0
176
     0
 90
       50
176
     0
 90
       50
176
     0
 90
       50
176
     0
290
     0
176
     0
 90
       50
176
     0
 62
   256
176
     0
 40
1.0
176
     0
 90
        2
176
     0
  1
strokes_ogs.tif
176
     0
290
     0
176
     0
 40
1.0
176
     0
 40
1.0
176
     0
  0
VISUALSTYLE
  5
38
102
{ACAD_REACTORS
330
2A
102
}
330
2A
100
AcDbVisualStyle
  2
Linepattern
 70
    14
177
     3
291
     1
 70
    58
 90
        2
176
     1
 90
        2
176
     1
 90
        0
176
     1
 90
        0
176
     1
 40
0.6
176
     1
 40
30.0
176
     1
 62
     7
420
 16777215
176
     1
 90
        1
176
     1
 90
        4
176
     1
 62
     7
176
     1
 62
   257
176
     1
 90
        7
176
     1
 90
        7
176
     1
 40
1.0
176
     1
 90
        8
176
     1
 62
     7
176
     1
 40
1.0
176
     1
 90
        1
176
     1
 90
        6
176
     1
 90
        2
176
     1
 62
     7
176
     1
 90
        5
176
     1
 90
        0
176
     1
 90
        0
176
     1
290
     0
176
     1
 90
        1
176
     1
 40
0.0
176
     1
 90
        0
176
     1
290
     0
176
     1
290
     1
176
     1
290
     1
176
     1
290
     0
176
     1
290
     0
176
     1
290
     0
176
     1
290
     0
176
     1
290
     0
176
     1
290
     0
176
     1
 90
       50
176
     1
 40
0.0
176
     1
 40
1.0
176
     1
 90
        0
176
     1
 62
    18
420
        0
176
     1
 90
       50
176
     1
 90
        3
176
     1
 62
     5
420
      255
176
     1
290
     0
176
     1
 90
       50
176
     1
 90
       50
176
     1
 90
       50
176
     1
290
     0
176
     1
 90
       50
176
     1
 62
   256
176
     0
 40
1.0
176
     0
 90
        2
176
     1
  1
strokes_ogs.tif
176
     1
290
     0
176
     1
 40
1.0
176
     1
 40
1.0
176
     1
  0
VISUALSTYLE
  5
3C
102
{ACAD_REACTORS
330
2A
102
}
330
2A
100
AcDbVisualStyle
  2
OverhangOff
 70
    21
177
     3
291
     1
 70
    58
 90
        2
176
     0
 90
        2
176
     0
 90
        0
176
     0
 90
        0
176
     0
 40
0.6
176
     0
 40
30.0
176
     0
 62
     7
420
 16777215
176
     0
 90
        1
176
     0
 90
        4
176
     0
 62
     7
176
     0
 62
   257
176
     0
 90
        1
176
     0
 90
        1
176
     0
 40
1.0
176
     0
 90
        9
176
     2
 62
     7
176
     0
 40
1.0
176
     0
 90
        1
176
     0
 90
        6
176
     0
 90
        2
176
     0
 62
     7
176
     0
 90
        5
176
     0
 90
        0
176
     0
 90
        0
176
     0
290
     0
176
     0
 90
        1
176
     0
 40
0.0
176
     0
 90
        0
176
     0
290
     0
176
     0
290
     1
176
     0
290
     1
176
     0
290
     0
176
     0
290
     0
176
     0
290
     0
176
     0
290
     0
176
     0
290
     0
176
     0
290
     0
176
     0
 90
       50
176
     0
 40
0.0
176
     0
 40
1.0
176
     0
 90
        0
176
     0
 62
    18
420
        0
176
     0
 90
       50
176
     0
 90
        3
176
     0
 62
     5
420
      255
176
     0
290
     0
176
     0
 90
       50
176
     0
 90
       50
176
     0
 90
       50
176
     0
290
     0
176
     0
 90
       50
176
     0
 62
   256
176
     0
 40
1.0
176
     0
 90
        2
176
     0
  1
strokes_ogs.tif
176
     0
290
     0
176
     0
 40
1.0
176
     0
 40
1.0
176
     0
  0
VISUALSTYLE
  5
33
102
{ACAD_REACTORS
330
2A
102
}
330
2A
100
AcDbVisualStyle
  2
Realistic
 70
     8
177
     3
291
     0
 70
    58
 90
        2
176
     1
 90
        3
176
     1
 90
        0
176
     1
 90
        2
176
     1
 40
0.6
176
     1
 40
30.0
176
     1
 62
     7
420
 16777215
176
     1
 90
        0
176
     1
 90
        0
176
     1
 62
     7
176
     1
 62
   257
176
     1
 90
        1
176
     1
 90
        1
176
     1
 40
1.0
176
     1
 90
        8
176
     1
 62
   257
176
     1
 40
1.0
176
     1
 90
        1
176
     1
 90
        6
176
     1
 90
        2
176
     1
 62
     7
176
     1
 90
        3
176
     1
 90
        0
176
     1
 90
        0
176
     1
290
     0
176
     1
 90
       13
176
     1
 40
0.0
176
     1
 90
        0
176
     1
290
     0
176
     1
290
     1
176
     1
290
     1
176
     1
290
     0
176
     1
290
     0
176
     1
290
     0
176
     1
290
     0
176
     1
290
     0
176
     1
290
     0
176
     1
 90
       50
176
     1
 40
0.0
176
     1
 40
1.0
176
     1
 90
        0
176
     1
 62
    18
420
        0
176
     1
 90
       50
176
     1
 90
        3
176
     1
 62
     5
420
      255
176
     1
290
     0
176
     1
 90
       50
176
     1
 90
       50
176
     1
 90
       50
176
     1
290
     0
176
     1
 90
       50
176
     1
 62
   256
176
     0
 40
1.0
176
     0
 90
        2
176
     1
  1
strokes_ogs.tif
176
     1
290
     0
176
     1
 40
1.0
176
     1
 40
1.0
176
     1
  0
VISUALSTYLE
  5
42
102
{ACAD_REACTORS
330
2A
102
}
330
2A
100
AcDbVisualStyle
  2
Shaded
 70
    27
177
     3
291
     0
 70
    58
 90
        2
176
     1
 90
        2
176
     1
 90
        1
176
     1
 90
        2
176
     1
 40
0.6
176
     1
 40
30.0
176
     1
 62
     7
420
 16777215
176
     1
 90
        0
176
     1
 90
        4
176
     1
 62
     7
176
     1
 62
   257
176
     1
 90
        1
176
     1
 90
        1
176
     1
 40
1.0
176
     1
 90
        8
176
     1
 62
   257
176
     1
 40
1.0
176
     1
 90
        1
176
     1
 90
        6
176
     1
 90
        2
176
     1
 62
     8
420
  7895160
176
     1
 90
        3
176
     1
 90
        0
176
     1
 90
        0
176
     1
290
     0
176
     1
 90
        5
176
     1
 40
0.0
176
     1
 90
        0
176
     1
290
     0
176
     1
290
     1
176
     1
290
     1
176
     1
290
     0
176
     1
290
     0
176
     1
290
     0
176
     1
290
     0
176
     1
290
     0
176
     1
290
     0
176
     1
 90
       50
176
     1
 40
0.0
176
     1
 40
1.0
176
     1
 90
        0
176
     1
 62
    18
420
        0
176
     1
 90
       50
176
     1
 90
        3
176
     1
 62
     5
420
      255
176
     1
290
     0
176
     1
 90
       50
176
     1
 90
       50
176
     1
 90
       50
176
     1
290
     0
176
     1
 90
       50
176
     1
 62
   256
176
     0
 40
1.0
176
     0
 90
        2
176
     1
  1
strokes_ogs.tif
176
     1
290
     0
176
     1
 40
1.0
176
     1
 40
1.0
176
     1
  0
VISUALSTYLE
  5
41
102
{ACAD_REACTORS
330
2A
102
}
330
2A
100
AcDbVisualStyle
  2
Shaded with edges
 70
    26
177
     3
291
     0
 70
    58
 90
        2
176
     1
 90
        2
176
     1
 90
        1
176
     1
 90
        2
176
     1
 40
0.6
176
     1
 40
30.0
176
     1
 62
     7
420
 16777215
176
     1
 90
        1
176
     1
 90
       10
176
     1
 62
     7
176
     1
 62
   257
176
     1
 90
        2
176
     1
 90
        1
176
     1
 40
1.0
176
     1
 90
        8
176
     1
 62
   257
176
     1
 40
1.0
176
     1
 90
        1
176
     1
 90
        6
176
     1
 90
        2
176
     1
 62
     7
176
     1
 90
        3
176
     1
 90
        0
176
     1
 90
        0
176
     1
290
     0
176
     1
 90
        5
176
     1
 40
0.0
176
     1
 90
        0
176
     1
290
     0
176
     1
290
     1
176
     1
290
     1
176
     1
290
     0
176
     1
290
     0
176
     1
290
     0
176
     1
290
     0
176
     1
290
     0
176
     1
290
     0
176
     1
 90
       50
176
     1
 40
0.0
176
     1
 40
1.0
176
     1
 90
        0
176
     1
 62
    18
420
        0
176
     1
 90
       50
176
     1
 90
        3
176
     1
 62
     5
420
      255
176
     1
290
     0
176
     1
 90
       50
176
     1
 90
       50
176
     1
 90
       50
176
     1
290
     0
176
     1
 90
       50
176
     1
 62
   256
176
     0
 40
1.0
176
     0
 90
        2
176
     1
  1
strokes_ogs.tif
176
     1
290
     0
176
     1
 40
1.0
176
     1
 40
1.0
176
     1
  0
VISUALSTYLE
  5
3E
102
{ACAD_REACTORS
330
2A
102
}
330
2A
100
AcDbVisualStyle
  2
Shades of Gray
 70
    23
177
     3
291
     0
 70
    58
 90
        2
176
     1
 90
        2
176
     1
 90
        3
176
     1
 90
        0
176
     1
 40
0.6
176
     1
 40
30.0
176
     1
 62
     7
420
 16777215
176
     1
 90
        2
176
     1
 90
        2
176
     1
 62
     7
176
     1
 62
     7
176
     1
 90
        1
176
     1
 90
        1
176
     1
 40
40.0
176
     1
 90
        8
176
     1
 62
     7
176
     1
 40
1.0
176
     1
 90
        1
176
     1
 90
        6
176
     1
 90
        2
176
     1
 62
     7
176
     1
 90
        3
176
     1
 90
        0
176
     1
 90
        0
176
     1
290
     0
176
     1
 90
        1
176
     1
 40
0.0
176
     1
 90
        0
176
     1
290
     0
176
     1
290
     1
176
     1
290
     1
176
     1
290
     0
176
     1
290
     0
176
     1
290
     0
176
     1
290
     0
176
     1
290
     0
176
     1
290
     0
176
     1
 90
       50
176
     1
 40
0.0
176
     1
 40
1.0
176
     1
 90
        0
176
     1
 62
    18
420
        0
176
     1
 90
       50
176
     1
 90
        3
176
     1
 62
     5
420
      255
176
     1
290
     0
176
     1
 90
       50
176
     1
 90
       50
176
     1
 90
       50
176
     1
290
     0
176
     1
 90
       50
176
     1
 62
   256
176
     0
 40
1.0
176
     0
 90
        2
176
     1
  1
strokes_ogs.tif
176
     1
290
     0
176
     1
 40
1.0
176
     1
 40
1.0
176
     1
  0
VISUALSTYLE
  5
3F
102
{ACAD_REACTORS
330
2A
102
}
330
2A
100
AcDbVisualStyle
  2
Sketchy
 70
    24
177
     3
291
     0
 70
    58
 90
        1
176
     1
 90
        2
176
     1
 90
        2
176
     1
 90
        0
176
     1
 40
0.6
176
     1
 40
30.0
176
     1
 62
     7
420
 16777215
176
     1
 90
        2
176
     1
 90
        2
176
     1
 62
     7
176
     1
 62
     7
176
     1
 90
        1
176
     1
 90
        1
176
     1
 40
40.0
176
     1
 90
       11
176
     1
 62
     7
176
     1
 40
1.0
176
     1
 90
        1
176
     1
 90
        6
176
     1
 90
        2
176
     1
 62
     7
176
     1
 90
        6
176
     1
 90
        0
176
     1
 90
        0
176
     1
290
     0
176
     1
 90
        1
176
     1
 40
0.0
176
     1
 90
        0
176
     1
290
     0
176
     1
290
     1
176
     1
290
     1
176
     1
290
     0
176
     1
290
     0
176
     1
290
     0
176
     1
290
     0
176
     1
290
     0
176
     1
290
     0
176
     1
 90
       50
176
     1
 40
0.0
176
     1
 40
1.0
176
     1
 90
        0
176
     1
 62
    18
420
        0
176
     1
 90
       50
176
     1
 90
        3
176
     1
 62
     5
420
      255
176
     1
290
     0
176
     1
 90
       50
176
     1
 90
       50
176
     1
 90
       50
176
     1
290
     0
176
     1
 90
       50
176
     1
 62
   256
176
     0
 40
1.0
176
     0
 90
        2
176
     1
  1
strokes_ogs.tif
176
     1
290
     0
176
     1
 40
1.0
176
     1
 40
1.0
176
     1
  0
VISUALSTYLE
  5
37
102
{ACAD_REACTORS
330
2A
102
}
330
2A
100
AcDbVisualStyle
  2
Thicken
 70
    13
177
     3
291
     1
 70
    58
 90
        2
176
     1
 90
        2
176
     1
 90
        0
176
     1
 90
        0
176
     1
 40
0.6
176
     1
 40
30.0
176
     1
 62
     7
420
 16777215
176
     1
 90
        1
176
     1
 90
        4
176
     1
 62
     7
176
     1
 62
   257
176
     1
 90
        1
176
     1
 90
        1
176
     1
 40
1.0
176
     1
 90
       12
176
     1
 62
     7
176
     1
 40
1.0
176
     1
 90
        1
176
     1
 90
        6
176
     1
 90
        2
176
     1
 62
     7
176
     1
 90
        5
176
     1
 90
        0
176
     1
 90
        0
176
     1
290
     0
176
     1
 90
        1
176
     1
 40
0.0
176
     1
 90
        0
176
     1
290
     0
176
     1
290
     1
176
     1
290
     1
176
     1
290
     0
176
     1
290
     0
176
     1
290
     0
176
     1
290
     0
176
     1
290
     0
176
     1
290
     0
176
     1
 90
       50
176
     1
 40
0.0
176
     1
 40
1.0
176
     1
 90
        0
176
     1
 62
    18
420
        0
176
     1
 90
       50
176
     1
 90
        3
176
     1
 62
     5
420
      255
176
     1
290
     0
176
     1
 90
       50
176
     1
 90
       50
176
     1
 90
       50
176
     1
290
     0
176
     1
 90
       50
176
     1
 62
   256
176
     0
 40
1.0
176
     0
 90
        2
176
     1
  1
strokes_ogs.tif
176
     1
290
     0
176
     1
 40
1.0
176
     1
 40
1.0
176
     1
  0
VISUALSTYLE
  5
30
102
{ACAD_REACTORS
330
2A
102
}
330
2A
100
AcDbVisualStyle
  2
Wireframe
 70
     5
177
     3
291
     0
 70
    58
 90
        0
176
     1
 90
        2
176
     1
 90
        0
176
     1
 90
        0
176
     1
 40
0.6
176
     1
 40
30.0
176
     1
 62
     7
420
 16777215
176
     1
 90
        1
176
     1
 90
        4
176
     1
 62
     7
176
     1
 62
   257
176
     1
 90
        1
176
     1
 90
        1
176
     1
 40
1.0
176
     1
 90
        0
176
     1
 62
   257
176
     1
 40
1.0
176
     1
 90
        1
176
     1
 90
        6
176
     1
 90
        2
176
     1
 62
     7
176
     1
 90
        3
176
     1
 90
        0
176
     1
 90
        0
176
     1
290
     0
176
     1
 90
        1
176
     1
 40
0.0
176
     1
 90
        0
176
     1
290
     0
176
     1
290
     1
176
     1
290
     1
176
     1
290
     0
176
     1
290
     0
176
     1
290
     0
176
     1
290
     0
176
     1
290
     0
176
     1
290
     0
176
     1
 90
       50
176
     1
 40
0.0
176
     1
 40
1.0
176
     1
 90
        0
176
     1
 62
    18
420
        0
176
     1
 90
       50
176
     1
 90
        3
176
     1
 62
     5
420
      255
176
     1
290
     0
176
     1
 90
       50
176
     1
 90
       50
176
     1
 90
       50
176
     1
290
     0
176
     1
 90
       50
176
     1
 62
   256
176
     0
 40
1.0
176
     0
 90
        2
176
     1
  1
strokes_ogs.tif
176
     1
290
     0
176
     1
 40
1.0
176
     1
 40
1.0
176
     1
  0
VISUALSTYLE
  5
40
102
{ACAD_REACTORS
330
2A
102
}
330
2A
100
AcDbVisualStyle
  2
X-Ray
 70
    25
177
     3
291
     0
 70
    58
 90
        2
176
     1
 90
        2
176
     1
 90
        1
176
     1
 90
        1
176
     1
 40
0.5
176
     1
 40
30.0
176
     1
 62
     7
420
 16777215
176
     1
 90
        1
176
     1
 90
        0
176
     1
 62
     7
176
     1
 62
   257
176
     1
 90
        1
176
     1
 90
        1
176
     1
 40
1.0
176
     1
 90
        8
176
     1
 62
     7
176
     1
 40
1.0
176
     1
 90
        1
176
     1
 90
        6
176
     1
 90
        2
176
     1
 62
     7
176
     1
 90
        3
176
     1
 90
        0
176
     1
 90
        0
176
     1
290
     0
176
     1
 90
       13
176
     1
 40
0.0
176
     1
 90
        0
176
     1
290
     0
176
     1
290
     1
176
     1
290
     1
176
     1
290
     0
176
     1
290
     0
176
     1
290
     0
176
     1
290
     0
176
     1
290
     0
176
     1
290
     0
176
     1
 90
       50
176
     1
 40
0.0
176
     1
 40
1.0
176
     1
 90
        0
176
     1
 62
    18
420
        0
176
     1
 90
       50
176
     1
 90
        3
176
     1
 62
     5
420
      255
176
     1
290
     0
176
     1
 90
       50
176
     1
 90
       50
176
     1
 90
       50
176
     1
290
     0
176
     1
 90
       50
176
     1
 62
   256
176
     0
 40
1.0
176
     0
 90
        2
176
     1
  1
strokes_ogs.tif
176
     1
290
     0
176
     1
 40
1.0
176
     1
 40
1.0
176
     1
  0
DICTIONARYVAR
  5
186
102
{ACAD_REACTORS
330
185
102
}
330
185
100
DictionaryVariables
280
     0
  1
1:1
  0
DICTIONARYVAR
  5
18B
102
{ACAD_REACTORS
330
185
102
}
330
185
100
DictionaryVariables
280
     0
  1
Standard
  0
DICTIONARYVAR
  5
18A
102
{ACAD_REACTORS
330
185
102
}
330
185
100
DictionaryVariables
280
     0
  1
Standard
  0
DICTIONARY
  5
187
330
6A
100
AcDbDictionary
280
     1
281
     1
  3
ACAD_ROUNDTRIP_2008_TABLESTYLE_CELLSTYLEMAP
360
188
  0
CELLSTYLEMAP
  5
188
102
{ACAD_REACTORS
330
187
102
}
330
187
100
AcDbCellStyleMap
 90
        3
300
CELLSTYLE
  1
TABLEFORMAT_BEGIN
 90
        5
170
     1
 91
        0
 92
    32768
 62
   257
 93
        1
300
CONTENTFORMAT
  1
CONTENTFORMAT_BEGIN
 90
        0
 91
        0
 92
        4
 93
        0
300

 40
0.0
140
1.0
 94
        5
 62
     0
340
11
144
0.25
309
CONTENTFORMAT_END
171
     1
301
MARGIN
  1
CELLMARGIN_BEGIN
 40
0.06
 40
0.06
 40
0.06
 40
0.06
 40
0.06
 40
0.06
309
CELLMARGIN_END
 94
        6
 95
        1
302
GRIDFORMAT
  1
GRIDFORMAT_BEGIN
 90
        0
 91
        1
 62
     0
 92
       -2
340
14
 93
        0
 40
0.045
309
GRIDFORMAT_END
 95
        2
302
GRIDFORMAT
  1
GRIDFORMAT_BEGIN
 90
        0
 91
        1
 62
     0
 92
       -2
340
14
 93
        0
 40
0.045
309
GRIDFORMAT_END
 95
        4
302
GRIDFORMAT
  1
GRIDFORMAT_BEGIN
 90
        0
 91
        1
 62
     0
 92
       -2
340
14
 93
        0
 40
0.045
309
GRIDFORMAT_END
 95
        8
302
GRIDFORMAT
  1
GRIDFORMAT_BEGIN
 90
        0
 91
        1
 62
     0
 92
       -2
340
14
 93
        0
 40
0.045
309
GRIDFORMAT_END
 95
       16
302
GRIDFORMAT
  1
GRIDFORMAT_BEGIN
 90
        0
 91
        1
 62
     0
 92
       -2
340
14
 93
        0
 40
0.045
309
GRIDFORMAT_END
 95
       32
302
GRIDFORMAT
  1
GRIDFORMAT_BEGIN
 90
        0
 91
        1
 62
     0
 92
       -2
340
14
 93
        0
 40
0.045
309
GRIDFORMAT_END
309
TABLEFORMAT_END
  1
CELLSTYLE_BEGIN
 90
        1
 91
        1
300
_TITLE
309
CELLSTYLE_END
300
CELLSTYLE
  1
TABLEFORMAT_BEGIN
 90
        5
170
     1
 91
        0
 92
        0
 62
   257
 93
        1
300
CONTENTFORMAT
  1
CONTENTFORMAT_BEGIN
 90
        0
 91
        0
 92
        4
 93
        0
300

 40
0.0
140
1.0
 94
        5
 62
     0
340
11
144
0.18
309
CONTENTFORMAT_END
171
     1
301
MARGIN
  1
CELLMARGIN_BEGIN
 40
0.06
 40
0.06
 40
0.06
 40
0.06
 40
0.06
 40
0.06
309
CELLMARGIN_END
 94
        6
 95
        1
302
GRIDFORMAT
  1
GRIDFORMAT_BEGIN
 90
        0
 91
        1
 62
     0
 92
       -2
340
14
 93
        0
 40
0.045
309
GRIDFORMAT_END
 95
        2
302
GRIDFORMAT
  1
GRIDFORMAT_BEGIN
 90
        0
 91
        1
 62
     0
 92
       -2
340
14
 93
        0
 40
0.045
309
GRIDFORMAT_END
 95
        4
302
GRIDFORMAT
  1
GRIDFORMAT_BEGIN
 90
        0
 91
        1
 62
     0
 92
       -2
340
14
 93
        0
 40
0.045
309
GRIDFORMAT_END
 95
        8
302
GRIDFORMAT
  1
GRIDFORMAT_BEGIN
 90
        0
 91
        1
 62
     0
 92
       -2
340
14
 93
        0
 40
0.045
309
GRIDFORMAT_END
 95
       16
302
GRIDFORMAT
  1
GRIDFORMAT_BEGIN
 90
        0
 91
        1
 62
     0
 92
       -2
340
14
 93
        0
 40
0.045
309
GRIDFORMAT_END
 95
       32
302
GRIDFORMAT
  1
GRIDFORMAT_BEGIN
 90
        0
 91
        1
 62
     0
 92
       -2
340
14
 93
        0
 40
0.045
309
GRIDFORMAT_END
309
TABLEFORMAT_END
  1
CELLSTYLE_BEGIN
 90
        2
 91
        1
300
_HEADER
309
CELLSTYLE_END
300
CELLSTYLE
  1
TABLEFORMAT_BEGIN
 90
        5
170
     1
 91
        0
 92
        0
 62
   257
 93
        1
300
CONTENTFORMAT
  1
CONTENTFORMAT_BEGIN
 90
        0
 91
        0
 92
        4
 93
        0
300

 40
0.0
140
1.0
 94
        2
 62
     0
340
11
144
0.18
309
CONTENTFORMAT_END
171
     1
301
MARGIN
  1
CELLMARGIN_BEGIN
 40
0.06
 40
0.06
 40
0.06
 40
0.06
 40
0.06
 40
0.06
309
CELLMARGIN_END
 94
        6
 95
        1
302
GRIDFORMAT
  1
GRIDFORMAT_BEGIN
 90
        0
 91
        1
 62
     0
 92
       -2
340
14
 93
        0
 40
0.045
309
GRIDFORMAT_END
 95
        2
302
GRIDFORMAT
  1
GRIDFORMAT_BEGIN
 90
        0
 91
        1
 62
     0
 92
       -2
340
14
 93
        0
 40
0.045
309
GRIDFORMAT_END
 95
        4
302
GRIDFORMAT
  1
GRIDFORMAT_BEGIN
 90
        0
 91
        1
 62
     0
 92
       -2
340
14
 93
        0
 40
0.045
309
GRIDFORMAT_END
 95
        8
302
GRIDFORMAT
  1
GRIDFORMAT_BEGIN
 90
        0
 91
        1
 62
     0
 92
       -2
340
14
 93
        0
 40
0.045
309
GRIDFORMAT_END
 95
       16
302
GRIDFORMAT
  1
GRIDFORMAT_BEGIN
 90
        0
 91
        1
 62
     0
 92
       -2
340
14
 93
        0
 40
0.045
309
GRIDFORMAT_END
 95
       32
302
GRIDFORMAT
  1
GRIDFORMAT_BEGIN
 90
        0
 91
        1
 62
     0
 92
       -2
340
14
 93
        0
 40
0.045
309
GRIDFORMAT_END
309
TABLEFORMAT_END
  1
CELLSTYLE_BEGIN
 90
        3
 91
        2
300
_DATA
309
CELLSTYLE_END
  0
ENDSEC
  0
EOF