0
SECTION
  2
HEADER
  9
$ACADVER
  1
AC1027
  9
$ACADMAINTVER
 70
     8
  9
$DWGCODEPAGE
  3
ANSI_1252
  9
$REQUIREDVERSIONS
160
                 0
  9
$COMMENTS
  1
File was created by Cadenas
  9
$CUSTOMPROPERTYTAG
  1
NN
  9
$CUSTOMPROPERTY
  1
Eccentric Collar Wide Slot Take Up Inch Bore
  9
$CUSTOMPROPERTYTAG
  1
NT
  9
$CUSTOMPROPERTY
  1
SXR Normal Duty Wide Slot Take-Up Bearings
  9
$CUSTOMPROPERTYTAG
  1
NB
  9
$CUSTOMPROPERTY
  1
058996
  9
$CUSTOMPROPERTYTAG
  1
NBSYN
  9
$CUSTOMPROPERTY
  1
$PN.
  9
$CUSTOMPROPERTYTAG
  1
LINA
  9
$CUSTOMPROPERTY
  1
058996
  9
$CUSTOMPROPERTYTAG
  1
SERIES
  9
$CUSTOMPROPERTY
  1
208
  9
$CUSTOMPROPERTYTAG
  1
SS
  9
$CUSTOMPROPERTY
  1
1-1/2
  9
$CUSTOMPROPERTYTAG
  1
PN
  9
$CUSTOMPROPERTY
  1
058996
  9
$CUSTOMPROPERTYTAG
  1
DESCRIPTION
  9
$CUSTOMPROPERTY
  1
WSTU-SXR-108-NL
  9
$CUSTOMPROPERTYTAG
  1
LF
  9
$CUSTOMPROPERTY
  1
NO-LUBE
  9
$CUSTOMPROPERTYTAG
  1
W
  9
$CUSTOMPROPERTY
  1
6.2
  9
$CUSTOMPROPERTYTAG
  1
FS
  9
$CUSTOMPROPERTY
  1
WS400
  9
$CUSTOMPROPERTYTAG
  1
A
  9
$CUSTOMPROPERTY
  1
2.12
  9
$CUSTOMPROPERTYTAG
  1
B
  9
$CUSTOMPROPERTY
  1
5.69
  9
$CUSTOMPROPERTYTAG
  1
C
  9
$CUSTOMPROPERTY
  1
0.688
  9
$CUSTOMPROPERTYTAG
  1
D
  9
$CUSTOMPROPERTY
  1
3.25
  9
$CUSTOMPROPERTYTAG
  1
E
  9
$CUSTOMPROPERTY
  1
3.50
  9
$CUSTOMPROPERTYTAG
  1
F
  9
$CUSTOMPROPERTY
  1
1
  9
$CUSTOMPROPERTYTAG
  1
G
  9
$CUSTOMPROPERTY
  1
0.63
  9
$CUSTOMPROPERTYTAG
  1
H
  9
$CUSTOMPROPERTY
  1
0.75
  9
$CUSTOMPROPERTYTAG
  1
J
  9
$CUSTOMPROPERTY
  1
3.25
  9
$CUSTOMPROPERTYTAG
  1
K
  9
$CUSTOMPROPERTY
  1
1.94
  9
$CUSTOMPROPERTYTAG
  1
L
  9
$CUSTOMPROPERTY
  1
2.38
  9
$CUSTOMPROPERTYTAG
  1
M
  9
$CUSTOMPROPERTY
  1
3.985/4.015
  9
$CUSTOMPROPERTYTAG
  1
N
  9
$CUSTOMPROPERTY
  1
4.50
  9
$CUSTOMPROPERTYTAG
  1
R
  9
$CUSTOMPROPERTY
  1
0.75
  9
$CUSTOMPROPERTYTAG
  1
S
  9
$CUSTOMPROPERTY
  1
1.37
  9
$CUSTOMPROPERTYTAG
  1
T
  9
$CUSTOMPROPERTY
  1
1.94
  9
$CUSTOMPROPERTYTAG
  1
COMPANY
  9
$CUSTOMPROPERTY
  1
baldor
  9
$INSBASE
 10
0.0
 20
0.0
 30
0.0
  9
$EXTMIN
 10
1.000000000000000E+20
 20
1.000000000000000E+20
 30
1.000000000000000E+20
  9
$EXTMAX
 10
-1.000000000000000E+20
 20
-1.000000000000000E+20
 30
-1.000000000000000E+20
  9
$LIMMIN
 10
0.0
 20
0.0
  9
$LIMMAX
 10
12.0
 20
9.0
  9
$ORTHOMODE
 70
     0
  9
$REGENMODE
 70
     1
  9
$FILLMODE
 70
     1
  9
$QTEXTMODE
 70
     0
  9
$MIRRTEXT
 70
     1
  9
$LTSCALE
 40
1.0
  9
$ATTMODE
 70
     1
  9
$TEXTSIZE
 40
0.2
  9
$TRACEWID
 40
0.05
  9
$TEXTSTYLE
  7
Standard
  9
$CLAYER
  8
0
  9
$CELTYPE
  6
ByLayer
  9
$CECOLOR
 62
   256
  9
$CELTSCALE
 40
1.0
  9
$DISPSILH
 70
     0
  9
$DIMSCALE
 40
1.0
  9
$DIMASZ
 40
0.18
  9
$DIMEXO
 40
0.0625
  9
$DIMDLI
 40
0.38
  9
$DIMRND
 40
0.0
  9
$DIMDLE
 40
0.0
  9
$DIMEXE
 40
0.18
  9
$DIMTP
 40
0.0
  9
$DIMTM
 40
0.0
  9
$DIMTXT
 40
0.18
  9
$DIMCEN
 40
0.09
  9
$DIMTSZ
 40
0.0
  9
$DIMTOL
 70
     0
  9
$DIMLIM
 70
     0
  9
$DIMTIH
 70
     1
  9
$DIMTOH
 70
     1
  9
$DIMSE1
 70
     0
  9
$DIMSE2
 70
     0
  9
$DIMTAD
 70
     0
  9
$DIMZIN
 70
     0
  9
$DIMBLK
  1

  9
$DIMASO
 70
     1
  9
$DIMSHO
 70
     1
  9
$DIMPOST
  1

  9
$DIMAPOST
  1

  9
$DIMALT
 70
     0
  9
$DIMALTD
 70
     2
  9
$DIMALTF
 40
25.4
  9
$DIMLFAC
 40
1.0
  9
$DIMTOFL
 70
     0
  9
$DIMTVP
 40
0.0
  9
$DIMTIX
 70
     0
  9
$DIMSOXD
 70
     0
  9
$DIMSAH
 70
     0
  9
$DIMBLK1
  1

  9
$DIMBLK2
  1

  9
$DIMSTYLE
  2
Standard
  9
$DIMCLRD
 70
     0
  9
$DIMCLRE
 70
     0
  9
$DIMCLRT
 70
     0
  9
$DIMTFAC
 40
1.0
  9
$DIMGAP
 40
0.09
  9
$DIMJUST
 70
     0
  9
$DIMSD1
 70
     0
  9
$DIMSD2
 70
     0
  9
$DIMTOLJ
 70
     1
  9
$DIMTZIN
 70
     0
  9
$DIMALTZ
 70
     0
  9
$DIMALTTZ
 70
     0
  9
$DIMUPT
 70
     0
  9
$DIMDEC
 70
     4
  9
$DIMTDEC
 70
     4
  9
$DIMALTU
 70
     2
  9
$DIMALTTD
 70
     2
  9
$DIMTXSTY
  7
Standard
  9
$DIMAUNIT
 70
     0
  9
$DIMADEC
 70
     0
  9
$DIMALTRND
 40
0.0
  9
$DIMAZIN
 70
     0
  9
$DIMDSEP
 70
    46
  9
$DIMATFIT
 70
     3
  9
$DIMFRAC
 70
     0
  9
$DIMLDRBLK
  1

  9
$DIMLUNIT
 70
     2
  9
$DIMLWD
 70
    -2
  9
$DIMLWE
 70
    -2
  9
$DIMTMOVE
 70
     0
  9
$DIMFXL
 40
1.0
  9
$DIMFXLON
 70
     0
  9
$DIMJOGANG
 40
0.7853981633974483
  9
$DIMTFILL
 70
     0
  9
$DIMTFILLCLR
 70
     0
  9
$DIMARCSYM
 70
     0
  9
$DIMLTYPE
  6

  9
$DIMLTEX1
  6

  9
$DIMLTEX2
  6

  9
$DIMTXTDIRECTION
 70
     0
  9
$LUNITS
 70
     2
  9
$LUPREC
 70
     4
  9
$SKETCHINC
 40
0.1
  9
$FILLETRAD
 40
0.5
  9
$AUNITS
 70
     0
  9
$AUPREC
 70
     0
  9
$MENU
  1
.
  9
$ELEVATION
 40
0.0
  9
$PELEVATION
 40
0.0
  9
$THICKNESS
 40
0.0
  9
$LIMCHECK
 70
     0
  9
$CHAMFERA
 40
0.0
  9
$CHAMFERB
 40
0.0
  9
$CHAMFERC
 40
0.0
  9
$CHAMFERD
 40
0.0
  9
$SKPOLY
 70
     0
  9
$TDCREATE
 40
2458168.980177442
  9
$TDUCREATE
 40
2458168.938510776
  9
$TDUPDATE
 40
2458168.980177627
  9
$TDUUPDATE
 40
2458168.93851096
  9
$TDINDWG
 40
0.0000000116
  9
$TDUSRTIMER
 40
0.0000000116
  9
$USRTIMER
 70
     1
  9
$ANGBASE
 50
0.0
  9
$ANGDIR
 70
     0
  9
$PDMODE
 70
     0
  9
$PDSIZE
 40
0.0
  9
$PLINEWID
 40
0.0
  9
$SPLFRAME
 70
     0
  9
$SPLINETYPE
 70
     6
  9
$SPLINESEGS
 70
     8
  9
$HANDSEED
  5
1C1
  9
$SURFTAB1
 70
     6
  9
$SURFTAB2
 70
     6
  9
$SURFTYPE
 70
     6
  9
$SURFU
 70
     6
  9
$SURFV
 70
     6
  9
$UCSBASE
  2

  9
$UCSNAME
  2

  9
$UCSORG
 10
0.0
 20
0.0
 30
0.0
  9
$UCSXDIR
 10
1.0
 20
0.0
 30
0.0
  9
$UCSYDIR
 10
0.0
 20
1.0
 30
0.0
  9
$UCSORTHOREF
  2

  9
$UCSORTHOVIEW
 70
     0
  9
$UCSORGTOP
 10
0.0
 20
0.0
 30
0.0
  9
$UCSORGBOTTOM
 10
0.0
 20
0.0
 30
0.0
  9
$UCSORGLEFT
 10
0.0
 20
0.0
 30
0.0
  9
$UCSORGRIGHT
 10
0.0
 20
0.0
 30
0.0
  9
$UCSORGFRONT
 10
0.0
 20
0.0
 30
0.0
  9
$UCSORGBACK
 10
0.0
 20
0.0
 30
0.0
  9
$PUCSBASE
  2

  9
$PUCSNAME
  2

  9
$PUCSORG
 10
0.0
 20
0.0
 30
0.0
  9
$PUCSXDIR
 10
1.0
 20
0.0
 30
0.0
  9
$PUCSYDIR
 10
0.0
 20
1.0
 30
0.0
  9
$PUCSORTHOREF
  2

  9
$PUCSORTHOVIEW
 70
     0
  9
$PUCSORGTOP
 10
0.0
 20
0.0
 30
0.0
  9
$PUCSORGBOTTOM
 10
0.0
 20
0.0
 30
0.0
  9
$PUCSORGLEFT
 10
0.0
 20
0.0
 30
0.0
  9
$PUCSORGRIGHT
 10
0.0
 20
0.0
 30
0.0
  9
$PUCSORGFRONT
 10
0.0
 20
0.0
 30
0.0
  9
$PUCSORGBACK
 10
0.0
 20
0.0
 30
0.0
  9
$USERI1
 70
     0
  9
$USERI2
 70
     0
  9
$USERI3
 70
     0
  9
$USERI4
 70
     0
  9
$USERI5
 70
     0
  9
$USERR1
 40
0.0
  9
$USERR2
 40
0.0
  9
$USERR3
 40
0.0
  9
$USERR4
 40
0.0
  9
$USERR5
 40
0.0
  9
$WORLDVIEW
 70
     1
  9
$SHADEDGE
 70
     3
  9
$SHADEDIF
 70
    70
  9
$TILEMODE
 70
     1
  9
$MAXACTVP
 70
    64
  9
$PINSBASE
 10
0.0
 20
0.0
 30
0.0
  9
$PLIMCHECK
 70
     0
  9
$PEXTMIN
 10
1.000000000000000E+20
 20
1.000000000000000E+20
 30
1.000000000000000E+20
  9
$PEXTMAX
 10
-1.000000000000000E+20
 20
-1.000000000000000E+20
 30
-1.000000000000000E+20
  9
$PLIMMIN
 10
0.0
 20
0.0
  9
$PLIMMAX
 10
12.0
 20
9.0
  9
$UNITMODE
 70
     0
  9
$VISRETAIN
 70
     1
  9
$PLINEGEN
 70
     0
  9
$PSLTSCALE
 70
     1
  9
$TREEDEPTH
 70
  3020
  9
$CMLSTYLE
  2
Standard
  9
$CMLJUST
 70
     0
  9
$CMLSCALE
 40
1.0
  9
$PROXYGRAPHICS
 70
     1
  9
$MEASUREMENT
 70
     0
  9
$CELWEIGHT
370
    -1
  9
$ENDCAPS
280
     0
  9
$JOINSTYLE
280
     0
  9
$LWDISPLAY
290
     0
  9
$INSUNITS
 70
     1
  9
$HYPERLINKBASE
  1

  9
$STYLESHEET
  1

  9
$XEDIT
290
     1
  9
$CEPSNTYPE
380
     0
  9
$PSTYLEMODE
290
     1
  9
$FINGERPRINTGUID
  2
{7DC980C7-0905-4551-A782-0FFFB12FEEC0}
  9
$VERSIONGUID
  2
{FAEB1C32-E019-11D5-929B-00C0DF256EC4}
  9
$EXTNAMES
290
     1
  9
$PSVPSCALE
 40
0.0
  9
$OLESTARTUP
290
     0
  9
$SORTENTS
280
   127
  9
$INDEXCTL
280
     0
  9
$HIDETEXT
280
     1
  9
$XCLIPFRAME
280
     2
  9
$HALOGAP
280
     0
  9
$OBSCOLOR
 70
   257
  9
$OBSLTYPE
280
     0
  9
$INTERSECTIONDISPLAY
280
     0
  9
$INTERSECTIONCOLOR
 70
   257
  9
$DIMASSOC
280
     2
  9
$PROJECTNAME
  1

  9
$CAMERADISPLAY
290
     0
  9
$LENSLENGTH
 40
50.0
  9
$CAMERAHEIGHT
 40
0.0
  9
$STEPSPERSEC
 40
2.0
  9
$STEPSIZE
 40
6.0
  9
$3DDWFPREC
 40
2.0
  9
$PSOLWIDTH
 40
0.25
  9
$PSOLHEIGHT
 40
4.0
  9
$LOFTANG1
 40
1.570796326794897
  9
$LOFTANG2
 40
1.570796326794897
  9
$LOFTMAG1
 40
0.0
  9
$LOFTMAG2
 40
0.0
  9
$LOFTPARAM
 70
     7
  9
$LOFTNORMALS
280
     1
  9
$LATITUDE
 40
37.795
  9
$LONGITUDE
 40
-122.394
  9
$NORTHDIRECTION
 40
0.0
  9
$TIMEZONE
 70
 -8000
  9
$LIGHTGLYPHDISPLAY
280
     1
  9
$TILEMODELIGHTSYNCH
280
     1
  9
$CMATERIAL
347
44
  9
$SOLIDHIST
280
     0
  9
$SHOWHIST
280
     1
  9
$DWFFRAME
280
     2
  9
$DGNFRAME
280
     2
  9
$REALWORLDSCALE
290
     1
  9
$INTERFERECOLOR
 62
   256
  9
$CSHADOW
280
     0
  9
$SHADOWPLANELOCATION
 40
0.0
  0
ENDSEC
  0
SECTION
  2
CLASSES
  0
CLASS
  1
ACDBDICTIONARYWDFLT
  2
AcDbDictionaryWithDefault
  3
ObjectDBX Classes
 90
        0
 91
        4
280
     0
281
     0
  0
CLASS
  1
VISUALSTYLE
  2
AcDbVisualStyle
  3
ObjectDBX Classes
 90
     4095
 91
        4
280
     0
281
     0
  0
CLASS
  1
MATERIAL
  2
AcDbMaterial
  3
ObjectDBX Classes
 90
     1153
 91
        4
280
     0
281
     0
  0
CLASS
  1
SCALE
  2
AcDbScale
  3
ObjectDBX Classes
 90
     1153
 91
        4
280
     0
281
     0
  0
CLASS
  1
TABLESTYLE
  2
AcDbTableStyle
  3
ObjectDBX Classes
 90
     4095
 91
        4
280
     0
281
     0
  0
CLASS
  1
MLEADERSTYLE
  2
AcDbMLeaderStyle
  3
ACDB_MLEADERSTYLE_CLASS
 90
     4095
 91
        4
280
     0
281
     0
  0
CLASS
  1
SUN
  2
AcDbSun
  3
SCENEOE
 90
     1153
 91
        4
280
     0
281
     0
  0
CLASS
  1
DICTIONARYVAR
  2
AcDbDictionaryVar
  3
ObjectDBX Classes
 90
        0
 91
        4
280
     0
281
     0
  0
CLASS
  1
CELLSTYLEMAP
  2
AcDbCellStyleMap
  3
ObjectDBX Classes
 90
     1152
 91
        4
280
     0
281
     0
  0
ENDSEC
  0
SECTION
  2
TABLES
  0
TABLE
  2
VPORT
  5
8
330
0
100
AcDbSymbolTable
 70
     1
  0
VPORT
  5
29
330
8
100
AcDbSymbolTableRecord
100
AcDbViewportTableRecord
  2
*Active
 70
     0
 10
0.0
 20
0.0
 11
1.0
 21
1.0
 12
-0.2530000000000001
 22
0.0
 13
0.0
 23
0.0
 14
0.5
 24
0.5
 15
0.5
 25
0.5
 16
0.0
 26
0.0
 36
1.0
 17
0.0
 27
0.0
 37
0.0
 40
4.59
 41
0.5435555555555559
 42
50.0
 43
0.0
 44
0.0
 50
0.0
 51
0.0
 71
     0
 72
   100
 73
     1
 74
     3
 75
     0
 76
     0
 77
     0
 78
     0
281
     0
 65
     1
110
0.0
120
0.0
130
0.0
111
1.0
121
0.0
131
0.0
112
0.0
122
1.0
132
0.0
 79
     0
146
0.0
348
2F
 60
     3
 61
     5
292
     1
282
     1
141
0.0
142
0.0
 63
   250
361
6D
  0
ENDTAB
  0
TABLE
  2
LTYPE
  5
5
330
0
100
AcDbSymbolTable
 70
     3
  0
LTYPE
  5
14
330
5
100
AcDbSymbolTableRecord
100
AcDbLinetypeTableRecord
  2
ByBlock
 70
     0
  3

 72
    65
 73
     0
 40
0.0
  0
LTYPE
  5
15
330
5
100
AcDbSymbolTableRecord
100
AcDbLinetypeTableRecord
  2
ByLayer
 70
     0
  3

 72
    65
 73
     0
 40
0.0
  0
LTYPE
  5
16
330
5
100
AcDbSymbolTableRecord
100
AcDbLinetypeTableRecord
  2
Continuous
 70
     0
  3
Solid line
 72
    65
 73
     0
 40
0.0
  0
LTYPE
  5
A8
330
5
100
AcDbSymbolTableRecord
100
AcDbLinetypeTableRecord
  2
Dashed
 70
     0
  3

 72
    65
 73
     2
 40
2.0
 49
1.0
 74
     0
 49
-1.0
 74
     0
  0
LTYPE
  5
E4
330
5
100
AcDbSymbolTableRecord
100
AcDbLinetypeTableRecord
  2
Center
 70
     0
  3

 72
    65
 73
     4
 40
1.5
 49
0.45
 74
     0
 49
-0.5
 74
     0
 49
0.05
 74
     0
 49
-0.5
 74
     0
  0
ENDTAB
  0
TABLE
  2
LAYER
  5
2
330
0
100
AcDbSymbolTable
 70
     7
  0
LAYER
  5
10
330
2
100
AcDbSymbolTableRecord
100
AcDbLayerTableRecord
  2
0
 70
     0
 62
     7
  6
Continuous
370
    -3
390
F
347
46
348
0
  0
LAYER
  5
72
330
2
100
AcDbSymbolTableRecord
100
AcDbLayerTableRecord
  2
AM_6
 70
     0
 62
    -2
  6
Continuous
370
    35
390
F
347
46
348
0
  0
LAYER
  5
A9
330
2
100
AcDbSymbolTableRecord
100
AcDbLayerTableRecord
  2
AM_9
 70
     0
 62
     6
  6
Dashed
370
    25
390
F
347
46
348
0
  0
LAYER
  5
E1
330
2
100
AcDbSymbolTableRecord
100
AcDbLayerTableRecord
  2
AM_5
 70
     0
 62
     3
  6
Continuous
370
    25
390
F
347
46
348
0
  0
LAYER
  5
E5
330
2
100
AcDbSymbolTableRecord
100
AcDbLayerTableRecord
  2
AM_7
 70
     0
 62
     7
  6
Center
370
    25
390
F
347
46
348
0
  0
LAYER
  5
E8
330
2
100
AcDbSymbolTableRecord
100
AcDbLayerTableRecord
  2
AM_4
 70
     0
 62
     7
  6
Continuous
370
    50
390
F
347
46
348
0
  0
LAYER
  5
1B4
330
2
100
AcDbSymbolTableRecord
100
AcDbLayerTableRecord
  2
ConnectionPoints
 70
     0
 62
     7
  6
Continuous
370
    50
390
F
347
46
348
0
  0
ENDTAB
  0
TABLE
  2
STYLE
  5
3
330
0
100
AcDbSymbolTable
 70
     1
  0
STYLE
  5
11
330
3
100
AcDbSymbolTableRecord
100
AcDbTextStyleTableRecord
  2
Standard
 70
     0
 40
0.0
 41
1.0
 50
0.0
 71
     0
 42
0.2
  3
txt
  4

  0
ENDTAB
  0
TABLE
  2
VIEW
  5
6
330
0
100
AcDbSymbolTable
 70
     0
  0
ENDTAB
  0
TABLE
  2
UCS
  5
7
330
0
100
AcDbSymbolTable
 70
     0
  0
ENDTAB
  0
TABLE
  2
APPID
  5
9
330
0
100
AcDbSymbolTable
 70
     1
  0
APPID
  5
12
330
9
100
AcDbSymbolTableRecord
100
AcDbRegAppTableRecord
  2
ACAD
 70
     0
  0
ENDTAB
  0
TABLE
  2
DIMSTYLE
  5
A
330
0
100
AcDbSymbolTable
 70
     1
100
AcDbDimStyleTable
  0
DIMSTYLE
105
27
330
A
100
AcDbSymbolTableRecord
100
AcDbDimStyleTableRecord
  2
Standard
 70
     0
178
     0
340
11
  0
ENDTAB
  0
TABLE
  2
BLOCK_RECORD
  5
1
330
0
100
AcDbSymbolTable
 70
     5
  0
BLOCK_RECORD
  5
1F
330
1
100
AcDbSymbolTableRecord
100
AcDbBlockTableRecord
  2
*Model_Space
340
22
 70
     0
280
     1
281
     0
  0
BLOCK_RECORD
  5
1B
330
1
100
AcDbSymbolTableRecord
100
AcDbBlockTableRecord
  2
*Paper_Space
340
1E
 70
     0
280
     1
281
     0
  0
BLOCK_RECORD
  5
23
330
1
100
AcDbSymbolTableRecord
100
AcDbBlockTableRecord
  2
*Paper_Space0
340
26
 70
     0
280
     1
281
     0
  0
BLOCK_RECORD
  5
6E
330
1
100
AcDbSymbolTableRecord
100
AcDbBlockTableRecord
  2
1_058996_2
340
0
102
{BLKREFS
331
6F
102
}
 70
     0
280
     1
281
     0
  0
BLOCK_RECORD
  5
90
330
1
100
AcDbSymbolTableRecord
100
AcDbBlockTableRecord
  2
2_131916_0_in_058996_2
340
0
102
{BLKREFS
331
91
102
}
 70
     0
280
     1
281
     0
  0
BLOCK_RECORD
  5
10B
330
1
100
AcDbSymbolTableRecord
100
AcDbBlockTableRecord
  2
3_430026_0_in_058996_2
340
0
102
{BLKREFS
331
10C
102
}
 70
     0
280
     1
281
     0
  0
BLOCK_RECORD
  5
12F
330
1
100
AcDbSymbolTableRecord
100
AcDbBlockTableRecord
  2
4_058996H_0_in_058996_2
340
0
102
{BLKREFS
331
130
102
}
 70
     0
280
     1
281
     0
  0
ENDTAB
  0
ENDSEC
  0
SECTION
  2
BLOCKS
  0
BLOCK
  5
20
330
1F
100
AcDbEntity
  8
0
100
AcDbBlockBegin
  2
*Model_Space
 70
     0
 10
0.0
 20
0.0
 30
0.0
  3
*Model_Space
  1

  0
ENDBLK
  5
21
330
1F
100
AcDbEntity
  8
0
100
AcDbBlockEnd
  0
BLOCK
  5
1C
330
1B
100
AcDbEntity
 67
     1
  8
0
100
AcDbBlockBegin
  2
*Paper_Space
 70
     0
 10
0.0
 20
0.0
 30
0.0
  3
*Paper_Space
  1

  0
ENDBLK
  5
1D
330
1B
100
AcDbEntity
 67
     1
  8
0
100
AcDbBlockEnd
  0
BLOCK
  5
24
330
23
100
AcDbEntity
  8
0
100
AcDbBlockBegin
  2
*Paper_Space0
 70
     0
 10
0.0
 20
0.0
 30
0.0
  3
*Paper_Space0
  1

  0
ENDBLK
  5
25
330
23
100
AcDbEntity
  8
0
100
AcDbBlockEnd
  0
BLOCK
  5
70
330
6E
100
AcDbEntity
  8
0
100
AcDbBlockBegin
  2
1_058996_2
 70
     2
 10
0.0
 20
0.0
 30
0.0
  3
1_058996_2
  1

  0
ATTDEF
  5
73
330
6E
100
AcDbEntity
  8
AM_6
100
AcDbText
 10
5.970000000000001
 20
2.25
 30
0.0
 40
0.5
  1
Eccentric Collar Wide Slot Take Up Inch Bore
100
AcDbAttributeDefinition
  3

  2
NN
 70
     8
280
     0
  0
ATTDEF
  5
74
330
6E
100
AcDbEntity
  8
AM_6
100
AcDbText
 10
5.970000000000001
 20
1.75
 30
0.0
 40
0.5
  1
SXR Normal Duty Wide Slot Take-Up Bearings
100
AcDbAttributeDefinition
  3

  2
NT
 70
     8
280
     0
  0
ATTDEF
  5
75
330
6E
100
AcDbEntity
  8
AM_6
100
AcDbText
 10
5.970000000000001
 20
1.25
 30
0.0
 40
0.5
  1
058996
100
AcDbAttributeDefinition
  3

  2
NB
 70
     8
280
     0
  0
ATTDEF
  5
76
330
6E
100
AcDbEntity
  8
AM_6
100
AcDbText
 10
5.970000000000001
 20
0.7500000000000004
 30
0.0
 40
0.5
  1
$PN.
100
AcDbAttributeDefinition
  3

  2
NBSYN
 70
     8
280
     0
  0
ATTDEF
  5
77
330
6E
100
AcDbEntity
  8
AM_6
100
AcDbText
 10
5.970000000000001
 20
0.2500000000000004
 30
0.0
 40
0.5
  1
058996
100
AcDbAttributeDefinition
  3

  2
LINA
 70
     8
280
     0
  0
ATTDEF
  5
78
330
6E
100
AcDbEntity
  8
AM_6
100
AcDbText
 10
5.970000000000001
 20
-0.2499999999999996
 30
0.0
 40
0.5
  1
208
100
AcDbAttributeDefinition
  3

  2
SERIES
 70
     8
280
     0
  0
ATTDEF
  5
79
330
6E
100
AcDbEntity
  8
AM_6
100
AcDbText
 10
5.970000000000001
 20
-0.7499999999999996
 30
0.0
 40
0.5
  1
1-1/2
100
AcDbAttributeDefinition
  3

  2
SS
 70
     8
280
     0
  0
ATTDEF
  5
7A
330
6E
100
AcDbEntity
  8
AM_6
100
AcDbText
 10
5.970000000000001
 20
-1.25
 30
0.0
 40
0.5
  1
058996
100
AcDbAttributeDefinition
  3

  2
PN
 70
     8
280
     0
  0
ATTDEF
  5
7B
330
6E
100
AcDbEntity
  8
AM_6
100
AcDbText
 10
5.970000000000001
 20
-1.75
 30
0.0
 40
0.5
  1
WSTU-SXR-108-NL
100
AcDbAttributeDefinition
  3

  2
DESCRIPTION
 70
     8
280
     0
  0
ATTDEF
  5
7C
330
6E
100
AcDbEntity
  8
AM_6
100
AcDbText
 10
5.970000000000001
 20
-2.25
 30
0.0
 40
0.5
  1
NO-LUBE
100
AcDbAttributeDefinition
  3

  2
LF
 70
     8
280
     0
  0
ATTDEF
  5
7D
330
6E
100
AcDbEntity
  8
AM_6
100
AcDbText
 10
5.970000000000001
 20
-2.75
 30
0.0
 40
0.5
  1
6.2
100
AcDbAttributeDefinition
  3

  2
W
 70
     8
280
     0
  0
ATTDEF
  5
7E
330
6E
100
AcDbEntity
  8
AM_6
100
AcDbText
 10
5.970000000000001
 20
-3.25
 30
0.0
 40
0.5
  1
WS400
100
AcDbAttributeDefinition
  3

  2
FS
 70
     8
280
     0
  0
ATTDEF
  5
7F
330
6E
100
AcDbEntity
  8
AM_6
100
AcDbText
 10
5.970000000000001
 20
-3.75
 30
0.0
 40
0.5
  1
2.12
100
AcDbAttributeDefinition
  3

  2
A
 70
     8
280
     0
  0
ATTDEF
  5
80
330
6E
100
AcDbEntity
  8
AM_6
100
AcDbText
 10
5.970000000000001
 20
-4.25
 30
0.0
 40
0.5
  1
5.69
100
AcDbAttributeDefinition
  3

  2
B
 70
     8
280
     0
  0
ATTDEF
  5
81
330
6E
100
AcDbEntity
  8
AM_6
100
AcDbText
 10
5.970000000000001
 20
-4.75
 30
0.0
 40
0.5
  1
0.688
100
AcDbAttributeDefinition
  3

  2
C
 70
     8
280
     0
  0
ATTDEF
  5
82
330
6E
100
AcDbEntity
  8
AM_6
100
AcDbText
 10
5.970000000000001
 20
-5.25
 30
0.0
 40
0.5
  1
3.25
100
AcDbAttributeDefinition
  3

  2
D
 70
     8
280
     0
  0
ATTDEF
  5
83
330
6E
100
AcDbEntity
  8
AM_6
100
AcDbText
 10
5.970000000000001
 20
-5.75
 30
0.0
 40
0.5
  1
3.50
100
AcDbAttributeDefinition
  3

  2
E
 70
     8
280
     0
  0
ATTDEF
  5
84
330
6E
100
AcDbEntity
  8
AM_6
100
AcDbText
 10
5.970000000000001
 20
-6.25
 30
0.0
 40
0.5
  1
1
100
AcDbAttributeDefinition
  3

  2
F
 70
     8
280
     0
  0
ATTDEF
  5
85
330
6E
100
AcDbEntity
  8
AM_6
100
AcDbText
 10
5.970000000000001
 20
-6.75
 30
0.0
 40
0.5
  1
0.63
100
AcDbAttributeDefinition
  3

  2
G
 70
     8
280
     0
  0
ATTDEF
  5
86
330
6E
100
AcDbEntity
  8
AM_6
100
AcDbText
 10
5.970000000000001
 20
-7.25
 30
0.0
 40
0.5
  1
0.75
100
AcDbAttributeDefinition
  3

  2
H
 70
     8
280
     0
  0
ATTDEF
  5
87
330
6E
100
AcDbEntity
  8
AM_6
100
AcDbText
 10
5.970000000000001
 20
-7.75
 30
0.0
 40
0.5
  1
3.25
100
AcDbAttributeDefinition
  3

  2
J
 70
     8
280
     0
  0
ATTDEF
  5
88
330
6E
100
AcDbEntity
  8
AM_6
100
AcDbText
 10
5.970000000000001
 20
-8.25
 30
0.0
 40
0.5
  1
1.94
100
AcDbAttributeDefinition
  3

  2
K
 70
     8
280
     0
  0
ATTDEF
  5
89
330
6E
100
AcDbEntity
  8
AM_6
100
AcDbText
 10
5.970000000000001
 20
-8.75
 30
0.0
 40
0.5
  1
2.38
100
AcDbAttributeDefinition
  3

  2
L
 70
     8
280
     0
  0
ATTDEF
  5
8A
330
6E
100
AcDbEntity
  8
AM_6
100
AcDbText
 10
5.970000000000001
 20
-9.25
 30
0.0
 40
0.5
  1
3.985/4.015
100
AcDbAttributeDefinition
  3

  2
M
 70
     8
280
     0
  0
ATTDEF
  5
8B
330
6E
100
AcDbEntity
  8
AM_6
100
AcDbText
 10
5.970000000000001
 20
-9.75
 30
0.0
 40
0.5
  1
4.50
100
AcDbAttributeDefinition
  3

  2
N
 70
     8
280
     0
  0
ATTDEF
  5
8C
330
6E
100
AcDbEntity
  8
AM_6
100
AcDbText
 10
5.970000000000001
 20
-10.25
 30
0.0
 40
0.5
  1
0.75
100
AcDbAttributeDefinition
  3

  2
R
 70
     8
280
     0
  0
ATTDEF
  5
8D
330
6E
100
AcDbEntity
  8
AM_6
100
AcDbText
 10
5.970000000000001
 20
-10.75
 30
0.0
 40
0.5
  1
1.37
100
AcDbAttributeDefinition
  3

  2
S
 70
     8
280
     0
  0
ATTDEF
  5
8E
330
6E
100
AcDbEntity
  8
AM_6
100
AcDbText
 10
5.970000000000001
 20
-11.25
 30
0.0
 40
0.5
  1
1.94
100
AcDbAttributeDefinition
  3

  2
T
 70
     8
280
     0
  0
ATTDEF
  5
8F
330
6E
100
AcDbEntity
  8
AM_6
100
AcDbText
 10
5.970000000000001
 20
-11.75
 30
0.0
 40
0.5
  1
baldor
100
AcDbAttributeDefinition
  3

  2
COMPANY
 70
     8
280
     0
  0
INSERT
  5
91
330
6E
100
AcDbEntity
  8
0
100
AcDbBlockReference
  2
2_131916_0_in_058996_2
 10
0.0
 20
0.0
 30
0.0
  0
INSERT
  5
10C
330
6E
100
AcDbEntity
  8
0
100
AcDbBlockReference
  2
3_430026_0_in_058996_2
 10
0.0
 20
0.0
 30
0.0
  0
INSERT
  5
130
330
6E
100
AcDbEntity
  8
0
100
AcDbBlockReference
  2
4_058996H_0_in_058996_2
 10
0.0
 20
0.0
 30
0.0
  0
ENDBLK
  5
71
330
6E
100
AcDbEntity
  8
0
100
AcDbBlockEnd
  0
BLOCK
  5
92
330
90
100
AcDbEntity
  8
0
100
AcDbBlockBegin
  2
2_131916_0_in_058996_2
 70
     2
 10
0.0
 20
0.0
 30
0.0
  3
2_131916_0_in_058996_2
  1

  0
ATTDEF
  5
94
330
90
100
AcDbEntity
  8
AM_6
100
AcDbText
 10
5.856
 20
1.573721134375439
 30
0.0
 40
0.5
  1
Eccentric Collar Insert Inch Bore
100
AcDbAttributeDefinition
  3

  2
NN
 70
     8
280
     0
  0
ATTDEF
  5
95
330
90
100
AcDbEntity
  8
AM_6
100
AcDbText
 10
5.856
 20
1.073721134375439
 30
0.0
 40
0.5
  1
SXR Normal Duty Bearing Inserts
100
AcDbAttributeDefinition
  3

  2
NT
 70
     8
280
     0
  0
ATTDEF
  5
96
330
90
100
AcDbEntity
  8
AM_6
100
AcDbText
 10
5.856
 20
0.5737211343754391
 30
0.0
 40
0.5
  1
131916
100
AcDbAttributeDefinition
  3

  2
NB
 70
     8
280
     0
  0
ATTDEF
  5
97
330
90
100
AcDbEntity
  8
AM_6
100
AcDbText
 10
5.856
 20
0.0737211343754391
 30
0.0
 40
0.5
  1
$PN.
100
AcDbAttributeDefinition
  3

  2
NBSYN
 70
     8
280
     0
  0
ATTDEF
  5
98
330
90
100
AcDbEntity
  8
AM_6
100
AcDbText
 10
5.856
 20
-0.4262788656245609
 30
0.0
 40
0.5
  1
131916
100
AcDbAttributeDefinition
  3

  2
LINA
 70
     8
280
     0
  0
ATTDEF
  5
99
330
90
100
AcDbEntity
  8
AM_6
100
AcDbText
 10
5.856
 20
-0.9262788656245609
 30
0.0
 40
0.5
  1
208
100
AcDbAttributeDefinition
  3

  2
SERIES
 70
     8
280
     0
  0
ATTDEF
  5
9A
330
90
100
AcDbEntity
  8
AM_6
100
AcDbText
 10
5.856
 20
-1.426278865624561
 30
0.0
 40
0.5
  1
1-1/2
100
AcDbAttributeDefinition
  3

  2
SS
 70
     8
280
     0
  0
ATTDEF
  5
9B
330
90
100
AcDbEntity
  8
AM_6
100
AcDbText
 10
5.856
 20
-1.926278865624561
 30
0.0
 40
0.5
  1
131916
100
AcDbAttributeDefinition
  3

  2
PN
 70
     8
280
     0
  0
ATTDEF
  5
9C
330
90
100
AcDbEntity
  8
AM_6
100
AcDbText
 10
5.856
 20
-2.426278865624561
 30
0.0
 40
0.5
  1
INS-SXR-108
100
AcDbAttributeDefinition
  3

  2
DESCRIPTION
 70
     8
280
     0
  0
ATTDEF
  5
9D
330
90
100
AcDbEntity
  8
AM_6
100
AcDbText
 10
5.856
 20
-2.926278865624561
 30
0.0
 40
0.5
  1
1.7
100
AcDbAttributeDefinition
  3

  2
WEIGHT
 70
     8
280
     0
  0
ATTDEF
  5
9E
330
90
100
AcDbEntity
  8
AM_6
100
AcDbText
 10
5.856
 20
-3.426278865624561
 30
0.0
 40
0.5
  1
2.12
100
AcDbAttributeDefinition
  3

  2
A
 70
     8
280
     0
  0
ATTDEF
  5
9F
330
90
100
AcDbEntity
  8
AM_6
100
AcDbText
 10
5.856
 20
-3.926278865624561
 30
0.0
 40
0.5
  1
0.87
100
AcDbAttributeDefinition
  3

  2
C
 70
     8
280
     0
  0
ATTDEF
  5
A0
330
90
100
AcDbEntity
  8
AM_6
100
AcDbText
 10
5.856
 20
-4.42627886562456
 30
0.0
 40
0.5
  1
3.1496
100
AcDbAttributeDefinition
  3

  2
D
 70
     8
280
     0
  0
ATTDEF
  5
A1
330
90
100
AcDbEntity
  8
AM_6
100
AcDbText
 10
5.856
 20
-4.92627886562456
 30
0.0
 40
0.5
  1
0.22
100
AcDbAttributeDefinition
  3

  2
J
 70
     8
280
     0
  0
ATTDEF
  5
A2
330
90
100
AcDbEntity
  8
AM_6
100
AcDbText
 10
5.856
 20
-5.42627886562456
 30
0.0
 40
0.5
  1
2.38
100
AcDbAttributeDefinition
  3

  2
L
 70
     8
280
     0
  0
ATTDEF
  5
A3
330
90
100
AcDbEntity
  8
AM_6
100
AcDbText
 10
5.856
 20
-5.92627886562456
 30
0.0
 40
0.5
  1
5/16 - 24
100
AcDbAttributeDefinition
  3

  2
N
 70
     8
280
     0
  0
ATTDEF
  5
A4
330
90
100
AcDbEntity
  8
AM_6
100
AcDbText
 10
5.856
 20
-6.42627886562456
 30
0.0
 40
0.5
  1
0.75
100
AcDbAttributeDefinition
  3

  2
W
 70
     8
280
     0
  0
ATTDEF
  5
A5
330
90
100
AcDbEntity
  8
AM_6
100
AcDbText
 10
5.856
 20
-6.92627886562456
 30
0.0
 40
0.5
  1
1.37
100
AcDbAttributeDefinition
  3

  2
Y
 70
     8
280
     0
  0
ATTDEF
  5
A6
330
90
100
AcDbEntity
  8
AM_6
100
AcDbText
 10
5.856
 20
-7.42627886562456
 30
0.0
 40
0.5
  1
2.05
100
AcDbAttributeDefinition
  3

  2
Z
 70
     8
280
     0
  0
ATTDEF
  5
A7
330
90
100
AcDbEntity
  8
AM_6
100
AcDbText
 10
5.856
 20
-7.92627886562456
 30
0.0
 40
0.5
  1
baldor
100
AcDbAttributeDefinition
  3

  2
COMPANY
 70
     8
280
     0
  0
LINE
  5
AA
330
90
100
AcDbEntity
  8
AM_9
100
AcDbLine
 10
-0.9962750000000001
 20
1.185547392342629
 30
0.0
 11
-0.9918223923426287
 21
1.19
 31
0.0
  0
LINE
  5
AB
330
90
100
AcDbEntity
  8
AM_9
100
AcDbLine
 10
-1.279427607657372
 20
1.19
 30
0.0
 11
-1.274975
 21
1.185547392342629
 31
0.0
  0
LINE
  5
AC
330
90
100
AcDbEntity
  8
AM_9
100
AcDbLine
 10
-1.041598184726873
 20
1.185547392342627
 30
0.0
 11
-0.9962750000000001
 21
1.185547392342629
 31
0.0
  0
LINE
  5
AD
330
90
100
AcDbEntity
  8
AM_9
100
AcDbLine
 10
-0.9962750000000001
 20
0.7500000000000001
 30
0.0
 11
-0.9962750000000001
 21
1.185547392342629
 31
0.0
  0
LINE
  5
AE
330
90
100
AcDbEntity
  8
AM_9
100
AcDbLine
 10
-1.274975
 20
1.185547392342629
 30
0.0
 11
-1.274975
 21
0.7499999999999999
 31
0.0
  0
LINE
  5
AF
330
90
100
AcDbEntity
  8
AM_9
100
AcDbLine
 10
-1.274975
 20
1.185547392342629
 30
0.0
 11
-1.229651815273126
 21
1.185547392342629
 31
0.0
  0
LINE
  5
B0
330
90
100
AcDbEntity
  8
AM_9
100
AcDbLine
 10
-0.8889463420073541
 20
-0.7499999999999999
 30
0.0
 11
0.7326000000000003
 21
-0.7499999999999999
 31
0.0
  0
LINE
  5
B1
330
90
100
AcDbEntity
  8
AM_9
100
AcDbLine
 10
0.7326000000000003
 20
0.7499999999999999
 30
0.0
 11
-0.8889463420073541
 21
0.7499999999999999
 31
0.0
  0
LWPOLYLINE
  5
B2
330
90
100
AcDbEntity
  8
AM_9
100
AcDbPolyline
 90
       20
 70
     0
 43
0.0
 10
-1.274975
 20
0.7500000000000001
 10
-1.273090433494813
 20
0.7496521345970524
 10
-1.267274968187113
 20
0.7486075685054673
 10
-1.258032725876786
 20
0.7470376355005994
 10
-1.245111276797614
 20
0.7450294103637816
 10
-1.229396427614476
 20
0.7428826678129304
 10
-1.210552895890371
 20
0.7407400131507399
 10
-1.189969416555532
 20
0.7389417386443677
 10
-1.167165012047747
 20
0.7376153129240011
 10
-1.144359891786029
 20
0.7369924530376913
 10
-1.120622679771215
 20
0.7370933774714349
 10
-1.098273721512171
 20
0.7378866413648343
 10
-1.076354184046854
 20
0.7393203683950226
 10
-1.056550526338815
 20
0.7411709316242735
 10
-1.038423298001139
 20
0.7433234480167268
 10
-1.023227173884528
 20
0.7454628420085632
 10
-1.010826664995065
 20
0.7474330752114225
 10
-1.002261638300739
 20
0.7489107849027999
 10
-0.9973120566284892
 20
0.7498080072952613
 10
-0.996275000000883
 20
0.749999999999836
  0
LINE
  5
B3
330
90
100
AcDbEntity
  8
AM_9
100
AcDbLine
 10
-1.3526
 20
-0.7500000000000001
 30
0.0
 11
-0.9135536579926455
 21
-0.7500000000000001
 31
0.0
  0
LINE
  5
B4
330
90
100
AcDbEntity
  8
AM_9
100
AcDbLine
 10
-0.9135536579926455
 20
0.7500000000000001
 30
0.0
 11
-0.9962750000000001
 21
0.7500000000000001
 31
0.0
  0
LINE
  5
B5
330
90
100
AcDbEntity
  8
AM_9
100
AcDbLine
 10
-1.274975
 20
0.7500000000000001
 30
0.0
 11
-1.3526
 21
0.7500000000000001
 31
0.0
  0
LINE
  5
B6
330
90
100
AcDbEntity
  8
AM_9
100
AcDbLine
 10
-0.8889463420073541
 20
0.7500000000000001
 30
0.0
 11
-0.9012500000000001
 21
0.762303657992646
 31
0.0
  0
LINE
  5
B7
330
90
100
AcDbEntity
  8
AM_9
100
AcDbLine
 10
-0.9012500000000001
 20
-0.762303657992646
 30
0.0
 11
-0.8889463420073541
 21
-0.7500000000000001
 31
0.0
  0
LINE
  5
B8
330
90
100
AcDbEntity
  8
AM_9
100
AcDbLine
 10
-0.8889463420073541
 20
0.7500000000000001
 30
0.0
 11
-0.8889463420073541
 21
-0.7500000000000001
 31
0.0
  0
LINE
  5
B9
330
90
100
AcDbEntity
  8
AM_9
100
AcDbLine
 10
-0.9135536579926455
 20
-0.7500000000000001
 30
0.0
 11
-0.9012500000000001
 21
-0.762303657992646
 31
0.0
  0
LINE
  5
BA
330
90
100
AcDbEntity
  8
AM_9
100
AcDbLine
 10
-0.9012500000000001
 20
0.762303657992646
 30
0.0
 11
-0.9135536579926455
 21
0.7500000000000001
 31
0.0
  0
LINE
  5
BB
330
90
100
AcDbEntity
  8
AM_9
100
AcDbLine
 10
-0.9012500000000001
 20
0.762303657992646
 30
0.0
 11
-0.9012500000000001
 21
-0.762303657992646
 31
0.0
  0
LINE
  5
BC
330
90
100
AcDbEntity
  8
AM_9
100
AcDbLine
 10
-0.9135536579926455
 20
0.7500000000000001
 30
0.0
 11
-0.9135536579926455
 21
-0.7500000000000001
 31
0.0
  0
LINE
  5
BD
330
90
100
AcDbEntity
  8
AM_9
100
AcDbLine
 10
0.7326000000000003
 20
-0.7499999999999999
 30
0.0
 11
0.7499999999999999
 21
-0.7674
 31
0.0
  0
LINE
  5
BE
330
90
100
AcDbEntity
  8
AM_9
100
AcDbLine
 10
0.7499999999999999
 20
0.7674
 30
0.0
 11
0.7326000000000003
 21
0.7499999999999999
 31
0.0
  0
LINE
  5
BF
330
90
100
AcDbEntity
  8
AM_9
100
AcDbLine
 10
-1.3526
 20
0.7500000000000001
 30
0.0
 11
-1.37
 21
0.7674000000000001
 31
0.0
  0
LINE
  5
C0
330
90
100
AcDbEntity
  8
AM_9
100
AcDbLine
 10
-1.37
 20
-0.7674000000000001
 30
0.0
 11
-1.3526
 21
-0.7500000000000001
 31
0.0
  0
LINE
  5
C1
330
90
100
AcDbEntity
  8
AM_9
100
AcDbLine
 10
-1.3526
 20
0.7500000000000001
 30
0.0
 11
-1.3526
 21
-0.7500000000000001
 31
0.0
  0
LINE
  5
C2
330
90
100
AcDbEntity
  8
AM_9
100
AcDbLine
 10
0.435
 20
-1.025
 30
0.0
 11
0.5848
 21
-1.025
 31
0.0
  0
LINE
  5
C3
330
90
100
AcDbEntity
  8
AM_9
100
AcDbLine
 10
0.5848000000000003
 20
1.025
 30
0.0
 11
0.435
 21
1.025
 31
0.0
  0
LINE
  5
C4
330
90
100
AcDbEntity
  8
AM_9
100
AcDbLine
 10
-0.8075000000000003
 20
0.5374418573203983
 30
0.0
 11
-0.8075000000000003
 21
-0.5374418573203983
 31
0.0
  0
LINE
  5
C5
330
90
100
AcDbEntity
  8
AM_9
100
AcDbLine
 10
0.7326
 20
0.6357650824007244
 30
0.0
 11
0.7326
 21
-0.6357650824007244
 31
0.0
  0
LINE
  5
C6
330
90
100
AcDbEntity
  8
AM_9
100
AcDbLine
 10
0.7499999999999999
 20
0.6151422599691878
 30
0.0
 11
0.7499999999999999
 21
-0.6151422599691878
 31
0.0
  0
LINE
  5
C7
330
90
100
AcDbEntity
  8
AM_9
100
AcDbLine
 10
-0.5847999999999998
 20
-1.025
 30
0.0
 11
-0.435
 21
-1.025
 31
0.0
  0
LINE
  5
C8
330
90
100
AcDbEntity
  8
AM_9
100
AcDbLine
 10
-0.435
 20
1.025
 30
0.0
 11
-0.5847999999999998
 21
1.025
 31
0.0
  0
LINE
  5
C9
330
90
100
AcDbEntity
  8
AM_9
100
AcDbLine
 10
-0.7901000000000004
 20
0.5627095076502611
 30
0.0
 11
-0.7901000000000004
 21
-0.5627095076502611
 31
0.0
  0
LINE
  5
CA
330
90
100
AcDbEntity
  8
AM_9
100
AcDbLine
 10
-0.8387499999999999
 20
0.4872355051717803
 30
0.0
 11
-0.8387499999999999
 21
-0.4872355051717803
 31
0.0
  0
LINE
  5
CB
330
90
100
AcDbEntity
  8
AM_9
100
AcDbLine
 10
-0.8778125
 20
0.4127289847390776
 30
0.0
 11
-0.8778125
 21
-0.4127289847390776
 31
0.0
  0
LINE
  5
CC
330
90
100
AcDbEntity
  8
AM_9
100
AcDbLine
 10
-0.264
 20
-1.499809523809524
 30
0.0
 11
-0.176
 21
-1.499809523809524
 31
0.0
  0
LINE
  5
CD
330
90
100
AcDbEntity
  8
AM_9
100
AcDbLine
 10
-0.176
 20
1.499809523809524
 30
0.0
 11
-0.264
 21
1.499809523809524
 31
0.0
  0
LINE
  5
CE
330
90
100
AcDbEntity
  8
AM_9
100
AcDbLine
 10
-0.4350000000000002
 20
1.487091106825684
 30
0.0
 11
-0.4350000000000002
 21
-1.487091106825684
 31
0.0
  0
ARC
  5
CF
330
90
100
AcDbEntity
  8
AM_9
100
AcDbCircle
 10
-0.4001999999999997
 20
-1.487091106825684
 30
0.0
 40
0.0348000000000004
100
AcDbArc
 50
180.0
 51
254.9375946795574
  0
ARC
  5
D0
330
90
100
AcDbEntity
  8
AM_9
100
AcDbCircle
 10
-0.4001999999999997
 20
1.487091106825684
 30
0.0
 40
0.0348000000000003
100
AcDbArc
 50
105.0624053204425
 51
180.0
  0
LINE
  5
D1
330
90
100
AcDbEntity
  8
AM_9
100
AcDbLine
 10
0.435
 20
1.487091106825671
 30
0.0
 11
0.435
 21
-1.487091106825671
 31
0.0
  0
ARC
  5
D2
330
90
100
AcDbEntity
  8
AM_9
100
AcDbCircle
 10
0.4002000000000003
 20
-1.487091106825671
 30
0.0
 40
0.0347999999999998
100
AcDbArc
 50
285.0623562529855
 51
0.0
  0
ARC
  5
D3
330
90
100
AcDbEntity
  8
AM_9
100
AcDbCircle
 10
0.4002000000000003
 20
1.487091106825671
 30
0.0
 40
0.0347999999999997
100
AcDbArc
 50
0.0
 51
74.93764374701445
  0
ARC
  5
D4
330
90
100
AcDbEntity
  8
AM_9
100
AcDbCircle
 10
0.000000000000082
 20
-0.0000000000003617
 30
0.0
 40
1.574800000000371
100
AcDbArc
 50
99.65065140690025
 51
105.0623573372802
  0
ARC
  5
D5
330
90
100
AcDbEntity
  8
AM_9
100
AcDbCircle
 10
-0.000000000082015
 20
-0.0000000003748306
 30
0.0
 40
1.574799999617157
100
AcDbArc
 50
254.9376426620609
 51
260.3493485937587
  0
LINE
  5
D6
330
90
100
AcDbEntity
  8
AM_9
100
AcDbLine
 10
-0.4092435092979014
 20
1.520695495520894
 30
0.0
 11
-0.4092435092979014
 21
-1.520695495521332
 31
0.0
  0
LINE
  5
D7
330
90
100
AcDbEntity
  8
AM_9
100
AcDbLine
 10
-0.264
 20
1.552513780937226
 30
0.0
 11
-0.264
 21
-1.552513780937664
 31
0.0
  0
LWPOLYLINE
  5
D8
330
90
100
AcDbEntity
  8
AM_9
100
AcDbPolyline
 90
        7
 70
     0
 43
0.0
 10
0.3241580020794071
 20
-0.0013435204764645
 10
0.3240963167832804
 20
-0.0035272304314799
 10
0.3220621618140694
 20
-0.0208328963488796
 10
0.3171740140442103
 20
-0.0374933972899023
 10
0.3096144767642391
 20
-0.0531031072416304
 10
0.3016354424554604
 20
-0.0646949798558378
 10
0.2921862373738083
 20
-0.0750988786750967
  0
LINE
  5
D9
330
90
100
AcDbEntity
  8
AM_9
100
AcDbLine
 10
0.3241281654835012
 20
0.0028318893843256
 30
0.0
 11
0.3241580020794071
 21
-0.0013435204764645
 31
0.0
  0
LWPOLYLINE
  5
DA
330
90
100
AcDbEntity
  8
AM_9
100
AcDbPolyline
 90
        6
 70
     0
 43
0.0
 10
0.2921862373738018
 20
0.0750988786751029
 10
0.303676962841995
 20
0.0620218931845225
 10
0.3128590308851202
 20
0.0472005807964346
 10
0.3194413432842041
 20
0.0309818655682491
 10
0.3232380048910289
 20
0.0138783569115491
 10
0.3241281654835012
 20
0.0028318893843256
  0
ARC
  5
DB
330
90
100
AcDbEntity
  8
AM_9
100
AcDbCircle
 10
-0.0000000000000021
 20
-0.0000000000000087
 30
0.0
 40
1.574800000000009
100
AcDbArc
 50
74.93764374701396
 51
96.41679470347243
  0
ARC
  5
DC
330
90
100
AcDbEntity
  8
AM_9
100
AcDbCircle
 10
0.0000000000000402
 20
-0.000000000000552
 30
0.0
 40
1.574799999999466
100
AcDbArc
 50
263.5832052965238
 51
285.0623562529897
  0
LINE
  5
DD
330
90
100
AcDbEntity
  8
AM_9
100
AcDbLine
 10
-0.1759999999999997
 20
1.564934196699657
 30
0.0
 11
-0.1759999999999997
 21
-1.564934196699667
 31
0.0
  0
LINE
  5
DE
330
90
100
AcDbEntity
  8
AM_9
100
AcDbLine
 10
0.4092434805194804
 20
1.520695503265628
 30
0.0
 11
0.4092434805194804
 21
-1.520695503265638
 31
0.0
  0
ELLIPSE
  5
DF
330
90
100
AcDbEntity
  8
AM_9
100
AcDbEllipse
 10
0.2214334287009282
 20
0.0000000000000001
 30
0.0
 11
-1.904365008022211E-17
 21
-0.1036688025395351
 31
0.0
210
0.0
220
0.0
230
1.0
 40
0.9900215309330378
 41
2.380976739915129
 42
7.043801220854338
  0
ARC
  5
E0
330
90
100
AcDbEntity
  8
AM_9
100
AcDbCircle
 10
0.2199999999999963
 20
0.0
 30
0.0
 40
0.1041666666666705
100
AcDbArc
 50
313.8670932331738
 51
46.13290676683111
  0
LINE
  5
E2
330
90
100
AcDbEntity
  8
AM_5
100
AcDbLine
 10
-0.9793750000000001
 20
0.7500000000000001
 30
0.0
 11
-0.9793750000000001
 21
1.19
 31
0.0
  0
LINE
  5
E3
330
90
100
AcDbEntity
  8
AM_5
100
AcDbLine
 10
-1.291875
 20
0.7500000000000001
 30
0.0
 11
-1.291875
 21
1.19
 31
0.0
  0
LINE
  5
E6
330
90
100
AcDbEntity
  8
AM_7
100
AcDbLine
 10
-1.476
 20
0.0
 30
0.0
 11
0.8559999999999999
 21
0.0
 31
0.0
  0
LINE
  5
E7
330
90
100
AcDbEntity
  8
AM_7
100
AcDbLine
 10
-1.135625
 20
1.227030091352556
 30
0.0
 11
-1.135625
 21
0.6862107131341665
 31
0.0
  0
LINE
  5
E9
330
90
100
AcDbEntity
  8
AM_4
100
AcDbLine
 10
-0.8387499999999999
 20
-0.976190476190476
 30
0.0
 11
-0.8075000000000001
 21
-0.976190476190476
 31
0.0
  0
LINE
  5
EA
330
90
100
AcDbEntity
  8
AM_4
100
AcDbLine
 10
-0.8075000000000001
 20
0.976190476190476
 30
0.0
 11
-0.8387499999999999
 21
0.976190476190476
 31
0.0
  0
LINE
  5
EB
330
90
100
AcDbEntity
  8
AM_4
100
AcDbLine
 10
0.5848
 20
-1.025
 30
0.0
 11
0.7326
 21
-1.025
 31
0.0
  0
LINE
  5
EC
330
90
100
AcDbEntity
  8
AM_4
100
AcDbLine
 10
0.7326
 20
1.025
 30
0.0
 11
0.5848000000000003
 21
1.025
 31
0.0
  0
LINE
  5
ED
330
90
100
AcDbEntity
  8
AM_4
100
AcDbLine
 10
-0.8075000000000003
 20
-1.0076
 30
0.0
 11
-0.7901000000000004
 21
-1.025
 31
0.0
  0
LINE
  5
EE
330
90
100
AcDbEntity
  8
AM_4
100
AcDbLine
 10
-0.7901000000000004
 20
1.025
 30
0.0
 11
-0.8075000000000003
 21
1.0076
 31
0.0
  0
LINE
  5
EF
330
90
100
AcDbEntity
  8
AM_4
100
AcDbLine
 10
-0.8075000000000003
 20
-0.5374418573203983
 30
0.0
 11
-0.8075000000000003
 21
-1.0076
 31
0.0
  0
LINE
  5
F0
330
90
100
AcDbEntity
  8
AM_4
100
AcDbLine
 10
-0.8075000000000003
 20
1.0076
 30
0.0
 11
-0.8075000000000003
 21
0.5374418573203983
 31
0.0
  0
LINE
  5
F1
330
90
100
AcDbEntity
  8
AM_4
100
AcDbLine
 10
0.7499999999999999
 20
1.0076
 30
0.0
 11
0.7326
 21
1.025
 31
0.0
  0
LINE
  5
F2
330
90
100
AcDbEntity
  8
AM_4
100
AcDbLine
 10
0.7326
 20
-1.025
 30
0.0
 11
0.7499999999999999
 21
-1.0076
 31
0.0
  0
LINE
  5
F3
330
90
100
AcDbEntity
  8
AM_4
100
AcDbLine
 10
0.7326
 20
-0.6357650824007244
 30
0.0
 11
0.7326
 21
-1.025
 31
0.0
  0
LINE
  5
F4
330
90
100
AcDbEntity
  8
AM_4
100
AcDbLine
 10
0.7326
 20
1.025
 30
0.0
 11
0.7326
 21
0.6357650824007244
 31
0.0
  0
LINE
  5
F5
330
90
100
AcDbEntity
  8
AM_4
100
AcDbLine
 10
0.7499999999999999
 20
-0.6151422599691878
 30
0.0
 11
0.7499999999999999
 21
-1.0076
 31
0.0
  0
LINE
  5
F6
330
90
100
AcDbEntity
  8
AM_4
100
AcDbLine
 10
0.7499999999999999
 20
1.0076
 30
0.0
 11
0.7499999999999999
 21
0.6151422599691878
 31
0.0
  0
LINE
  5
F7
330
90
100
AcDbEntity
  8
AM_4
100
AcDbLine
 10
-0.7901000000000004
 20
-1.025
 30
0.0
 11
-0.5847999999999998
 21
-1.025
 31
0.0
  0
LINE
  5
F8
330
90
100
AcDbEntity
  8
AM_4
100
AcDbLine
 10
-0.5847999999999998
 20
1.025
 30
0.0
 11
-0.7901000000000004
 21
1.025
 31
0.0
  0
LINE
  5
F9
330
90
100
AcDbEntity
  8
AM_4
100
AcDbLine
 10
-0.7901000000000004
 20
-0.5627095076502611
 30
0.0
 11
-0.7901000000000004
 21
-1.025
 31
0.0
  0
LINE
  5
FA
330
90
100
AcDbEntity
  8
AM_4
100
AcDbLine
 10
-0.7901000000000004
 20
1.025
 30
0.0
 11
-0.7901000000000004
 21
0.5627095076502611
 31
0.0
  0
LINE
  5
FB
330
90
100
AcDbEntity
  8
AM_4
100
AcDbLine
 10
-0.8387499999999999
 20
-0.4872355051717803
 30
0.0
 11
-0.8387499999999999
 21
-1.1509375
 31
0.0
  0
LINE
  5
FC
330
90
100
AcDbEntity
  8
AM_4
100
AcDbLine
 10
-0.8387499999999999
 20
1.1509375
 30
0.0
 11
-0.8387499999999999
 21
0.4872355051717803
 31
0.0
  0
ARC
  5
FD
330
90
100
AcDbEntity
  8
AM_4
100
AcDbCircle
 10
-0.8778125000000002
 20
-1.1509375
 30
0.0
 40
0.0390625000000002
100
AcDbArc
 50
270.0
 51
0.0
  0
ARC
  5
FE
330
90
100
AcDbEntity
  8
AM_4
100
AcDbCircle
 10
-0.8778125
 20
1.1509375
 30
0.0
 40
0.0390625000000001
100
AcDbArc
 50
0.0
 51
90.0
  0
LINE
  5
FF
330
90
100
AcDbEntity
  8
AM_4
100
AcDbLine
 10
-1.37
 20
1.1509375
 30
0.0
 11
-1.37
 21
-1.1509375
 31
0.0
  0
ARC
  5
100
330
90
100
AcDbEntity
  8
AM_4
100
AcDbCircle
 10
-1.3309375
 20
-1.1509375
 30
0.0
 40
0.0390625000000002
100
AcDbArc
 50
180.0
 51
270.0
  0
ARC
  5
101
330
90
100
AcDbEntity
  8
AM_4
100
AcDbCircle
 10
-1.3309375
 20
1.1509375
 30
0.0
 40
0.0390625000000004
100
AcDbArc
 50
90.0
 51
180.0
  0
LWPOLYLINE
  5
102
330
90
100
AcDbEntity
  8
AM_4
100
AcDbPolyline
 90
       10
 70
     0
 43
0.0
 10
-1.041598184726874
 20
1.185547392342629
 10
-1.060173750724334
 20
1.184220709609278
 10
-1.080877856542604
 20
1.183080228563027
 10
-1.10316175583082
 20
1.182261664651119
 10
-1.126369873610024
 20
1.181849074486457
 10
-1.14973947100802
 20
1.181900352657145
 10
-1.172710036308227
 20
1.182394552346205
 10
-1.194579211740313
 20
1.18328468526593
 10
-1.214799708457577
 20
1.184461992619156
 10
-1.229651815273126
 20
1.185547392342629
  0
LWPOLYLINE
  5
103
330
90
100
AcDbEntity
  8
AM_4
100
AcDbPolyline
 90
        7
 70
     0
 43
0.0
 10
-1.229651815273127
 20
1.185547392342627
 10
-1.241653345444112
 20
1.18645286935686
 10
-1.252422797812552
 20
1.187356640685945
 10
-1.264873720637227
 20
1.188508622425087
 10
-1.273918047196885
 20
1.189417116684638
 10
-1.278475549985095
 20
1.189897686781973
 10
-1.279427607657263
 20
1.189999999999988
  0
LINE
  5
104
330
90
100
AcDbEntity
  8
AM_4
100
AcDbLine
 10
-1.3309375
 20
-1.19
 30
0.0
 11
-0.8778125000000001
 21
-1.19
 31
0.0
  0
LINE
  5
105
330
90
100
AcDbEntity
  8
AM_4
100
AcDbLine
 10
-0.8778125000000001
 20
1.19
 30
0.0
 11
-0.9918223923426287
 21
1.19
 31
0.0
  0
LINE
  5
106
330
90
100
AcDbEntity
  8
AM_4
100
AcDbLine
 10
-1.279427607657372
 20
1.19
 30
0.0
 11
-1.3309375
 21
1.19
 31
0.0
  0
LINE
  5
107
330
90
100
AcDbEntity
  8
AM_4
100
AcDbLine
 10
-1.3309375
 20
1.19
 30
0.0
 11
-1.3309375
 21
-1.19
 31
0.0
  0
LWPOLYLINE
  5
108
330
90
100
AcDbEntity
  8
AM_4
100
AcDbPolyline
 90
        7
 70
     0
 43
0.0
 10
-0.9918223923427376
 20
1.189999999999988
 10
-0.9920242251831695
 20
1.189978254508401
 10
-0.9949728121524521
 20
1.189663976573033
 10
-1.001565422128816
 20
1.188984376504937
 10
-1.011271360860251
 20
1.1880420530428
 10
-1.024248310607589
 20
1.186890935907422
 10
-1.041598184726882
 20
1.185547392342628
  0
LINE
  5
109
330
90
100
AcDbEntity
  8
AM_4
100
AcDbLine
 10
-0.8778125
 20
-0.4127289847390776
 30
0.0
 11
-0.8778125000000001
 21
-1.19
 31
0.0
  0
LINE
  5
10A
330
90
100
AcDbEntity
  8
AM_4
100
AcDbLine
 10
-0.8778125000000001
 20
1.19
 30
0.0
 11
-0.8778125
 21
0.4127289847390776
 31
0.0
  0
ENDBLK
  5
93
330
90
100
AcDbEntity
  8
0
100
AcDbBlockEnd
  0
BLOCK
  5
10D
330
10B
100
AcDbEntity
  8
0
100
AcDbBlockBegin
  2
3_430026_0_in_058996_2
 70
     2
 10
0.0
 20
0.0
 30
0.0
  3
3_430026_0_in_058996_2
  1

  0
ATTDEF
  5
10F
330
10B
100
AcDbEntity
  8
AM_6
100
AcDbText
 10
5.199089764778896
 20
-0.8594437969735002
 30
0.0
 40
0.5
  1
430026 Plug
100
AcDbAttributeDefinition
  3

  2
NN
 70
     8
280
     0
  0
ATTDEF
  5
110
330
10B
100
AcDbEntity
  8
AM_6
100
AcDbText
 10
5.199089764778896
 20
-1.3594437969735
 30
0.0
 40
0.5
  1
Plug
100
AcDbAttributeDefinition
  3

  2
NT
 70
     8
280
     0
  0
ATTDEF
  5
111
330
10B
100
AcDbEntity
  8
AM_6
100
AcDbText
 10
5.199089764778896
 20
-1.8594437969735
 30
0.0
 40
0.5
  1
430026
100
AcDbAttributeDefinition
  3

  2
NB
 70
     8
280
     0
  0
ATTDEF
  5
112
330
10B
100
AcDbEntity
  8
AM_6
100
AcDbText
 10
5.199089764778896
 20
-2.3594437969735
 30
0.0
 40
0.5
  1
$PN.
100
AcDbAttributeDefinition
  3

  2
NBSYN
 70
     8
280
     0
  0
ATTDEF
  5
113
330
10B
100
AcDbEntity
  8
AM_6
100
AcDbText
 10
5.199089764778896
 20
-2.8594437969735
 30
0.0
 40
0.5
  1
430026
100
AcDbAttributeDefinition
  3

  2
LINA
 70
     8
280
     0
  0
ATTDEF
  5
114
330
10B
100
AcDbEntity
  8
AM_6
100
AcDbText
 10
5.199089764778896
 20
-3.3594437969735
 30
0.0
 40
0.5
  1
430026
100
AcDbAttributeDefinition
  3

  2
PN
 70
     8
280
     0
  0
ATTDEF
  5
115
330
10B
100
AcDbEntity
  8
AM_6
100
AcDbText
 10
5.199089764778896
 20
-3.8594437969735
 30
0.0
 40
0.5
  1
baldor
100
AcDbAttributeDefinition
  3

  2
COMPANY
 70
     8
280
     0
  0
LWPOLYLINE
  5
116
330
10B
100
AcDbEntity
  8
AM_9
100
AcDbPolyline
 90
        6
 70
     0
 43
0.0
 10
-0.0937500000000001
 20
-1.217501587736527
 10
-0.0742104790331716
 20
-1.222605267587477
 10
-0.0527625339528989
 20
-1.230866817846397
 10
-0.0377364343003932
 20
-1.238552784740252
 10
-0.0225103644739312
 20
-1.247935027336616
 10
-0.0000000000000001
 20
-1.264376587736528
  0
LWPOLYLINE
  5
117
330
10B
100
AcDbEntity
  8
AM_9
100
AcDbPolyline
 90
        6
 70
     0
 43
0.0
 10
-0.0000000000000001
 20
-1.264376587736528
 10
0.0195395209668284
 20
-1.249940746620648
 10
0.0409874660471012
 20
-1.236754351799296
 10
0.0560135656996068
 20
-1.229414219040645
 10
0.0712396355260688
 20
-1.223570391810547
 10
0.0937499999999999
 20
-1.217501587736527
  0
ELLIPSE
  5
118
330
10B
100
AcDbEntity
  8
AM_9
100
AcDbEllipse
 10
-0.0000000000000001
 20
-1.171
 30
0.0
 11
-0.109
 21
1.334865011070615E-17
 31
0.0
210
0.0
220
0.0
230
1.0
 40
0.8660254037844387
 41
0.0
 42
6.283185307179586
  0
LWPOLYLINE
  5
119
330
10B
100
AcDbEntity
  8
AM_9
100
AcDbPolyline
 90
        6
 70
     0
 43
0.0
 10
0.0937499999999999
 20
-1.123751587736527
 10
0.0742104790331713
 20
-1.109315746620648
 10
0.0527625339528986
 20
-1.096129351799296
 10
0.0374983044023226
 20
-1.088702999455726
 10
0.022510364473931
 20
-1.082945391810547
 10
-0.0000000000000001
 20
-1.076876587736527
  0
LINE
  5
11A
330
10B
100
AcDbEntity
  8
AM_9
100
AcDbLine
 10
-0.0000000000000001
 20
-1.01475
 30
0.0
 11
0.0937499999999999
 21
-1.061625
 31
0.0
  0
LWPOLYLINE
  5
11B
330
10B
100
AcDbEntity
  8
AM_9
100
AcDbPolyline
 90
        6
 70
     0
 43
0.0
 10
-0.0000000000000001
 20
-1.076876587736527
 10
-0.0195395209668287
 20
-1.081980267587476
 10
-0.0409874660471014
 20
-1.090241817846398
 10
-0.0562516955976774
 20
-1.098079695053403
 10
-0.071239635526069
 20
-1.107310027336616
 10
-0.0937500000000001
 20
-1.123751587736527
  0
LINE
  5
11C
330
10B
100
AcDbEntity
  8
AM_9
100
AcDbLine
 10
-0.0000000000000001
 20
-1.01475
 30
0.0
 11
-0.0000000000000001
 21
-1.076876587736527
 31
0.0
  0
LINE
  5
11D
330
10B
100
AcDbEntity
  8
AM_9
100
AcDbLine
 10
-0.0937500000000001
 20
-1.061625
 30
0.0
 11
-0.0000000000000001
 21
-1.01475
 31
0.0
  0
ELLIPSE
  5
11E
330
10B
100
AcDbEntity
  8
AM_9
100
AcDbEllipse
 10
-0.0000000000000001
 20
-1.171
 30
0.0
 11
-0.1800055586036764
 21
2.204432311727236E-17
 31
0.0
210
0.0
220
0.0
230
1.0
 40
0.8660254037844388
 41
0.0
 42
6.283185307179586
  0
LINE
  5
11F
330
10B
100
AcDbEntity
  8
AM_9
100
AcDbLine
 10
-0.0937500000000001
 20
-1.061625
 30
0.0
 11
-0.0937500000000001
 21
-1.217501587736527
 31
0.0
  0
LINE
  5
120
330
10B
100
AcDbEntity
  8
AM_9
100
AcDbLine
 10
0.0937499999999999
 20
-1.061625
 30
0.0
 11
0.0937499999999999
 21
-1.217501587736527
 31
0.0
  0
LINE
  5
121
330
10B
100
AcDbEntity
  8
AM_9
100
AcDbLine
 10
0.0937499999999999
 20
-1.155375
 30
0.0
 11
-0.0000000000000001
 21
-1.20225
 31
0.0
  0
LINE
  5
122
330
10B
100
AcDbEntity
  8
AM_9
100
AcDbLine
 10
-0.0000000000000001
 20
-1.20225
 30
0.0
 11
-0.0937500000000001
 21
-1.155375
 31
0.0
  0
LINE
  5
123
330
10B
100
AcDbEntity
  8
AM_9
100
AcDbLine
 10
-0.0000000000000001
 20
-1.20225
 30
0.0
 11
-0.0000000000000001
 21
-1.264376587736528
 31
0.0
  0
ELLIPSE
  5
124
330
10B
100
AcDbEntity
  8
AM_9
100
AcDbEllipse
 10
-0.000000000000004
 20
-1.108499999999996
 30
0.0
 11
0.09374999999999442
 21
0.0
 31
0.0
210
0.0
220
0.0
230
1.0
 40
0.866025403784431
 41
2.094395102393182
 42
3.141592653589793
  0
ELLIPSE
  5
125
330
10B
100
AcDbEntity
  8
AM_9
100
AcDbEllipse
 10
-0.0000000000000001
 20
-1.108499999999998
 30
0.0
 11
0.09374999999999785
 21
0.0
 31
0.0
210
0.0
220
0.0
230
1.0
 40
0.8660254037844348
 41
3.141592653589793
 42
8.377580409572793
  0
LINE
  5
126
330
10B
100
AcDbEntity
  8
AM_9
100
AcDbLine
 10
-0.0551157860430641
 20
-1.038486154378046
 30
0.0
 11
-0.0727742190902847
 21
-1.057316685806315
 31
0.0
  0
LINE
  5
127
330
10B
100
AcDbEntity
  8
AM_9
100
AcDbLine
 10
0.0727742190902845
 20
-1.057316685806315
 30
0.0
 11
0.0551157860430639
 21
-1.038486154378046
 31
0.0
  0
ELLIPSE
  5
128
330
10B
100
AcDbEntity
  8
AM_9
100
AcDbEllipse
 10
-0.0000000000000002
 20
-1.161004869739511
 30
0.0
 11
0.1993814718281217
 21
0.0
 31
0.0
210
0.0
220
0.0
230
1.0
 40
0.8660254037844377
 41
4.71238898038469
 42
6.337285526436473
  0
LINE
  5
129
330
10B
100
AcDbEntity
  8
AM_9
100
AcDbLine
 10
-0.1905942791086468
 20
-1.015806653614678
 30
0.0
 11
-0.1990897647788959
 21
-1.151667972424342
 31
0.0
  0
LINE
  5
12A
330
10B
100
AcDbEntity
  8
AM_9
100
AcDbLine
 10
0.1990897647788956
 20
-1.151667972424342
 30
0.0
 11
0.1905942791086466
 21
-1.015806653614678
 31
0.0
  0
ELLIPSE
  5
12B
330
10B
100
AcDbEntity
  8
AM_9
100
AcDbEllipse
 10
-0.0000000000000001
 20
-1.161004869739511
 30
0.0
 11
0.1993814718281217
 21
0.0
 31
0.0
210
0.0
220
0.0
230
1.0
 40
0.8660254037844345
 41
0.0541002192568865
 42
4.71238898038469
  0
ELLIPSE
  5
12C
330
10B
100
AcDbEntity
  8
AM_9
100
AcDbEllipse
 10
-0.0000000000000001
 20
-1.01475
 30
0.0
 11
-0.1702494517657397
 21
2.084954461615048E-17
 31
0.0
210
0.0
220
0.0
230
1.0
 40
0.866025403784439
 41
0.0
 42
6.283185307179586
  0
ELLIPSE
  5
12D
330
10B
100
AcDbEntity
  8
AM_9
100
AcDbEllipse
 10
0.0
 20
-1.07725
 30
0.0
 11
0.07100186035836217
 21
0.0
 31
0.0
210
0.0
220
0.0
230
1.0
 40
0.8660254037844364
 41
0.0
 42
6.283185307179586
  0
ELLIPSE
  5
12E
330
10B
100
AcDbEntity
  8
AM_9
100
AcDbEllipse
 10
-0.0000000000000002
 20
-1.024745130260489
 30
0.0
 11
0.1908735385412944
 21
2.844237365443922E-9
 31
0.0
210
0.0
220
0.0
230
1.0
 40
0.8660254037844377
 41
0.0
 42
6.283185307179586
  0
ENDBLK
  5
10E
330
10B
100
AcDbEntity
  8
0
100
AcDbBlockEnd
  0
BLOCK
  5
131
330
12F
100
AcDbEntity
  8
0
100
AcDbBlockBegin
  2
4_058996H_0_in_058996_2
 70
     2
 10
0.0
 20
0.0
 30
0.0
  3
4_058996H_0_in_058996_2
  1

  0
ATTDEF
  5
133
330
12F
100
AcDbEntity
  8
AM_6
100
AcDbText
 10
5.970000000000001
 20
2.25
 30
0.0
 40
0.5
  1
WSTU-SXR -I-Housing
100
AcDbAttributeDefinition
  3

  2
NN
 70
     8
280
     0
  0
ATTDEF
  5
134
330
12F
100
AcDbEntity
  8
AM_6
100
AcDbText
 10
5.970000000000001
 20
1.75
 30
0.0
 40
0.5
  1
SXR Normal Duty Wide Slot Take-Up Bearings
100
AcDbAttributeDefinition
  3

  2
NT
 70
     8
280
     0
  0
ATTDEF
  5
135
330
12F
100
AcDbEntity
  8
AM_6
100
AcDbText
 10
5.970000000000001
 20
1.25
 30
0.0
 40
0.5
  1
058996H
100
AcDbAttributeDefinition
  3

  2
NB
 70
     8
280
     0
  0
ATTDEF
  5
136
330
12F
100
AcDbEntity
  8
AM_6
100
AcDbText
 10
5.970000000000001
 20
0.7500000000000004
 30
0.0
 40
0.5
  1
$PN.H
100
AcDbAttributeDefinition
  3

  2
NBSYN
 70
     8
280
     0
  0
ATTDEF
  5
137
330
12F
100
AcDbEntity
  8
AM_6
100
AcDbText
 10
5.970000000000001
 20
0.2500000000000004
 30
0.0
 40
0.5
  1
058996
100
AcDbAttributeDefinition
  3

  2
LINA
 70
     8
280
     0
  0
ATTDEF
  5
138
330
12F
100
AcDbEntity
  8
AM_6
100
AcDbText
 10
5.970000000000001
 20
-0.2499999999999996
 30
0.0
 40
0.5
  1
208
100
AcDbAttributeDefinition
  3

  2
SERIES
 70
     8
280
     0
  0
ATTDEF
  5
139
330
12F
100
AcDbEntity
  8
AM_6
100
AcDbText
 10
5.970000000000001
 20
-0.7499999999999996
 30
0.0
 40
0.5
  1
1-1/2
100
AcDbAttributeDefinition
  3

  2
SS
 70
     8
280
     0
  0
ATTDEF
  5
13A
330
12F
100
AcDbEntity
  8
AM_6
100
AcDbText
 10
5.970000000000001
 20
-1.25
 30
0.0
 40
0.5
  1
1.500000
100
AcDbAttributeDefinition
  3

  2
SS1
 70
     8
280
     0
  0
ATTDEF
  5
13B
330
12F
100
AcDbEntity
  8
AM_6
100
AcDbText
 10
5.970000000000001
 20
-1.75
 30
0.0
 40
0.5
  1
058996
100
AcDbAttributeDefinition
  3

  2
PN
 70
     8
280
     0
  0
ATTDEF
  5
13C
330
12F
100
AcDbEntity
  8
AM_6
100
AcDbText
 10
5.970000000000001
 20
-2.25
 30
0.0
 40
0.5
  1
WSTU-SXR-108-NL
100
AcDbAttributeDefinition
  3

  2
DESCRIPTION
 70
     8
280
     0
  0
ATTDEF
  5
13D
330
12F
100
AcDbEntity
  8
AM_6
100
AcDbText
 10
5.970000000000001
 20
-2.75
 30
0.0
 40
0.5
  1
NO-LUBE
100
AcDbAttributeDefinition
  3

  2
LF
 70
     8
280
     0
  0
ATTDEF
  5
13E
330
12F
100
AcDbEntity
  8
AM_6
100
AcDbText
 10
5.970000000000001
 20
-3.25
 30
0.0
 40
0.5
  1
3.149600
100
AcDbAttributeDefinition
  3

  2
BOD
 70
     8
280
     0
  0
ATTDEF
  5
13F
330
12F
100
AcDbEntity
  8
AM_6
100
AcDbText
 10
5.970000000000001
 20
-3.75
 30
0.0
 40
0.5
  1
1.024000
100
AcDbAttributeDefinition
  3

  2
BW
 70
     8
280
     0
  0
ATTDEF
  5
140
330
12F
100
AcDbEntity
  8
AM_6
100
AcDbText
 10
5.970000000000001
 20
-4.25
 30
0.0
 40
0.5
  1
6.2
100
AcDbAttributeDefinition
  3

  2
W
 70
     8
280
     0
  0
ATTDEF
  5
141
330
12F
100
AcDbEntity
  8
AM_6
100
AcDbText
 10
5.970000000000001
 20
-4.75
 30
0.0
 40
0.5
  1
WS400
100
AcDbAttributeDefinition
  3

  2
FS
 70
     8
280
     0
  0
ATTDEF
  5
142
330
12F
100
AcDbEntity
  8
AM_6
100
AcDbText
 10
5.970000000000001
 20
-5.25
 30
0.0
 40
0.5
  1
2.12
100
AcDbAttributeDefinition
  3

  2
A
 70
     8
280
     0
  0
ATTDEF
  5
143
330
12F
100
AcDbEntity
  8
AM_6
100
AcDbText
 10
5.970000000000001
 20
-5.75
 30
0.0
 40
0.5
  1
2.120000
100
AcDbAttributeDefinition
  3

  2
A1
 70
     8
280
     0
  0
ATTDEF
  5
144
330
12F
100
AcDbEntity
  8
AM_6
100
AcDbText
 10
5.970000000000001
 20
-6.25
 30
0.0
 40
0.5
  1
5.69
100
AcDbAttributeDefinition
  3

  2
B
 70
     8
280
     0
  0
ATTDEF
  5
145
330
12F
100
AcDbEntity
  8
AM_6
100
AcDbText
 10
5.970000000000001
 20
-6.75
 30
0.0
 40
0.5
  1
5.690000
100
AcDbAttributeDefinition
  3

  2
B1
 70
     8
280
     0
  0
ATTDEF
  5
146
330
12F
100
AcDbEntity
  8
AM_6
100
AcDbText
 10
5.970000000000001
 20
-7.25
 30
0.0
 40
0.5
  1
0.688
100
AcDbAttributeDefinition
  3

  2
C
 70
     8
280
     0
  0
ATTDEF
  5
147
330
12F
100
AcDbEntity
  8
AM_6
100
AcDbText
 10
5.970000000000001
 20
-7.75
 30
0.0
 40
0.5
  1
0.688000
100
AcDbAttributeDefinition
  3

  2
C1
 70
     8
280
     0
  0
ATTDEF
  5
148
330
12F
100
AcDbEntity
  8
AM_6
100
AcDbText
 10
5.970000000000001
 20
-8.25
 30
0.0
 40
0.5
  1
3.25
100
AcDbAttributeDefinition
  3

  2
D
 70
     8
280
     0
  0
ATTDEF
  5
149
330
12F
100
AcDbEntity
  8
AM_6
100
AcDbText
 10
5.970000000000001
 20
-8.75
 30
0.0
 40
0.5
  1
3.250000
100
AcDbAttributeDefinition
  3

  2
D1
 70
     8
280
     0
  0
ATTDEF
  5
14A
330
12F
100
AcDbEntity
  8
AM_6
100
AcDbText
 10
5.970000000000001
 20
-9.25
 30
0.0
 40
0.5
  1
3.50
100
AcDbAttributeDefinition
  3

  2
E
 70
     8
280
     0
  0
ATTDEF
  5
14B
330
12F
100
AcDbEntity
  8
AM_6
100
AcDbText
 10
5.970000000000001
 20
-9.75
 30
0.0
 40
0.5
  1
3.500000
100
AcDbAttributeDefinition
  3

  2
E1
 70
     8
280
     0
  0
ATTDEF
  5
14C
330
12F
100
AcDbEntity
  8
AM_6
100
AcDbText
 10
5.970000000000001
 20
-10.25
 30
0.0
 40
0.5
  1
1
100
AcDbAttributeDefinition
  3

  2
F
 70
     8
280
     0
  0
ATTDEF
  5
14D
330
12F
100
AcDbEntity
  8
AM_6
100
AcDbText
 10
5.970000000000001
 20
-10.75
 30
0.0
 40
0.5
  1
1.000000
100
AcDbAttributeDefinition
  3

  2
F1
 70
     8
280
     0
  0
ATTDEF
  5
14E
330
12F
100
AcDbEntity
  8
AM_6
100
AcDbText
 10
5.970000000000001
 20
-11.25
 30
0.0
 40
0.5
  1
0.63
100
AcDbAttributeDefinition
  3

  2
G
 70
     8
280
     0
  0
ATTDEF
  5
14F
330
12F
100
AcDbEntity
  8
AM_6
100
AcDbText
 10
5.970000000000001
 20
-11.75
 30
0.0
 40
0.5
  1
0.630000
100
AcDbAttributeDefinition
  3

  2
G1
 70
     8
280
     0
  0
ATTDEF
  5
150
330
12F
100
AcDbEntity
  8
AM_6
100
AcDbText
 10
5.970000000000001
 20
-12.25
 30
0.0
 40
0.5
  1
0.75
100
AcDbAttributeDefinition
  3

  2
H
 70
     8
280
     0
  0
ATTDEF
  5
151
330
12F
100
AcDbEntity
  8
AM_6
100
AcDbText
 10
5.970000000000001
 20
-12.75
 30
0.0
 40
0.5
  1
0.750000
100
AcDbAttributeDefinition
  3

  2
H1
 70
     8
280
     0
  0
ATTDEF
  5
152
330
12F
100
AcDbEntity
  8
AM_6
100
AcDbText
 10
5.970000000000001
 20
-13.25
 30
0.0
 40
0.5
  1
3.25
100
AcDbAttributeDefinition
  3

  2
J
 70
     8
280
     0
  0
ATTDEF
  5
153
330
12F
100
AcDbEntity
  8
AM_6
100
AcDbText
 10
5.970000000000001
 20
-13.75
 30
0.0
 40
0.5
  1
3.250000
100
AcDbAttributeDefinition
  3

  2
J1
 70
     8
280
     0
  0
ATTDEF
  5
154
330
12F
100
AcDbEntity
  8
AM_6
100
AcDbText
 10
5.970000000000001
 20
-14.25
 30
0.0
 40
0.5
  1
1.94
100
AcDbAttributeDefinition
  3

  2
K
 70
     8
280
     0
  0
ATTDEF
  5
155
330
12F
100
AcDbEntity
  8
AM_6
100
AcDbText
 10
5.970000000000001
 20
-14.75
 30
0.0
 40
0.5
  1
2.38
100
AcDbAttributeDefinition
  3

  2
L
 70
     8
280
     0
  0
ATTDEF
  5
156
330
12F
100
AcDbEntity
  8
AM_6
100
AcDbText
 10
5.970000000000001
 20
-15.25
 30
0.0
 40
0.5
  1
2.380000
100
AcDbAttributeDefinition
  3

  2
L1
 70
     8
280
     0
  0
ATTDEF
  5
157
330
12F
100
AcDbEntity
  8
AM_6
100
AcDbText
 10
5.970000000000001
 20
-15.75
 30
0.0
 40
0.5
  1
3.985/4.015
100
AcDbAttributeDefinition
  3

  2
M
 70
     8
280
     0
  0
ATTDEF
  5
158
330
12F
100
AcDbEntity
  8
AM_6
100
AcDbText
 10
5.970000000000001
 20
-16.25
 30
0.0
 40
0.5
  1
4.015000
100
AcDbAttributeDefinition
  3

  2
M1
 70
     8
280
     0
  0
ATTDEF
  5
159
330
12F
100
AcDbEntity
  8
AM_6
100
AcDbText
 10
5.970000000000001
 20
-16.75
 30
0.0
 40
0.5
  1
4.50
100
AcDbAttributeDefinition
  3

  2
N
 70
     8
280
     0
  0
ATTDEF
  5
15A
330
12F
100
AcDbEntity
  8
AM_6
100
AcDbText
 10
5.970000000000001
 20
-17.25
 30
0.0
 40
0.5
  1
4.500000
100
AcDbAttributeDefinition
  3

  2
N1
 70
     8
280
     0
  0
ATTDEF
  5
15B
330
12F
100
AcDbEntity
  8
AM_6
100
AcDbText
 10
5.970000000000001
 20
-17.75
 30
0.0
 40
0.5
  1
0.75
100
AcDbAttributeDefinition
  3

  2
R
 70
     8
280
     0
  0
ATTDEF
  5
15C
330
12F
100
AcDbEntity
  8
AM_6
100
AcDbText
 10
5.970000000000001
 20
-18.25
 30
0.0
 40
0.5
  1
0.750000
100
AcDbAttributeDefinition
  3

  2
R1
 70
     8
280
     0
  0
ATTDEF
  5
15D
330
12F
100
AcDbEntity
  8
AM_6
100
AcDbText
 10
5.970000000000001
 20
-18.75
 30
0.0
 40
0.5
  1
1.37
100
AcDbAttributeDefinition
  3

  2
S
 70
     8
280
     0
  0
ATTDEF
  5
15E
330
12F
100
AcDbEntity
  8
AM_6
100
AcDbText
 10
5.970000000000001
 20
-19.25
 30
0.0
 40
0.5
  1
1.370000
100
AcDbAttributeDefinition
  3

  2
S1
 70
     8
280
     0
  0
ATTDEF
  5
15F
330
12F
100
AcDbEntity
  8
AM_6
100
AcDbText
 10
5.970000000000001
 20
-19.75
 30
0.0
 40
0.5
  1
1.94
100
AcDbAttributeDefinition
  3

  2
T
 70
     8
280
     0
  0
ATTDEF
  5
160
330
12F
100
AcDbEntity
  8
AM_6
100
AcDbText
 10
5.970000000000001
 20
-20.25
 30
0.0
 40
0.5
  1
4005
100
AcDbAttributeDefinition
  3

  2
CAPS
 70
     8
280
     0
  0
ATTDEF
  5
161
330
12F
100
AcDbEntity
  8
AM_6
100
AcDbText
 10
5.970000000000001
 20
-20.75
 30
0.0
 40
0.5
  1
7332
100
AcDbAttributeDefinition
  3

  2
CAPD
 70
     8
280
     0
  0
ATTDEF
  5
162
330
12F
100
AcDbEntity
  8
AM_6
100
AcDbText
 10
5.970000000000001
 20
-21.25
 30
0.0
 40
0.5
  1
baldor
100
AcDbAttributeDefinition
  3

  2
COMPANY
 70
     8
280
     0
  0
LWPOLYLINE
  5
163
330
12F
100
AcDbEntity
  8
AM_9
100
AcDbPolyline
 90
       30
 70
     0
 43
0.0
 10
-0.45
 20
-1.094999999999999
 10
-0.4475591751076476
 20
-1.054273235172208
 10
-0.4402953420970591
 20
-1.013514750870218
 10
-0.4274012405587152
 20
-0.9708769935002859
 10
-0.4093320538132143
 20
-0.9291744114757481
 10
-0.3864318029157883
 20
-0.8892190140970041
 10
-0.3584721799070843
 20
-0.8509858997322612
 10
-0.3260372370363529
 20
-0.8153967465530857
 10
-0.2897106133937598
 20
-0.7831758378264435
 10
-0.2490880183364697
 20
-0.7543249816102154
 10
-0.2051382907516821
 20
-0.7297079619502442
 10
-0.1586764042494111
 20
-0.7098873558114361
 10
-0.1103720806296471
 20
-0.6952885300809474
 10
-0.0604673174129488
 20
-0.685924606139415
 10
-0.0099324453479424
 20
-0.6820292824781085
 10
0.0397637361690334
 20
-0.6836700768546559
 10
0.0891128642419367
 20
-0.6906052985012205
 10
0.1371861842466261
 20
-0.7026669799699511
 10
0.1833928839932076
 20
-0.7197057547522726
 10
0.2274780316162542
 20
-0.7414382121950457
 10
0.2686614049928222
 20
-0.7673854815673632
 10
0.3072001336507582
 20
-0.7978528548191869
 10
0.3420293280544427
 20
-0.8319862031628228
 10
0.372519291411571
 20
-0.8690753018096715
 10
0.3985815346979072
 20
-0.9091755277325613
 10
0.4196686588244729
 20
-0.9514168539686427
 10
0.4353608115687833
 20
-0.9949257109535434
 10
0.4434542568814373
 20
-1.028167232785732
 10
0.4483537049330757
 20
-1.061654252296154
 10
0.4499999999999997
 20
-1.094999999999999
  0
ELLIPSE
  5
164
330
12F
100
AcDbEntity
  8
AM_9
100
AcDbEllipse
 10
-0.0000000000000001
 20
-1.145
 30
0.0
 11
-0.3499999999999999
 21
4.286263797015735E-17
 31
0.0
210
0.0
220
0.0
230
1.0
 40
0.866025403784439
 41
0.0
 42
6.283185307179586
  0
ELLIPSE
  5
165
330
12F
100
AcDbEntity
  8
AM_9
100
AcDbEllipse
 10
-0.0000000000000002
 20
-1.095
 30
0.0
 11
0.4499999999999995
 21
0.0
 31
0.0
210
0.0
220
0.0
230
1.0
 40
0.8660254037844395
 41
0.1409068755660661
 42
2.95687812808667
  0
LINE
  5
166
330
12F
100
AcDbEntity
  8
AM_9
100
AcDbLine
 10
0.4499659505604366
 20
-1.099968389498125
 30
0.0
 11
0.4499997252302467
 21
-1.094553672755715
 31
0.0
  0
LWPOLYLINE
  5
167
330
12F
100
AcDbEntity
  8
AM_9
100
AcDbPolyline
 90
       24
 70
     0
 43
0.0
 10
0.0686795488017058
 20
-1.493402965040769
 10
0.0722519078681421
 20
-1.492897345951904
 10
0.0995699164141591
 20
-1.488151667083429
 10
0.1265189661863386
 20
-1.48190355260419
 10
0.1529957688397995
 20
-1.474174140775009
 10
0.1788981502909953
 20
-1.464990237537219
 10
0.2041253988002262
 20
-1.454384416067739
 10
0.2285786659157995
 20
-1.442395112503528
 10
0.2521614273638298
 20
-1.429066700791302
 10
0.2747800062534155
 20
-1.414449526085426
 10
0.2963441543366143
 20
-1.398599873932422
 10
0.3167676788196805
 20
-1.381579852588249
 10
0.3359690932175793
 20
-1.363457169053439
 10
0.3538722623710763
 20
-1.344304786217166
 10
0.3704070057453293
 20
-1.324200458613251
 10
0.3855096211916667
 20
-1.303226156592707
 10
0.3991232946098325
 20
-1.281467401330317
 10
0.4111983695172602
 20
-1.25901254375177
 10
0.4216924633414338
 20
-1.235952027150547
 10
0.4305704322324249
 20
-1.212377674714194
 10
0.4378042008218401
 20
-1.188382039295791
 10
0.44337248533514
 20
-1.164057844553239
 10
0.447260446282619
 20
-1.139497535758881
 10
0.448452319797203
 20
-1.128467993590058
  0
LWPOLYLINE
  5
168
330
12F
100
AcDbEntity
  8
AM_9
100
AcDbPolyline
 90
        7
 70
     0
 43
0.0
 10
-0.0688308372886042
 20
-1.493382084868878
 10
-0.0662111509439178
 20
-1.493737001546586
 10
-0.038619084682894
 20
-1.496626960547161
 10
-0.0108717898883823
 20
-1.497991650064942
 10
0.0169259394259303
 20
-1.497824657925362
 10
0.0446690379361047
 20
-1.496125028227151
 10
0.0686795488017058
 20
-1.493402965040769
  0
LWPOLYLINE
  5
169
330
12F
100
AcDbEntity
  8
AM_9
100
AcDbPolyline
 90
       25
 70
     0
 43
0.0
 10
-0.4499997922462108
 20
-1.095388099808814
 10
-0.4499768783843858
 20
-1.099094231734296
 10
-0.4488530175683085
 20
-1.123818135080016
 10
-0.4460467122803535
 20
-1.148416631561638
 10
-0.4415709260672882
 20
-1.172800463666741
 10
-0.435443367622647
 20
-1.196882913704379
 10
-0.4276864730842027
 20
-1.220578358190298
 10
-0.4183274718924531
 20
-1.243802218910097
 10
-0.4073985353813505
 20
-1.266470964081074
 10
-0.3949369823367898
 20
-1.288502184495598
 10
-0.380985508212702
 20
-1.309814762235194
 10
-0.3655924003017209
 20
-1.330329139639891
 10
-0.3488117009582659
 20
-1.349967684741194
 10
-0.3307032855043787
 20
-1.368655137774279
 10
-0.3113328304289181
 20
-1.386319113454811
 10
-0.2907716597099154
 20
-1.402890627127056
 10
-0.2690964705963209
 20
-1.418304610802009
 10
-0.246388952727953
 20
-1.432500387757131
 10
-0.2227353240604345
 20
-1.445422081044985
 10
-0.1982258124472
 20
-1.457018940482715
 10
-0.1729541126381892
 20
-1.467245582664446
 10
-0.1470168455124217
 20
-1.476062147591103
 10
-0.1205130407874404
 20
-1.483434382481512
 10
-0.0935436576478645
 20
-1.489333667696348
 10
-0.0688308372886042
 20
-1.493382084868878
  0
LINE
  5
16A
330
12F
100
AcDbEntity
  8
AM_9
100
AcDbLine
 10
0.546
 20
-1.468153602318233
 30
0.0
 11
0.546
 21
1.468153602318233
 31
0.0
  0
LINE
  5
16B
330
12F
100
AcDbEntity
  8
AM_9
100
AcDbLine
 10
0.546
 20
-1.468153602318233
 30
0.0
 11
-0.5459999999999998
 21
-1.468153602318232
 31
0.0
  0
LINE
  5
16C
330
12F
100
AcDbEntity
  8
AM_9
100
AcDbLine
 10
-0.5459999999999998
 20
1.468153602318232
 30
0.0
 11
0.546
 21
1.468153602318233
 31
0.0
  0
LINE
  5
16D
330
12F
100
AcDbEntity
  8
AM_9
100
AcDbLine
 10
-0.5459999999999998
 20
-1.468153602318232
 30
0.0
 11
-0.5459999999999998
 21
1.468153602318232
 31
0.0
  0
LINE
  5
16E
330
12F
100
AcDbEntity
  8
AM_9
100
AcDbLine
 10
-0.5459999999999998
 20
-1.468153602318232
 30
0.0
 11
-0.5847999999999998
 21
-1.409622800610149
 31
0.0
  0
LINE
  5
16F
330
12F
100
AcDbEntity
  8
AM_9
100
AcDbLine
 10
-0.5847999999999998
 20
1.409622800610149
 30
0.0
 11
-0.5459999999999998
 21
1.468153602318232
 31
0.0
  0
LINE
  5
170
330
12F
100
AcDbEntity
  8
AM_9
100
AcDbLine
 10
0.546
 20
1.468153602318233
 30
0.0
 11
0.5847999999999999
 21
1.40962280061015
 31
0.0
  0
LINE
  5
171
330
12F
100
AcDbEntity
  8
AM_9
100
AcDbLine
 10
0.5848
 20
-1.40962280061015
 30
0.0
 11
0.546
 21
-1.468153602318233
 31
0.0
  0
ELLIPSE
  5
172
330
12F
100
AcDbEntity
  8
AM_9
100
AcDbEllipse
 10
0.0
 20
-0.9887500000000002
 30
0.0
 11
0.1807744413963237
 21
0.0
 31
0.0
210
0.0
220
0.0
230
1.0
 40
0.8660254037844392
 41
1.570796326794897
 42
3.087492434332907
  0
ELLIPSE
  5
173
330
12F
100
AcDbEntity
  8
AM_9
100
AcDbEllipse
 10
-0.0000000000000001
 20
-1.145
 30
0.0
 11
0.1905305482342603
 21
0.0
 31
0.0
210
0.0
220
0.0
230
1.0
 40
0.8660254037844388
 41
1.570796326794897
 42
3.087492434332907
  0
LINE
  5
174
330
12F
100
AcDbEntity
  8
AM_9
100
AcDbLine
 10
-0.1805099575483931
 20
-0.9802844571336121
 30
0.0
 11
-0.1902517906169994
 21
-1.136077585354572
 31
0.0
  0
LINE
  5
175
330
12F
100
AcDbEntity
  8
AM_9
100
AcDbLine
 10
0.1902517906169991
 20
-1.136077585354572
 30
0.0
 11
0.1805099575483928
 21
-0.9802844571336121
 31
0.0
  0
ELLIPSE
  5
176
330
12F
100
AcDbEntity
  8
AM_9
100
AcDbEllipse
 10
-0.0000000000000001
 20
-0.9887500000000002
 30
0.0
 11
0.1807744413963235
 21
0.0
 31
0.0
210
0.0
220
0.0
230
1.0
 40
0.8660254037844374
 41
3.087492434332905
 42
7.853981633974483
  0
ELLIPSE
  5
177
330
12F
100
AcDbEntity
  8
AM_9
100
AcDbEllipse
 10
-0.0000000000000002
 20
-1.145
 30
0.0
 11
0.1905305482342603
 21
0.0
 31
0.0
210
0.0
220
0.0
230
1.0
 40
0.8660254037844368
 41
3.087492434332907
 42
7.853981633974483
  0
ELLIPSE
  5
178
330
12F
100
AcDbEntity
  8
AM_9
100
AcDbEllipse
 10
-0.0000000000000002
 20
-1.095
 30
0.0
 11
0.4499999999999996
 21
0.0
 31
0.0
210
0.0
220
0.0
230
1.0
 40
0.8660254037844392
 41
3.440113689029122
 42
6.018982444569904
  0
LWPOLYLINE
  5
179
330
12F
100
AcDbEntity
  8
AM_9
100
AcDbPolyline
 90
       38
 70
     0
 43
0.0
 10
0.4499999999999997
 20
-1.094999999999999
 10
0.4484793731714373
 20
-1.126825401508544
 10
0.4439403998513611
 20
-1.158120697780414
 10
0.4361410378713392
 20
-1.189558995001343
 10
0.4252438294446447
 20
-1.220002204940866
 10
0.4117651138716572
 20
-1.248427458828721
 10
0.3955422852775075
 20
-1.275566105999246
 10
0.3761087789832576
 20
-1.30197154480827
 10
0.3540343057085776
 20
-1.326717490353061
 10
0.3298568846188848
 20
-1.349334921709115
 10
0.303428893738191
 20
-1.370110485541869
 10
0.2740753217852979
 20
-1.389448592524495
 10
0.2427266006140323
 20
-1.406642875167625
 10
0.2102354871743163
 20
-1.421341277113101
 10
0.1762501665238081
 20
-1.433827837505163
 10
0.1399270620462126
 20
-1.444305424205619
 10
0.1025327018210552
 20
-1.452320357919586
 10
0.0659828187195005
 20
-1.45763935856241
 10
0.0289643292793276
 20
-1.460635448977486
 10
-0.0093798029698764
 20
-1.46126915940116
 10
-0.0476530240264279
 20
-1.459419292975011
 10
-0.083904603661002
 20
-1.455330598118536
 10
-0.119579690687169
 20
-1.44900094586693
 10
-0.1554195491916136
 20
-1.44017621242484
 10
-0.1901438751572593
 20
-1.429055610717195
 10
-0.2228370353556849
 20
-1.415983270940163
 10
-0.2540192518945607
 20
-1.400818688627229
 10
-0.2842836496646213
 20
-1.383113474065949
 10
-0.3125381139534246
 20
-1.363351720481924
 10
-0.3383595298822999
 20
-1.341826466659275
 10
-0.3618495163159557
 20
-1.318475624664045
 10
-0.38340997205455
 20
-1.292657562859608
 10
-0.4021757602303785
 20
-1.265169044737398
 10
-0.4176069178536653
 20
-1.236964245660612
 10
-0.4301437566980271
 20
-1.207490111060273
 10
-0.4399198416101606
 20
-1.175985497991779
 10
-0.4464427811566034
 20
-1.143540234749204
 10
-0.45
 20
-1.094999999999999
  0
LINE
  5
17A
330
12F
100
AcDbEntity
  8
AM_9
100
AcDbLine
 10
-0.3096000000000002
 20
1.493316791575049
 30
0.0
 11
-0.3096000000000002
 21
1.6498
 31
0.0
  0
LINE
  5
17B
330
12F
100
AcDbEntity
  8
AM_9
100
AcDbLine
 10
-0.3096000000000002
 20
1.572208650275147
 30
0.0
 11
0.5847999999999999
 21
1.572208650275147
 31
0.0
  0
LINE
  5
17C
330
12F
100
AcDbEntity
  8
AM_9
100
AcDbLine
 10
0.5848
 20
1.6498
 30
0.0
 11
-0.3096000000000002
 21
1.6498
 31
0.0
  0
LINE
  5
17D
330
12F
100
AcDbEntity
  8
AM_9
100
AcDbLine
 10
-0.3096000000000002
 20
-1.6498
 30
0.0
 11
-0.3096000000000002
 21
-1.493316791575049
 31
0.0
  0
LINE
  5
17E
330
12F
100
AcDbEntity
  8
AM_9
100
AcDbLine
 10
-0.3096000000000002
 20
-1.572208650275147
 30
0.0
 11
0.5847999999999999
 21
-1.572208650275147
 31
0.0
  0
LINE
  5
17F
330
12F
100
AcDbEntity
  8
AM_9
100
AcDbLine
 10
-0.3096000000000002
 20
-1.6498
 30
0.0
 11
0.5847999999999998
 21
-1.6498
 31
0.0
  0
LINE
  5
180
330
12F
100
AcDbEntity
  8
AM_9
100
AcDbLine
 10
-0.3096000000000002
 20
1.493316791575049
 30
0.0
 11
0.5847999999999994
 21
1.493316791575049
 31
0.0
  0
LINE
  5
181
330
12F
100
AcDbEntity
  8
AM_9
100
AcDbLine
 10
0.5847999999999994
 20
-1.493316791575049
 30
0.0
 11
-0.3096000000000002
 21
-1.493316791575049
 31
0.0
  0
LINE
  5
182
330
12F
100
AcDbEntity
  8
AM_9
100
AcDbLine
 10
-0.5848000000000002
 20
-1.5748
 30
0.0
 11
-0.3096000000000002
 21
-1.5748
 31
0.0
  0
LINE
  5
183
330
12F
100
AcDbEntity
  8
AM_9
100
AcDbLine
 10
-0.3096000000000002
 20
1.5748
 30
0.0
 11
-0.5848000000000001
 21
1.5748
 31
0.0
  0
LINE
  5
184
330
12F
100
AcDbEntity
  8
AM_9
100
AcDbLine
 10
-0.5848
 20
0.7738920855002974
 30
0.0
 11
-0.5848
 21
-0.7738920855002976
 31
0.0
  0
LINE
  5
185
330
12F
100
AcDbEntity
  8
AM_9
100
AcDbLine
 10
0.5848
 20
-0.7738920855002975
 30
0.0
 11
0.5848000000000001
 21
0.7738920855002974
 31
0.0
  0
LINE
  5
186
330
12F
100
AcDbEntity
  8
AM_9
100
AcDbLine
 10
-0.5847999999999999
 20
0.9011999999999997
 30
0.0
 11
0.5848000000000002
 21
0.9011999999999997
 31
0.0
  0
LINE
  5
187
330
12F
100
AcDbEntity
  8
AM_9
100
AcDbLine
 10
-0.5847999999999999
 20
0.9700000000000001
 30
0.0
 11
0.5848000000000002
 21
0.9700000000000001
 31
0.0
  0
LINE
  5
188
330
12F
100
AcDbEntity
  8
AM_9
100
AcDbLine
 10
-0.5848
 20
-0.901199999999999
 30
0.0
 11
0.5848
 21
-0.901199999999999
 31
0.0
  0
LINE
  5
189
330
12F
100
AcDbEntity
  8
AM_9
100
AcDbLine
 10
-0.5848
 20
-0.9699999999999999
 30
0.0
 11
0.5848
 21
-0.9699999999999999
 31
0.0
  0
LINE
  5
18A
330
12F
100
AcDbEntity
  8
AM_7
100
AcDbLine
 10
0.0000000000000002
 20
-0.525
 30
0.0
 11
0.0000000000000002
 21
0.525
 31
0.0
  0
LINE
  5
18B
330
12F
100
AcDbEntity
  8
AM_4
100
AcDbLine
 10
-0.3439999999999999
 20
2.25
 30
0.0
 11
-0.3439999999999999
 21
2.0075
 31
0.0
  0
LINE
  5
18C
330
12F
100
AcDbEntity
  8
AM_4
100
AcDbLine
 10
-0.6191999999999999
 20
2.25
 30
0.0
 11
-0.3439999999999999
 21
2.25
 31
0.0
  0
LWPOLYLINE
  5
18D
330
12F
100
AcDbEntity
  8
AM_4
100
AcDbPolyline
 90
       19
 70
     0
 43
0.0
 10
-0.6880000000000003
 20
2.1812
 10
-0.6877381952287124
 20
2.187196315101038
 10
-0.6869547734072402
 20
2.193146994623485
 10
-0.6856556968486881
 20
2.199006750303053
 10
-0.6838508523100707
 20
2.204730985860806
 10
-0.6815539757481217
 20
2.21027613640776
 10
-0.6787825477803696
 20
2.2156
 10
-0.6755576606470829
 20
2.220662058820952
 10
-0.671903857686586
 20
2.225423787546434
 10
-0.6678489465456348
 20
2.229848946545634
 10
-0.6634237875464342
 20
2.233903857686586
 10
-0.6586620588209522
 20
2.237557660647083
 10
-0.6536000000000002
 20
2.240782547780369
 10
-0.6482761364077603
 20
2.243553975748121
 10
-0.6427309858608061
 20
2.24585085231007
 10
-0.6370067503030535
 20
2.247655696848688
 10
-0.6311469946234849
 20
2.24895477340724
 10
-0.6251963151010389
 20
2.249738195228712
 10
-0.6192000000000001
 20
2.25
  0
LINE
  5
18E
330
12F
100
AcDbEntity
  8
AM_4
100
AcDbLine
 10
-0.3440000000000001
 20
-2.0075
 30
0.0
 11
-0.3440000000000001
 21
-2.25
 31
0.0
  0
LWPOLYLINE
  5
18F
330
12F
100
AcDbEntity
  8
AM_4
100
AcDbPolyline
 90
       19
 70
     0
 43
0.0
 10
-0.6191999999999986
 20
-2.25
 10
-0.6251963151010376
 20
-2.249738195228712
 10
-0.6311469946234836
 20
-2.24895477340724
 10
-0.6370067503030521
 20
-2.247655696848688
 10
-0.6427309858608048
 20
-2.24585085231007
 10
-0.6482761364077589
 20
-2.243553975748122
 10
-0.6535999999999988
 20
-2.240782547780369
 10
-0.6586620588209509
 20
-2.237557660647083
 10
-0.6634237875464328
 20
-2.233903857686586
 10
-0.6678489465456333
 20
-2.229848946545634
 10
-0.6719038576865846
 20
-2.225423787546434
 10
-0.6755576606470817
 20
-2.220662058820952
 10
-0.6787825477803684
 20
-2.2156
 10
-0.6815539757481206
 20
-2.21027613640776
 10
-0.6838508523100696
 20
-2.204730985860806
 10
-0.6856556968486871
 20
-2.199006750303054
 10
-0.6869547734072391
 20
-2.193146994623485
 10
-0.6877381952287114
 20
-2.187196315101039
 10
-0.6879999999999992
 20
-2.1812
  0
LINE
  5
190
330
12F
100
AcDbEntity
  8
AM_4
100
AcDbLine
 10
-0.619199999999999
 20
-2.25
 30
0.0
 11
-0.3440000000000001
 21
-2.25
 31
0.0
  0
LINE
  5
191
330
12F
100
AcDbEntity
  8
AM_4
100
AcDbLine
 10
0.344
 20
2.0075
 30
0.0
 11
0.344
 21
2.25
 31
0.0
  0
LWPOLYLINE
  5
192
330
12F
100
AcDbEntity
  8
AM_4
100
AcDbPolyline
 90
       19
 70
     0
 43
0.0
 10
0.6191999999999991
 20
2.25
 10
0.6251963151010381
 20
2.249738195228712
 10
0.631146994623484
 20
2.24895477340724
 10
0.6370067503030526
 20
2.247655696848688
 10
0.6427309858608053
 20
2.24585085231007
 10
0.6482761364077596
 20
2.243553975748121
 10
0.6535999999999995
 20
2.240782547780369
 10
0.6586620588209515
 20
2.237557660647083
 10
0.6634237875464335
 20
2.233903857686586
 10
0.6678489465456342
 20
2.229848946545634
 10
0.6719038576865854
 20
2.225423787546434
 10
0.6755576606470823
 20
2.220662058820952
 10
0.6787825477803693
 20
2.2156
 10
0.6815539757481214
 20
2.21027613640776
 10
0.6838508523100705
 20
2.204730985860806
 10
0.6856556968486879
 20
2.199006750303053
 10
0.6869547734072399
 20
2.193146994623485
 10
0.687738195228712
 20
2.187196315101038
 10
0.6880000000000001
 20
2.181199999999999
  0
LINE
  5
193
330
12F
100
AcDbEntity
  8
AM_4
100
AcDbLine
 10
0.344
 20
2.25
 30
0.0
 11
0.6191999999999991
 21
2.25
 31
0.0
  0
LINE
  5
194
330
12F
100
AcDbEntity
  8
AM_4
100
AcDbLine
 10
0.3439999999999998
 20
-2.25
 30
0.0
 11
0.3439999999999998
 21
-2.0075
 31
0.0
  0
LINE
  5
195
330
12F
100
AcDbEntity
  8
AM_4
100
AcDbLine
 10
0.3439999999999998
 20
-2.25
 30
0.0
 11
0.6191999999999996
 21
-2.25
 31
0.0
  0
LWPOLYLINE
  5
196
330
12F
100
AcDbEntity
  8
AM_4
100
AcDbPolyline
 90
       19
 70
     0
 43
0.0
 10
0.6879999999999995
 20
-2.1812
 10
0.6877381952287116
 20
-2.187196315101039
 10
0.6869547734072394
 20
-2.193146994623485
 10
0.6856556968486873
 20
-2.199006750303054
 10
0.68385085231007
 20
-2.204730985860806
 10
0.681553975748121
 20
-2.21027613640776
 10
0.6787825477803688
 20
-2.2156
 10
0.6755576606470822
 20
-2.220662058820952
 10
0.6719038576865853
 20
-2.225423787546434
 10
0.667848946545634
 20
-2.229848946545634
 10
0.6634237875464335
 20
-2.233903857686586
 10
0.6586620588209515
 20
-2.237557660647083
 10
0.6535999999999997
 20
-2.240782547780369
 10
0.6482761364077597
 20
-2.243553975748122
 10
0.6427309858608057
 20
-2.24585085231007
 10
0.6370067503030531
 20
-2.247655696848688
 10
0.6311469946234846
 20
-2.24895477340724
 10
0.6251963151010386
 20
-2.249738195228712
 10
0.6191999999999998
 20
-2.25
  0
LINE
  5
197
330
12F
100
AcDbEntity
  8
AM_4
100
AcDbLine
 10
-0.5847999999999998
 20
-0.7738920855002974
 30
0.0
 11
-0.5848000000000001
 21
-1.886249999999998
 31
0.0
  0
LINE
  5
198
330
12F
100
AcDbEntity
  8
AM_4
100
AcDbLine
 10
0.5847999999999998
 20
-1.886249999999998
 30
0.0
 11
0.5848
 21
-0.7738920855002976
 31
0.0
  0
LINE
  5
199
330
12F
100
AcDbEntity
  8
AM_4
100
AcDbLine
 10
-0.5848000000000001
 20
-1.886249999999998
 30
0.0
 11
-0.6880000000000001
 21
-1.98945
 31
0.0
  0
LINE
  5
19A
330
12F
100
AcDbEntity
  8
AM_4
100
AcDbLine
 10
-0.6880000000000001
 20
-1.98945
 30
0.0
 11
-0.6880000000000001
 21
-2.1812
 31
0.0
  0
LINE
  5
19B
330
12F
100
AcDbEntity
  8
AM_4
100
AcDbLine
 10
-0.3440000000000001
 20
-2.1812
 30
0.0
 11
-0.6880000000000001
 21
-2.1812
 31
0.0
  0
LINE
  5
19C
330
12F
100
AcDbEntity
  8
AM_4
100
AcDbLine
 10
0.3439999999999998
 20
-2.0075
 30
0.0
 11
-0.3440000000000001
 21
-2.0075
 31
0.0
  0
LINE
  5
19D
330
12F
100
AcDbEntity
  8
AM_4
100
AcDbLine
 10
0.6879999999999998
 20
-2.1812
 30
0.0
 11
0.3439999999999998
 21
-2.1812
 31
0.0
  0
LINE
  5
19E
330
12F
100
AcDbEntity
  8
AM_4
100
AcDbLine
 10
0.6879999999999998
 20
-2.1812
 30
0.0
 11
0.6879999999999998
 21
-1.98945
 31
0.0
  0
LINE
  5
19F
330
12F
100
AcDbEntity
  8
AM_4
100
AcDbLine
 10
0.6879999999999998
 20
-1.98945
 30
0.0
 11
0.5847999999999998
 21
-1.886249999999998
 31
0.0
  0
LINE
  5
1A0
330
12F
100
AcDbEntity
  8
AM_4
100
AcDbLine
 10
-0.5848
 20
1.886249999999998
 30
0.0
 11
-0.5847999999999999
 21
0.7738920855002974
 31
0.0
  0
LINE
  5
1A1
330
12F
100
AcDbEntity
  8
AM_4
100
AcDbLine
 10
0.5848000000000002
 20
0.7738920855002976
 30
0.0
 11
0.5848000000000001
 21
1.886249999999998
 31
0.0
  0
LINE
  5
1A2
330
12F
100
AcDbEntity
  8
AM_4
100
AcDbLine
 10
0.5848000000000001
 20
1.886249999999998
 30
0.0
 11
0.6880000000000001
 21
1.98945
 31
0.0
  0
LINE
  5
1A3
330
12F
100
AcDbEntity
  8
AM_4
100
AcDbLine
 10
0.6880000000000001
 20
1.98945
 30
0.0
 11
0.6880000000000001
 21
2.1812
 31
0.0
  0
LINE
  5
1A4
330
12F
100
AcDbEntity
  8
AM_4
100
AcDbLine
 10
0.6880000000000001
 20
2.1812
 30
0.0
 11
0.344
 21
2.1812
 31
0.0
  0
LINE
  5
1A5
330
12F
100
AcDbEntity
  8
AM_4
100
AcDbLine
 10
-0.3439999999999999
 20
2.0075
 30
0.0
 11
0.344
 21
2.0075
 31
0.0
  0
LINE
  5
1A6
330
12F
100
AcDbEntity
  8
AM_4
100
AcDbLine
 10
-0.3439999999999999
 20
2.1812
 30
0.0
 11
-0.6879999999999997
 21
2.1812
 31
0.0
  0
LINE
  5
1A7
330
12F
100
AcDbEntity
  8
AM_4
100
AcDbLine
 10
-0.6879999999999997
 20
2.1812
 30
0.0
 11
-0.6879999999999997
 21
1.98945
 31
0.0
  0
LINE
  5
1A8
330
12F
100
AcDbEntity
  8
AM_4
100
AcDbLine
 10
-0.6879999999999997
 20
1.98945
 30
0.0
 11
-0.5848
 21
1.886249999999998
 31
0.0
  0
LINE
  5
1A9
330
12F
100
AcDbEntity
  8
AM_4
100
AcDbLine
 10
-0.5160000000000001
 20
-1.625
 30
0.0
 11
0.516
 21
-1.625
 31
0.0
  0
LWPOLYLINE
  5
1AA
330
12F
100
AcDbEntity
  8
AM_4
100
AcDbPolyline
 90
       19
 70
     0
 43
0.0
 10
0.5848
 20
-1.556199997707583
 10
0.5845381954285094
 20
-1.562196312817346
 10
0.5837547738053139
 20
-1.568146992365895
 10
0.582455697442009
 20
-1.574006748088749
 10
0.5806508530941232
 20
-1.579730983706639
 10
0.5783539767169387
 20
-1.585276134330125
 10
0.5755825489265778
 20
-1.590599998014709
 10
0.5723576619619588
 20
-1.595662056943114
 10
0.5687038591601228
 20
-1.600423785790341
 10
0.5646489481666179
 20
-1.604848944924651
 10
0.5602237893025269
 20
-1.608903856213049
 10
0.5554620606987898
 20
-1.612557659332206
 10
0.5504000019852912
 20
-1.615782546634161
 10
0.5450761384853953
 20
-1.618553974779304
 10
0.5395309880149731
 20
-1.620850851526018
 10
0.533806752517358
 20
-1.622655696255367
 10
0.5279469968810746
 20
-1.623954773009166
 10
0.5219963173847323
 20
-1.624738195028915
 10
0.5160000022924167
 20
-1.625
  0
LWPOLYLINE
  5
1AB
330
12F
100
AcDbEntity
  8
AM_4
100
AcDbPolyline
 90
       19
 70
     0
 43
0.0
 10
-0.5160000000000001
 20
-1.625
 10
-0.521996315101039
 20
-1.624738195228712
 10
-0.5279469946234849
 20
-1.62395477340724
 10
-0.5338067503030536
 20
-1.622655696848688
 10
-0.5395309858608062
 20
-1.62085085231007
 10
-0.5450761364077602
 20
-1.618553975748122
 10
-0.5504000000000001
 20
-1.615782547780369
 10
-0.555462058820952
 20
-1.612557660647083
 10
-0.560223787546434
 20
-1.608903857686586
 10
-0.5646489465456345
 20
-1.604848946545635
 10
-0.5687038576865857
 20
-1.600423787546434
 10
-0.5723576606470826
 20
-1.595662058820952
 10
-0.5755825477803693
 20
-1.5906
 10
-0.5783539757481215
 20
-1.58527613640776
 10
-0.5806508523100705
 20
-1.579730985860806
 10
-0.5824556968486879
 20
-1.574006750303054
 10
-0.5837547734072399
 20
-1.568146994623485
 10
-0.5845381952287121
 20
-1.562196315101039
 10
-0.5848
 20
-1.5562
  0
LINE
  5
1AC
330
12F
100
AcDbEntity
  8
AM_4
100
AcDbLine
 10
-0.5160000000000001
 20
1.625
 30
0.0
 11
0.516
 21
1.625
 31
0.0
  0
LWPOLYLINE
  5
1AD
330
12F
100
AcDbEntity
  8
AM_4
100
AcDbPolyline
 90
       19
 70
     0
 43
0.0
 10
-0.5848
 20
1.556200006151199
 10
-0.5845381946925997
 20
1.56219632122883
 10
-0.5837547723390953
 20
1.568147000681233
 10
-0.5824556952566403
 20
1.574006756244655
 10
-0.5806508502062363
 20
1.579730991641042
 10
-0.5783539731485122
 20
1.58527614198264
 10
-0.5755825447047695
 20
1.590600005327094
 10
-0.5723576571188995
 20
1.595662063859719
 10
-0.5687038537326708
 20
1.600423792258526
 10
-0.5646489421960795
 20
1.604848950895189
 10
-0.5602237828343417
 20
1.6089038616405
 10
-0.5554620537821843
 20
1.612557664175265
 10
-0.5503999946729049
 20
1.615782550855968
 10
-0.5450761308328801
 20
1.618553978347731
 10
-0.5395309800805691
 20
1.620850854413904
 10
-0.5338067443614509
 20
1.622655698440735
 10
-0.5279469885657357
 20
1.623954774475384
 10
-0.5219963089732464
 20
1.624738195764824
 10
-0.5160000000000001
 20
1.625
  0
LWPOLYLINE
  5
1AE
330
12F
100
AcDbEntity
  8
AM_4
100
AcDbPolyline
 90
       19
 70
     0
 43
0.0
 10
0.5160000000000002
 20
1.625
 10
0.5219963151010392
 20
1.624738195228712
 10
0.5279469946234852
 20
1.62395477340724
 10
0.5338067503030538
 20
1.622655696848688
 10
0.5395309858608065
 20
1.62085085231007
 10
0.5450761364077605
 20
1.618553975748121
 10
0.5504000000000004
 20
1.615782547780369
 10
0.5554620588209526
 20
1.612557660647082
 10
0.5602237875464345
 20
1.608903857686586
 10
0.5646489465456351
 20
1.604848946545634
 10
0.5687038576865863
 20
1.600423787546434
 10
0.5723576606470833
 20
1.595662058820952
 10
0.5755825477803701
 20
1.5906
 10
0.5783539757481222
 20
1.58527613640776
 10
0.5806508523100712
 20
1.579730985860805
 10
0.5824556968486886
 20
1.574006750303053
 10
0.5837547734072407
 20
1.568146994623484
 10
0.5845381952287128
 20
1.562196315101038
 10
0.5848000000000007
 20
1.556199999999999
  0
CIRCLE
  5
1AF
330
12F
100
AcDbEntity
  8
AM_4
100
AcDbCircle
 10
0.0000000000000002
 20
0.0
 30
0.0
 40
0.5
  0
ARC
  5
1B0
330
12F
100
AcDbEntity
  8
AM_4
100
AcDbCircle
 10
0.0000000000000002
 20
0.0000000000000002
 30
0.0
 40
0.97
100
AcDbArc
 50
307.0769159403522
 51
52.92308405964782
  0
LINE
  5
1B1
330
12F
100
AcDbEntity
  8
AM_4
100
AcDbLine
 10
0.5848000000000003
 20
1.556199999999999
 30
0.0
 11
-0.5847999999999997
 21
1.5562
 31
0.0
  0
ARC
  5
1B2
330
12F
100
AcDbEntity
  8
AM_4
100
AcDbCircle
 10
0.0
 20
0.0000000000000001
 30
0.0
 40
0.9699999999999996
100
AcDbArc
 50
127.0769159403522
 51
232.9230840596478
  0
LINE
  5
1B3
330
12F
100
AcDbEntity
  8
AM_4
100
AcDbLine
 10
0.5848
 20
-1.5562
 30
0.0
 11
-0.5847999999999998
 21
-1.5562
 31
0.0
  0
ENDBLK
  5
132
330
12F
100
AcDbEntity
  8
0
100
AcDbBlockEnd
  0
ENDSEC
  0
SECTION
  2
ENTITIES
  0
INSERT
  5
6F
330
1F
100
AcDbEntity
  8
0
100
AcDbBlockReference
  2
1_058996_2
 10
0.0
 20
0.0
 30
0.0
  0
POINT
  5
1B5
330
1F
100
AcDbEntity
  8
ConnectionPoints
100
AcDbPoint
 10
-0.0000000000000001
 20
-1.145
 30
-1.983198174666365
  0
POINT
  5
1B6
330
1F
100
AcDbEntity
  8
ConnectionPoints
100
AcDbPoint
 10
-0.0000000000000001
 20
-1.145
 30
-1.983198174666365
  0
POINT
  5
1B7
330
1F
100
AcDbEntity
  8
ConnectionPoints
100
AcDbPoint
 10
-1.37
 20
0.0
 30
0.0000000000000001
  0
ENDSEC
  0
SECTION
  2
OBJECTS
  0
DICTIONARY
  5
C
330
0
100
AcDbDictionary
281
     1
  3
ACAD_DETAILVIEWSTYLE
350
1BF
  3
ACAD_GROUP
350
D
  3
ACAD_LAYOUT
350
1A
  3
ACAD_MATERIAL
350
43
  3
ACAD_MLEADERSTYLE
350
6B
  3
ACAD_MLINESTYLE
350
17
  3
ACAD_PLOTSETTINGS
350
19
  3
ACAD_PLOTSTYLENAME
350
E
  3
ACAD_SCALELIST
350
47
  3
ACAD_SECTIONVIEWSTYLE
350
1C0
  3
ACAD_TABLESTYLE
350
69
  3
ACAD_VISUALSTYLE
350
2A
  3
ACDB_RECOMPOSE_DATA
350
1BC
  3
AcDbVariableDictionary
350
1B8
  0
SUN
  5
6D
330
29
100
AcDbSun
 90
        1
290
     0
 63
     7
421
 16777215
 40
1.0
291
     1
 91
  2455826
 92
 54000000
292
     0
 70
     2
 71
   256
280
     1
  0
DICTIONARY
  5
1BF
102
{ACAD_REACTORS
330
C
102
}
330
C
100
AcDbDictionary
281
     1
  0
DICTIONARY
  5
D
102
{ACAD_REACTORS
330
C
102
}
330
C
100
AcDbDictionary
281
     1
  0
DICTIONARY
  5
1A
102
{ACAD_REACTORS
330
C
102
}
330
C
100
AcDbDictionary
281
     1
  3
Layout1
350
1E
  3
Layout2
350
26
  3
Model
350
22
  0
DICTIONARY
  5
43
102
{ACAD_REACTORS
330
C
102
}
330
C
100
AcDbDictionary
281
     1
  3
ByBlock
350
45
  3
ByLayer
350
44
  3
Global
350
46
  0
DICTIONARY
  5
6B
102
{ACAD_REACTORS
330
C
102
}
330
C
100
AcDbDictionary
281
     1
  3
Standard
350
6C
  0
DICTIONARY
  5
17
102
{ACAD_REACTORS
330
C
102
}
330
C
100
AcDbDictionary
281
     1
  3
Standard
350
18
  0
DICTIONARY
  5
19
102
{ACAD_REACTORS
330
C
102
}
330
C
100
AcDbDictionary
281
     1
  0
ACDBDICTIONARYWDFLT
  5
E
102
{ACAD_REACTORS
330
C
102
}
330
C
100
AcDbDictionary
281
     1
  3
Normal
350
F
100
AcDbDictionaryWithDefault
340
F
  0
DICTIONARY
  5
47
102
{ACAD_REACTORS
330
C
102
}
330
C
100
AcDbDictionary
281
     1
  3
A0
350
48
  3
A1
350
49
  3
A2
350
4A
  3
A3
350
4B
  3
A4
350
4C
  3
A5
350
4D
  3
A6
350
4E
  3
A7
350
4F
  3
A8
350
50
  3
A9
350
51
  3
B0
350
52
  3
B1
350
53
  3
B2
350
54
  3
B3
350
55
  3
B4
350
56
  3
B5
350
57
  3
B6
350
58
  3
B7
350
59
  3
B8
350
5A
  3
B9
350
5B
  3
C0
350
5C
  3
C1
350
5D
  3
C2
350
5E
  3
C3
350
5F
  3
C4
350
60
  3
C5
350
61
  3
C6
350
62
  3
C7
350
63
  3
C8
350
64
  3
C9
350
65
  3
D0
350
66
  3
D1
350
67
  3
D2
350
68
  0
DICTIONARY
  5
1C0
102
{ACAD_REACTORS
330
C
102
}
330
C
100
AcDbDictionary
281
     1
  0
DICTIONARY
  5
69
102
{ACAD_REACTORS
330
C
102
}
330
C
100
AcDbDictionary
281
     1
  3
Standard
350
6A
  0
DICTIONARY
  5
2A
102
{ACAD_REACTORS
330
C
102
}
330
C
100
AcDbDictionary
281
     1
  3
2dWireframe
350
2F
  3
Basic
350
32
  3
Brighten
350
36
  3
ColorChange
350
3A
  3
Conceptual
350
34
  3
Dim
350
35
  3
EdgeColorOff
350
3D
  3
Facepattern
350
39
  3
Flat
350
2B
  3
FlatWithEdges
350
2C
  3
Gouraud
350
2D
  3
GouraudWithEdges
350
2E
  3
Hidden
350
31
  3
JitterOff
350
3B
  3
Linepattern
350
38
  3
OverhangOff
350
3C
  3
Realistic
350
33
  3
Shaded
350
42
  3
Shaded with edges
350
41
  3
Shades of Gray
350
3E
  3
Sketchy
350
3F
  3
Thicken
350
37
  3
Wireframe
350
30
  3
X-Ray
350
40
  0
XRECORD
  5
1BC
102
{ACAD_REACTORS
330
C
102
}
330
C
100
AcDbXrecord
280
     1
 90
        1
330
6A
  0
DICTIONARY
  5
1B8
102
{ACAD_REACTORS
330
C
102
}
330
C
100
AcDbDictionary
281
     1
  3
CANNOSCALE
350
1B9
  3
CMLEADERSTYLE
350
1BE
  3
CTABLESTYLE
350
1BD
  0
LAYOUT
  5
1E
102
{ACAD_REACTORS
330
1A
102
}
330
1A
100
AcDbPlotSettings
  1

  2
none_device
  4

  6

 40
0.0
 41
0.0
 42
0.0
 43
0.0
 44
0.0
 45
0.0
 46
0.0
 47
0.0
 48
0.0
 49
0.0
140
0.0
141
0.0
142
1.0
143
1.0
 70
   688
 72
     0
 73
     0
 74
     5
  7

 75
    16
 76
     0
 77
     2
 78
   300
147
1.0
148
0.0
149
0.0
100
AcDbLayout
  1
Layout1
 70
     1
 71
     1
 10
0.0
 20
0.0
 11
12.0
 21
9.0
 12
0.0
 22
0.0
 32
0.0
 14
1.000000000000000E+20
 24
1.000000000000000E+20
 34
1.000000000000000E+20
 15
-1.000000000000000E+20
 25
-1.000000000000000E+20
 35
-1.000000000000000E+20
146
0.0
 13
0.0
 23
0.0
 33
0.0
 16
1.0
 26
0.0
 36
0.0
 17
0.0
 27
1.0
 37
0.0
 76
     0
330
1B
  0
LAYOUT
  5
26
102
{ACAD_REACTORS
330
1A
102
}
330
1A
100
AcDbPlotSettings
  1

  2
none_device
  4

  6

 40
0.0
 41
0.0
 42
0.0
 43
0.0
 44
0.0
 45
0.0
 46
0.0
 47
0.0
 48
0.0
 49
0.0
140
0.0
141
0.0
142
1.0
143
1.0
 70
   688
 72
     0
 73
     0
 74
     5
  7

 75
    16
 76
     0
 77
     2
 78
   300
147
1.0
148
0.0
149
0.0
100
AcDbLayout
  1
Layout2
 70
     1
 71
     2
 10
0.0
 20
0.0
 11
0.0
 21
0.0
 12
0.0
 22
0.0
 32
0.0
 14
0.0
 24
0.0
 34
0.0
 15
0.0
 25
0.0
 35
0.0
146
0.0
 13
0.0
 23
0.0
 33
0.0
 16
1.0
 26
0.0
 36
0.0
 17
0.0
 27
1.0
 37
0.0
 76
     0
330
23
  0
LAYOUT
  5
22
102
{ACAD_REACTORS
330
1A
102
}
330
1A
100
AcDbPlotSettings
  1

  2
none_device
  4
Letter_(8.50_x_11.00_Inches)
  6

 40
6.35
 41
6.35
 42
6.35000508
 43
6.35000508
 44
215.9
 45
279.4
 46
0.0
 47
0.0
 48
0.0
 49
0.0
140
0.0
141
0.0
142
1.0
143
1.0
 70
  1712
 72
     0
 73
     0
 74
     0
  7

 75
     0
 76
     0
 77
     2
 78
   300
147
1.0
148
0.0
149
0.0
100
AcDbLayout
  1
Model
 70
     1
 71
     0
 10
0.0
 20
0.0
 11
12.0
 21
9.0
 12
0.0
 22
0.0
 32
0.0
 14
1.000000000000000E+20
 24
1.000000000000000E+20
 34
1.000000000000000E+20
 15
-1.000000000000000E+20
 25
-1.000000000000000E+20
 35
-1.000000000000000E+20
146
0.0
 13
0.0
 23
0.0
 33
0.0
 16
1.0
 26
0.0
 36
0.0
 17
0.0
 27
1.0
 37
0.0
 76
     0
330
1F
331
29
  0
MATERIAL
  5
45
102
{ACAD_REACTORS
330
43
102
}
330
43
100
AcDbMaterial
  1
ByBlock
 72
     1
 94
      127
  0
MATERIAL
  5
44
102
{ACAD_REACTORS
330
43
102
}
330
43
100
AcDbMaterial
  1
ByLayer
 72
     1
 94
      127
  0
MATERIAL
  5
46
102
{ACAD_REACTORS
330
43
102
}
330
43
100
AcDbMaterial
  1
Global
 72
     1
 94
      127
  0
MLEADERSTYLE
  5
6C
102
{ACAD_REACTORS
330
6B
102
}
330
6B
100
AcDbMLeaderStyle
179
     2
170
     2
171
     1
172
     0
 90
        2
 40
0.0
 41
0.0
173
     1
 91
-1056964608
340
14
 92
       -2
290
     1
 42
0.09
291
     1
 43
0.36
  3
Standard
341
0
 44
0.18
300

342
11
174
     1
178
     6
175
     1
176
     0
 93
-1056964608
 45
0.18
292
     0
297
     0
 46
0.18
343
0
 94
-1056964608
 47
1.0
 49
1.0
140
1.0
293
     1
141
0.0
294
     1
177
     0
142
1.0
295
     0
296
     0
143
0.125
271
     0
272
     9
273
     9
298
     0
  0
MLINESTYLE
  5
18
102
{ACAD_REACTORS
330
17
102
}
330
17
100
AcDbMlineStyle
  2
Standard
 70
     0
  3

 62
   256
 51
90.0
 52
90.0
 71
     2
 49
0.5
 62
   256
  6
BYLAYER
 49
-0.5
 62
   256
  6
BYLAYER
  0
ACDBPLACEHOLDER
  5
F
102
{ACAD_REACTORS
330
E
102
}
330
E
  0
SCALE
  5
48
102
{ACAD_REACTORS
330
47
102
}
330
47
100
AcDbScale
 70
     0
300
1:1
140
1.0
141
1.0
290
     1
  0
SCALE
  5
49
102
{ACAD_REACTORS
330
47
102
}
330
47
100
AcDbScale
 70
     0
300
1:2
140
1.0
141
2.0
290
     0
  0
SCALE
  5
4A
102
{ACAD_REACTORS
330
47
102
}
330
47
100
AcDbScale
 70
     0
300
1:4
140
1.0
141
4.0
290
     0
  0
SCALE
  5
4B
102
{ACAD_REACTORS
330
47
102
}
330
47
100
AcDbScale
 70
     0
300
1:5
140
1.0
141
5.0
290
     0
  0
SCALE
  5
4C
102
{ACAD_REACTORS
330
47
102
}
330
47
100
AcDbScale
 70
     0
300
1:8
140
1.0
141
8.0
290
     0
  0
SCALE
  5
4D
102
{ACAD_REACTORS
330
47
102
}
330
47
100
AcDbScale
 70
     0
300
1:10
140
1.0
141
10.0
290
     0
  0
SCALE
  5
4E
102
{ACAD_REACTORS
330
47
102
}
330
47
100
AcDbScale
 70
     0
300
1:16
140
1.0
141
16.0
290
     0
  0
SCALE
  5
4F
102
{ACAD_REACTORS
330
47
102
}
330
47
100
AcDbScale
 70
     0
300
1:20
140
1.0
141
20.0
290
     0
  0
SCALE
  5
50
102
{ACAD_REACTORS
330
47
102
}
330
47
100
AcDbScale
 70
     0
300
1:30
140
1.0
141
30.0
290
     0
  0
SCALE
  5
51
102
{ACAD_REACTORS
330
47
102
}
330
47
100
AcDbScale
 70
     0
300
1:40
140
1.0
141
40.0
290
     0
  0
SCALE
  5
52
102
{ACAD_REACTORS
330
47
102
}
330
47
100
AcDbScale
 70
     0
300
1:50
140
1.0
141
50.0
290
     0
  0
SCALE
  5
53
102
{ACAD_REACTORS
330
47
102
}
330
47
100
AcDbScale
 70
     0
300
1:100
140
1.0
141
100.0
290
     0
  0
SCALE
  5
54
102
{ACAD_REACTORS
330
47
102
}
330
47
100
AcDbScale
 70
     0
300
2:1
140
2.0
141
1.0
290
     0
  0
SCALE
  5
55
102
{ACAD_REACTORS
330
47
102
}
330
47
100
AcDbScale
 70
     0
300
4:1
140
4.0
141
1.0
290
     0
  0
SCALE
  5
56
102
{ACAD_REACTORS
330
47
102
}
330
47
100
AcDbScale
 70
     0
300
8:1
140
8.0
141
1.0
290
     0
  0
SCALE
  5
57
102
{ACAD_REACTORS
330
47
102
}
330
47
100
AcDbScale
 70
     0
300
10:1
140
10.0
141
1.0
290
     0
  0
SCALE
  5
58
102
{ACAD_REACTORS
330
47
102
}
330
47
100
AcDbScale
 70
     0
300
100:1
140
100.0
141
1.0
290
     0
  0
SCALE
  5
59
102
{ACAD_REACTORS
330
47
102
}
330
47
100
AcDbScale
 70
     0
300
1/128" = 1'-0"
140
0.0078125
141
12.0
290
     0
  0
SCALE
  5
5A
102
{ACAD_REACTORS
330
47
102
}
330
47
100
AcDbScale
 70
     0
300
1/64" = 1'-0"
140
0.015625
141
12.0
290
     0
  0
SCALE
  5
5B
102
{ACAD_REACTORS
330
47
102
}
330
47
100
AcDbScale
 70
     0
300
1/32" = 1'-0"
140
0.03125
141
12.0
290
     0
  0
SCALE
  5
5C
102
{ACAD_REACTORS
330
47
102
}
330
47
100
AcDbScale
 70
     0
300
1/16" = 1'-0"
140
0.0625
141
12.0
290
     0
  0
SCALE
  5
5D
102
{ACAD_REACTORS
330
47
102
}
330
47
100
AcDbScale
 70
     0
300
3/32" = 1'-0"
140
0.09375
141
12.0
290
     0
  0
SCALE
  5
5E
102
{ACAD_REACTORS
330
47
102
}
330
47
100
AcDbScale
 70
     0
300
1/8" = 1'-0"
140
0.125
141
12.0
290
     0
  0
SCALE
  5
5F
102
{ACAD_REACTORS
330
47
102
}
330
47
100
AcDbScale
 70
     0
300
3/16" = 1'-0"
140
0.1875
141
12.0
290
     0
  0
SCALE
  5
60
102
{ACAD_REACTORS
330
47
102
}
330
47
100
AcDbScale
 70
     0
300
1/4" = 1'-0"
140
0.25
141
12.0
290
     0
  0
SCALE
  5
61
102
{ACAD_REACTORS
330
47
102
}
330
47
100
AcDbScale
 70
     0
300
3/8" = 1'-0"
140
0.375
141
12.0
290
     0
  0
SCALE
  5
62
102
{ACAD_REACTORS
330
47
102
}
330
47
100
AcDbScale
 70
     0
300
1/2" = 1'-0"
140
0.5
141
12.0
290
     0
  0
SCALE
  5
63
102
{ACAD_REACTORS
330
47
102
}
330
47
100
AcDbScale
 70
     0
300
3/4" = 1'-0"
140
0.75
141
12.0
290
     0
  0
SCALE
  5
64
102
{ACAD_REACTORS
330
47
102
}
330
47
100
AcDbScale
 70
     0
300
1" = 1'-0"
140
1.0
141
12.0
290
     0
  0
SCALE
  5
65
102
{ACAD_REACTORS
330
47
102
}
330
47
100
AcDbScale
 70
     0
300
1-1/2" = 1'-0"
140
1.5
141
12.0
290
     0
  0
SCALE
  5
66
102
{ACAD_REACTORS
330
47
102
}
330
47
100
AcDbScale
 70
     0
300
3" = 1'-0"
140
3.0
141
12.0
290
     0
  0
SCALE
  5
67
102
{ACAD_REACTORS
330
47
102
}
330
47
100
AcDbScale
 70
     0
300
6" = 1'-0"
140
6.0
141
12.0
290
     0
  0
SCALE
  5
68
102
{ACAD_REACTORS
330
47
102
}
330
47
100
AcDbScale
 70
     0
300
1'-0" = 1'-0"
140
12.0
141
12.0
290
     0
  0
TABLESTYLE
  5
6A
102
{ACAD_REACTORS
330
69
102
}
102
{ACAD_XDICTIONARY
360
1BA
102
}
330
69
100
AcDbTableStyle
  3
Standard
 70
     0
 71
     0
 40
0.06
 41
0.06
280
     0
281
     0
  7
Standard
140
0.18
170
     2
 62
     0
 63
   257
283
     0
 90
        4
 91
        0
  1

274
    -2
284
     1
 64
     0
275
    -2
285
     1
 65
     0
276
    -2
286
     1
 66
     0
277
    -2
287
     1
 67
     0
278
    -2
288
     1
 68
     0
279
    -2
289
     1
 69
     0
  7
Standard
140
0.25
170
     5
 62
     0
 63
   257
283
     0
 90
        4
 91
        0
  1

274
    -2
284
     1
 64
     0
275
    -2
285
     1
 65
     0
276
    -2
286
     1
 66
     0
277
    -2
287
     1
 67
     0
278
    -2
288
     1
 68
     0
279
    -2
289
     1
 69
     0
  7
Standard
140
0.18
170
     5
 62
     0
 63
   257
283
     0
 90
        4
 91
        0
  1

274
    -2
284
     1
 64
     0
275
    -2
285
     1
 65
     0
276
    -2
286
     1
 66
     0
277
    -2
287
     1
 67
     0
278
    -2
288
     1
 68
     0
279
    -2
289
     1
 69
     0
  0
VISUALSTYLE
  5
2F
102
{ACAD_REACTORS
330
2A
102
}
330
2A
100
AcDbVisualStyle
  2
2dWireframe
 70
     4
177
     3
291
     0
 70
    58
 90
        0
176
     1
 90
        2
176
     1
 90
        0
176
     1
 90
        0
176
     1
 40
0.6
176
     1
 40
30.0
176
     1
 62
     7
420
 16777215
176
     1
 90
        1
176
     1
 90
        4
176
     1
 62
     7
176
     1
 62
   257
176
     1
 90
        1
176
     1
 90
        1
176
     1
 40
1.0
176
     1
 90
        0
176
     1
 62
   257
176
     1
 40
1.0
176
     1
 90
        1
176
     1
 90
        6
176
     1
 90
        2
176
     1
 62
     7
176
     1
 90
        5
176
     1
 90
        0
176
     1
 90
        0
176
     1
290
     0
176
     1
 90
        1
176
     1
 40
0.0
176
     1
 90
        0
176
     1
290
     1
176
     1
290
     1
176
     1
290
     0
176
     1
290
     0
176
     1
290
     0
176
     1
290
     0
176
     1
290
     0
176
     1
290
     0
176
     1
290
     0
176
     1
 90
       50
176
     1
 40
0.0
176
     1
 40
1.0
176
     1
 90
        0
176
     1
 62
    18
420
        0
176
     1
 90
       50
176
     1
 90
        3
176
     1
 62
     5
420
      255
176
     1
290
     0
176
     1
 90
       50
176
     1
 90
       50
176
     1
 90
       50
176
     1
290
     0
176
     1
 90
       50
176
     1
 62
   256
176
     0
 40
1.0
176
     0
 90
        2
176
     1
  1
strokes_ogs.tif
176
     1
290
     0
176
     1
 40
1.0
176
     1
 40
1.0
176
     1
  0
VISUALSTYLE
  5
32
102
{ACAD_REACTORS
330
2A
102
}
330
2A
100
AcDbVisualStyle
  2
Basic
 70
     7
177
     3
291
     1
 70
    58
 90
        1
176
     1
 90
        0
176
     1
 90
        1
176
     1
 90
        0
176
     1
 40
0.6
176
     1
 40
30.0
176
     1
 62
     7
420
 16777215
176
     1
 90
        0
176
     1
 90
        4
176
     1
 62
     7
176
     1
 62
   257
176
     1
 90
        1
176
     1
 90
        1
176
     1
 40
1.0
176
     1
 90
        8
176
     1
 62
     7
176
     1
 40
1.0
176
     1
 90
        1
176
     1
 90
        6
176
     1
 90
        2
176
     1
 62
     7
176
     1
 90
        5
176
     1
 90
        0
176
     1
 90
        0
176
     1
290
     0
176
     1
 90
        1
176
     1
 40
0.0
176
     1
 90
        0
176
     1
290
     0
176
     1
290
     1
176
     1
290
     1
176
     1
290
     0
176
     1
290
     0
176
     1
290
     0
176
     1
290
     0
176
     1
290
     0
176
     1
290
     0
176
     1
 90
       50
176
     1
 40
0.0
176
     1
 40
1.0
176
     1
 90
        0
176
     1
 62
    18
420
        0
176
     1
 90
       50
176
     1
 90
        3
176
     1
 62
     5
420
      255
176
     1
290
     0
176
     1
 90
       50
176
     1
 90
       50
176
     1
 90
       50
176
     1
290
     0
176
     1
 90
       50
176
     1
 62
   256
176
     0
 40
1.0
176
     0
 90
        2
176
     1
  1
strokes_ogs.tif
176
     1
290
     0
176
     1
 40
1.0
176
     1
 40
1.0
176
     1
  0
VISUALSTYLE
  5
36
102
{ACAD_REACTORS
330
2A
102
}
330
2A
100
AcDbVisualStyle
  2
Brighten
 70
    12
177
     3
291
     1
 70
    58
 90
        2
176
     1
 90
        2
176
     1
 90
        0
176
     1
 90
        0
176
     1
 40
0.6
176
     1
 40
30.0
176
     1
 62
     7
420
 16777215
176
     1
 90
        1
176
     1
 90
        4
176
     1
 62
     7
176
     1
 62
   257
176
     1
 90
        1
176
     1
 90
        1
176
     1
 40
1.0
176
     1
 90
        8
176
     1
 62
     7
176
     1
 40
1.0
176
     1
 90
        1
176
     1
 90
        6
176
     1
 90
        2
176
     1
 62
     7
176
     1
 90
        5
176
     1
 90
        0
176
     1
 90
        0
176
     1
290
     0
176
     1
 90
        1
176
     1
 40
50.0
176
     1
 90
        0
176
     1
290
     0
176
     1
290
     1
176
     1
290
     1
176
     1
290
     0
176
     1
290
     0
176
     1
290
     0
176
     1
290
     0
176
     1
290
     0
176
     1
290
     0
176
     1
 90
       50
176
     1
 40
0.0
176
     1
 40
1.0
176
     1
 90
        0
176
     1
 62
    18
420
        0
176
     1
 90
       50
176
     1
 90
        3
176
     1
 62
     5
420
      255
176
     1
290
     0
176
     1
 90
       50
176
     1
 90
       50
176
     1
 90
       50
176
     1
290
     0
176
     1
 90
       50
176
     1
 62
   256
176
     0
 40
1.0
176
     0
 90
        2
176
     1
  1
strokes_ogs.tif
176
     1
290
     0
176
     1
 40
1.0
176
     1
 40
1.0
176
     1
  0
VISUALSTYLE
  5
3A
102
{ACAD_REACTORS
330
2A
102
}
330
2A
100
AcDbVisualStyle
  2
ColorChange
 70
    16
177
     3
291
     1
 70
    58
 90
        2
176
     1
 90
        2
176
     1
 90
        3
176
     1
 90
        0
176
     1
 40
0.6
176
     1
 40
30.0
176
     1
 62
     8
420
  8421504
176
     1
 90
        1
176
     1
 90
        4
176
     1
 62
     7
176
     1
 62
   257
176
     1
 90
        1
176
     1
 90
        1
176
     1
 40
1.0
176
     1
 90
        8
176
     1
 62
     8
420
  8421504
176
     1
 40
1.0
176
     1
 90
        1
176
     1
 90
        6
176
     1
 90
        2
176
     1
 62
     7
176
     1
 90
        5
176
     1
 90
        0
176
     1
 90
        0
176
     1
290
     0
176
     1
 90
        1
176
     1
 40
0.0
176
     1
 90
        0
176
     1
290
     0
176
     1
290
     1
176
     1
290
     1
176
     1
290
     0
176
     1
290
     0
176
     1
290
     0
176
     1
290
     0
176
     1
290
     0
176
     1
290
     0
176
     1
 90
       50
176
     1
 40
0.0
176
     1
 40
1.0
176
     1
 90
        0
176
     1
 62
    18
420
        0
176
     1
 90
       50
176
     1
 90
        3
176
     1
 62
     5
420
      255
176
     1
290
     0
176
     1
 90
       50
176
     1
 90
       50
176
     1
 90
       50
176
     1
290
     0
176
     1
 90
       50
176
     1
 62
   256
176
     0
 40
1.0
176
     0
 90
        2
176
     1
  1
strokes_ogs.tif
176
     1
290
     0
176
     1
 40
1.0
176
     1
 40
1.0
176
     1
  0
VISUALSTYLE
  5
34
102
{ACAD_REACTORS
330
2A
102
}
330
2A
100
AcDbVisualStyle
  2
Conceptual
 70
     9
177
     3
291
     0
 70
    58
 90
        3
176
     1
 90
        2
176
     1
 90
        0
176
     1
 90
        0
176
     1
 40
0.6
176
     1
 40
30.0
176
     1
 62
     7
420
 16777215
176
     1
 90
        2
176
     1
 90
        2
176
     1
 62
     7
176
     1
 62
   257
176
     1
 90
        1
176
     1
 90
        1
176
     1
 40
179.0
176
     1
 90
        8
176
     1
 62
     7
176
     1
 40
1.0
176
     1
 90
        1
176
     1
 90
        6
176
     1
 90
        2
176
     1
 62
     7
176
     1
 90
        3
176
     1
 90
        0
176
     1
 90
        0
176
     1
290
     0
176
     1
 90
        1
176
     1
 40
0.0
176
     1
 90
        0
176
     1
290
     0
176
     1
290
     1
176
     1
290
     1
176
     1
290
     0
176
     1
290
     0
176
     1
290
     0
176
     1
290
     0
176
     1
290
     0
176
     1
290
     0
176
     1
 90
       50
176
     1
 40
0.0
176
     1
 40
1.0
176
     1
 90
        0
176
     1
 62
    18
420
        0
176
     1
 90
       50
176
     1
 90
        3
176
     1
 62
     5
420
      255
176
     1
290
     0
176
     1
 90
       50
176
     1
 90
       50
176
     1
 90
       50
176
     1
290
     0
176
     1
 90
       50
176
     1
 62
   256
176
     0
 40
1.0
176
     0
 90
        2
176
     1
  1
strokes_ogs.tif
176
     1
290
     0
176
     1
 40
1.0
176
     1
 40
1.0
176
     1
  0
VISUALSTYLE
  5
35
102
{ACAD_REACTORS
330
2A
102
}
330
2A
100
AcDbVisualStyle
  2
Dim
 70
    11
177
     3
291
     1
 70
    58
 90
        2
176
     1
 90
        2
176
     1
 90
        0
176
     1
 90
        0
176
     1
 40
0.6
176
     1
 40
30.0
176
     1
 62
     7
420
 16777215
176
     1
 90
        1
176
     1
 90
        4
176
     1
 62
     7
176
     1
 62
   257
176
     1
 90
        1
176
     1
 90
        1
176
     1
 40
1.0
176
     1
 90
        8
176
     1
 62
     7
176
     1
 40
1.0
176
     1
 90
        1
176
     1
 90
        6
176
     1
 90
        2
176
     1
 62
     7
176
     1
 90
        5
176
     1
 90
        0
176
     1
 90
        0
176
     1
290
     0
176
     1
 90
        1
176
     1
 40
-50.0
176
     1
 90
        0
176
     1
290
     0
176
     1
290
     1
176
     1
290
     1
176
     1
290
     0
176
     1
290
     0
176
     1
290
     0
176
     1
290
     0
176
     1
290
     0
176
     1
290
     0
176
     1
 90
       50
176
     1
 40
0.0
176
     1
 40
1.0
176
     1
 90
        0
176
     1
 62
    18
420
        0
176
     1
 90
       50
176
     1
 90
        3
176
     1
 62
     5
420
      255
176
     1
290
     0
176
     1
 90
       50
176
     1
 90
       50
176
     1
 90
       50
176
     1
290
     0
176
     1
 90
       50
176
     1
 62
   256
176
     0
 40
1.0
176
     0
 90
        2
176
     1
  1
strokes_ogs.tif
176
     1
290
     0
176
     1
 40
1.0
176
     1
 40
1.0
176
     1
  0
VISUALSTYLE
  5
3D
102
{ACAD_REACTORS
330
2A
102
}
330
2A
100
AcDbVisualStyle
  2
EdgeColorOff
 70
    22
177
     3
291
     1
 70
    58
 90
        2
176
     0
 90
        2
176
     0
 90
        0
176
     0
 90
        0
176
     0
 40
0.6
176
     0
 40
30.0
176
     0
 62
     7
420
 16777215
176
     0
 90
        1
176
     0
 90
        4
176
     0
 62
     7
176
     0
 62
   257
176
     0
 90
        1
176
     0
 90
        1
176
     0
 40
1.0
176
     0
 90
        8
176
     2
 62
     7
176
     0
 40
1.0
176
     0
 90
        1
176
     0
 90
        6
176
     0
 90
        2
176
     0
 62
     7
176
     0
 90
        5
176
     0
 90
        0
176
     0
 90
        0
176
     0
290
     0
176
     0
 90
        1
176
     0
 40
0.0
176
     0
 90
        0
176
     0
290
     0
176
     0
290
     1
176
     0
290
     1
176
     0
290
     0
176
     0
290
     0
176
     0
290
     0
176
     0
290
     0
176
     0
290
     0
176
     0
290
     0
176
     0
 90
       50
176
     0
 40
0.0
176
     0
 40
1.0
176
     0
 90
        0
176
     0
 62
    18
420
        0
176
     0
 90
       50
176
     0
 90
        3
176
     0
 62
     5
420
      255
176
     0
290
     0
176
     0
 90
       50
176
     0
 90
       50
176
     0
 90
       50
176
     0
290
     0
176
     0
 90
       50
176
     0
 62
   256
176
     0
 40
1.0
176
     0
 90
        2
176
     0
  1
strokes_ogs.tif
176
     0
290
     0
176
     0
 40
1.0
176
     0
 40
1.0
176
     0
  0
VISUALSTYLE
  5
39
102
{ACAD_REACTORS
330
2A
102
}
330
2A
100
AcDbVisualStyle
  2
Facepattern
 70
    15
177
     3
291
     1
 70
    58
 90
        2
176
     1
 90
        2
176
     1
 90
        0
176
     1
 90
        0
176
     1
 40
0.6
176
     1
 40
30.0
176
     1
 62
     7
420
 16777215
176
     1
 90
        1
176
     1
 90
        4
176
     1
 62
     7
176
     1
 62
   257
176
     1
 90
        1
176
     1
 90
        1
176
     1
 40
1.0
176
     1
 90
        8
176
     1
 62
     7
176
     1
 40
1.0
176
     1
 90
        1
176
     1
 90
        6
176
     1
 90
        2
176
     1
 62
     7
176
     1
 90
        5
176
     1
 90
        0
176
     1
 90
        0
176
     1
290
     0
176
     1
 90
        1
176
     1
 40
0.0
176
     1
 90
        0
176
     1
290
     0
176
     1
290
     1
176
     1
290
     1
176
     1
290
     0
176
     1
290
     0
176
     1
290
     0
176
     1
290
     0
176
     1
290
     0
176
     1
290
     0
176
     1
 90
       50
176
     1
 40
0.0
176
     1
 40
1.0
176
     1
 90
        0
176
     1
 62
    18
420
        0
176
     1
 90
       50
176
     1
 90
        3
176
     1
 62
     5
420
      255
176
     1
290
     0
176
     1
 90
       50
176
     1
 90
       50
176
     1
 90
       50
176
     1
290
     0
176
     1
 90
       50
176
     1
 62
   256
176
     0
 40
1.0
176
     0
 90
        2
176
     1
  1
strokes_ogs.tif
176
     1
290
     0
176
     1
 40
1.0
176
     1
 40
1.0
176
     1
  0
VISUALSTYLE
  5
2B
102
{ACAD_REACTORS
330
2A
102
}
330
2A
100
AcDbVisualStyle
  2
Flat
 70
     0
177
     3
291
     1
 70
    58
 90
        2
176
     1
 90
        1
176
     1
 90
        1
176
     1
 90
        2
176
     1
 40
0.6
176
     1
 40
30.0
176
     1
 62
     7
420
 16777215
176
     1
 90
        0
176
     1
 90
        0
176
     1
 62
     7
176
     1
 62
   257
176
     1
 90
        1
176
     1
 90
        1
176
     1
 40
1.0
176
     1
 90
        8
176
     1
 62
     7
176
     1
 40
1.0
176
     1
 90
        1
176
     1
 90
        6
176
     1
 90
        2
176
     1
 62
     7
176
     1
 90
        5
176
     1
 90
        0
176
     1
 90
        0
176
     1
290
     0
176
     1
 90
       13
176
     1
 40
0.0
176
     1
 90
        0
176
     1
290
     0
176
     1
290
     1
176
     1
290
     1
176
     1
290
     0
176
     1
290
     0
176
     1
290
     0
176
     1
290
     0
176
     1
290
     0
176
     1
290
     0
176
     1
 90
       50
176
     1
 40
0.0
176
     1
 40
1.0
176
     1
 90
        0
176
     1
 62
    18
420
        0
176
     1
 90
       50
176
     1
 90
        3
176
     1
 62
     5
420
      255
176
     1
290
     0
176
     1
 90
       50
176
     1
 90
       50
176
     1
 90
       50
176
     1
290
     0
176
     1
 90
       50
176
     1
 62
   256
176
     0
 40
1.0
176
     0
 90
        2
176
     1
  1
strokes_ogs.tif
176
     1
290
     0
176
     1
 40
1.0
176
     1
 40
1.0
176
     1
  0
VISUALSTYLE
  5
2C
102
{ACAD_REACTORS
330
2A
102
}
330
2A
100
AcDbVisualStyle
  2
FlatWithEdges
 70
     1
177
     3
291
     1
 70
    58
 90
        2
176
     1
 90
        1
176
     1
 90
        1
176
     1
 90
        2
176
     1
 40
0.6
176
     1
 40
30.0
176
     1
 62
     7
420
 16777215
176
     1
 90
        1
176
     1
 90
        0
176
     1
 62
     7
176
     1
 62
   257
176
     1
 90
        1
176
     1
 90
        1
176
     1
 40
1.0
176
     1
 90
        0
176
     1
 62
   257
176
     1
 40
1.0
176
     1
 90
        1
176
     1
 90
        6
176
     1
 90
        2
176
     1
 62
     7
176
     1
 90
        5
176
     1
 90
        0
176
     1
 90
        0
176
     1
290
     0
176
     1
 90
       13
176
     1
 40
0.0
176
     1
 90
        0
176
     1
290
     0
176
     1
290
     1
176
     1
290
     1
176
     1
290
     0
176
     1
290
     0
176
     1
290
     0
176
     1
290
     0
176
     1
290
     0
176
     1
290
     0
176
     1
 90
       50
176
     1
 40
0.0
176
     1
 40
1.0
176
     1
 90
        0
176
     1
 62
    18
420
        0
176
     1
 90
       50
176
     1
 90
        3
176
     1
 62
     5
420
      255
176
     1
290
     0
176
     1
 90
       50
176
     1
 90
       50
176
     1
 90
       50
176
     1
290
     0
176
     1
 90
       50
176
     1
 62
   256
176
     0
 40
1.0
176
     0
 90
        2
176
     1
  1
strokes_ogs.tif
176
     1
290
     0
176
     1
 40
1.0
176
     1
 40
1.0
176
     1
  0
VISUALSTYLE
  5
2D
102
{ACAD_REACTORS
330
2A
102
}
330
2A
100
AcDbVisualStyle
  2
Gouraud
 70
     2
177
     3
291
     1
 70
    58
 90
        2
176
     1
 90
        2
176
     1
 90
        1
176
     1
 90
        2
176
     1
 40
0.6
176
     1
 40
30.0
176
     1
 62
     7
420
 16777215
176
     1
 90
        0
176
     1
 90
        0
176
     1
 62
     7
176
     1
 62
   257
176
     1
 90
        1
176
     1
 90
        1
176
     1
 40
1.0
176
     1
 90
        0
176
     1
 62
     7
176
     1
 40
1.0
176
     1
 90
        1
176
     1
 90
        6
176
     1
 90
        2
176
     1
 62
     7
176
     1
 90
        5
176
     1
 90
        0
176
     1
 90
        0
176
     1
290
     0
176
     1
 90
       13
176
     1
 40
0.0
176
     1
 90
        0
176
     1
290
     0
176
     1
290
     1
176
     1
290
     1
176
     1
290
     0
176
     1
290
     0
176
     1
290
     0
176
     1
290
     0
176
     1
290
     0
176
     1
290
     0
176
     1
 90
       50
176
     1
 40
0.0
176
     1
 40
1.0
176
     1
 90
        0
176
     1
 62
    18
420
        0
176
     1
 90
       50
176
     1
 90
        3
176
     1
 62
     5
420
      255
176
     1
290
     0
176
     1
 90
       50
176
     1
 90
       50
176
     1
 90
       50
176
     1
290
     0
176
     1
 90
       50
176
     1
 62
   256
176
     0
 40
1.0
176
     0
 90
        2
176
     1
  1
strokes_ogs.tif
176
     1
290
     0
176
     1
 40
1.0
176
     1
 40
1.0
176
     1
  0
VISUALSTYLE
  5
2E
102
{ACAD_REACTORS
330
2A
102
}
330
2A
100
AcDbVisualStyle
  2
GouraudWithEdges
 70
     3
177
     3
291
     1
 70
    58
 90
        2
176
     1
 90
        2
176
     1
 90
        1
176
     1
 90
        2
176
     1
 40
0.6
176
     1
 40
30.0
176
     1
 62
     7
420
 16777215
176
     1
 90
        1
176
     1
 90
        0
176
     1
 62
     7
176
     1
 62
   257
176
     1
 90
        1
176
     1
 90
        1
176
     1
 40
1.0
176
     1
 90
        0
176
     1
 62
   257
176
     1
 40
1.0
176
     1
 90
        1
176
     1
 90
        6
176
     1
 90
        2
176
     1
 62
     7
176
     1
 90
        5
176
     1
 90
        0
176
     1
 90
        0
176
     1
290
     0
176
     1
 90
       13
176
     1
 40
0.0
176
     1
 90
        0
176
     1
290
     0
176
     1
290
     1
176
     1
290
     1
176
     1
290
     0
176
     1
290
     0
176
     1
290
     0
176
     1
290
     0
176
     1
290
     0
176
     1
290
     0
176
     1
 90
       50
176
     1
 40
0.0
176
     1
 40
1.0
176
     1
 90
        0
176
     1
 62
    18
420
        0
176
     1
 90
       50
176
     1
 90
        3
176
     1
 62
     5
420
      255
176
     1
290
     0
176
     1
 90
       50
176
     1
 90
       50
176
     1
 90
       50
176
     1
290
     0
176
     1
 90
       50
176
     1
 62
   256
176
     0
 40
1.0
176
     0
 90
        2
176
     1
  1
strokes_ogs.tif
176
     1
290
     0
176
     1
 40
1.0
176
     1
 40
1.0
176
     1
  0
VISUALSTYLE
  5
31
102
{ACAD_REACTORS
330
2A
102
}
330
2A
100
AcDbVisualStyle
  2
Hidden
 70
     6
177
     3
291
     0
 70
    58
 90
        1
176
     1
 90
        2
176
     1
 90
        2
176
     1
 90
        0
176
     1
 40
0.6
176
     1
 40
30.0
176
     1
 62
     7
420
 16777215
176
     1
 90
        2
176
     1
 90
        2
176
     1
 62
     7
176
     1
 62
   257
176
     1
 90
        2
176
     1
 90
        1
176
     1
 40
40.0
176
     1
 90
        0
176
     1
 62
   257
176
     1
 40
1.0
176
     1
 90
        1
176
     1
 90
        6
176
     1
 90
        2
176
     1
 62
     7
176
     1
 90
        3
176
     1
 90
        0
176
     1
 90
        0
176
     1
290
     0
176
     1
 90
        1
176
     1
 40
0.0
176
     1
 90
        0
176
     1
290
     0
176
     1
290
     1
176
     1
290
     1
176
     1
290
     0
176
     1
290
     0
176
     1
290
     0
176
     1
290
     0
176
     1
290
     0
176
     1
290
     0
176
     1
 90
       50
176
     1
 40
0.0
176
     1
 40
1.0
176
     1
 90
        0
176
     1
 62
    18
420
        0
176
     1
 90
       50
176
     1
 90
        3
176
     1
 62
     5
420
      255
176
     1
290
     0
176
     1
 90
       50
176
     1
 90
       50
176
     1
 90
       50
176
     1
290
     0
176
     1
 90
       50
176
     1
 62
   256
176
     0
 40
1.0
176
     0
 90
        2
176
     1
  1
strokes_ogs.tif
176
     1
290
     0
176
     1
 40
1.0
176
     1
 40
1.0
176
     1
  0
VISUALSTYLE
  5
3B
102
{ACAD_REACTORS
330
2A
102
}
330
2A
100
AcDbVisualStyle
  2
JitterOff
 70
    20
177
     3
291
     1
 70
    58
 90
        2
176
     0
 90
        2
176
     0
 90
        0
176
     0
 90
        0
176
     0
 40
0.6
176
     0
 40
30.0
176
     0
 62
     7
420
 16777215
176
     0
 90
        1
176
     0
 90
        4
176
     0
 62
     7
176
     0
 62
   257
176
     0
 90
        1
176
     0
 90
        1
176
     0
 40
1.0
176
     0
 90
       10
176
     2
 62
     7
176
     0
 40
1.0
176
     0
 90
        1
176
     0
 90
        6
176
     0
 90
        2
176
     0
 62
     7
176
     0
 90
        5
176
     0
 90
        0
176
     0
 90
        0
176
     0
290
     0
176
     0
 90
        1
176
     0
 40
0.0
176
     0
 90
        0
176
     0
290
     0
176
     0
290
     1
176
     0
290
     1
176
     0
290
     0
176
     0
290
     0
176
     0
290
     0
176
     0
290
     0
176
     0
290
     0
176
     0
290
     0
176
     0
 90
       50
176
     0
 40
0.0
176
     0
 40
1.0
176
     0
 90
        0
176
     0
 62
    18
420
        0
176
     0
 90
       50
176
     0
 90
        3
176
     0
 62
     5
420
      255
176
     0
290
     0
176
     0
 90
       50
176
     0
 90
       50
176
     0
 90
       50
176
     0
290
     0
176
     0
 90
       50
176
     0
 62
   256
176
     0
 40
1.0
176
     0
 90
        2
176
     0
  1
strokes_ogs.tif
176
     0
290
     0
176
     0
 40
1.0
176
     0
 40
1.0
176
     0
  0
VISUALSTYLE
  5
38
102
{ACAD_REACTORS
330
2A
102
}
330
2A
100
AcDbVisualStyle
  2
Linepattern
 70
    14
177
     3
291
     1
 70
    58
 90
        2
176
     1
 90
        2
176
     1
 90
        0
176
     1
 90
        0
176
     1
 40
0.6
176
     1
 40
30.0
176
     1
 62
     7
420
 16777215
176
     1
 90
        1
176
     1
 90
        4
176
     1
 62
     7
176
     1
 62
   257
176
     1
 90
        7
176
     1
 90
        7
176
     1
 40
1.0
176
     1
 90
        8
176
     1
 62
     7
176
     1
 40
1.0
176
     1
 90
        1
176
     1
 90
        6
176
     1
 90
        2
176
     1
 62
     7
176
     1
 90
        5
176
     1
 90
        0
176
     1
 90
        0
176
     1
290
     0
176
     1
 90
        1
176
     1
 40
0.0
176
     1
 90
        0
176
     1
290
     0
176
     1
290
     1
176
     1
290
     1
176
     1
290
     0
176
     1
290
     0
176
     1
290
     0
176
     1
290
     0
176
     1
290
     0
176
     1
290
     0
176
     1
 90
       50
176
     1
 40
0.0
176
     1
 40
1.0
176
     1
 90
        0
176
     1
 62
    18
420
        0
176
     1
 90
       50
176
     1
 90
        3
176
     1
 62
     5
420
      255
176
     1
290
     0
176
     1
 90
       50
176
     1
 90
       50
176
     1
 90
       50
176
     1
290
     0
176
     1
 90
       50
176
     1
 62
   256
176
     0
 40
1.0
176
     0
 90
        2
176
     1
  1
strokes_ogs.tif
176
     1
290
     0
176
     1
 40
1.0
176
     1
 40
1.0
176
     1
  0
VISUALSTYLE
  5
3C
102
{ACAD_REACTORS
330
2A
102
}
330
2A
100
AcDbVisualStyle
  2
OverhangOff
 70
    21
177
     3
291
     1
 70
    58
 90
        2
176
     0
 90
        2
176
     0
 90
        0
176
     0
 90
        0
176
     0
 40
0.6
176
     0
 40
30.0
176
     0
 62
     7
420
 16777215
176
     0
 90
        1
176
     0
 90
        4
176
     0
 62
     7
176
     0
 62
   257
176
     0
 90
        1
176
     0
 90
        1
176
     0
 40
1.0
176
     0
 90
        9
176
     2
 62
     7
176
     0
 40
1.0
176
     0
 90
        1
176
     0
 90
        6
176
     0
 90
        2
176
     0
 62
     7
176
     0
 90
        5
176
     0
 90
        0
176
     0
 90
        0
176
     0
290
     0
176
     0
 90
        1
176
     0
 40
0.0
176
     0
 90
        0
176
     0
290
     0
176
     0
290
     1
176
     0
290
     1
176
     0
290
     0
176
     0
290
     0
176
     0
290
     0
176
     0
290
     0
176
     0
290
     0
176
     0
290
     0
176
     0
 90
       50
176
     0
 40
0.0
176
     0
 40
1.0
176
     0
 90
        0
176
     0
 62
    18
420
        0
176
     0
 90
       50
176
     0
 90
        3
176
     0
 62
     5
420
      255
176
     0
290
     0
176
     0
 90
       50
176
     0
 90
       50
176
     0
 90
       50
176
     0
290
     0
176
     0
 90
       50
176
     0
 62
   256
176
     0
 40
1.0
176
     0
 90
        2
176
     0
  1
strokes_ogs.tif
176
     0
290
     0
176
     0
 40
1.0
176
     0
 40
1.0
176
     0
  0
VISUALSTYLE
  5
33
102
{ACAD_REACTORS
330
2A
102
}
330
2A
100
AcDbVisualStyle
  2
Realistic
 70
     8
177
     3
291
     0
 70
    58
 90
        2
176
     1
 90
        3
176
     1
 90
        0
176
     1
 90
        2
176
     1
 40
0.6
176
     1
 40
30.0
176
     1
 62
     7
420
 16777215
176
     1
 90
        0
176
     1
 90
        0
176
     1
 62
     7
176
     1
 62
   257
176
     1
 90
        1
176
     1
 90
        1
176
     1
 40
1.0
176
     1
 90
        8
176
     1
 62
   257
176
     1
 40
1.0
176
     1
 90
        1
176
     1
 90
        6
176
     1
 90
        2
176
     1
 62
     7
176
     1
 90
        3
176
     1
 90
        0
176
     1
 90
        0
176
     1
290
     0
176
     1
 90
       13
176
     1
 40
0.0
176
     1
 90
        0
176
     1
290
     0
176
     1
290
     1
176
     1
290
     1
176
     1
290
     0
176
     1
290
     0
176
     1
290
     0
176
     1
290
     0
176
     1
290
     0
176
     1
290
     0
176
     1
 90
       50
176
     1
 40
0.0
176
     1
 40
1.0
176
     1
 90
        0
176
     1
 62
    18
420
        0
176
     1
 90
       50
176
     1
 90
        3
176
     1
 62
     5
420
      255
176
     1
290
     0
176
     1
 90
       50
176
     1
 90
       50
176
     1
 90
       50
176
     1
290
     0
176
     1
 90
       50
176
     1
 62
   256
176
     0
 40
1.0
176
     0
 90
        2
176
     1
  1
strokes_ogs.tif
176
     1
290
     0
176
     1
 40
1.0
176
     1
 40
1.0
176
     1
  0
VISUALSTYLE
  5
42
102
{ACAD_REACTORS
330
2A
102
}
330
2A
100
AcDbVisualStyle
  2
Shaded
 70
    27
177
     3
291
     0
 70
    58
 90
        2
176
     1
 90
        2
176
     1
 90
        1
176
     1
 90
        2
176
     1
 40
0.6
176
     1
 40
30.0
176
     1
 62
     7
420
 16777215
176
     1
 90
        0
176
     1
 90
        4
176
     1
 62
     7
176
     1
 62
   257
176
     1
 90
        1
176
     1
 90
        1
176
     1
 40
1.0
176
     1
 90
        8
176
     1
 62
   257
176
     1
 40
1.0
176
     1
 90
        1
176
     1
 90
        6
176
     1
 90
        2
176
     1
 62
     8
420
  7895160
176
     1
 90
        3
176
     1
 90
        0
176
     1
 90
        0
176
     1
290
     0
176
     1
 90
        5
176
     1
 40
0.0
176
     1
 90
        0
176
     1
290
     0
176
     1
290
     1
176
     1
290
     1
176
     1
290
     0
176
     1
290
     0
176
     1
290
     0
176
     1
290
     0
176
     1
290
     0
176
     1
290
     0
176
     1
 90
       50
176
     1
 40
0.0
176
     1
 40
1.0
176
     1
 90
        0
176
     1
 62
    18
420
        0
176
     1
 90
       50
176
     1
 90
        3
176
     1
 62
     5
420
      255
176
     1
290
     0
176
     1
 90
       50
176
     1
 90
       50
176
     1
 90
       50
176
     1
290
     0
176
     1
 90
       50
176
     1
 62
   256
176
     0
 40
1.0
176
     0
 90
        2
176
     1
  1
strokes_ogs.tif
176
     1
290
     0
176
     1
 40
1.0
176
     1
 40
1.0
176
     1
  0
VISUALSTYLE
  5
41
102
{ACAD_REACTORS
330
2A
102
}
330
2A
100
AcDbVisualStyle
  2
Shaded with edges
 70
    26
177
     3
291
     0
 70
    58
 90
        2
176
     1
 90
        2
176
     1
 90
        1
176
     1
 90
        2
176
     1
 40
0.6
176
     1
 40
30.0
176
     1
 62
     7
420
 16777215
176
     1
 90
        1
176
     1
 90
       10
176
     1
 62
     7
176
     1
 62
   257
176
     1
 90
        2
176
     1
 90
        1
176
     1
 40
1.0
176
     1
 90
        8
176
     1
 62
   257
176
     1
 40
1.0
176
     1
 90
        1
176
     1
 90
        6
176
     1
 90
        2
176
     1
 62
     7
176
     1
 90
        3
176
     1
 90
        0
176
     1
 90
        0
176
     1
290
     0
176
     1
 90
        5
176
     1
 40
0.0
176
     1
 90
        0
176
     1
290
     0
176
     1
290
     1
176
     1
290
     1
176
     1
290
     0
176
     1
290
     0
176
     1
290
     0
176
     1
290
     0
176
     1
290
     0
176
     1
290
     0
176
     1
 90
       50
176
     1
 40
0.0
176
     1
 40
1.0
176
     1
 90
        0
176
     1
 62
    18
420
        0
176
     1
 90
       50
176
     1
 90
        3
176
     1
 62
     5
420
      255
176
     1
290
     0
176
     1
 90
       50
176
     1
 90
       50
176
     1
 90
       50
176
     1
290
     0
176
     1
 90
       50
176
     1
 62
   256
176
     0
 40
1.0
176
     0
 90
        2
176
     1
  1
strokes_ogs.tif
176
     1
290
     0
176
     1
 40
1.0
176
     1
 40
1.0
176
     1
  0
VISUALSTYLE
  5
3E
102
{ACAD_REACTORS
330
2A
102
}
330
2A
100
AcDbVisualStyle
  2
Shades of Gray
 70
    23
177
     3
291
     0
 70
    58
 90
        2
176
     1
 90
        2
176
     1
 90
        3
176
     1
 90
        0
176
     1
 40
0.6
176
     1
 40
30.0
176
     1
 62
     7
420
 16777215
176
     1
 90
        2
176
     1
 90
        2
176
     1
 62
     7
176
     1
 62
     7
176
     1
 90
        1
176
     1
 90
        1
176
     1
 40
40.0
176
     1
 90
        8
176
     1
 62
     7
176
     1
 40
1.0
176
     1
 90
        1
176
     1
 90
        6
176
     1
 90
        2
176
     1
 62
     7
176
     1
 90
        3
176
     1
 90
        0
176
     1
 90
        0
176
     1
290
     0
176
     1
 90
        1
176
     1
 40
0.0
176
     1
 90
        0
176
     1
290
     0
176
     1
290
     1
176
     1
290
     1
176
     1
290
     0
176
     1
290
     0
176
     1
290
     0
176
     1
290
     0
176
     1
290
     0
176
     1
290
     0
176
     1
 90
       50
176
     1
 40
0.0
176
     1
 40
1.0
176
     1
 90
        0
176
     1
 62
    18
420
        0
176
     1
 90
       50
176
     1
 90
        3
176
     1
 62
     5
420
      255
176
     1
290
     0
176
     1
 90
       50
176
     1
 90
       50
176
     1
 90
       50
176
     1
290
     0
176
     1
 90
       50
176
     1
 62
   256
176
     0
 40
1.0
176
     0
 90
        2
176
     1
  1
strokes_ogs.tif
176
     1
290
     0
176
     1
 40
1.0
176
     1
 40
1.0
176
     1
  0
VISUALSTYLE
  5
3F
102
{ACAD_REACTORS
330
2A
102
}
330
2A
100
AcDbVisualStyle
  2
Sketchy
 70
    24
177
     3
291
     0
 70
    58
 90
        1
176
     1
 90
        2
176
     1
 90
        2
176
     1
 90
        0
176
     1
 40
0.6
176
     1
 40
30.0
176
     1
 62
     7
420
 16777215
176
     1
 90
        2
176
     1
 90
        2
176
     1
 62
     7
176
     1
 62
     7
176
     1
 90
        1
176
     1
 90
        1
176
     1
 40
40.0
176
     1
 90
       11
176
     1
 62
     7
176
     1
 40
1.0
176
     1
 90
        1
176
     1
 90
        6
176
     1
 90
        2
176
     1
 62
     7
176
     1
 90
        6
176
     1
 90
        0
176
     1
 90
        0
176
     1
290
     0
176
     1
 90
        1
176
     1
 40
0.0
176
     1
 90
        0
176
     1
290
     0
176
     1
290
     1
176
     1
290
     1
176
     1
290
     0
176
     1
290
     0
176
     1
290
     0
176
     1
290
     0
176
     1
290
     0
176
     1
290
     0
176
     1
 90
       50
176
     1
 40
0.0
176
     1
 40
1.0
176
     1
 90
        0
176
     1
 62
    18
420
        0
176
     1
 90
       50
176
     1
 90
        3
176
     1
 62
     5
420
      255
176
     1
290
     0
176
     1
 90
       50
176
     1
 90
       50
176
     1
 90
       50
176
     1
290
     0
176
     1
 90
       50
176
     1
 62
   256
176
     0
 40
1.0
176
     0
 90
        2
176
     1
  1
strokes_ogs.tif
176
     1
290
     0
176
     1
 40
1.0
176
     1
 40
1.0
176
     1
  0
VISUALSTYLE
  5
37
102
{ACAD_REACTORS
330
2A
102
}
330
2A
100
AcDbVisualStyle
  2
Thicken
 70
    13
177
     3
291
     1
 70
    58
 90
        2
176
     1
 90
        2
176
     1
 90
        0
176
     1
 90
        0
176
     1
 40
0.6
176
     1
 40
30.0
176
     1
 62
     7
420
 16777215
176
     1
 90
        1
176
     1
 90
        4
176
     1
 62
     7
176
     1
 62
   257
176
     1
 90
        1
176
     1
 90
        1
176
     1
 40
1.0
176
     1
 90
       12
176
     1
 62
     7
176
     1
 40
1.0
176
     1
 90
        1
176
     1
 90
        6
176
     1
 90
        2
176
     1
 62
     7
176
     1
 90
        5
176
     1
 90
        0
176
     1
 90
        0
176
     1
290
     0
176
     1
 90
        1
176
     1
 40
0.0
176
     1
 90
        0
176
     1
290
     0
176
     1
290
     1
176
     1
290
     1
176
     1
290
     0
176
     1
290
     0
176
     1
290
     0
176
     1
290
     0
176
     1
290
     0
176
     1
290
     0
176
     1
 90
       50
176
     1
 40
0.0
176
     1
 40
1.0
176
     1
 90
        0
176
     1
 62
    18
420
        0
176
     1
 90
       50
176
     1
 90
        3
176
     1
 62
     5
420
      255
176
     1
290
     0
176
     1
 90
       50
176
     1
 90
       50
176
     1
 90
       50
176
     1
290
     0
176
     1
 90
       50
176
     1
 62
   256
176
     0
 40
1.0
176
     0
 90
        2
176
     1
  1
strokes_ogs.tif
176
     1
290
     0
176
     1
 40
1.0
176
     1
 40
1.0
176
     1
  0
VISUALSTYLE
  5
30
102
{ACAD_REACTORS
330
2A
102
}
330
2A
100
AcDbVisualStyle
  2
Wireframe
 70
     5
177
     3
291
     0
 70
    58
 90
        0
176
     1
 90
        2
176
     1
 90
        0
176
     1
 90
        0
176
     1
 40
0.6
176
     1
 40
30.0
176
     1
 62
     7
420
 16777215
176
     1
 90
        1
176
     1
 90
        4
176
     1
 62
     7
176
     1
 62
   257
176
     1
 90
        1
176
     1
 90
        1
176
     1
 40
1.0
176
     1
 90
        0
176
     1
 62
   257
176
     1
 40
1.0
176
     1
 90
        1
176
     1
 90
        6
176
     1
 90
        2
176
     1
 62
     7
176
     1
 90
        3
176
     1
 90
        0
176
     1
 90
        0
176
     1
290
     0
176
     1
 90
        1
176
     1
 40
0.0
176
     1
 90
        0
176
     1
290
     0
176
     1
290
     1
176
     1
290
     1
176
     1
290
     0
176
     1
290
     0
176
     1
290
     0
176
     1
290
     0
176
     1
290
     0
176
     1
290
     0
176
     1
 90
       50
176
     1
 40
0.0
176
     1
 40
1.0
176
     1
 90
        0
176
     1
 62
    18
420
        0
176
     1
 90
       50
176
     1
 90
        3
176
     1
 62
     5
420
      255
176
     1
290
     0
176
     1
 90
       50
176
     1
 90
       50
176
     1
 90
       50
176
     1
290
     0
176
     1
 90
       50
176
     1
 62
   256
176
     0
 40
1.0
176
     0
 90
        2
176
     1
  1
strokes_ogs.tif
176
     1
290
     0
176
     1
 40
1.0
176
     1
 40
1.0
176
     1
  0
VISUALSTYLE
  5
40
102
{ACAD_REACTORS
330
2A
102
}
330
2A
100
AcDbVisualStyle
  2
X-Ray
 70
    25
177
     3
291
     0
 70
    58
 90
        2
176
     1
 90
        2
176
     1
 90
        1
176
     1
 90
        1
176
     1
 40
0.5
176
     1
 40
30.0
176
     1
 62
     7
420
 16777215
176
     1
 90
        1
176
     1
 90
        0
176
     1
 62
     7
176
     1
 62
   257
176
     1
 90
        1
176
     1
 90
        1
176
     1
 40
1.0
176
     1
 90
        8
176
     1
 62
     7
176
     1
 40
1.0
176
     1
 90
        1
176
     1
 90
        6
176
     1
 90
        2
176
     1
 62
     7
176
     1
 90
        3
176
     1
 90
        0
176
     1
 90
        0
176
     1
290
     0
176
     1
 90
       13
176
     1
 40
0.0
176
     1
 90
        0
176
     1
290
     0
176
     1
290
     1
176
     1
290
     1
176
     1
290
     0
176
     1
290
     0
176
     1
290
     0
176
     1
290
     0
176
     1
290
     0
176
     1
290
     0
176
     1
 90
       50
176
     1
 40
0.0
176
     1
 40
1.0
176
     1
 90
        0
176
     1
 62
    18
420
        0
176
     1
 90
       50
176
     1
 90
        3
176
     1
 62
     5
420
      255
176
     1
290
     0
176
     1
 90
       50
176
     1
 90
       50
176
     1
 90
       50
176
     1
290
     0
176
     1
 90
       50
176
     1
 62
   256
176
     0
 40
1.0
176
     0
 90
        2
176
     1
  1
strokes_ogs.tif
176
     1
290
     0
176
     1
 40
1.0
176
     1
 40
1.0
176
     1
  0
DICTIONARYVAR
  5
1B9
102
{ACAD_REACTORS
330
1B8
102
}
330
1B8
100
DictionaryVariables
280
     0
  1
1:1
  0
DICTIONARYVAR
  5
1BE
102
{ACAD_REACTORS
330
1B8
102
}
330
1B8
100
DictionaryVariables
280
     0
  1
Standard
  0
DICTIONARYVAR
  5
1BD
102
{ACAD_REACTORS
330
1B8
102
}
330
1B8
100
DictionaryVariables
280
     0
  1
Standard
  0
DICTIONARY
  5
1BA
330
6A
100
AcDbDictionary
280
     1
281
     1
  3
ACAD_ROUNDTRIP_2008_TABLESTYLE_CELLSTYLEMAP
360
1BB
  0
CELLSTYLEMAP
  5
1BB
102
{ACAD_REACTORS
330
1BA
102
}
330
1BA
100
AcDbCellStyleMap
 90
        3
300
CELLSTYLE
  1
TABLEFORMAT_BEGIN
 90
        5
170
     1
 91
        0
 92
    32768
 62
   257
 93
        1
300
CONTENTFORMAT
  1
CONTENTFORMAT_BEGIN
 90
        0
 91
        0
 92
        4
 93
        0
300

 40
0.0
140
1.0
 94
        5
 62
     0
340
11
144
0.25
309
CONTENTFORMAT_END
171
     1
301
MARGIN
  1
CELLMARGIN_BEGIN
 40
0.06
 40
0.06
 40
0.06
 40
0.06
 40
0.06
 40
0.06
309
CELLMARGIN_END
 94
        6
 95
        1
302
GRIDFORMAT
  1
GRIDFORMAT_BEGIN
 90
        0
 91
        1
 62
     0
 92
       -2
340
14
 93
        0
 40
0.045
309
GRIDFORMAT_END
 95
        2
302
GRIDFORMAT
  1
GRIDFORMAT_BEGIN
 90
        0
 91
        1
 62
     0
 92
       -2
340
14
 93
        0
 40
0.045
309
GRIDFORMAT_END
 95
        4
302
GRIDFORMAT
  1
GRIDFORMAT_BEGIN
 90
        0
 91
        1
 62
     0
 92
       -2
340
14
 93
        0
 40
0.045
309
GRIDFORMAT_END
 95
        8
302
GRIDFORMAT
  1
GRIDFORMAT_BEGIN
 90
        0
 91
        1
 62
     0
 92
       -2
340
14
 93
        0
 40
0.045
309
GRIDFORMAT_END
 95
       16
302
GRIDFORMAT
  1
GRIDFORMAT_BEGIN
 90
        0
 91
        1
 62
     0
 92
       -2
340
14
 93
        0
 40
0.045
309
GRIDFORMAT_END
 95
       32
302
GRIDFORMAT
  1
GRIDFORMAT_BEGIN
 90
        0
 91
        1
 62
     0
 92
       -2
340
14
 93
        0
 40
0.045
309
GRIDFORMAT_END
309
TABLEFORMAT_END
  1
CELLSTYLE_BEGIN
 90
        1
 91
        1
300
_TITLE
309
CELLSTYLE_END
300
CELLSTYLE
  1
TABLEFORMAT_BEGIN
 90
        5
170
     1
 91
        0
 92
        0
 62
   257
 93
        1
300
CONTENTFORMAT
  1
CONTENTFORMAT_BEGIN
 90
        0
 91
        0
 92
        4
 93
        0
300

 40
0.0
140
1.0
 94
        5
 62
     0
340
11
144
0.18
309
CONTENTFORMAT_END
171
     1
301
MARGIN
  1
CELLMARGIN_BEGIN
 40
0.06
 40
0.06
 40
0.06
 40
0.06
 40
0.06
 40
0.06
309
CELLMARGIN_END
 94
        6
 95
        1
302
GRIDFORMAT
  1
GRIDFORMAT_BEGIN
 90
        0
 91
        1
 62
     0
 92
       -2
340
14
 93
        0
 40
0.045
309
GRIDFORMAT_END
 95
        2
302
GRIDFORMAT
  1
GRIDFORMAT_BEGIN
 90
        0
 91
        1
 62
     0
 92
       -2
340
14
 93
        0
 40
0.045
309
GRIDFORMAT_END
 95
        4
302
GRIDFORMAT
  1
GRIDFORMAT_BEGIN
 90
        0
 91
        1
 62
     0
 92
       -2
340
14
 93
        0
 40
0.045
309
GRIDFORMAT_END
 95
        8
302
GRIDFORMAT
  1
GRIDFORMAT_BEGIN
 90
        0
 91
        1
 62
     0
 92
       -2
340
14
 93
        0
 40
0.045
309
GRIDFORMAT_END
 95
       16
302
GRIDFORMAT
  1
GRIDFORMAT_BEGIN
 90
        0
 91
        1
 62
     0
 92
       -2
340
14
 93
        0
 40
0.045
309
GRIDFORMAT_END
 95
       32
302
GRIDFORMAT
  1
GRIDFORMAT_BEGIN
 90
        0
 91
        1
 62
     0
 92
       -2
340
14
 93
        0
 40
0.045
309
GRIDFORMAT_END
309
TABLEFORMAT_END
  1
CELLSTYLE_BEGIN
 90
        2
 91
        1
300
_HEADER
309
CELLSTYLE_END
300
CELLSTYLE
  1
TABLEFORMAT_BEGIN
 90
        5
170
     1
 91
        0
 92
        0
 62
   257
 93
        1
300
CONTENTFORMAT
  1
CONTENTFORMAT_BEGIN
 90
        0
 91
        0
 92
        4
 93
        0
300

 40
0.0
140
1.0
 94
        2
 62
     0
340
11
144
0.18
309
CONTENTFORMAT_END
171
     1
301
MARGIN
  1
CELLMARGIN_BEGIN
 40
0.06
 40
0.06
 40
0.06
 40
0.06
 40
0.06
 40
0.06
309
CELLMARGIN_END
 94
        6
 95
        1
302
GRIDFORMAT
  1
GRIDFORMAT_BEGIN
 90
        0
 91
        1
 62
     0
 92
       -2
340
14
 93
        0
 40
0.045
309
GRIDFORMAT_END
 95
        2
302
GRIDFORMAT
  1
GRIDFORMAT_BEGIN
 90
        0
 91
        1
 62
     0
 92
       -2
340
14
 93
        0
 40
0.045
309
GRIDFORMAT_END
 95
        4
302
GRIDFORMAT
  1
GRIDFORMAT_BEGIN
 90
        0
 91
        1
 62
     0
 92
       -2
340
14
 93
        0
 40
0.045
309
GRIDFORMAT_END
 95
        8
302
GRIDFORMAT
  1
GRIDFORMAT_BEGIN
 90
        0
 91
        1
 62
     0
 92
       -2
340
14
 93
        0
 40
0.045
309
GRIDFORMAT_END
 95
       16
302
GRIDFORMAT
  1
GRIDFORMAT_BEGIN
 90
        0
 91
        1
 62
     0
 92
       -2
340
14
 93
        0
 40
0.045
309
GRIDFORMAT_END
 95
       32
302
GRIDFORMAT
  1
GRIDFORMAT_BEGIN
 90
        0
 91
        1
 62
     0
 92
       -2
340
14
 93
        0
 40
0.045
309
GRIDFORMAT_END
309
TABLEFORMAT_END
  1
CELLSTYLE_BEGIN
 90
        3
 91
        2
300
_DATA
309
CELLSTYLE_END
  0
ENDSEC
  0
EOF