0
SECTION
  2
HEADER
  9
$ACADVER
  1
AC1027
  9
$ACADMAINTVER
 70
     8
  9
$DWGCODEPAGE
  3
ANSI_1252
  9
$REQUIREDVERSIONS
160
                 0
  9
$COMMENTS
  1
File was created by Cadenas
  9
$CUSTOMPROPERTYTAG
  1
NN
  9
$CUSTOMPROPERTY
  1
Set Screw Two-Bolt Pillow Block Inch Bore - Polymer Housing, Corrosion Resistant Insert
  9
$CUSTOMPROPERTYTAG
  1
NT
  9
$CUSTOMPROPERTY
  1
SC Pillow Block Bearings -(Normal Duty) -Corrosion Resistant Insert -Polymer Housed -E-Z KLEEN
  9
$CUSTOMPROPERTYTAG
  1
NB
  9
$CUSTOMPROPERTY
  1
058596
  9
$CUSTOMPROPERTYTAG
  1
NBSYN
  9
$CUSTOMPROPERTY
  1
$PN.
  9
$CUSTOMPROPERTYTAG
  1
LINA
  9
$CUSTOMPROPERTY
  1
058596
  9
$CUSTOMPROPERTYTAG
  1
SERIES
  9
$CUSTOMPROPERTY
  1
206
  9
$CUSTOMPROPERTYTAG
  1
SS
  9
$CUSTOMPROPERTY
  1
1-1/4
  9
$CUSTOMPROPERTYTAG
  1
PN
  9
$CUSTOMPROPERTY
  1
058596
  9
$CUSTOMPROPERTYTAG
  1
DESCRIPTION
  9
$CUSTOMPROPERTY
  1
P2B-SCUEZ-104S-P
  9
$CUSTOMPROPERTYTAG
  1
WEIGHT
  9
$CUSTOMPROPERTY
  1
1.11
  9
$CUSTOMPROPERTYTAG
  1
A
  9
$CUSTOMPROPERTY
  1
1.52
  9
$CUSTOMPROPERTYTAG
  1
B
  9
$CUSTOMPROPERTY
  1
6.30
  9
$CUSTOMPROPERTYTAG
  1
C
  9
$CUSTOMPROPERTY
  1
1.77
  9
$CUSTOMPROPERTYTAG
  1
DMIN
  9
$CUSTOMPROPERTY
  1
4.60
  9
$CUSTOMPROPERTYTAG
  1
DMAX
  9
$CUSTOMPROPERTY
  1
4.88
  9
$CUSTOMPROPERTYTAG
  1
F
  9
$CUSTOMPROPERTY
  1
1/2
  9
$CUSTOMPROPERTYTAG
  1
G
  9
$CUSTOMPROPERTY
  1
0.73
  9
$CUSTOMPROPERTYTAG
  1
H
  9
$CUSTOMPROPERTY
  1
0.70
  9
$CUSTOMPROPERTYTAG
  1
J
  9
$CUSTOMPROPERTY
  1
3.34
  9
$CUSTOMPROPERTYTAG
  1
L
  9
$CUSTOMPROPERTY
  1
1.57
  9
$CUSTOMPROPERTYTAG
  1
M
  9
$CUSTOMPROPERTY
  1
1.69
  9
$CUSTOMPROPERTYTAG
  1
R
  9
$CUSTOMPROPERTY
  1
0.58
  9
$CUSTOMPROPERTYTAG
  1
S
  9
$CUSTOMPROPERTY
  1
0.94
  9
$CUSTOMPROPERTYTAG
  1
COMPANY
  9
$CUSTOMPROPERTY
  1
baldor
  9
$INSBASE
 10
0.0
 20
0.0
 30
0.0
  9
$EXTMIN
 10
1.000000000000000E+20
 20
1.000000000000000E+20
 30
1.000000000000000E+20
  9
$EXTMAX
 10
-1.000000000000000E+20
 20
-1.000000000000000E+20
 30
-1.000000000000000E+20
  9
$LIMMIN
 10
0.0
 20
0.0
  9
$LIMMAX
 10
12.0
 20
9.0
  9
$ORTHOMODE
 70
     0
  9
$REGENMODE
 70
     1
  9
$FILLMODE
 70
     1
  9
$QTEXTMODE
 70
     0
  9
$MIRRTEXT
 70
     1
  9
$LTSCALE
 40
1.0
  9
$ATTMODE
 70
     1
  9
$TEXTSIZE
 40
0.2
  9
$TRACEWID
 40
0.05
  9
$TEXTSTYLE
  7
Standard
  9
$CLAYER
  8
0
  9
$CELTYPE
  6
ByLayer
  9
$CECOLOR
 62
   256
  9
$CELTSCALE
 40
1.0
  9
$DISPSILH
 70
     0
  9
$DIMSCALE
 40
1.0
  9
$DIMASZ
 40
0.18
  9
$DIMEXO
 40
0.0625
  9
$DIMDLI
 40
0.38
  9
$DIMRND
 40
0.0
  9
$DIMDLE
 40
0.0
  9
$DIMEXE
 40
0.18
  9
$DIMTP
 40
0.0
  9
$DIMTM
 40
0.0
  9
$DIMTXT
 40
0.18
  9
$DIMCEN
 40
0.09
  9
$DIMTSZ
 40
0.0
  9
$DIMTOL
 70
     0
  9
$DIMLIM
 70
     0
  9
$DIMTIH
 70
     1
  9
$DIMTOH
 70
     1
  9
$DIMSE1
 70
     0
  9
$DIMSE2
 70
     0
  9
$DIMTAD
 70
     0
  9
$DIMZIN
 70
     0
  9
$DIMBLK
  1

  9
$DIMASO
 70
     1
  9
$DIMSHO
 70
     1
  9
$DIMPOST
  1

  9
$DIMAPOST
  1

  9
$DIMALT
 70
     0
  9
$DIMALTD
 70
     2
  9
$DIMALTF
 40
25.4
  9
$DIMLFAC
 40
1.0
  9
$DIMTOFL
 70
     0
  9
$DIMTVP
 40
0.0
  9
$DIMTIX
 70
     0
  9
$DIMSOXD
 70
     0
  9
$DIMSAH
 70
     0
  9
$DIMBLK1
  1

  9
$DIMBLK2
  1

  9
$DIMSTYLE
  2
Standard
  9
$DIMCLRD
 70
     0
  9
$DIMCLRE
 70
     0
  9
$DIMCLRT
 70
     0
  9
$DIMTFAC
 40
1.0
  9
$DIMGAP
 40
0.09
  9
$DIMJUST
 70
     0
  9
$DIMSD1
 70
     0
  9
$DIMSD2
 70
     0
  9
$DIMTOLJ
 70
     1
  9
$DIMTZIN
 70
     0
  9
$DIMALTZ
 70
     0
  9
$DIMALTTZ
 70
     0
  9
$DIMUPT
 70
     0
  9
$DIMDEC
 70
     4
  9
$DIMTDEC
 70
     4
  9
$DIMALTU
 70
     2
  9
$DIMALTTD
 70
     2
  9
$DIMTXSTY
  7
Standard
  9
$DIMAUNIT
 70
     0
  9
$DIMADEC
 70
     0
  9
$DIMALTRND
 40
0.0
  9
$DIMAZIN
 70
     0
  9
$DIMDSEP
 70
    46
  9
$DIMATFIT
 70
     3
  9
$DIMFRAC
 70
     0
  9
$DIMLDRBLK
  1

  9
$DIMLUNIT
 70
     2
  9
$DIMLWD
 70
    -2
  9
$DIMLWE
 70
    -2
  9
$DIMTMOVE
 70
     0
  9
$DIMFXL
 40
1.0
  9
$DIMFXLON
 70
     0
  9
$DIMJOGANG
 40
0.7853981633974483
  9
$DIMTFILL
 70
     0
  9
$DIMTFILLCLR
 70
     0
  9
$DIMARCSYM
 70
     0
  9
$DIMLTYPE
  6

  9
$DIMLTEX1
  6

  9
$DIMLTEX2
  6

  9
$DIMTXTDIRECTION
 70
     0
  9
$LUNITS
 70
     2
  9
$LUPREC
 70
     4
  9
$SKETCHINC
 40
0.1
  9
$FILLETRAD
 40
0.5
  9
$AUNITS
 70
     0
  9
$AUPREC
 70
     0
  9
$MENU
  1
.
  9
$ELEVATION
 40
0.0
  9
$PELEVATION
 40
0.0
  9
$THICKNESS
 40
0.0
  9
$LIMCHECK
 70
     0
  9
$CHAMFERA
 40
0.0
  9
$CHAMFERB
 40
0.0
  9
$CHAMFERC
 40
0.0
  9
$CHAMFERD
 40
0.0
  9
$SKPOLY
 70
     0
  9
$TDCREATE
 40
2458168.997353831
  9
$TDUCREATE
 40
2458168.955687164
  9
$TDUPDATE
 40
2458168.997354016
  9
$TDUUPDATE
 40
2458168.95568735
  9
$TDINDWG
 40
0.0000000116
  9
$TDUSRTIMER
 40
0.0000000116
  9
$USRTIMER
 70
     1
  9
$ANGBASE
 50
0.0
  9
$ANGDIR
 70
     0
  9
$PDMODE
 70
     0
  9
$PDSIZE
 40
0.0
  9
$PLINEWID
 40
0.0
  9
$SPLFRAME
 70
     0
  9
$SPLINETYPE
 70
     6
  9
$SPLINESEGS
 70
     8
  9
$HANDSEED
  5
191
  9
$SURFTAB1
 70
     6
  9
$SURFTAB2
 70
     6
  9
$SURFTYPE
 70
     6
  9
$SURFU
 70
     6
  9
$SURFV
 70
     6
  9
$UCSBASE
  2

  9
$UCSNAME
  2

  9
$UCSORG
 10
0.0
 20
0.0
 30
0.0
  9
$UCSXDIR
 10
1.0
 20
0.0
 30
0.0
  9
$UCSYDIR
 10
0.0
 20
1.0
 30
0.0
  9
$UCSORTHOREF
  2

  9
$UCSORTHOVIEW
 70
     0
  9
$UCSORGTOP
 10
0.0
 20
0.0
 30
0.0
  9
$UCSORGBOTTOM
 10
0.0
 20
0.0
 30
0.0
  9
$UCSORGLEFT
 10
0.0
 20
0.0
 30
0.0
  9
$UCSORGRIGHT
 10
0.0
 20
0.0
 30
0.0
  9
$UCSORGFRONT
 10
0.0
 20
0.0
 30
0.0
  9
$UCSORGBACK
 10
0.0
 20
0.0
 30
0.0
  9
$PUCSBASE
  2

  9
$PUCSNAME
  2

  9
$PUCSORG
 10
0.0
 20
0.0
 30
0.0
  9
$PUCSXDIR
 10
1.0
 20
0.0
 30
0.0
  9
$PUCSYDIR
 10
0.0
 20
1.0
 30
0.0
  9
$PUCSORTHOREF
  2

  9
$PUCSORTHOVIEW
 70
     0
  9
$PUCSORGTOP
 10
0.0
 20
0.0
 30
0.0
  9
$PUCSORGBOTTOM
 10
0.0
 20
0.0
 30
0.0
  9
$PUCSORGLEFT
 10
0.0
 20
0.0
 30
0.0
  9
$PUCSORGRIGHT
 10
0.0
 20
0.0
 30
0.0
  9
$PUCSORGFRONT
 10
0.0
 20
0.0
 30
0.0
  9
$PUCSORGBACK
 10
0.0
 20
0.0
 30
0.0
  9
$USERI1
 70
     0
  9
$USERI2
 70
     0
  9
$USERI3
 70
     0
  9
$USERI4
 70
     0
  9
$USERI5
 70
     0
  9
$USERR1
 40
0.0
  9
$USERR2
 40
0.0
  9
$USERR3
 40
0.0
  9
$USERR4
 40
0.0
  9
$USERR5
 40
0.0
  9
$WORLDVIEW
 70
     1
  9
$SHADEDGE
 70
     3
  9
$SHADEDIF
 70
    70
  9
$TILEMODE
 70
     1
  9
$MAXACTVP
 70
    64
  9
$PINSBASE
 10
0.0
 20
0.0
 30
0.0
  9
$PLIMCHECK
 70
     0
  9
$PEXTMIN
 10
1.000000000000000E+20
 20
1.000000000000000E+20
 30
1.000000000000000E+20
  9
$PEXTMAX
 10
-1.000000000000000E+20
 20
-1.000000000000000E+20
 30
-1.000000000000000E+20
  9
$PLIMMIN
 10
0.0
 20
0.0
  9
$PLIMMAX
 10
12.0
 20
9.0
  9
$UNITMODE
 70
     0
  9
$VISRETAIN
 70
     1
  9
$PLINEGEN
 70
     0
  9
$PSLTSCALE
 70
     1
  9
$TREEDEPTH
 70
  3020
  9
$CMLSTYLE
  2
Standard
  9
$CMLJUST
 70
     0
  9
$CMLSCALE
 40
1.0
  9
$PROXYGRAPHICS
 70
     1
  9
$MEASUREMENT
 70
     0
  9
$CELWEIGHT
370
    -1
  9
$ENDCAPS
280
     0
  9
$JOINSTYLE
280
     0
  9
$LWDISPLAY
290
     0
  9
$INSUNITS
 70
     1
  9
$HYPERLINKBASE
  1

  9
$STYLESHEET
  1

  9
$XEDIT
290
     1
  9
$CEPSNTYPE
380
     0
  9
$PSTYLEMODE
290
     1
  9
$FINGERPRINTGUID
  2
{212EF023-FD5F-4BCC-90AB-18E88374DB8E}
  9
$VERSIONGUID
  2
{FAEB1C32-E019-11D5-929B-00C0DF256EC4}
  9
$EXTNAMES
290
     1
  9
$PSVPSCALE
 40
0.0
  9
$OLESTARTUP
290
     0
  9
$SORTENTS
280
   127
  9
$INDEXCTL
280
     0
  9
$HIDETEXT
280
     1
  9
$XCLIPFRAME
280
     2
  9
$HALOGAP
280
     0
  9
$OBSCOLOR
 70
   257
  9
$OBSLTYPE
280
     0
  9
$INTERSECTIONDISPLAY
280
     0
  9
$INTERSECTIONCOLOR
 70
   257
  9
$DIMASSOC
280
     2
  9
$PROJECTNAME
  1

  9
$CAMERADISPLAY
290
     0
  9
$LENSLENGTH
 40
50.0
  9
$CAMERAHEIGHT
 40
0.0
  9
$STEPSPERSEC
 40
2.0
  9
$STEPSIZE
 40
6.0
  9
$3DDWFPREC
 40
2.0
  9
$PSOLWIDTH
 40
0.25
  9
$PSOLHEIGHT
 40
4.0
  9
$LOFTANG1
 40
1.570796326794897
  9
$LOFTANG2
 40
1.570796326794897
  9
$LOFTMAG1
 40
0.0
  9
$LOFTMAG2
 40
0.0
  9
$LOFTPARAM
 70
     7
  9
$LOFTNORMALS
280
     1
  9
$LATITUDE
 40
37.795
  9
$LONGITUDE
 40
-122.394
  9
$NORTHDIRECTION
 40
0.0
  9
$TIMEZONE
 70
 -8000
  9
$LIGHTGLYPHDISPLAY
280
     1
  9
$TILEMODELIGHTSYNCH
280
     1
  9
$CMATERIAL
347
44
  9
$SOLIDHIST
280
     0
  9
$SHOWHIST
280
     1
  9
$DWFFRAME
280
     2
  9
$DGNFRAME
280
     2
  9
$REALWORLDSCALE
290
     1
  9
$INTERFERECOLOR
 62
   256
  9
$CSHADOW
280
     0
  9
$SHADOWPLANELOCATION
 40
0.0
  0
ENDSEC
  0
SECTION
  2
CLASSES
  0
CLASS
  1
ACDBDICTIONARYWDFLT
  2
AcDbDictionaryWithDefault
  3
ObjectDBX Classes
 90
        0
 91
        4
280
     0
281
     0
  0
CLASS
  1
VISUALSTYLE
  2
AcDbVisualStyle
  3
ObjectDBX Classes
 90
     4095
 91
        4
280
     0
281
     0
  0
CLASS
  1
MATERIAL
  2
AcDbMaterial
  3
ObjectDBX Classes
 90
     1153
 91
        4
280
     0
281
     0
  0
CLASS
  1
SCALE
  2
AcDbScale
  3
ObjectDBX Classes
 90
     1153
 91
        4
280
     0
281
     0
  0
CLASS
  1
TABLESTYLE
  2
AcDbTableStyle
  3
ObjectDBX Classes
 90
     4095
 91
        4
280
     0
281
     0
  0
CLASS
  1
MLEADERSTYLE
  2
AcDbMLeaderStyle
  3
ACDB_MLEADERSTYLE_CLASS
 90
     4095
 91
        4
280
     0
281
     0
  0
CLASS
  1
SUN
  2
AcDbSun
  3
SCENEOE
 90
     1153
 91
        4
280
     0
281
     0
  0
CLASS
  1
DICTIONARYVAR
  2
AcDbDictionaryVar
  3
ObjectDBX Classes
 90
        0
 91
        4
280
     0
281
     0
  0
CLASS
  1
CELLSTYLEMAP
  2
AcDbCellStyleMap
  3
ObjectDBX Classes
 90
     1152
 91
        4
280
     0
281
     0
  0
ENDSEC
  0
SECTION
  2
TABLES
  0
TABLE
  2
VPORT
  5
8
330
0
100
AcDbSymbolTable
 70
     1
  0
VPORT
  5
29
330
8
100
AcDbSymbolTableRecord
100
AcDbViewportTableRecord
  2
*Active
 70
     0
 10
0.0
 20
0.0
 11
1.0
 21
1.0
 12
-0.0212500000000002
 22
0.0459999999999994
 13
0.0
 23
0.0
 14
0.5
 24
0.5
 15
0.5
 25
0.5
 16
0.0
 26
0.0
 36
1.0
 17
0.0
 27
0.0
 37
0.0
 40
3.54144
 41
0.5730126728110598
 42
50.0
 43
0.0
 44
0.0
 50
0.0
 51
0.0
 71
     0
 72
   100
 73
     1
 74
     3
 75
     0
 76
     0
 77
     0
 78
     0
281
     0
 65
     1
110
0.0
120
0.0
130
0.0
111
1.0
121
0.0
131
0.0
112
0.0
122
1.0
132
0.0
 79
     0
146
0.0
348
2F
 60
     3
 61
     5
292
     1
282
     1
141
0.0
142
0.0
 63
   250
361
6D
  0
ENDTAB
  0
TABLE
  2
LTYPE
  5
5
330
0
100
AcDbSymbolTable
 70
     3
  0
LTYPE
  5
14
330
5
100
AcDbSymbolTableRecord
100
AcDbLinetypeTableRecord
  2
ByBlock
 70
     0
  3

 72
    65
 73
     0
 40
0.0
  0
LTYPE
  5
15
330
5
100
AcDbSymbolTableRecord
100
AcDbLinetypeTableRecord
  2
ByLayer
 70
     0
  3

 72
    65
 73
     0
 40
0.0
  0
LTYPE
  5
16
330
5
100
AcDbSymbolTableRecord
100
AcDbLinetypeTableRecord
  2
Continuous
 70
     0
  3
Solid line
 72
    65
 73
     0
 40
0.0
  0
LTYPE
  5
9D
330
5
100
AcDbSymbolTableRecord
100
AcDbLinetypeTableRecord
  2
Dashed
 70
     0
  3

 72
    65
 73
     2
 40
2.0
 49
1.0
 74
     0
 49
-1.0
 74
     0
  0
LTYPE
  5
12D
330
5
100
AcDbSymbolTableRecord
100
AcDbLinetypeTableRecord
  2
Center
 70
     0
  3

 72
    65
 73
     4
 40
1.5
 49
0.45
 74
     0
 49
-0.5
 74
     0
 49
0.05
 74
     0
 49
-0.5
 74
     0
  0
ENDTAB
  0
TABLE
  2
LAYER
  5
2
330
0
100
AcDbSymbolTable
 70
     7
  0
LAYER
  5
10
330
2
100
AcDbSymbolTableRecord
100
AcDbLayerTableRecord
  2
0
 70
     0
 62
     7
  6
Continuous
370
    -3
390
F
347
46
348
0
  0
LAYER
  5
72
330
2
100
AcDbSymbolTableRecord
100
AcDbLayerTableRecord
  2
AM_6
 70
     0
 62
    -2
  6
Continuous
370
    35
390
F
347
46
348
0
  0
LAYER
  5
9E
330
2
100
AcDbSymbolTableRecord
100
AcDbLayerTableRecord
  2
AM_9
 70
     0
 62
     6
  6
Dashed
370
    25
390
F
347
46
348
0
  0
LAYER
  5
BB
330
2
100
AcDbSymbolTableRecord
100
AcDbLayerTableRecord
  2
AM_4
 70
     0
 62
     7
  6
Continuous
370
    50
390
F
347
46
348
0
  0
LAYER
  5
12A
330
2
100
AcDbSymbolTableRecord
100
AcDbLayerTableRecord
  2
AM_5
 70
     0
 62
     3
  6
Continuous
370
    25
390
F
347
46
348
0
  0
LAYER
  5
12E
330
2
100
AcDbSymbolTableRecord
100
AcDbLayerTableRecord
  2
AM_7
 70
     0
 62
     7
  6
Center
370
    25
390
F
347
46
348
0
  0
LAYER
  5
183
330
2
100
AcDbSymbolTableRecord
100
AcDbLayerTableRecord
  2
ConnectionPoints
 70
     0
 62
     7
  6
Continuous
370
    50
390
F
347
46
348
0
  0
ENDTAB
  0
TABLE
  2
STYLE
  5
3
330
0
100
AcDbSymbolTable
 70
     1
  0
STYLE
  5
11
330
3
100
AcDbSymbolTableRecord
100
AcDbTextStyleTableRecord
  2
Standard
 70
     0
 40
0.0
 41
1.0
 50
0.0
 71
     0
 42
0.2
  3
txt
  4

  0
ENDTAB
  0
TABLE
  2
VIEW
  5
6
330
0
100
AcDbSymbolTable
 70
     0
  0
ENDTAB
  0
TABLE
  2
UCS
  5
7
330
0
100
AcDbSymbolTable
 70
     0
  0
ENDTAB
  0
TABLE
  2
APPID
  5
9
330
0
100
AcDbSymbolTable
 70
     1
  0
APPID
  5
12
330
9
100
AcDbSymbolTableRecord
100
AcDbRegAppTableRecord
  2
ACAD
 70
     0
  0
ENDTAB
  0
TABLE
  2
DIMSTYLE
  5
A
330
0
100
AcDbSymbolTable
 70
     1
100
AcDbDimStyleTable
  0
DIMSTYLE
105
27
330
A
100
AcDbSymbolTableRecord
100
AcDbDimStyleTableRecord
  2
Standard
 70
     0
178
     0
340
11
  0
ENDTAB
  0
TABLE
  2
BLOCK_RECORD
  5
1
330
0
100
AcDbSymbolTable
 70
     5
  0
BLOCK_RECORD
  5
1F
330
1
100
AcDbSymbolTableRecord
100
AcDbBlockTableRecord
  2
*Model_Space
340
22
 70
     0
280
     1
281
     0
  0
BLOCK_RECORD
  5
1B
330
1
100
AcDbSymbolTableRecord
100
AcDbBlockTableRecord
  2
*Paper_Space
340
1E
 70
     0
280
     1
281
     0
  0
BLOCK_RECORD
  5
23
330
1
100
AcDbSymbolTableRecord
100
AcDbBlockTableRecord
  2
*Paper_Space0
340
26
 70
     0
280
     1
281
     0
  0
BLOCK_RECORD
  5
6E
330
1
100
AcDbSymbolTableRecord
100
AcDbBlockTableRecord
  2
1_058596_2
340
0
102
{BLKREFS
331
6F
102
}
 70
     0
280
     1
281
     0
  0
BLOCK_RECORD
  5
8B
330
1
100
AcDbSymbolTableRecord
100
AcDbBlockTableRecord
  2
2_405020c_Inch_0_in_058596_2
340
0
102
{BLKREFS
331
8C
102
}
 70
     0
280
     1
281
     0
  0
BLOCK_RECORD
  5
DA
330
1
100
AcDbSymbolTableRecord
100
AcDbBlockTableRecord
  2
3_123469_0_in_058596_2
340
0
102
{BLKREFS
331
DB
102
}
 70
     0
280
     1
281
     0
  0
BLOCK_RECORD
  5
13D
330
1
100
AcDbSymbolTableRecord
100
AcDbBlockTableRecord
  2
4_058596Hou_0_in_058596_2
340
0
102
{BLKREFS
331
13E
102
}
 70
     0
280
     1
281
     0
  0
ENDTAB
  0
ENDSEC
  0
SECTION
  2
BLOCKS
  0
BLOCK
  5
20
330
1F
100
AcDbEntity
  8
0
100
AcDbBlockBegin
  2
*Model_Space
 70
     0
 10
0.0
 20
0.0
 30
0.0
  3
*Model_Space
  1

  0
ENDBLK
  5
21
330
1F
100
AcDbEntity
  8
0
100
AcDbBlockEnd
  0
BLOCK
  5
1C
330
1B
100
AcDbEntity
 67
     1
  8
0
100
AcDbBlockBegin
  2
*Paper_Space
 70
     0
 10
0.0
 20
0.0
 30
0.0
  3
*Paper_Space
  1

  0
ENDBLK
  5
1D
330
1B
100
AcDbEntity
 67
     1
  8
0
100
AcDbBlockEnd
  0
BLOCK
  5
24
330
23
100
AcDbEntity
  8
0
100
AcDbBlockBegin
  2
*Paper_Space0
 70
     0
 10
0.0
 20
0.0
 30
0.0
  3
*Paper_Space0
  1

  0
ENDBLK
  5
25
330
23
100
AcDbEntity
  8
0
100
AcDbBlockEnd
  0
BLOCK
  5
70
330
6E
100
AcDbEntity
  8
0
100
AcDbBlockBegin
  2
1_058596_2
 70
     2
 10
0.0
 20
0.0
 30
0.0
  3
1_058596_2
  1

  0
ATTDEF
  5
73
330
6E
100
AcDbEntity
  8
AM_6
100
AcDbText
 10
5.9735
 20
1.782
 30
0.0
 40
0.5
  1
Set Screw Two-Bolt Pillow Block Inch Bore - Polymer Housing, Corrosion Resistant Insert
100
AcDbAttributeDefinition
  3

  2
NN
 70
     8
280
     0
  0
ATTDEF
  5
74
330
6E
100
AcDbEntity
  8
AM_6
100
AcDbText
 10
5.9735
 20
1.282
 30
0.0
 40
0.5
  1
SC Pillow Block Bearings -(Normal Duty) -Corrosion Resistant Insert -Polymer Housed -E-Z KLEEN
100
AcDbAttributeDefinition
  3

  2
NT
 70
     8
280
     0
  0
ATTDEF
  5
75
330
6E
100
AcDbEntity
  8
AM_6
100
AcDbText
 10
5.9735
 20
0.7819999999999996
 30
0.0
 40
0.5
  1
058596
100
AcDbAttributeDefinition
  3

  2
NB
 70
     8
280
     0
  0
ATTDEF
  5
76
330
6E
100
AcDbEntity
  8
AM_6
100
AcDbText
 10
5.9735
 20
0.2819999999999996
 30
0.0
 40
0.5
  1
$PN.
100
AcDbAttributeDefinition
  3

  2
NBSYN
 70
     8
280
     0
  0
ATTDEF
  5
77
330
6E
100
AcDbEntity
  8
AM_6
100
AcDbText
 10
5.9735
 20
-0.2180000000000004
 30
0.0
 40
0.5
  1
058596
100
AcDbAttributeDefinition
  3

  2
LINA
 70
     8
280
     0
  0
ATTDEF
  5
78
330
6E
100
AcDbEntity
  8
AM_6
100
AcDbText
 10
5.9735
 20
-0.7180000000000004
 30
0.0
 40
0.5
  1
206
100
AcDbAttributeDefinition
  3

  2
SERIES
 70
     8
280
     0
  0
ATTDEF
  5
79
330
6E
100
AcDbEntity
  8
AM_6
100
AcDbText
 10
5.9735
 20
-1.218
 30
0.0
 40
0.5
  1
1-1/4
100
AcDbAttributeDefinition
  3

  2
SS
 70
     8
280
     0
  0
ATTDEF
  5
7A
330
6E
100
AcDbEntity
  8
AM_6
100
AcDbText
 10
5.9735
 20
-1.718
 30
0.0
 40
0.5
  1
058596
100
AcDbAttributeDefinition
  3

  2
PN
 70
     8
280
     0
  0
ATTDEF
  5
7B
330
6E
100
AcDbEntity
  8
AM_6
100
AcDbText
 10
5.9735
 20
-2.218
 30
0.0
 40
0.5
  1
P2B-SCUEZ-104S-P
100
AcDbAttributeDefinition
  3

  2
DESCRIPTION
 70
     8
280
     0
  0
ATTDEF
  5
7C
330
6E
100
AcDbEntity
  8
AM_6
100
AcDbText
 10
5.9735
 20
-2.718
 30
0.0
 40
0.5
  1
1.11
100
AcDbAttributeDefinition
  3

  2
WEIGHT
 70
     8
280
     0
  0
ATTDEF
  5
7D
330
6E
100
AcDbEntity
  8
AM_6
100
AcDbText
 10
5.9735
 20
-3.218
 30
0.0
 40
0.5
  1
1.52
100
AcDbAttributeDefinition
  3

  2
A
 70
     8
280
     0
  0
ATTDEF
  5
7E
330
6E
100
AcDbEntity
  8
AM_6
100
AcDbText
 10
5.9735
 20
-3.718
 30
0.0
 40
0.5
  1
6.30
100
AcDbAttributeDefinition
  3

  2
B
 70
     8
280
     0
  0
ATTDEF
  5
7F
330
6E
100
AcDbEntity
  8
AM_6
100
AcDbText
 10
5.9735
 20
-4.218
 30
0.0
 40
0.5
  1
1.77
100
AcDbAttributeDefinition
  3

  2
C
 70
     8
280
     0
  0
ATTDEF
  5
80
330
6E
100
AcDbEntity
  8
AM_6
100
AcDbText
 10
5.9735
 20
-4.718
 30
0.0
 40
0.5
  1
4.60
100
AcDbAttributeDefinition
  3

  2
DMIN
 70
     8
280
     0
  0
ATTDEF
  5
81
330
6E
100
AcDbEntity
  8
AM_6
100
AcDbText
 10
5.9735
 20
-5.218
 30
0.0
 40
0.5
  1
4.88
100
AcDbAttributeDefinition
  3

  2
DMAX
 70
     8
280
     0
  0
ATTDEF
  5
82
330
6E
100
AcDbEntity
  8
AM_6
100
AcDbText
 10
5.9735
 20
-5.718
 30
0.0
 40
0.5
  1
1/2
100
AcDbAttributeDefinition
  3

  2
F
 70
     8
280
     0
  0
ATTDEF
  5
83
330
6E
100
AcDbEntity
  8
AM_6
100
AcDbText
 10
5.9735
 20
-6.218
 30
0.0
 40
0.5
  1
0.73
100
AcDbAttributeDefinition
  3

  2
G
 70
     8
280
     0
  0
ATTDEF
  5
84
330
6E
100
AcDbEntity
  8
AM_6
100
AcDbText
 10
5.9735
 20
-6.718
 30
0.0
 40
0.5
  1
0.70
100
AcDbAttributeDefinition
  3

  2
H
 70
     8
280
     0
  0
ATTDEF
  5
85
330
6E
100
AcDbEntity
  8
AM_6
100
AcDbText
 10
5.9735
 20
-7.218
 30
0.0
 40
0.5
  1
3.34
100
AcDbAttributeDefinition
  3

  2
J
 70
     8
280
     0
  0
ATTDEF
  5
86
330
6E
100
AcDbEntity
  8
AM_6
100
AcDbText
 10
5.9735
 20
-7.718
 30
0.0
 40
0.5
  1
1.57
100
AcDbAttributeDefinition
  3

  2
L
 70
     8
280
     0
  0
ATTDEF
  5
87
330
6E
100
AcDbEntity
  8
AM_6
100
AcDbText
 10
5.9735
 20
-8.218
 30
0.0
 40
0.5
  1
1.69
100
AcDbAttributeDefinition
  3

  2
M
 70
     8
280
     0
  0
ATTDEF
  5
88
330
6E
100
AcDbEntity
  8
AM_6
100
AcDbText
 10
5.9735
 20
-8.718
 30
0.0
 40
0.5
  1
0.58
100
AcDbAttributeDefinition
  3

  2
R
 70
     8
280
     0
  0
ATTDEF
  5
89
330
6E
100
AcDbEntity
  8
AM_6
100
AcDbText
 10
5.9735
 20
-9.218
 30
0.0
 40
0.5
  1
0.94
100
AcDbAttributeDefinition
  3

  2
S
 70
     8
280
     0
  0
ATTDEF
  5
8A
330
6E
100
AcDbEntity
  8
AM_6
100
AcDbText
 10
5.9735
 20
-9.718
 30
0.0
 40
0.5
  1
baldor
100
AcDbAttributeDefinition
  3

  2
COMPANY
 70
     8
280
     0
  0
INSERT
  5
8C
330
6E
100
AcDbEntity
  8
0
100
AcDbBlockReference
  2
2_405020c_Inch_0_in_058596_2
 10
0.0
 20
0.0
 30
0.0
  0
INSERT
  5
DB
330
6E
100
AcDbEntity
  8
0
100
AcDbBlockReference
  2
3_123469_0_in_058596_2
 10
0.0
 20
0.0
 30
0.0
  0
INSERT
  5
13E
330
6E
100
AcDbEntity
  8
0
100
AcDbBlockReference
  2
4_058596Hou_0_in_058596_2
 10
0.0
 20
0.0
 30
0.0
  0
ENDBLK
  5
71
330
6E
100
AcDbEntity
  8
0
100
AcDbBlockEnd
  0
BLOCK
  5
8D
330
8B
100
AcDbEntity
  8
0
100
AcDbBlockBegin
  2
2_405020c_Inch_0_in_058596_2
 70
     2
 10
0.0
 20
0.0
 30
0.0
  3
2_405020c_Inch_0_in_058596_2
  1

  0
ATTDEF
  5
8F
330
8B
100
AcDbEntity
  8
AM_6
100
AcDbText
 10
5.140650000000002
 20
1.475139133353671
 30
0.0
 40
0.5
  1
405020C -Inch
100
AcDbAttributeDefinition
  3

  2
NN
 70
     8
280
     0
  0
ATTDEF
  5
90
330
8B
100
AcDbEntity
  8
AM_6
100
AcDbText
 10
5.140650000000002
 20
0.975139133353671
 30
0.0
 40
0.5
  1
Grease fitting
100
AcDbAttributeDefinition
  3

  2
NT
 70
     8
280
     0
  0
ATTDEF
  5
91
330
8B
100
AcDbEntity
  8
AM_6
100
AcDbText
 10
5.140650000000002
 20
0.475139133353671
 30
0.0
 40
0.5
  1
405020c-Inch
100
AcDbAttributeDefinition
  3

  2
NB
 70
     8
280
     0
  0
ATTDEF
  5
92
330
8B
100
AcDbEntity
  8
AM_6
100
AcDbText
 10
5.140650000000002
 20
-0.024860866646329
 30
0.0
 40
0.5
  1
$MN.-Inch
100
AcDbAttributeDefinition
  3

  2
NBSYN
 70
     8
280
     0
  0
ATTDEF
  5
93
330
8B
100
AcDbEntity
  8
AM_6
100
AcDbText
 10
5.140650000000002
 20
-0.524860866646329
 30
0.0
 40
0.5
  1
405020c
100
AcDbAttributeDefinition
  3

  2
LINA
 70
     8
280
     0
  0
ATTDEF
  5
94
330
8B
100
AcDbEntity
  8
AM_6
100
AcDbText
 10
5.140650000000002
 20
-1.024860866646329
 30
0.0
 40
0.5
  1
405020c
100
AcDbAttributeDefinition
  3

  2
MN
 70
     8
280
     0
  0
ATTDEF
  5
95
330
8B
100
AcDbEntity
  8
AM_6
100
AcDbText
 10
5.140650000000002
 20
-1.524860866646329
 30
0.0
 40
0.5
  1
0.230
100
AcDbAttributeDefinition
  3

  2
NDR
 70
     8
280
     0
  0
ATTDEF
  5
96
330
8B
100
AcDbEntity
  8
AM_6
100
AcDbText
 10
5.140650000000002
 20
-2.024860866646329
 30
0.0
 40
0.5
  1
0.210
100
AcDbAttributeDefinition
  3

  2
KDR
 70
     8
280
     0
  0
ATTDEF
  5
97
330
8B
100
AcDbEntity
  8
AM_6
100
AcDbText
 10
5.140650000000002
 20
-2.524860866646329
 30
0.0
 40
0.5
  1
0.157
100
AcDbAttributeDefinition
  3

  2
BZE
 70
     8
280
     0
  0
ATTDEF
  5
98
330
8B
100
AcDbEntity
  8
AM_6
100
AcDbText
 10
5.140650000000002
 20
-3.024860866646329
 30
0.0
 40
0.5
  1
9/32
100
AcDbAttributeDefinition
  3

  2
WAF
 70
     8
280
     0
  0
ATTDEF
  5
99
330
8B
100
AcDbEntity
  8
AM_6
100
AcDbText
 10
5.140650000000002
 20
-3.524860866646329
 30
0.0
 40
0.5
  1
0.2813
100
AcDbAttributeDefinition
  3

  2
WAF1
 70
     8
280
     0
  0
ATTDEF
  5
9A
330
8B
100
AcDbEntity
  8
AM_6
100
AcDbText
 10
5.140650000000002
 20
-4.024860866646329
 30
0.0
 40
0.5
  1
0.545
100
AcDbAttributeDefinition
  3

  2
BL
 70
     8
280
     0
  0
ATTDEF
  5
9B
330
8B
100
AcDbEntity
  8
AM_6
100
AcDbText
 10
5.140650000000002
 20
-4.524860866646329
 30
0.0
 40
0.5
  1
0.200
100
AcDbAttributeDefinition
  3

  2
TL
 70
     8
280
     0
  0
ATTDEF
  5
9C
330
8B
100
AcDbEntity
  8
AM_6
100
AcDbText
 10
5.140650000000002
 20
-5.024860866646329
 30
0.0
 40
0.5
  1
baldor
100
AcDbAttributeDefinition
  3

  2
COMPANY
 70
     8
280
     0
  0
LWPOLYLINE
  5
9F
330
8B
100
AcDbEntity
  8
AM_9
100
AcDbPolyline
 90
        3
 70
     0
 43
0.0
 10
-0.070325
 20
1.252856372038417
 10
-0.0351624999999999
 20
1.268299551826766
 10
0.0000000000000001
 20
1.285689012345933
  0
LWPOLYLINE
  5
A0
330
8B
100
AcDbEntity
  8
AM_9
100
AcDbPolyline
 90
        3
 70
     0
 43
0.0
 10
0.0000000000000001
 20
1.285689012345933
 10
0.035004399931699
 20
1.268373709092325
 10
0.070325
 20
1.252856372038417
  0
ELLIPSE
  5
A1
330
8B
100
AcDbEntity
  8
AM_9
100
AcDbEllipse
 10
0.0000000000000001
 20
1.025304832720494
 30
0.0
 11
0.1000886227036577
 21
0.0
 31
0.0
210
0.0
220
0.0
230
1.0
 40
0.7071067811865474
 41
0.0
 42
6.283185307179586
  0
LWPOLYLINE
  5
A2
330
8B
100
AcDbEntity
  8
AM_9
100
AcDbPolyline
 90
        3
 70
     0
 43
0.0
 10
0.0000000000000001
 20
1.324584305863747
 10
-0.0350043999316989
 20
1.313318636255695
 10
-0.0703249999999999
 20
1.29999682411752
  0
LWPOLYLINE
  5
A3
330
8B
100
AcDbEntity
  8
AM_9
100
AcDbPolyline
 90
        3
 70
     0
 43
0.0
 10
0.0703250000000001
 20
1.29999682411752
 10
0.0351625000000001
 20
1.313263705356042
 10
0.0000000000000001
 20
1.324584305863747
  0
LWPOLYLINE
  5
A4
330
8B
100
AcDbEntity
  8
AM_9
100
AcDbPolyline
 90
        3
 70
     0
 43
0.0
 10
0.070325
 20
1.252856372038417
 10
0.1054875000000001
 20
1.239589490799895
 10
0.1406500000000001
 20
1.22826889029219
  0
LINE
  5
A5
330
8B
100
AcDbEntity
  8
AM_9
100
AcDbLine
 10
0.0000000000000001
 20
1.324584305863747
 30
0.0
 11
0.0000000000000001
 21
1.285689012345933
 31
0.0
  0
LWPOLYLINE
  5
A6
330
8B
100
AcDbEntity
  8
AM_9
100
AcDbPolyline
 90
        3
 70
     0
 43
0.0
 10
-0.1406499999999999
 20
1.22826889029219
 10
-0.105645600068301
 20
1.239534559900241
 10
-0.070325
 20
1.252856372038417
  0
LWPOLYLINE
  5
A7
330
8B
100
AcDbEntity
  8
AM_9
100
AcDbPolyline
 90
        3
 70
     0
 43
0.0
 10
-0.0703249999999999
 20
1.29999682411752
 10
-0.1054874999999999
 20
1.284553644329171
 10
-0.1151895236091904
 20
1.279930788063384
  0
LWPOLYLINE
  5
A8
330
8B
100
AcDbEntity
  8
AM_9
100
AcDbPolyline
 90
        3
 70
     0
 43
0.0
 10
0.1151907939395562
 20
1.279930173394503
 10
0.1056456000683011
 20
1.284479487063612
 10
0.0703250000000001
 20
1.29999682411752
  0
LINE
  5
A9
330
8B
100
AcDbEntity
  8
AM_9
100
AcDbLine
 10
0.1103623268442187
 20
1.030167575182779
 30
0.0
 11
0.1162869890918944
 21
1.164155201040987
 31
0.0
  0
LINE
  5
AA
330
8B
100
AcDbEntity
  8
AM_9
100
AcDbLine
 10
-0.1162869890918943
 20
1.164155201040987
 30
0.0
 11
-0.1103623268442186
 21
1.030167575182779
 31
0.0
  0
ELLIPSE
  5
AB
330
8B
100
AcDbEntity
  8
AM_9
100
AcDbEllipse
 10
-0.0000000000000011
 20
1.213866641036912
 30
0.0
 11
-0.1406500000000015
 21
1.722465723000771E-17
 31
0.0
210
0.0
220
0.0
230
1.0
 40
0.7071067811865164
 41
3.798906696793596
 42
4.545724216999631
  0
ELLIPSE
  5
AC
330
8B
100
AcDbEntity
  8
AM_9
100
AcDbEllipse
 10
0.0000000000000003
 20
1.213866641036921
 30
0.0
 11
-0.1406500000000014
 21
1.722465723000769E-17
 31
0.0
210
0.0
220
0.0
230
1.0
 40
0.7071067811864364
 41
4.642310332985446
 42
5.6258712639758
  0
ELLIPSE
  5
AD
330
8B
100
AcDbEntity
  8
AM_9
100
AcDbEllipse
 10
-0.0000000000000001
 20
1.236013613922441
 30
0.0
 11
-0.1093294505797712
 21
1.338899617050555E-17
 31
0.0
210
0.0
220
0.0
230
1.0
 40
0.7071067811865317
 41
5.378535583886873
 42
5.928986666165904
  0
ELLIPSE
  5
AE
330
8B
100
AcDbEntity
  8
AM_9
100
AcDbEllipse
 10
0.0000000000000003
 20
1.236013613922439
 30
0.0
 11
-0.109329450579771
 21
1.629135779712966E-9
 31
0.0
210
0.0
220
0.0
230
1.0
 40
0.7071067811865468
 41
3.495791314409388
 42
4.067271482293872
  0
LWPOLYLINE
  5
AF
330
8B
100
AcDbEntity
  8
AM_9
100
AcDbPolyline
 90
        4
 70
     0
 43
0.0
 10
0.0916656881248901
 20
1.249225686806616
 10
0.0914904013855503
 20
1.248881164413004
 10
0.0888268815709292
 20
1.2444730259278
 10
0.0880753912186473
 20
1.243421239968469
  0
LWPOLYLINE
  5
B0
330
8B
100
AcDbEntity
  8
AM_9
100
AcDbPolyline
 90
       19
 70
     0
 43
0.0
 10
0.0000000000000001
 20
1.313321209810794
 10
0.0054809170834429
 20
1.313223992930435
 10
0.0164739940243139
 20
1.312437700211124
 10
0.027216776801768
 20
1.310880859049967
 10
0.0375381625227766
 20
1.308595593479601
 10
0.0472818855541534
 20
1.305644579276926
 10
0.0563058288820063
 20
1.302110376811009
 10
0.0644869586186908
 20
1.298093824126919
 10
0.0717265996247549
 20
1.29371126416478
 10
0.0779558170197416
 20
1.289090036258271
 10
0.0831318333490962
 20
1.284370154946587
 10
0.0872598459462521
 20
1.27968169973049
 10
0.0903871369955876
 20
1.275131931285475
 10
0.0925978235102127
 20
1.270779728128348
 10
0.0939944014599276
 20
1.266592194887944
 10
0.0946442745568113
 20
1.262359503426119
 10
0.0944143784430621
 20
1.257531232063616
 10
0.0933363698945963
 20
1.253189818103769
 10
0.0916656881248901
 20
1.249225686806616
  0
LWPOLYLINE
  5
B1
330
8B
100
AcDbEntity
  8
AM_9
100
AcDbPolyline
 90
       19
 70
     0
 43
0.0
 10
-0.0921590635324091
 20
1.250250999125797
 10
-0.0936672505445686
 20
1.254228732149321
 10
-0.0945334648413435
 20
1.258410574301053
 10
-0.0945980844620394
 20
1.262983132526896
 10
-0.0937698535430385
 20
1.267443764963423
 10
-0.0921772243789176
 20
1.271736722939081
 10
-0.0897863986212448
 20
1.27610873076441
 10
-0.0865363446707802
 20
1.280586873858414
 10
-0.0819425617787301
 20
1.285546675207143
 10
-0.0763239704706009
 20
1.290394357943726
 10
-0.0696979890791604
 20
1.29503197111327
 10
-0.0621069521311334
 20
1.299353316985308
 10
-0.0536277077670702
 20
1.303248476540902
 10
-0.0443654961279512
 20
1.306615302804183
 10
-0.034439773398148
 20
1.309367543619844
 10
-0.023988846870202
 20
1.311433414242032
 10
-0.0131656640879289
 20
1.312758291535986
 10
-0.0027075286250355
 20
1.313297499276953
 10
0.0000000000000001
 20
1.313321209810794
  0
LWPOLYLINE
  5
B2
330
8B
100
AcDbEntity
  8
AM_9
100
AcDbPolyline
 90
        4
 70
     0
 43
0.0
 10
-0.0880505715554846
 20
1.243387548669839
 10
-0.0895780280109224
 20
1.245593520476681
 10
-0.092044490484874
 20
1.250004857159631
 10
-0.0921590635324091
 20
1.250250999125797
  0
ELLIPSE
  5
B3
330
8B
100
AcDbEntity
  8
AM_9
100
AcDbEllipse
 10
0.0000000000000002
 20
1.275955425858945
 30
0.0
 11
-0.09936940028726622
 21
1.216924179949927E-17
 31
0.0
210
0.0
220
0.0
230
1.0
 40
0.7071067811865499
 41
2.656480407116015
 42
4.71238898038469
  0
ELLIPSE
  5
B4
330
8B
100
AcDbEntity
  8
AM_9
100
AcDbEllipse
 10
0.0000000000000002
 20
1.32428675456342
 30
0.0
 11
-0.1312419113468904
 21
1.607249866449501E-17
 31
0.0
210
0.0
220
0.0
230
1.0
 40
0.7071067811865477
 41
2.656480407116016
 42
4.71238898038469
  0
ELLIPSE
  5
B5
330
8B
100
AcDbEntity
  8
AM_9
100
AcDbEllipse
 10
0.0
 20
1.353042998028698
 30
0.0
 11
-0.1319517646676798
 21
1.615943062421189E-17
 31
0.0
210
0.0
220
0.0
230
1.0
 40
0.7071067811865467
 41
3.587943388690656
 42
5.835610363936995
  0
ELLIPSE
  5
B6
330
8B
100
AcDbEntity
  8
AM_9
100
AcDbEllipse
 10
0.0000000000000001
 20
1.399907574701884
 30
0.0
 11
-0.1038190510530392
 21
1.271416685626201E-17
 31
0.0
210
0.0
220
0.0
230
1.0
 40
0.7071067811865476
 41
3.5799744285438
 42
5.763817404454446
  0
ELLIPSE
  5
B7
330
8B
100
AcDbEntity
  8
AM_9
100
AcDbEllipse
 10
-0.0000000000003016
 20
1.399907574701994
 30
0.0
 11
-0.1038190510527001
 21
1.547024427442751E-9
 31
0.0
210
0.0
220
0.0
230
1.0
 40
0.7071067811865469
 41
-0.494251691533024
 42
-0.4564663421534192
  0
ELLIPSE
  5
B8
330
8B
100
AcDbEntity
  8
AM_9
100
AcDbEllipse
 10
-0.0000000000000001
 20
1.166726188957803
 30
0.0
 11
-0.1163438171532772
 21
1.733657987556530E-9
 31
0.0
210
0.0
220
0.0
230
1.0
 40
0.7071067811865486
 41
0.0
 42
6.283185307179586
  0
ELLIPSE
  5
B9
330
8B
100
AcDbEntity
  8
AM_9
100
AcDbEllipse
 10
0.0000000000000001
 20
1.03260757479928
 30
0.0
 11
-0.1104162595939891
 21
1.352209188856020E-17
 31
0.0
210
0.0
220
0.0
230
1.0
 40
0.7071067811865474
 41
0.0
 42
6.283185307179586
  0
ELLIPSE
  5
BA
330
8B
100
AcDbEntity
  8
AM_9
100
AcDbEllipse
 10
0.0000000000000001
 20
1.166726188957805
 30
0.0
 11
-0.1406500000000014
 21
1.722465723000770E-17
 31
0.0
210
0.0
220
0.0
230
1.0
 40
0.7071067811865498
 41
0.0
 42
6.283185307179586
  0
LINE
  5
BC
330
8B
100
AcDbEntity
  8
AM_4
100
AcDbLine
 10
-0.1151895236091904
 20
1.279930788063384
 30
0.0
 11
-0.1406499999999999
 21
1.267164183810004
 31
0.0
  0
LINE
  5
BD
330
8B
100
AcDbEntity
  8
AM_4
100
AcDbLine
 10
0.1406500000000001
 20
1.267164183810004
 30
0.0
 11
0.1151907939395562
 21
1.279930173394503
 31
0.0
  0
LINE
  5
BE
330
8B
100
AcDbEntity
  8
AM_4
100
AcDbLine
 10
-0.1406499999999999
 20
1.267164183810004
 30
0.0
 11
-0.1406499999999999
 21
1.113428646184706
 31
0.0
  0
LWPOLYLINE
  5
BF
330
8B
100
AcDbEntity
  8
AM_4
100
AcDbPolyline
 90
        3
 70
     0
 43
0.0
 10
-0.070325
 20
1.08059600587719
 10
-0.1054875
 20
1.096039185665539
 10
-0.1406499999999999
 20
1.113428646184706
  0
LWPOLYLINE
  5
C0
330
8B
100
AcDbEntity
  8
AM_4
100
AcDbPolyline
 90
        3
 70
     0
 43
0.0
 10
0.0000000000000001
 20
1.056008524130963
 10
-0.0350043999316989
 20
1.067274193739014
 10
-0.070325
 20
1.08059600587719
  0
LWPOLYLINE
  5
C1
330
8B
100
AcDbEntity
  8
AM_4
100
AcDbPolyline
 90
        3
 70
     0
 43
0.0
 10
-0.1406499999999999
 20
1.152323939702519
 10
-0.105645600068301
 20
1.141058270094468
 10
-0.0703249999999999
 20
1.127736457956293
  0
LWPOLYLINE
  5
C2
330
8B
100
AcDbEntity
  8
AM_4
100
AcDbPolyline
 90
        3
 70
     0
 43
0.0
 10
-0.0703249999999999
 20
1.127736457956293
 10
-0.0351624999999999
 20
1.112293278167944
 10
0.0000000000000001
 20
1.094903817648777
  0
LINE
  5
C3
330
8B
100
AcDbEntity
  8
AM_4
100
AcDbLine
 10
0.0000000000000001
 20
1.094903817648777
 30
0.0
 11
0.0000000000000001
 21
1.056008524130963
 31
0.0
  0
LWPOLYLINE
  5
C4
330
8B
100
AcDbEntity
  8
AM_4
100
AcDbPolyline
 90
        3
 70
     0
 43
0.0
 10
0.070325
 20
1.08059600587719
 10
0.0351625
 20
1.067329124638668
 10
0.0000000000000001
 20
1.056008524130963
  0
LWPOLYLINE
  5
C5
330
8B
100
AcDbEntity
  8
AM_4
100
AcDbPolyline
 90
        3
 70
     0
 43
0.0
 10
0.1406500000000001
 20
1.113428646184706
 10
0.1056456000683011
 20
1.096113342931098
 10
0.070325
 20
1.08059600587719
  0
LINE
  5
C6
330
8B
100
AcDbEntity
  8
AM_4
100
AcDbLine
 10
0.1406500000000001
 20
1.267164183810004
 30
0.0
 11
0.1406500000000001
 21
1.113428646184706
 31
0.0
  0
LWPOLYLINE
  5
C7
330
8B
100
AcDbEntity
  8
AM_4
100
AcDbPolyline
 90
        3
 70
     0
 43
0.0
 10
0.0703250000000001
 20
1.127736457956293
 10
0.1054875000000001
 20
1.141003339194815
 10
0.1406500000000001
 20
1.152323939702519
  0
LWPOLYLINE
  5
C8
330
8B
100
AcDbEntity
  8
AM_4
100
AcDbPolyline
 90
        3
 70
     0
 43
0.0
 10
0.0000000000000001
 20
1.094903817648777
 10
0.035004399931699
 20
1.112219120902385
 10
0.0703250000000001
 20
1.127736457956293
  0
ELLIPSE
  5
C9
330
8B
100
AcDbEntity
  8
AM_4
100
AcDbEllipse
 10
0.0000000000000002
 20
1.213866641036907
 30
0.0
 11
-0.1406499999999998
 21
1.722465723000749E-17
 31
0.0
210
0.0
220
0.0
230
1.0
 40
0.7071067811865502
 41
5.625871263975763
 42
10.0820920039732
  0
ELLIPSE
  5
CA
330
8B
100
AcDbEntity
  8
AM_4
100
AcDbEllipse
 10
0.0000000000000001
 20
1.236013613922438
 30
0.0
 11
-0.1093294505797713
 21
1.338899617050556E-17
 31
0.0
210
0.0
220
0.0
230
1.0
 40
0.7071067811865477
 41
5.928986666165874
 42
9.778976601783093
  0
LINE
  5
CB
330
8B
100
AcDbEntity
  8
AM_4
100
AcDbLine
 10
0.0879044185632924
 20
1.243190422345283
 30
0.0
 11
0.1160995625890071
 21
1.281012450059325
 31
0.0
  0
LINE
  5
CC
330
8B
100
AcDbEntity
  8
AM_4
100
AcDbLine
 10
-0.116099562589007
 20
1.281012450059325
 30
0.0
 11
-0.0879044185632922
 21
1.243190422345283
 31
0.0
  0
ELLIPSE
  5
CD
330
8B
100
AcDbEntity
  8
AM_4
100
AcDbEllipse
 10
0.0000000000000001
 20
1.275955425858945
 30
0.0
 11
-0.09936940028726637
 21
1.216924179949928E-17
 31
0.0
210
0.0
220
0.0
230
1.0
 40
0.7071067811865466
 41
0.4851122464737827
 42
2.65648040711601
  0
LWPOLYLINE
  5
CE
330
8B
100
AcDbEntity
  8
AM_4
100
AcDbPolyline
 90
       12
 70
     0
 43
0.0
 10
-0.1244887794563178
 20
1.384250434947772
 10
-0.1259640256248014
 20
1.381378603632706
 10
-0.1305144596844987
 20
1.370594612950786
 10
-0.1336810730707556
 20
1.359566194348628
 10
-0.1354709417083579
 20
1.348423398128912
 10
-0.1359062115829604
 20
1.337285392010493
 10
-0.1350185379178695
 20
1.326259954634615
 10
-0.1328473363128165
 20
1.315453974062918
 10
-0.1294358379937367
 20
1.304956461274901
 10
-0.1248249308266523
 20
1.294841500803059
 10
-0.1190522120382899
 20
1.285177157364603
 10
-0.1160904268807174
 20
1.281000196890563
  0
LWPOLYLINE
  5
CF
330
8B
100
AcDbEntity
  8
AM_4
100
AcDbPolyline
 90
        3
 70
     0
 43
0.0
 10
-0.118817212939966
 20
1.393627438693407
 10
-0.120044663006107
 20
1.391778687783304
 10
-0.1244887794563178
 20
1.384250434947772
  0
LWPOLYLINE
  5
D0
330
8B
100
AcDbEntity
  8
AM_4
100
AcDbPolyline
 90
       13
 70
     0
 43
0.0
 10
0.1155023331145642
 20
1.280218953423813
 10
0.1174560920788764
 20
1.28287347879451
 10
0.1238836447232267
 20
1.29309055102532
 10
0.1289552217193297
 20
1.303746112031913
 10
0.1326456175139756
 20
1.314697898053269
 10
0.1349544757656249
 20
1.325812037440489
 10
0.1358989646913405
 20
1.336965150999964
 10
0.1355077190919255
 20
1.34804512763531
 10
0.1338169955967363
 20
1.358946613388639
 10
0.1308698024643853
 20
1.369569995490568
 10
0.1267081050847186
 20
1.379837941553864
 10
0.1213707321718384
 20
1.389680573667982
 10
0.1188991204135756
 20
1.393506670257357
  0
ELLIPSE
  5
D1
330
8B
100
AcDbEntity
  8
AM_4
100
AcDbEllipse
 10
0.0000000000000001
 20
1.32428675456342
 30
0.0
 11
-0.1312419113468904
 21
1.607249866449501E-17
 31
0.0
210
0.0
220
0.0
230
1.0
 40
0.7071067811865477
 41
0.4849020696366271
 42
2.648816157663366
  0
ELLIPSE
  5
D2
330
8B
100
AcDbEntity
  8
AM_4
100
AcDbEllipse
 10
0.0000000000000001
 20
1.410678028467162
 30
0.0
 11
0.08080642971672804
 21
0.0
 31
0.0
210
0.0
220
0.0
230
1.0
 40
0.7071067811865489
 41
0.0
 42
6.283185307179586
  0
LWPOLYLINE
  5
D3
330
8B
100
AcDbEntity
  8
AM_4
100
AcDbPolyline
 90
       11
 70
     0
 43
0.0
 10
0.0000000000000001
 20
1.475139133353671
 10
-0.0066003768599078
 20
1.474982576926035
 10
-0.0184365996679914
 20
1.473908995798135
 10
-0.0300731257618295
 20
1.471820569479927
 10
-0.0413699779700148
 20
1.468727350850937
 10
-0.0521908789665254
 20
1.4646452977404
 10
-0.0623967613839468
 20
1.459598489290448
 10
-0.0718392538311441
 20
1.453626726210118
 10
-0.0803663302402303
 20
1.44679176959556
 10
-0.0878301150773014
 20
1.439183423085956
 10
-0.0930564425603123
 20
1.432461551286524
  0
LWPOLYLINE
  5
D4
330
8B
100
AcDbEntity
  8
AM_4
100
AcDbPolyline
 90
       11
 70
     0
 43
0.0
 10
0.0936647964079781
 20
1.431572886030923
 10
0.0895738883051583
 20
1.437099942781309
 10
0.082796905699563
 20
1.444514289575012
 10
0.0749555553652397
 20
1.451313298818464
 10
0.0661347275857925
 20
1.45740362036945
 10
0.0564469034177156
 20
1.46269629141246
 10
0.0460260957959827
 20
1.467115409313756
 10
0.0350179565261822
 20
1.470602793933103
 10
0.0235750633616151
 20
1.473117208888636
 10
0.0118418386535612
 20
1.474634050396663
 10
0.0000000000000001
 20
1.475139133353671
  0
LINE
  5
D5
330
8B
100
AcDbEntity
  8
AM_4
100
AcDbLine
 10
-0.0940018950300903
 20
1.431068761235017
 30
0.0
 11
-0.1194743720493999
 21
1.392648191010909
 31
0.0
  0
LINE
  5
D6
330
8B
100
AcDbEntity
  8
AM_4
100
AcDbLine
 10
0.1194743720494001
 20
1.392648191010909
 30
0.0
 11
0.0940018950300905
 21
1.431068761235017
 31
0.0
  0
ELLIPSE
  5
D7
330
8B
100
AcDbEntity
  8
AM_4
100
AcDbEllipse
 10
0.0000000000000001
 20
1.353042998028698
 30
0.0
 11
-0.1319517646676801
 21
1.615943062421192E-17
 31
0.0
210
0.0
220
0.0
230
1.0
 40
0.7071067811865467
 41
5.844803532225581
 42
9.863159735723386
  0
ELLIPSE
  5
D8
330
8B
100
AcDbEntity
  8
AM_4
100
AcDbEllipse
 10
0.0000000000000001
 20
1.399907574701884
 30
0.0
 11
-0.103819051053039
 21
1.271416685626199E-17
 31
0.0
210
0.0
220
0.0
230
1.0
 40
0.7071067811865445
 41
5.844803532225578
 42
9.863159735723388
  0
ELLIPSE
  5
D9
330
8B
100
AcDbEntity
  8
AM_4
100
AcDbEllipse
 10
0.0000000000015304
 20
1.399907574702722
 30
0.0
 11
-0.1038190510547372
 21
1.271416685646995E-17
 31
0.0
210
0.0
220
0.0
230
1.0
 40
0.7071067811809415
 41
-0.456466361166159
 42
-0.4383817749404635
  0
ENDBLK
  5
8E
330
8B
100
AcDbEntity
  8
0
100
AcDbBlockEnd
  0
BLOCK
  5
DC
330
DA
100
AcDbEntity
  8
0
100
AcDbBlockBegin
  2
3_123469_0_in_058596_2
 70
     2
 10
0.0
 20
0.0
 30
0.0
  3
3_123469_0_in_058596_2
  1

  0
ATTDEF
  5
DE
330
DA
100
AcDbEntity
  8
AM_6
100
AcDbText
 10
5.58
 20
1.219872827573649
 30
0.0
 40
0.5
  1
Set Screw Insert Inch Bore
100
AcDbAttributeDefinition
  3

  2
NN
 70
     8
280
     0
  0
ATTDEF
  5
DF
330
DA
100
AcDbEntity
  8
AM_6
100
AcDbText
 10
5.58
 20
0.719872827573649
 30
0.0
 40
0.5
  1
SC Normal Duty Bearing Inserts
100
AcDbAttributeDefinition
  3

  2
NT
 70
     8
280
     0
  0
ATTDEF
  5
E0
330
DA
100
AcDbEntity
  8
AM_6
100
AcDbText
 10
5.58
 20
0.219872827573649
 30
0.0
 40
0.5
  1
123469
100
AcDbAttributeDefinition
  3

  2
NB
 70
     8
280
     0
  0
ATTDEF
  5
E1
330
DA
100
AcDbEntity
  8
AM_6
100
AcDbText
 10
5.58
 20
-0.280127172426351
 30
0.0
 40
0.5
  1
$PN.
100
AcDbAttributeDefinition
  3

  2
NBSYN
 70
     8
280
     0
  0
ATTDEF
  5
E2
330
DA
100
AcDbEntity
  8
AM_6
100
AcDbText
 10
5.58
 20
-0.780127172426351
 30
0.0
 40
0.5
  1
123469
100
AcDbAttributeDefinition
  3

  2
LINA
 70
     8
280
     0
  0
ATTDEF
  5
E3
330
DA
100
AcDbEntity
  8
AM_6
100
AcDbText
 10
5.58
 20
-1.280127172426351
 30
0.0
 40
0.5
  1
206
100
AcDbAttributeDefinition
  3

  2
SERIES
 70
     8
280
     0
  0
ATTDEF
  5
E4
330
DA
100
AcDbEntity
  8
AM_6
100
AcDbText
 10
5.58
 20
-1.780127172426351
 30
0.0
 40
0.5
  1
1-1/4
100
AcDbAttributeDefinition
  3

  2
SS
 70
     8
280
     0
  0
ATTDEF
  5
E5
330
DA
100
AcDbEntity
  8
AM_6
100
AcDbText
 10
5.58
 20
-2.280127172426351
 30
0.0
 40
0.5
  1
123469
100
AcDbAttributeDefinition
  3

  2
PN
 70
     8
280
     0
  0
ATTDEF
  5
E6
330
DA
100
AcDbEntity
  8
AM_6
100
AcDbText
 10
5.58
 20
-2.780127172426351
 30
0.0
 40
0.5
  1
INS-SC-104S
100
AcDbAttributeDefinition
  3

  2
DESCRIPTION
 70
     8
280
     0
  0
ATTDEF
  5
E7
330
DA
100
AcDbEntity
  8
AM_6
100
AcDbText
 10
5.58
 20
-3.280127172426351
 30
0.0
 40
0.5
  1
1.52
100
AcDbAttributeDefinition
  3

  2
A
 70
     8
280
     0
  0
ATTDEF
  5
E8
330
DA
100
AcDbEntity
  8
AM_6
100
AcDbText
 10
5.58
 20
-3.780127172426351
 30
0.0
 40
0.5
  1
0.69
100
AcDbAttributeDefinition
  3

  2
C
 70
     8
280
     0
  0
ATTDEF
  5
E9
330
DA
100
AcDbEntity
  8
AM_6
100
AcDbText
 10
5.58
 20
-4.280127172426351
 30
0.0
 40
0.5
  1
2.4409
100
AcDbAttributeDefinition
  3

  2
D
 70
     8
280
     0
  0
ATTDEF
  5
EA
330
DA
100
AcDbEntity
  8
AM_6
100
AcDbText
 10
5.58
 20
-4.780127172426351
 30
0.0
 40
0.5
  1
0.16
100
AcDbAttributeDefinition
  3

  2
J
 70
     8
280
     0
  0
ATTDEF
  5
EB
330
DA
100
AcDbEntity
  8
AM_6
100
AcDbText
 10
5.58
 20
-5.280127172426351
 30
0.0
 40
0.5
  1
1.57
100
AcDbAttributeDefinition
  3

  2
L
 70
     8
280
     0
  0
ATTDEF
  5
EC
330
DA
100
AcDbEntity
  8
AM_6
100
AcDbText
 10
5.58
 20
-5.780127172426351
 30
0.0
 40
0.5
  1
5/16 - 24
100
AcDbAttributeDefinition
  3

  2
N
 70
     8
280
     0
  0
ATTDEF
  5
ED
330
DA
100
AcDbEntity
  8
AM_6
100
AcDbText
 10
5.58
 20
-6.280127172426351
 30
0.0
 40
0.5
  1
0.58
100
AcDbAttributeDefinition
  3

  2
W
 70
     8
280
     0
  0
ATTDEF
  5
EE
330
DA
100
AcDbEntity
  8
AM_6
100
AcDbText
 10
5.58
 20
-6.780127172426351
 30
0.0
 40
0.5
  1
0.94
100
AcDbAttributeDefinition
  3

  2
Y
 70
     8
280
     0
  0
ATTDEF
  5
EF
330
DA
100
AcDbEntity
  8
AM_6
100
AcDbText
 10
5.58
 20
-7.280127172426351
 30
0.0
 40
0.5
  1
baldor
100
AcDbAttributeDefinition
  3

  2
COMPANY
 70
     8
280
     0
  0
ARC
  5
F0
330
DA
100
AcDbEntity
  8
AM_9
100
AcDbCircle
 10
0.1600000000000013
 20
-0.0000000000000012
 30
0.0
 40
0.1041666666666604
100
AcDbArc
 50
310.7206585804649
 51
322.2750790595416
  0
CIRCLE
  5
F1
330
DA
100
AcDbEntity
  8
AM_9
100
AcDbCircle
 10
0.1599999999999999
 20
-0.0000000000000001
 30
0.0
 40
0.0414393939393896
  0
LINE
  5
F2
330
DA
100
AcDbEntity
  8
AM_9
100
AcDbLine
 10
-0.6679151965893085
 20
0.6126536478449086
 30
0.0
 11
-0.6170848034106915
 21
0.6126536478449086
 31
0.0
  0
LINE
  5
F3
330
DA
100
AcDbEntity
  8
AM_9
100
AcDbLine
 10
-0.5163
 20
0.625
 30
0.0
 11
-0.5163
 21
0.7617924915141182
 31
0.0
  0
LINE
  5
F4
330
DA
100
AcDbEntity
  8
AM_9
100
AcDbLine
 10
-0.7687
 20
0.7617924915141182
 30
0.0
 11
-0.7687
 21
0.625
 31
0.0
  0
LINE
  5
F5
330
DA
100
AcDbEntity
  8
AM_9
100
AcDbLine
 10
-0.7687
 20
0.7617924915141182
 30
0.0
 11
-0.5163
 21
0.7617924915141182
 31
0.0
  0
LINE
  5
F6
330
DA
100
AcDbEntity
  8
AM_9
100
AcDbLine
 10
-0.5163
 20
0.7617924915141182
 30
0.0
 11
-0.493092491514118
 21
0.7850000000000003
 31
0.0
  0
LINE
  5
F7
330
DA
100
AcDbEntity
  8
AM_9
100
AcDbLine
 10
-0.791907508485882
 20
0.7850000000000003
 30
0.0
 11
-0.7687
 21
0.7617924915141182
 31
0.0
  0
LWPOLYLINE
  5
F8
330
DA
100
AcDbEntity
  8
AM_9
100
AcDbPolyline
 90
        4
 70
     0
 43
0.0
 10
-0.6679151965893085
 20
0.6126536478449086
 10
-0.6510379875331828
 20
0.6120639405846138
 10
-0.6333681535052116
 20
0.6120747521575212
 10
-0.6170848034106915
 20
0.6126536478449086
  0
LWPOLYLINE
  5
F9
330
DA
100
AcDbEntity
  8
AM_9
100
AcDbPolyline
 90
       10
 70
     0
 43
0.0
 10
-0.6170848034106915
 20
0.6126536478449086
 10
-0.5970307475057176
 20
0.6138126855339411
 10
-0.5777253300447578
 20
0.6155439203402229
 10
-0.5607890608220901
 20
0.6175558578633484
 10
-0.5457045241987702
 20
0.6197321390210342
 10
-0.5335915300904748
 20
0.6217391855255981
 10
-0.5242791247001609
 20
0.6234378360002384
 10
-0.5185962314344943
 20
0.6245403941017222
 10
-0.5163237316359915
 20
0.6249952085402465
 10
-0.5163000000007935
 20
0.6249999999998398
  0
LWPOLYLINE
  5
FA
330
DA
100
AcDbEntity
  8
AM_9
100
AcDbPolyline
 90
        5
 70
     0
 43
0.0
 10
-0.6679151965893114
 20
0.1468859707668962
 10
-0.6592849788341041
 20
0.14505784946664
 10
-0.6418789650441733
 20
0.1436609753757864
 10
-0.6239225829019895
 20
0.1453743779094746
 10
-0.6170848034106885
 20
0.1468859707668962
  0
LWPOLYLINE
  5
FB
330
DA
100
AcDbEntity
  8
AM_9
100
AcDbPolyline
 90
        4
 70
     0
 43
0.0
 10
-0.6170848034106913
 20
0.370951268635732
 10
-0.638837750294389
 20
0.3735616244833174
 10
-0.6533357105273544
 20
0.3731371533645922
 10
-0.6679151965893089
 20
0.370951268635732
  0
LINE
  5
FC
330
DA
100
AcDbEntity
  8
AM_9
100
AcDbLine
 10
0.3449999999999999
 20
-0.625
 30
0.0
 11
0.5485999999999999
 21
-0.625
 31
0.0
  0
LINE
  5
FD
330
DA
100
AcDbEntity
  8
AM_9
100
AcDbLine
 10
-0.9086000000000001
 20
-0.625
 30
0.0
 11
-0.177
 21
-0.625
 31
0.0
  0
LINE
  5
FE
330
DA
100
AcDbEntity
  8
AM_9
100
AcDbLine
 10
-0.1769999999999999
 20
0.625
 30
0.0
 11
-0.5163000000000001
 21
0.625
 31
0.0
  0
LINE
  5
FF
330
DA
100
AcDbEntity
  8
AM_9
100
AcDbLine
 10
0.5485999999999999
 20
0.625
 30
0.0
 11
0.3449999999999999
 21
0.625
 31
0.0
  0
LINE
  5
100
330
DA
100
AcDbEntity
  8
AM_9
100
AcDbLine
 10
-0.7687
 20
0.625
 30
0.0
 11
-0.9086000000000001
 21
0.625
 31
0.0
  0
LWPOLYLINE
  5
101
330
DA
100
AcDbEntity
  8
AM_9
100
AcDbPolyline
 90
       10
 70
     0
 43
0.0
 10
-0.7686999999992066
 20
0.6249999999998398
 10
-0.7673870740621926
 20
0.624736217349223
 10
-0.7625773561359294
 20
0.623792538795227
 10
-0.7546793532437345
 20
0.6223204699302303
 10
-0.7434776435541937
 20
0.6203991009807782
 10
-0.7296396881102436
 20
0.6182975701423632
 10
-0.7129301315904256
 20
0.6161647210250232
 10
-0.6945172486791603
 20
0.6143324459607759
 10
-0.6740096937774568
 20
0.6129367184318044
 10
-0.6679151965893084
 20
0.6126536478449084
  0
LINE
  5
102
330
DA
100
AcDbEntity
  8
AM_9
100
AcDbLine
 10
-0.9086000000000001
 20
0.625
 30
0.0
 11
-0.9400000000000002
 21
0.6564
 31
0.0
  0
LINE
  5
103
330
DA
100
AcDbEntity
  8
AM_9
100
AcDbLine
 10
-0.9400000000000002
 20
-0.6564
 30
0.0
 11
-0.9086000000000001
 21
-0.625
 31
0.0
  0
LINE
  5
104
330
DA
100
AcDbEntity
  8
AM_9
100
AcDbLine
 10
0.5485999999999999
 20
-0.625
 30
0.0
 11
0.58
 21
-0.6564
 31
0.0
  0
LINE
  5
105
330
DA
100
AcDbEntity
  8
AM_9
100
AcDbLine
 10
0.58
 20
0.6564
 30
0.0
 11
0.5485999999999999
 21
0.625
 31
0.0
  0
ELLIPSE
  5
106
330
DA
100
AcDbEntity
  8
AM_9
100
AcDbEllipse
 10
-0.6424999999999998
 20
0.2589186197013118
 30
0.0
 11
0.1261999999999979
 21
0.0
 31
0.0
210
0.0
220
0.0
230
1.0
 40
0.9063077870366482
 41
4.509613981979733
 42
4.915163978789645
  0
LWPOLYLINE
  5
107
330
DA
100
AcDbEntity
  8
AM_9
100
AcDbPolyline
 90
        4
 70
     0
 43
0.0
 10
-0.7643593554284446
 20
0.2935114155515611
 10
-0.7664037685655057
 20
0.2856613674317902
 10
-0.7686762683640086
 20
0.2663524002028697
 10
-0.7686999995171794
 20
0.2641464184595732
  0
ELLIPSE
  5
108
330
DA
100
AcDbEntity
  8
AM_9
100
AcDbEllipse
 10
-0.6425000000000001
 20
0.2589186197013154
 30
0.0
 11
0.1261999999999986
 21
0.0
 31
0.0
210
0.0
220
0.0
230
1.0
 40
0.9063077870366475
 41
1.368021328389963
 42
1.682865046445164
  0
LWPOLYLINE
  5
109
330
DA
100
AcDbEntity
  8
AM_9
100
AcDbPolyline
 90
       10
 70
     0
 43
0.0
 10
-0.6170848034106885
 20
0.1468859707668962
 10
-0.5970307475057148
 20
0.1527140917358621
 10
-0.5777253300447552
 20
0.1619794698667944
 10
-0.5607890608220879
 20
0.1738256107813302
 10
-0.5457045241987684
 20
0.1885211454186926
 10
-0.5335915300904733
 20
0.204971811168772
 10
-0.5242791247001599
 20
0.2234520306665083
 10
-0.5185962314344937
 20
0.2422229840524547
 10
-0.5163237316359914
 20
0.2619163770562226
 10
-0.5163000004828207
 20
0.2641264086338982
  0
LINE
  5
10A
330
DA
100
AcDbEntity
  8
AM_9
100
AcDbLine
 10
-0.5163
 20
0.2641214462775162
 30
0.0
 11
-0.5163
 21
0.3219474185708133
 31
0.0
  0
LINE
  5
10B
330
DA
100
AcDbEntity
  8
AM_9
100
AcDbLine
 10
-0.7687
 20
0.3219474185708133
 30
0.0
 11
-0.7687
 21
0.2641214462775162
 31
0.0
  0
LWPOLYLINE
  5
10C
330
DA
100
AcDbEntity
  8
AM_9
100
AcDbPolyline
 90
       10
 70
     0
 43
0.0
 10
-0.7686999995171794
 20
0.2641464184595732
 10
-0.7673870740621924
 20
0.2475695508989219
 10
-0.7625773561359294
 20
0.2284330242224974
 10
-0.7546793532437344
 20
0.210608487435324
 10
-0.7434776435541934
 20
0.1935876898381911
 10
-0.7296396881102434
 20
0.1785707262011295
 10
-0.7129301315904253
 20
0.1654949583868576
 10
-0.6945172486791602
 20
0.1554198737776085
 10
-0.6740096937774567
 20
0.1482846977928259
 10
-0.6679151965893113
 20
0.1468859707668954
  0
LWPOLYLINE
  5
10D
330
DA
100
AcDbEntity
  8
AM_9
100
AcDbPolyline
 90
        9
 70
     0
 43
0.0
 10
-0.5205951680373305
 20
0.2933616821531571
 10
-0.5224226438640716
 20
0.2988192126424182
 10
-0.5303206467562669
 20
0.3153995030598162
 10
-0.5415223564458082
 20
0.3307962894457889
 10
-0.5553603118897587
 20
0.3440369624629995
 10
-0.572069868409577
 20
0.3553099683042202
 10
-0.5904827513208425
 20
0.363836347108103
 10
-0.6109903062225461
 20
0.3697918032085701
 10
-0.6170848034106915
 20
0.3709512686357328
  0
LWPOLYLINE
  5
10E
330
DA
100
AcDbEntity
  8
AM_9
100
AcDbPolyline
 90
        3
 70
     0
 43
0.0
 10
-0.5163000004828207
 20
0.2641264086338982
 10
-0.5176129259378079
 20
0.2804803175462572
 10
-0.5205951680373305
 20
0.2933616821531571
  0
ELLIPSE
  5
10F
330
DA
100
AcDbEntity
  8
AM_9
100
AcDbEllipse
 10
-0.6425000000000013
 20
0.3219474185709856
 30
0.0
 11
0.1261999999997619
 21
0.0
 31
0.0
210
0.0
220
0.0
230
1.0
 40
0.9063077870369931
 41
4.383646331173535
 42
7.881210389211805
  0
LINE
  5
110
330
DA
100
AcDbEntity
  8
AM_9
100
AcDbLine
 10
0.58
 20
0.7535999999999999
 30
0.0
 11
0.5486
 21
0.7849999999999999
 31
0.0
  0
LINE
  5
111
330
DA
100
AcDbEntity
  8
AM_9
100
AcDbLine
 10
0.5486
 20
-0.7849999999999999
 30
0.0
 11
0.58
 21
-0.7535999999999999
 31
0.0
  0
LINE
  5
112
330
DA
100
AcDbEntity
  8
AM_9
100
AcDbLine
 10
0.58
 20
0.7535999999999999
 30
0.0
 11
0.58
 21
-0.7535999999999999
 31
0.0
  0
LINE
  5
113
330
DA
100
AcDbEntity
  8
AM_9
100
AcDbLine
 10
0.3449999999999999
 20
-0.7850000000000003
 30
0.0
 11
0.5486
 21
-0.7850000000000003
 31
0.0
  0
LINE
  5
114
330
DA
100
AcDbEntity
  8
AM_9
100
AcDbLine
 10
0.5486
 20
0.7850000000000003
 30
0.0
 11
0.3449999999999999
 21
0.7850000000000003
 31
0.0
  0
LINE
  5
115
330
DA
100
AcDbEntity
  8
AM_9
100
AcDbLine
 10
0.5486
 20
0.7850000000000003
 30
0.0
 11
0.5486
 21
-0.7850000000000003
 31
0.0
  0
LWPOLYLINE
  5
116
330
DA
100
AcDbEntity
  8
AM_9
100
AcDbPolyline
 90
       11
 70
     0
 43
0.0
 10
-0.6434728990891195
 20
0.4510800695366302
 10
-0.6183945441782901
 20
0.4495680782837959
 10
-0.5924568094243534
 20
0.4444394463399229
 10
-0.5679039386886982
 20
0.4356635513791897
 10
-0.5455496247713345
 20
0.423388271710312
 10
-0.5267468388265585
 20
0.4082565416959296
 10
-0.5114640287792638
 20
0.3902488548782734
 10
-0.5011276317032021
 20
0.3713351422956064
 10
-0.4948839598915225
 20
0.350798217923498
 10
-0.4933149185740309
 20
0.3384672463806815
 10
-0.4932552940713205
 20
0.3259524891853897
  0
LWPOLYLINE
  5
117
330
DA
100
AcDbEntity
  8
AM_9
100
AcDbPolyline
 90
       12
 70
     0
 43
0.0
 10
-0.4932552940713205
 20
0.3259524891853897
 10
-0.4963759991158999
 20
0.305725960583553
 10
-0.5032632547473495
 20
0.2860658271896632
 10
-0.5130863324833893
 20
0.2684447178769288
 10
-0.5256979295555658
 20
0.2523114151166441
 10
-0.5418999152718716
 20
0.2370946264262543
 10
-0.5603671135796668
 20
0.2243335702691511
 10
-0.5824276316625745
 20
0.2135987568712764
 10
-0.6059759683212381
 20
0.2063041050425357
 10
-0.6318876458581847
 20
0.202555444457548
 10
-0.6580863516528261
 20
0.2029385601421146
 10
-0.684270240749819
 20
0.2075915887538839
  0
LINE
  5
118
330
DA
100
AcDbEntity
  8
AM_9
100
AcDbLine
 10
-0.8506392045454548
 20
-0.7850000000000003
 30
0.0
 11
-0.3449999999999999
 21
-0.7850000000000003
 31
0.0
  0
LINE
  5
119
330
DA
100
AcDbEntity
  8
AM_9
100
AcDbLine
 10
-0.3449999999999999
 20
0.7850000000000003
 30
0.0
 11
-0.493092491514118
 21
0.7850000000000003
 31
0.0
  0
LWPOLYLINE
  5
11A
330
DA
100
AcDbEntity
  8
AM_9
100
AcDbPolyline
 90
        9
 70
     0
 43
0.0
 10
-0.4930924915145382
 20
0.784999999999933
 10
-0.4946818518635572
 20
0.7847471517867646
 10
-0.4995946923603398
 20
0.7839818414788834
 10
-0.5078950991204081
 20
0.782744937392084
 10
-0.5192225210658168
 20
0.7811715953268253
 10
-0.5335458029877105
 20
0.779373492494824
 10
-0.5511275909243667
 20
0.7774618902780104
 10
-0.5712795170929631
 20
0.7756763881256433
 10
-0.5891310004822825
 20
0.7744604235042085
  0
LINE
  5
11B
330
DA
100
AcDbEntity
  8
AM_9
100
AcDbLine
 10
-0.1919999999999999
 20
-1.167116666666667
 30
0.0
 11
-0.128
 21
-1.167116666666667
 31
0.0
  0
LINE
  5
11C
330
DA
100
AcDbEntity
  8
AM_9
100
AcDbLine
 10
-0.128
 20
1.167116666666667
 30
0.0
 11
-0.1919999999999999
 21
1.167116666666667
 31
0.0
  0
ARC
  5
11D
330
DA
100
AcDbEntity
  8
AM_9
100
AcDbCircle
 10
0.3130000000000001
 20
-1.146492216502145
 30
0.0
 40
0.0319999999999998
100
AcDbArc
 50
285.2700166318438
 51
0.0
  0
ARC
  5
11E
330
DA
100
AcDbEntity
  8
AM_9
100
AcDbCircle
 10
0.3130000000000001
 20
1.146492216502145
 30
0.0
 40
0.0319999999999999
100
AcDbArc
 50
0.0
 51
74.72998336815627
  0
ARC
  5
11F
330
DA
100
AcDbEntity
  8
AM_9
100
AcDbCircle
 10
-0.3129999999999998
 20
-1.146492216502144
 30
0.0
 40
0.0320000000000003
100
AcDbArc
 50
180.0
 51
254.7299833681562
  0
ARC
  5
120
330
DA
100
AcDbEntity
  8
AM_9
100
AcDbCircle
 10
-0.3129999999999998
 20
1.146492216502144
 30
0.0
 40
0.0320000000000003
100
AcDbArc
 50
105.2700166318438
 51
180.0
  0
ARC
  5
121
330
DA
100
AcDbEntity
  8
AM_9
100
AcDbCircle
 10
0.000000000000016
 20
-0.0000000000000746
 30
0.0
 40
1.220450000000076
100
AcDbArc
 50
99.05131675797674
 51
105.2700166318436
  0
ARC
  5
122
330
DA
100
AcDbEntity
  8
AM_9
100
AcDbCircle
 10
-0.000000000001782
 20
-0.0000000000082818
 30
0.0
 40
1.220449999991554
100
AcDbArc
 50
254.7299833681346
 51
260.948683242045
  0
LINE
  5
123
330
DA
100
AcDbEntity
  8
AM_9
100
AcDbLine
 10
-0.3214277840885185
 20
1.177362468450538
 30
0.0
 11
-0.3214277840885185
 21
-1.177362468450551
 31
0.0
  0
LINE
  5
124
330
DA
100
AcDbEntity
  8
AM_9
100
AcDbLine
 10
-0.192
 20
1.205252754612077
 30
0.0
 11
-0.192
 21
-1.20525275461209
 31
0.0
  0
LWPOLYLINE
  5
125
330
DA
100
AcDbEntity
  8
AM_9
100
AcDbPolyline
 90
       38
 70
     0
 43
0.0
 10
0.2338284449763862
 20
-0.0734850675771208
 10
0.2450530383872534
 20
-0.0601207797305242
 10
0.2539168067054337
 20
-0.0450591595871213
 10
0.2601251682273951
 20
-0.028695208803837
 10
0.2635284217928063
 20
-0.0115134845087947
 10
0.2639879763336794
 20
0.0059153658406447
 10
0.2615555382993444
 20
0.0231768653008525
 10
0.2562775224257323
 20
0.0397389211320491
 10
0.2483463877664019
 20
0.0551870475118211
 10
0.2379164578226731
 20
0.0691202208464454
 10
0.2253452590021004
 20
0.0811214618358907
 10
0.2108463455476703
 20
0.0909023305266298
 10
0.1949432969976822
 20
0.0981308332756593
 10
0.1779207348779524
 20
0.1026031405474701
 10
0.1603979143816752
 20
0.1041659066517847
 10
0.1427685476271476
 20
0.1027209112852147
 10
0.125624459459636
 20
0.0983311581188855
 10
0.1094634314300262
 20
0.0910742268351295
 10
0.0947371480520144
 20
0.0811877737104472
 10
0.0819613757752126
 20
0.0689811969606759
 10
0.0714022246607919
 20
0.0547825578937922
 10
0.0634640716877336
 20
0.0391056784015032
 10
0.0582498733009831
 20
0.022307087689286
 10
0.055963626365209
 20
0.0049909551454204
 10
0.0565820482389148
 20
-0.0124668238932519
 10
0.0601098053424869
 20
-0.0295038154999946
 10
0.0663990521813178
 20
-0.0457116725999807
 10
0.075320280763482
 20
-0.0606457909754103
 10
0.0865707505025483
 20
-0.0738839614712455
 10
0.0999485078155235
 20
-0.0851022991907548
 10
0.1149809757240865
 20
-0.0939360521721464
 10
0.131404816348376
 20
-0.1001543013575397
 10
0.1486225629441448
 20
-0.1035434612637783
 10
0.1662785895074865
 20
-0.103966857860306
 10
0.183757736734802
 20
-0.1014212225803028
 10
0.2005956475844868
 20
-0.0959190841921766
 10
0.2162826473625917
 20
-0.0876524845643387
 10
0.2338284449763815
 20
-0.0734850675771132
  0
ARC
  5
126
330
DA
100
AcDbEntity
  8
AM_9
100
AcDbCircle
 10
0.0000000000000014
 20
0.0000000000000062
 30
0.0
 40
1.220449999999994
100
AcDbArc
 50
74.72998336815617
 51
96.02021531655132
  0
ARC
  5
127
330
DA
100
AcDbEntity
  8
AM_9
100
AcDbCircle
 10
-0.0000000000000748
 20
0.0000000000009357
 30
0.0
 40
1.220450000000907
100
AcDbArc
 50
263.9797846834568
 51
285.2700166318358
  0
LINE
  5
128
330
DA
100
AcDbEntity
  8
AM_9
100
AcDbLine
 10
-0.1279999999999997
 20
1.213719161297209
 30
0.0
 11
-0.1279999999999997
 21
-1.213719161297193
 31
0.0
  0
LINE
  5
129
330
DA
100
AcDbEntity
  8
AM_9
100
AcDbLine
 10
0.3214277840885187
 20
1.177362468450538
 30
0.0
 11
0.3214277840885187
 21
-1.177362468450522
 31
0.0
  0
LINE
  5
12B
330
DA
100
AcDbEntity
  8
AM_5
100
AcDbLine
 10
-0.48625
 20
0.625
 30
0.0
 11
-0.48625
 21
0.7850000000000003
 31
0.0
  0
LINE
  5
12C
330
DA
100
AcDbEntity
  8
AM_5
100
AcDbLine
 10
-0.7987500000000001
 20
0.625
 30
0.0
 11
-0.7987500000000001
 21
0.7850000000000003
 31
0.0
  0
LINE
  5
12F
330
DA
100
AcDbEntity
  8
AM_7
100
AcDbLine
 10
0.1599999999999999
 20
-0.0435113636363592
 30
0.0
 11
0.1599999999999999
 21
0.043511363636359
 31
0.0
  0
LINE
  5
130
330
DA
100
AcDbEntity
  8
AM_7
100
AcDbLine
 10
-0.6425000000000001
 20
0.8023044336975789
 30
0.0
 11
-0.6425000000000001
 21
0.5721417056614481
 31
0.0
  0
LWPOLYLINE
  5
131
330
DA
100
AcDbEntity
  8
AM_4
100
AcDbPolyline
 90
        8
 70
     0
 43
0.0
 10
-0.6679151965893089
 20
0.370951268635732
 10
-0.6879692524942829
 20
0.3661028086536283
 10
-0.7072746699552426
 20
0.358300733411688
 10
-0.7242109391779101
 20
0.3481551555746609
 10
-0.7392954758012299
 20
0.3352990932571393
 10
-0.7514084699095255
 20
0.3205448565170431
 10
-0.7607208752998392
 20
0.303500398441102
 10
-0.7643593554284446
 20
0.2935114155515611
  0
ELLIPSE
  5
132
330
DA
100
AcDbEntity
  8
AM_4
100
AcDbEllipse
 10
-0.6424999999999985
 20
0.2589186197013271
 30
0.0
 11
0.1262000000000083
 21
0.0
 31
0.0
210
0.0
220
0.0
230
1.0
 40
0.9063077870364884
 41
1.682865046445168
 42
1.773571325199829
  0
ELLIPSE
  5
133
330
DA
100
AcDbEntity
  8
AM_4
100
AcDbEllipse
 10
-0.6424999999999998
 20
0.3219474185708135
 30
0.0
 11
0.1262000000000002
 21
0.0
 31
0.0
210
0.0
220
0.0
230
1.0
 40
0.90630778703665
 41
3.141592653589793
 42
4.383646331173155
  0
ELLIPSE
  5
134
330
DA
100
AcDbEntity
  8
AM_4
100
AcDbEllipse
 10
-0.6425000000000001
 20
0.3219474185708132
 30
0.0
 11
0.1262
 21
0.0
 31
0.0
210
0.0
220
0.0
230
1.0
 40
0.9063077870366498
 41
1.598025082032178
 42
3.141592653589793
  0
LINE
  5
135
330
DA
100
AcDbEntity
  8
AM_4
100
AcDbLine
 10
-0.9400000000000002
 20
-0.7535999999999999
 30
0.0
 11
-0.9086000000000001
 21
-0.7849999999999999
 31
0.0
  0
LINE
  5
136
330
DA
100
AcDbEntity
  8
AM_4
100
AcDbLine
 10
-0.9086000000000001
 20
0.7849999999999999
 30
0.0
 11
-0.9400000000000002
 21
0.7535999999999999
 31
0.0
  0
LINE
  5
137
330
DA
100
AcDbEntity
  8
AM_4
100
AcDbLine
 10
-0.9400000000000002
 20
0.7535999999999999
 30
0.0
 11
-0.9400000000000002
 21
-0.7535999999999999
 31
0.0
  0
LWPOLYLINE
  5
138
330
DA
100
AcDbEntity
  8
AM_4
100
AcDbPolyline
 90
       20
 70
     0
 43
0.0
 10
-0.684270240749819
 20
0.2075915887538839
 10
-0.6844225963661292
 20
0.2076471722673426
 10
-0.7095599557620527
 20
0.2165401858989178
 10
-0.7325513244550143
 20
0.2293322532864113
 10
-0.7528495414996794
 20
0.2456758604201462
 10
-0.7689597213874071
 20
0.2642075542938393
 10
-0.7812401908680116
 20
0.2849874517590124
 10
-0.7885304752549189
 20
0.3053678409135245
 10
-0.7917672936869923
 20
0.3263700943589354
 10
-0.7909466961716145
 20
0.3456284820412263
 10
-0.7865808666760421
 20
0.3642520958862889
 10
-0.7789477028294344
 20
0.381474930010625
 10
-0.7683456256369642
 20
0.3972319138113131
 10
-0.7543060333513064
 20
0.4119313763494578
 10
-0.7378068480233552
 20
0.4244685749996153
 10
-0.7176111549687214
 20
0.4354368361906046
 10
-0.6956185019686556
 20
0.4435663998781962
 10
-0.6706856909133797
 20
0.4490115679285949
 10
-0.6450103370751255
 20
0.4510663036760306
 10
-0.6434728990891195
 20
0.4510800695366302
  0
LINE
  5
139
330
DA
100
AcDbEntity
  8
AM_4
100
AcDbLine
 10
-0.9086000000000001
 20
-0.7850000000000003
 30
0.0
 11
-0.8506392045454548
 21
-0.7850000000000003
 31
0.0
  0
LINE
  5
13A
330
DA
100
AcDbEntity
  8
AM_4
100
AcDbLine
 10
-0.7919075084858822
 20
0.7850000000000003
 30
0.0
 11
-0.9086000000000001
 21
0.7850000000000003
 31
0.0
  0
LINE
  5
13B
330
DA
100
AcDbEntity
  8
AM_4
100
AcDbLine
 10
-0.9086000000000001
 20
0.7850000000000003
 30
0.0
 11
-0.9086000000000001
 21
-0.7850000000000003
 31
0.0
  0
LWPOLYLINE
  5
13C
330
DA
100
AcDbEntity
  8
AM_4
100
AcDbPolyline
 90
       13
 70
     0
 43
0.0
 10
-0.5891310004822825
 20
0.7744604235042085
 10
-0.5942916659045819
 20
0.7741733572787116
 10
-0.619151531618249
 20
0.7731978505748353
 10
-0.6451654734933285
 20
0.7729023856378466
 10
-0.6718330944034944
 20
0.7733708953989824
 10
-0.6972923068760201
 20
0.7745446936242819
 10
-0.7218919248966661
 20
0.7763478623195984
 10
-0.7430923749599118
 20
0.7784234910788668
 10
-0.7618797088138634
 20
0.780661024737876
 10
-0.7755788290158652
 20
0.7825252351141209
 10
-0.7856727997217134
 20
0.7840228767776349
 10
-0.790680049672804
 20
0.7848045002271877
 10
-0.7919075084850126
 20
0.7849999999998611
  0
ENDBLK
  5
DD
330
DA
100
AcDbEntity
  8
0
100
AcDbBlockEnd
  0
BLOCK
  5
13F
330
13D
100
AcDbEntity
  8
0
100
AcDbBlockBegin
  2
4_058596Hou_0_in_058596_2
 70
     2
 10
0.0
 20
0.0
 30
0.0
  3
4_058596Hou_0_in_058596_2
  1

  0
ATTDEF
  5
141
330
13D
100
AcDbEntity
  8
AM_6
100
AcDbText
 10
5.9735
 20
1.782
 30
0.0
 40
0.5
  1
P2B-SCEZ-PCR -I-Housing
100
AcDbAttributeDefinition
  3

  2
NN
 70
     8
280
     0
  0
ATTDEF
  5
142
330
13D
100
AcDbEntity
  8
AM_6
100
AcDbText
 10
5.9735
 20
1.282
 30
0.0
 40
0.5
  1
SC Pillow Block Bearings -(Normal Duty) -Corrosion Resistant Insert -Polymer Housed -E-Z KLEEN
100
AcDbAttributeDefinition
  3

  2
NT
 70
     8
280
     0
  0
ATTDEF
  5
143
330
13D
100
AcDbEntity
  8
AM_6
100
AcDbText
 10
5.9735
 20
0.7819999999999996
 30
0.0
 40
0.5
  1
058596Hou
100
AcDbAttributeDefinition
  3

  2
NB
 70
     8
280
     0
  0
ATTDEF
  5
144
330
13D
100
AcDbEntity
  8
AM_6
100
AcDbText
 10
5.9735
 20
0.2819999999999996
 30
0.0
 40
0.5
  1
$PN.Hou
100
AcDbAttributeDefinition
  3

  2
NBSYN
 70
     8
280
     0
  0
ATTDEF
  5
145
330
13D
100
AcDbEntity
  8
AM_6
100
AcDbText
 10
5.9735
 20
-0.2180000000000004
 30
0.0
 40
0.5
  1
058596
100
AcDbAttributeDefinition
  3

  2
LINA
 70
     8
280
     0
  0
ATTDEF
  5
146
330
13D
100
AcDbEntity
  8
AM_6
100
AcDbText
 10
5.9735
 20
-0.7180000000000004
 30
0.0
 40
0.5
  1
206
100
AcDbAttributeDefinition
  3

  2
SERIES
 70
     8
280
     0
  0
ATTDEF
  5
147
330
13D
100
AcDbEntity
  8
AM_6
100
AcDbText
 10
5.9735
 20
-1.218
 30
0.0
 40
0.5
  1
1-1/4
100
AcDbAttributeDefinition
  3

  2
SS
 70
     8
280
     0
  0
ATTDEF
  5
148
330
13D
100
AcDbEntity
  8
AM_6
100
AcDbText
 10
5.9735
 20
-1.718
 30
0.0
 40
0.5
  1
058596
100
AcDbAttributeDefinition
  3

  2
PN
 70
     8
280
     0
  0
ATTDEF
  5
149
330
13D
100
AcDbEntity
  8
AM_6
100
AcDbText
 10
5.9735
 20
-2.218
 30
0.0
 40
0.5
  1
2
100
AcDbAttributeDefinition
  3

  2
HLP
 70
     8
280
     0
  0
ATTDEF
  5
14A
330
13D
100
AcDbEntity
  8
AM_6
100
AcDbText
 10
5.9735
 20
-2.718
 30
0.0
 40
0.5
  1
P2B-SCUEZ-104S-P
100
AcDbAttributeDefinition
  3

  2
DESCRIPTION
 70
     8
280
     0
  0
ATTDEF
  5
14B
330
13D
100
AcDbEntity
  8
AM_6
100
AcDbText
 10
5.9735
 20
-3.218
 30
0.0
 40
0.5
  1
1.52
100
AcDbAttributeDefinition
  3

  2
A
 70
     8
280
     0
  0
ATTDEF
  5
14C
330
13D
100
AcDbEntity
  8
AM_6
100
AcDbText
 10
5.9735
 20
-3.718
 30
0.0
 40
0.5
  1
6.30
100
AcDbAttributeDefinition
  3

  2
B
 70
     8
280
     0
  0
ATTDEF
  5
14D
330
13D
100
AcDbEntity
  8
AM_6
100
AcDbText
 10
5.9735
 20
-4.218
 30
0.0
 40
0.5
  1
1.77
100
AcDbAttributeDefinition
  3

  2
C
 70
     8
280
     0
  0
ATTDEF
  5
14E
330
13D
100
AcDbEntity
  8
AM_6
100
AcDbText
 10
5.9735
 20
-4.718
 30
0.0
 40
0.5
  1
4.60
100
AcDbAttributeDefinition
  3

  2
DMIN
 70
     8
280
     0
  0
ATTDEF
  5
14F
330
13D
100
AcDbEntity
  8
AM_6
100
AcDbText
 10
5.9735
 20
-5.218
 30
0.0
 40
0.5
  1
4.88
100
AcDbAttributeDefinition
  3

  2
DMAX
 70
     8
280
     0
  0
ATTDEF
  5
150
330
13D
100
AcDbEntity
  8
AM_6
100
AcDbText
 10
5.9735
 20
-5.718
 30
0.0
 40
0.5
  1
1/2
100
AcDbAttributeDefinition
  3

  2
F
 70
     8
280
     0
  0
ATTDEF
  5
151
330
13D
100
AcDbEntity
  8
AM_6
100
AcDbText
 10
5.9735
 20
-6.218
 30
0.0
 40
0.5
  1
0.73
100
AcDbAttributeDefinition
  3

  2
G
 70
     8
280
     0
  0
ATTDEF
  5
152
330
13D
100
AcDbEntity
  8
AM_6
100
AcDbText
 10
5.9735
 20
-6.718
 30
0.0
 40
0.5
  1
0.70
100
AcDbAttributeDefinition
  3

  2
H
 70
     8
280
     0
  0
ATTDEF
  5
153
330
13D
100
AcDbEntity
  8
AM_6
100
AcDbText
 10
5.9735
 20
-7.218
 30
0.0
 40
0.5
  1
3.34
100
AcDbAttributeDefinition
  3

  2
J
 70
     8
280
     0
  0
ATTDEF
  5
154
330
13D
100
AcDbEntity
  8
AM_6
100
AcDbText
 10
5.9735
 20
-7.718
 30
0.0
 40
0.5
  1
1.57
100
AcDbAttributeDefinition
  3

  2
L
 70
     8
280
     0
  0
ATTDEF
  5
155
330
13D
100
AcDbEntity
  8
AM_6
100
AcDbText
 10
5.9735
 20
-8.218
 30
0.0
 40
0.5
  1
1.69
100
AcDbAttributeDefinition
  3

  2
M
 70
     8
280
     0
  0
ATTDEF
  5
156
330
13D
100
AcDbEntity
  8
AM_6
100
AcDbText
 10
5.9735
 20
-8.718
 30
0.0
 40
0.5
  1
0.58
100
AcDbAttributeDefinition
  3

  2
R
 70
     8
280
     0
  0
ATTDEF
  5
157
330
13D
100
AcDbEntity
  8
AM_6
100
AcDbText
 10
5.9735
 20
-9.218
 30
0.0
 40
0.5
  1
0.94
100
AcDbAttributeDefinition
  3

  2
S
 70
     8
280
     0
  0
ATTDEF
  5
158
330
13D
100
AcDbEntity
  8
AM_6
100
AcDbText
 10
5.9735
 20
-9.718
 30
0.0
 40
0.5
  1
baldor
100
AcDbAttributeDefinition
  3

  2
COMPANY
 70
     8
280
     0
  0
LINE
  5
159
330
13D
100
AcDbEntity
  8
AM_9
100
AcDbLine
 10
-0.177
 20
-0.625
 30
0.0
 11
0.345
 21
-0.625
 31
0.0
  0
LINE
  5
15A
330
13D
100
AcDbEntity
  8
AM_9
100
AcDbLine
 10
-0.177
 20
0.6249999999999994
 30
0.0
 11
0.345
 21
0.6249999999999994
 31
0.0
  0
LINE
  5
15B
330
13D
100
AcDbEntity
  8
AM_9
100
AcDbLine
 10
-0.6637499999999998
 20
-0.6776554616633914
 30
0.0
 11
-0.6637499999999998
 21
-1.69
 31
0.0
  0
LINE
  5
15C
330
13D
100
AcDbEntity
  8
AM_9
100
AcDbLine
 10
0.6637500000000002
 20
-0.6776554616633897
 30
0.0
 11
0.6637500000000002
 21
-1.69
 31
0.0
  0
LINE
  5
15D
330
13D
100
AcDbEntity
  8
AM_9
100
AcDbLine
 10
-0.345
 20
-1.22045
 30
0.0
 11
0.3449999999999999
 21
-1.22045
 31
0.0
  0
LINE
  5
15E
330
13D
100
AcDbEntity
  8
AM_9
100
AcDbLine
 10
0.3449999999999999
 20
1.22045
 30
0.0
 11
-0.345
 21
1.22045
 31
0.0
  0
LINE
  5
15F
330
13D
100
AcDbEntity
  8
AM_9
100
AcDbLine
 10
-0.177
 20
-0.625
 30
0.0
 11
-0.177
 21
0.6249999999999994
 31
0.0
  0
LWPOLYLINE
  5
160
330
13D
100
AcDbEntity
  8
AM_9
100
AcDbPolyline
 90
        4
 70
     0
 43
0.0
 10
0.7860812558679536
 20
-0.3998407129749139
 10
0.7463443049351173
 20
-0.5102850948002859
 10
0.6971327029671976
 20
-0.6168458989356633
 10
0.6637500000000002
 20
-0.6776554616633896
  0
LINE
  5
161
330
13D
100
AcDbEntity
  8
AM_9
100
AcDbLine
 10
0.3449999999999999
 20
-1.34545
 30
0.0
 11
0.66375
 21
-1.34545
 31
0.0
  0
LINE
  5
162
330
13D
100
AcDbEntity
  8
AM_9
100
AcDbLine
 10
0.4935467329545455
 20
1.34545
 30
0.0
 11
0.3449999999999999
 21
1.34545
 31
0.0
  0
LINE
  5
163
330
13D
100
AcDbEntity
  8
AM_9
100
AcDbLine
 10
0.3449999999999999
 20
1.34545
 30
0.0
 11
0.3449999999999999
 21
-1.34545
 31
0.0
  0
LWPOLYLINE
  5
164
330
13D
100
AcDbEntity
  8
AM_9
100
AcDbPolyline
 90
        4
 70
     0
 43
0.0
 10
-0.6637499999999996
 20
-0.6776554616633917
 10
-0.7183885358369185
 20
-0.5737727530549572
 10
-0.7637651809217466
 20
-0.4655232873423137
 10
-0.7860812558679547
 20
-0.3998407129749145
  0
LINE
  5
165
330
13D
100
AcDbEntity
  8
AM_9
100
AcDbLine
 10
-0.66375
 20
-1.34545
 30
0.0
 11
-0.345
 21
-1.34545
 31
0.0
  0
LINE
  5
166
330
13D
100
AcDbEntity
  8
AM_9
100
AcDbLine
 10
-0.345
 20
1.34545
 30
0.0
 11
-0.4935467329545453
 21
1.34545
 31
0.0
  0
LINE
  5
167
330
13D
100
AcDbEntity
  8
AM_9
100
AcDbLine
 10
-0.345
 20
1.34545
 30
0.0
 11
-0.345
 21
-1.34545
 31
0.0
  0
LINE
  5
168
330
13D
100
AcDbEntity
  8
AM_9
100
AcDbLine
 10
0.295
 20
-0.99
 30
0.0
 11
0.295
 21
-1.69
 31
0.0
  0
LINE
  5
169
330
13D
100
AcDbEntity
  8
AM_9
100
AcDbLine
 10
-0.2949999999999998
 20
-0.99
 30
0.0
 11
-0.2949999999999998
 21
-1.69
 31
0.0
  0
LINE
  5
16A
330
13D
100
AcDbEntity
  8
AM_7
100
AcDbLine
 10
-0.0000000000000001
 20
-1.122
 30
0.0
 11
-0.0000000000000001
 21
1.782
 31
0.0
  0
LINE
  5
16B
330
13D
100
AcDbEntity
  8
AM_7
100
AcDbLine
 10
-1.016
 20
0.0
 30
0.0
 11
0.9735
 21
0.0
 31
0.0
  0
LINE
  5
16C
330
13D
100
AcDbEntity
  8
AM_4
100
AcDbLine
 10
-0.4424999999999999
 20
1.65
 30
0.0
 11
0.4425000000000001
 21
1.649999999999999
 31
0.0
  0
LINE
  5
16D
330
13D
100
AcDbEntity
  8
AM_4
100
AcDbLine
 10
-0.44937300564602
 20
1.608994949366117
 30
0.0
 11
0.4493730056460204
 21
1.608994949366117
 31
0.0
  0
LINE
  5
16E
330
13D
100
AcDbEntity
  8
AM_4
100
AcDbLine
 10
-0.6099617604555262
 20
0.6509061071127918
 30
0.0
 11
0.6099617604555264
 21
0.6509061071127918
 31
0.0
  0
LINE
  5
16F
330
13D
100
AcDbEntity
  8
AM_4
100
AcDbLine
 10
-0.6208777466911729
 20
0.5857802231306289
 30
0.0
 11
-0.1048579516707092
 21
0.5857802231306286
 31
0.0
  0
LINE
  5
170
330
13D
100
AcDbEntity
  8
AM_4
100
AcDbLine
 10
0.1048579516707097
 20
0.5857802231306286
 30
0.0
 11
0.6208777466911733
 21
0.5857802231306286
 31
0.0
  0
LINE
  5
171
330
13D
100
AcDbEntity
  8
AM_4
100
AcDbLine
 10
-0.867211008118333
 20
-0.8838690653839534
 30
0.0
 11
-0.5497507009333927
 21
-0.8838690653839534
 31
0.0
  0
LINE
  5
172
330
13D
100
AcDbEntity
  8
AM_4
100
AcDbLine
 10
-0.8849999999999999
 20
-0.9899999999999998
 30
0.0
 11
-0.4424999999999999
 21
1.65
 31
0.0
  0
LWPOLYLINE
  5
173
330
13D
100
AcDbEntity
  8
AM_4
100
AcDbPolyline
 90
       13
 70
     0
 43
0.0
 10
0.549750700933393
 20
-0.8838690653839535
 10
0.5289914938862168
 20
-0.694965689734465
 10
0.5042063421567694
 20
-0.5140377906687351
 10
0.4755838757153959
 20
-0.342462338745906
 10
0.4433419288144326
 20
-0.1815451267552003
 10
0.4077258821380156
 20
-0.0325108318443372
 10
0.3690067953069099
 20
0.1035063050130445
 10
0.3274793439511234
 20
0.2254711112760676
 10
0.2834595770504347
 20
0.3324553611247063
 10
0.23728251161082
 20
0.4236448398187566
 10
0.1892995829827492
 20
0.4983455403636441
 10
0.1398759702259663
 20
0.5559889453227062
 10
0.1048579516707109
 20
0.5857802231306284
  0
LWPOLYLINE
  5
174
330
13D
100
AcDbEntity
  8
AM_4
100
AcDbPolyline
 90
       12
 70
     0
 43
0.0
 10
0.1048579516707097
 20
0.5857802231306286
 10
0.0907362638503426
 20
0.5942284674308139
 10
0.0753931335129179
 20
0.6005726239778779
 10
0.0594440713879755
 20
0.6052259471503637
 10
0.0345341259956772
 20
0.6098672162528457
 10
0.0091257375421347
 20
0.6118908535479796
 10
-0.0163164069599043
 20
0.6115233422258385
 10
-0.0368706577874323
 20
0.6095387729958676
 10
-0.0571715131946584
 20
0.6058032985597889
 10
-0.0768491033692757
 20
0.6000186081025448
 10
-0.0913798349731179
 20
0.5938712506918229
 10
-0.1048579516707092
 20
0.5857802231306285
  0
LWPOLYLINE
  5
175
330
13D
100
AcDbEntity
  8
AM_4
100
AcDbPolyline
 90
       13
 70
     0
 43
0.0
 10
-0.1048579516707105
 20
0.5857802231306284
 10
-0.1550621939687002
 20
0.5402644426722569
 10
-0.2040863193414755
 20
0.477372338470166
 10
-0.2515572245933733
 20
0.397582557412624
 10
-0.2971136274717103
 20
0.3015023479118666
 10
-0.3404088162428743
 20
0.1898629383770106
 10
-0.3811132883779671
 20
0.0635139721243352
 10
-0.4189172582660082
 20
-0.0765829589213856
 10
-0.4535330148694885
 20
-0.2293616325220531
 10
-0.4846971113790904
 20
-0.393659310721282
 10
-0.5121723702029797
 20
-0.5682255889823248
 10
-0.5357496880314918
 20
-0.7517319125216148
 10
-0.5497507009333926
 20
-0.8838690653839524
  0
LWPOLYLINE
  5
176
330
13D
100
AcDbEntity
  8
AM_4
100
AcDbPolyline
 90
        9
 70
     0
 43
0.0
 10
-0.5847757379645959
 20
-0.99
 10
-0.5811081547108291
 20
-0.9879705457307882
 10
-0.576634247961931
 20
-0.9820413088448198
 10
-0.5715779535706905
 20
-0.9724052688345333
 10
-0.5662489397883074
 20
-0.9593867175001496
 10
-0.5608515894023134
 20
-0.942800017830197
 10
-0.5559425211192888
 20
-0.9234036637201697
 10
-0.5523627577339185
 20
-0.904334543739678
 10
-0.5497507009333927
 20
-0.8838690653839535
  0
LINE
  5
177
330
13D
100
AcDbEntity
  8
AM_4
100
AcDbLine
 10
0.4425000000000004
 20
1.65
 30
0.0
 11
0.8850000000000002
 21
-0.99
 31
0.0
  0
LINE
  5
178
330
13D
100
AcDbEntity
  8
AM_4
100
AcDbLine
 10
0.5497507009333928
 20
-0.8838690653839534
 30
0.0
 11
0.8672110081183335
 21
-0.8838690653839534
 31
0.0
  0
LWPOLYLINE
  5
179
330
13D
100
AcDbEntity
  8
AM_4
100
AcDbPolyline
 90
        9
 70
     0
 43
0.0
 10
0.5497507009333931
 20
-0.8838690653839534
 10
0.5525740701335402
 20
-0.9056868242264461
 10
0.5566236981610138
 20
-0.9264457251773427
 10
0.561318191677135
 20
-0.9444085167847105
 10
0.5665513985940661
 20
-0.9602070692375452
 10
0.5719095308532708
 20
-0.9731224255276867
 10
0.5771024644938448
 20
-0.9827901071145967
 10
0.5812625114441109
 20
-0.9881273933563537
 10
0.5847757379645964
 20
-0.99
  0
LINE
  5
17A
330
13D
100
AcDbEntity
  8
AM_4
100
AcDbLine
 10
0.8850000000000001
 20
-0.9899999999999998
 30
0.0
 11
0.8850000000000001
 21
-1.69
 31
0.0
  0
LINE
  5
17B
330
13D
100
AcDbEntity
  8
AM_4
100
AcDbLine
 10
-0.8849999999999999
 20
-1.69
 30
0.0
 11
0.8850000000000001
 21
-1.69
 31
0.0
  0
LINE
  5
17C
330
13D
100
AcDbEntity
  8
AM_4
100
AcDbLine
 10
-0.8849999999999999
 20
-0.99
 30
0.0
 11
0.8850000000000001
 21
-0.9899999999999998
 31
0.0
  0
LINE
  5
17D
330
13D
100
AcDbEntity
  8
AM_4
100
AcDbLine
 10
-0.8849999999999999
 20
-0.99
 30
0.0
 11
-0.8849999999999999
 21
-1.69
 31
0.0
  0
LWPOLYLINE
  5
17E
330
13D
100
AcDbEntity
  8
AM_4
100
AcDbPolyline
 90
       19
 70
     0
 43
0.0
 10
0.7080000000000002
 20
-1.059999999999999
 10
0.708266371133578
 20
-1.053899098007663
 10
0.7090634572891455
 20
-1.047844627563315
 10
0.7103851921597654
 20
-1.041882666842823
 10
0.7122215165449866
 20
-1.036058589967203
 10
0.7145584549074345
 20
-1.030416721678151
 10
0.7173782217350894
 20
-1.025
 10
0.7206593568997706
 20
-1.019849649455427
 10
0.7243768889816713
 20
-1.015004867321943
 10
0.7285025253169415
 20
-1.010502525316942
 10
0.733004867321942
 20
-1.006376888981672
 10
0.7378496494554263
 20
-1.002659356899771
 10
0.7429999999999995
 20
-0.9993782217350897
 10
0.7484167216781504
 20
-0.9965584549074349
 10
0.7540585899672025
 20
-0.9942215165449868
 10
0.7598826668428228
 20
-0.9923851921597657
 10
0.765844627563314
 20
-0.9910634572891459
 10
0.771899098007663
 20
-0.9902663711335783
 10
0.7779999999999989
 20
-0.9900000000000005
  0
LWPOLYLINE
  5
17F
330
13D
100
AcDbEntity
  8
AM_4
100
AcDbPolyline
 90
       19
 70
     0
 43
0.0
 10
-0.7779999999999988
 20
-0.9900000000000005
 10
-0.7718990980076628
 20
-0.9902663711335783
 10
-0.7658446275633138
 20
-0.9910634572891459
 10
-0.7598826668428226
 20
-0.9923851921597657
 10
-0.7540585899672023
 20
-0.9942215165449868
 10
-0.7484167216781503
 20
-0.9965584549074349
 10
-0.7429999999999993
 20
-0.9993782217350896
 10
-0.7378496494554262
 20
-1.002659356899771
 10
-0.7330048673219417
 20
-1.006376888981672
 10
-0.7285025253169412
 20
-1.010502525316942
 10
-0.7243768889816711
 20
-1.015004867321942
 10
-0.7206593568997702
 20
-1.019849649455427
 10
-0.7173782217350889
 20
-1.025
 10
-0.7145584549074342
 20
-1.030416721678151
 10
-0.7122215165449861
 20
-1.036058589967203
 10
-0.7103851921597649
 20
-1.041882666842823
 10
-0.7090634572891452
 20
-1.047844627563314
 10
-0.7082663711335776
 20
-1.053899098007663
 10
-0.7079999999999999
 20
-1.059999999999999
  0
LINE
  5
180
330
13D
100
AcDbEntity
  8
AM_4
100
AcDbLine
 10
0.7080000000000001
 20
-1.059999999999999
 30
0.0
 11
0.7080000000000001
 21
-1.69
 31
0.0
  0
LINE
  5
181
330
13D
100
AcDbEntity
  8
AM_4
100
AcDbLine
 10
-0.7079999999999999
 20
-1.059999999999999
 30
0.0
 11
0.7080000000000001
 21
-1.059999999999999
 31
0.0
  0
LINE
  5
182
330
13D
100
AcDbEntity
  8
AM_4
100
AcDbLine
 10
-0.7079999999999999
 20
-1.059999999999999
 30
0.0
 11
-0.7079999999999999
 21
-1.69
 31
0.0
  0
ENDBLK
  5
140
330
13D
100
AcDbEntity
  8
0
100
AcDbBlockEnd
  0
ENDSEC
  0
SECTION
  2
ENTITIES
  0
INSERT
  5
6F
330
1F
100
AcDbEntity
  8
0
100
AcDbBlockReference
  2
1_058596_2
 10
0.0
 20
0.0
 30
0.0
  0
POINT
  5
184
330
1F
100
AcDbEntity
  8
ConnectionPoints
100
AcDbPoint
 10
0.58
 20
0.0
 30
0.0
  0
POINT
  5
185
330
1F
100
AcDbEntity
  8
ConnectionPoints
100
AcDbPoint
 10
-0.94
 20
0.0
 30
0.0000000000000001
  0
POINT
  5
186
330
1F
100
AcDbEntity
  8
ConnectionPoints
100
AcDbPoint
 10
0.0000000000000001
 20
1.166726188957803
 30
1.166726188957803
  0
POINT
  5
187
330
1F
100
AcDbEntity
  8
ConnectionPoints
100
AcDbPoint
 10
-0.94
 20
0.0
 30
0.0000000000000001
  0
ENDSEC
  0
SECTION
  2
OBJECTS
  0
DICTIONARY
  5
C
330
0
100
AcDbDictionary
281
     1
  3
ACAD_DETAILVIEWSTYLE
350
18F
  3
ACAD_GROUP
350
D
  3
ACAD_LAYOUT
350
1A
  3
ACAD_MATERIAL
350
43
  3
ACAD_MLEADERSTYLE
350
6B
  3
ACAD_MLINESTYLE
350
17
  3
ACAD_PLOTSETTINGS
350
19
  3
ACAD_PLOTSTYLENAME
350
E
  3
ACAD_SCALELIST
350
47
  3
ACAD_SECTIONVIEWSTYLE
350
190
  3
ACAD_TABLESTYLE
350
69
  3
ACAD_VISUALSTYLE
350
2A
  3
ACDB_RECOMPOSE_DATA
350
18C
  3
AcDbVariableDictionary
350
188
  0
SUN
  5
6D
330
29
100
AcDbSun
 90
        1
290
     0
 63
     7
421
 16777215
 40
1.0
291
     1
 91
  2455826
 92
 54000000
292
     0
 70
     2
 71
   256
280
     1
  0
DICTIONARY
  5
18F
102
{ACAD_REACTORS
330
C
102
}
330
C
100
AcDbDictionary
281
     1
  0
DICTIONARY
  5
D
102
{ACAD_REACTORS
330
C
102
}
330
C
100
AcDbDictionary
281
     1
  0
DICTIONARY
  5
1A
102
{ACAD_REACTORS
330
C
102
}
330
C
100
AcDbDictionary
281
     1
  3
Layout1
350
1E
  3
Layout2
350
26
  3
Model
350
22
  0
DICTIONARY
  5
43
102
{ACAD_REACTORS
330
C
102
}
330
C
100
AcDbDictionary
281
     1
  3
ByBlock
350
45
  3
ByLayer
350
44
  3
Global
350
46
  0
DICTIONARY
  5
6B
102
{ACAD_REACTORS
330
C
102
}
330
C
100
AcDbDictionary
281
     1
  3
Standard
350
6C
  0
DICTIONARY
  5
17
102
{ACAD_REACTORS
330
C
102
}
330
C
100
AcDbDictionary
281
     1
  3
Standard
350
18
  0
DICTIONARY
  5
19
102
{ACAD_REACTORS
330
C
102
}
330
C
100
AcDbDictionary
281
     1
  0
ACDBDICTIONARYWDFLT
  5
E
102
{ACAD_REACTORS
330
C
102
}
330
C
100
AcDbDictionary
281
     1
  3
Normal
350
F
100
AcDbDictionaryWithDefault
340
F
  0
DICTIONARY
  5
47
102
{ACAD_REACTORS
330
C
102
}
330
C
100
AcDbDictionary
281
     1
  3
A0
350
48
  3
A1
350
49
  3
A2
350
4A
  3
A3
350
4B
  3
A4
350
4C
  3
A5
350
4D
  3
A6
350
4E
  3
A7
350
4F
  3
A8
350
50
  3
A9
350
51
  3
B0
350
52
  3
B1
350
53
  3
B2
350
54
  3
B3
350
55
  3
B4
350
56
  3
B5
350
57
  3
B6
350
58
  3
B7
350
59
  3
B8
350
5A
  3
B9
350
5B
  3
C0
350
5C
  3
C1
350
5D
  3
C2
350
5E
  3
C3
350
5F
  3
C4
350
60
  3
C5
350
61
  3
C6
350
62
  3
C7
350
63
  3
C8
350
64
  3
C9
350
65
  3
D0
350
66
  3
D1
350
67
  3
D2
350
68
  0
DICTIONARY
  5
190
102
{ACAD_REACTORS
330
C
102
}
330
C
100
AcDbDictionary
281
     1
  0
DICTIONARY
  5
69
102
{ACAD_REACTORS
330
C
102
}
330
C
100
AcDbDictionary
281
     1
  3
Standard
350
6A
  0
DICTIONARY
  5
2A
102
{ACAD_REACTORS
330
C
102
}
330
C
100
AcDbDictionary
281
     1
  3
2dWireframe
350
2F
  3
Basic
350
32
  3
Brighten
350
36
  3
ColorChange
350
3A
  3
Conceptual
350
34
  3
Dim
350
35
  3
EdgeColorOff
350
3D
  3
Facepattern
350
39
  3
Flat
350
2B
  3
FlatWithEdges
350
2C
  3
Gouraud
350
2D
  3
GouraudWithEdges
350
2E
  3
Hidden
350
31
  3
JitterOff
350
3B
  3
Linepattern
350
38
  3
OverhangOff
350
3C
  3
Realistic
350
33
  3
Shaded
350
42
  3
Shaded with edges
350
41
  3
Shades of Gray
350
3E
  3
Sketchy
350
3F
  3
Thicken
350
37
  3
Wireframe
350
30
  3
X-Ray
350
40
  0
XRECORD
  5
18C
102
{ACAD_REACTORS
330
C
102
}
330
C
100
AcDbXrecord
280
     1
 90
        1
330
6A
  0
DICTIONARY
  5
188
102
{ACAD_REACTORS
330
C
102
}
330
C
100
AcDbDictionary
281
     1
  3
CANNOSCALE
350
189
  3
CMLEADERSTYLE
350
18E
  3
CTABLESTYLE
350
18D
  0
LAYOUT
  5
1E
102
{ACAD_REACTORS
330
1A
102
}
330
1A
100
AcDbPlotSettings
  1

  2
none_device
  4

  6

 40
0.0
 41
0.0
 42
0.0
 43
0.0
 44
0.0
 45
0.0
 46
0.0
 47
0.0
 48
0.0
 49
0.0
140
0.0
141
0.0
142
1.0
143
1.0
 70
   688
 72
     0
 73
     0
 74
     5
  7

 75
    16
 76
     0
 77
     2
 78
   300
147
1.0
148
0.0
149
0.0
100
AcDbLayout
  1
Layout1
 70
     1
 71
     1
 10
0.0
 20
0.0
 11
12.0
 21
9.0
 12
0.0
 22
0.0
 32
0.0
 14
1.000000000000000E+20
 24
1.000000000000000E+20
 34
1.000000000000000E+20
 15
-1.000000000000000E+20
 25
-1.000000000000000E+20
 35
-1.000000000000000E+20
146
0.0
 13
0.0
 23
0.0
 33
0.0
 16
1.0
 26
0.0
 36
0.0
 17
0.0
 27
1.0
 37
0.0
 76
     0
330
1B
  0
LAYOUT
  5
26
102
{ACAD_REACTORS
330
1A
102
}
330
1A
100
AcDbPlotSettings
  1

  2
none_device
  4

  6

 40
0.0
 41
0.0
 42
0.0
 43
0.0
 44
0.0
 45
0.0
 46
0.0
 47
0.0
 48
0.0
 49
0.0
140
0.0
141
0.0
142
1.0
143
1.0
 70
   688
 72
     0
 73
     0
 74
     5
  7

 75
    16
 76
     0
 77
     2
 78
   300
147
1.0
148
0.0
149
0.0
100
AcDbLayout
  1
Layout2
 70
     1
 71
     2
 10
0.0
 20
0.0
 11
0.0
 21
0.0
 12
0.0
 22
0.0
 32
0.0
 14
0.0
 24
0.0
 34
0.0
 15
0.0
 25
0.0
 35
0.0
146
0.0
 13
0.0
 23
0.0
 33
0.0
 16
1.0
 26
0.0
 36
0.0
 17
0.0
 27
1.0
 37
0.0
 76
     0
330
23
  0
LAYOUT
  5
22
102
{ACAD_REACTORS
330
1A
102
}
330
1A
100
AcDbPlotSettings
  1

  2
none_device
  4
Letter_(8.50_x_11.00_Inches)
  6

 40
6.35
 41
6.35
 42
6.35000508
 43
6.35000508
 44
215.9
 45
279.4
 46
0.0
 47
0.0
 48
0.0
 49
0.0
140
0.0
141
0.0
142
1.0
143
1.0
 70
  1712
 72
     0
 73
     0
 74
     0
  7

 75
     0
 76
     0
 77
     2
 78
   300
147
1.0
148
0.0
149
0.0
100
AcDbLayout
  1
Model
 70
     1
 71
     0
 10
0.0
 20
0.0
 11
12.0
 21
9.0
 12
0.0
 22
0.0
 32
0.0
 14
1.000000000000000E+20
 24
1.000000000000000E+20
 34
1.000000000000000E+20
 15
-1.000000000000000E+20
 25
-1.000000000000000E+20
 35
-1.000000000000000E+20
146
0.0
 13
0.0
 23
0.0
 33
0.0
 16
1.0
 26
0.0
 36
0.0
 17
0.0
 27
1.0
 37
0.0
 76
     0
330
1F
331
29
  0
MATERIAL
  5
45
102
{ACAD_REACTORS
330
43
102
}
330
43
100
AcDbMaterial
  1
ByBlock
 72
     1
 94
      127
  0
MATERIAL
  5
44
102
{ACAD_REACTORS
330
43
102
}
330
43
100
AcDbMaterial
  1
ByLayer
 72
     1
 94
      127
  0
MATERIAL
  5
46
102
{ACAD_REACTORS
330
43
102
}
330
43
100
AcDbMaterial
  1
Global
 72
     1
 94
      127
  0
MLEADERSTYLE
  5
6C
102
{ACAD_REACTORS
330
6B
102
}
330
6B
100
AcDbMLeaderStyle
179
     2
170
     2
171
     1
172
     0
 90
        2
 40
0.0
 41
0.0
173
     1
 91
-1056964608
340
14
 92
       -2
290
     1
 42
0.09
291
     1
 43
0.36
  3
Standard
341
0
 44
0.18
300

342
11
174
     1
178
     6
175
     1
176
     0
 93
-1056964608
 45
0.18
292
     0
297
     0
 46
0.18
343
0
 94
-1056964608
 47
1.0
 49
1.0
140
1.0
293
     1
141
0.0
294
     1
177
     0
142
1.0
295
     0
296
     0
143
0.125
271
     0
272
     9
273
     9
298
     0
  0
MLINESTYLE
  5
18
102
{ACAD_REACTORS
330
17
102
}
330
17
100
AcDbMlineStyle
  2
Standard
 70
     0
  3

 62
   256
 51
90.0
 52
90.0
 71
     2
 49
0.5
 62
   256
  6
BYLAYER
 49
-0.5
 62
   256
  6
BYLAYER
  0
ACDBPLACEHOLDER
  5
F
102
{ACAD_REACTORS
330
E
102
}
330
E
  0
SCALE
  5
48
102
{ACAD_REACTORS
330
47
102
}
330
47
100
AcDbScale
 70
     0
300
1:1
140
1.0
141
1.0
290
     1
  0
SCALE
  5
49
102
{ACAD_REACTORS
330
47
102
}
330
47
100
AcDbScale
 70
     0
300
1:2
140
1.0
141
2.0
290
     0
  0
SCALE
  5
4A
102
{ACAD_REACTORS
330
47
102
}
330
47
100
AcDbScale
 70
     0
300
1:4
140
1.0
141
4.0
290
     0
  0
SCALE
  5
4B
102
{ACAD_REACTORS
330
47
102
}
330
47
100
AcDbScale
 70
     0
300
1:5
140
1.0
141
5.0
290
     0
  0
SCALE
  5
4C
102
{ACAD_REACTORS
330
47
102
}
330
47
100
AcDbScale
 70
     0
300
1:8
140
1.0
141
8.0
290
     0
  0
SCALE
  5
4D
102
{ACAD_REACTORS
330
47
102
}
330
47
100
AcDbScale
 70
     0
300
1:10
140
1.0
141
10.0
290
     0
  0
SCALE
  5
4E
102
{ACAD_REACTORS
330
47
102
}
330
47
100
AcDbScale
 70
     0
300
1:16
140
1.0
141
16.0
290
     0
  0
SCALE
  5
4F
102
{ACAD_REACTORS
330
47
102
}
330
47
100
AcDbScale
 70
     0
300
1:20
140
1.0
141
20.0
290
     0
  0
SCALE
  5
50
102
{ACAD_REACTORS
330
47
102
}
330
47
100
AcDbScale
 70
     0
300
1:30
140
1.0
141
30.0
290
     0
  0
SCALE
  5
51
102
{ACAD_REACTORS
330
47
102
}
330
47
100
AcDbScale
 70
     0
300
1:40
140
1.0
141
40.0
290
     0
  0
SCALE
  5
52
102
{ACAD_REACTORS
330
47
102
}
330
47
100
AcDbScale
 70
     0
300
1:50
140
1.0
141
50.0
290
     0
  0
SCALE
  5
53
102
{ACAD_REACTORS
330
47
102
}
330
47
100
AcDbScale
 70
     0
300
1:100
140
1.0
141
100.0
290
     0
  0
SCALE
  5
54
102
{ACAD_REACTORS
330
47
102
}
330
47
100
AcDbScale
 70
     0
300
2:1
140
2.0
141
1.0
290
     0
  0
SCALE
  5
55
102
{ACAD_REACTORS
330
47
102
}
330
47
100
AcDbScale
 70
     0
300
4:1
140
4.0
141
1.0
290
     0
  0
SCALE
  5
56
102
{ACAD_REACTORS
330
47
102
}
330
47
100
AcDbScale
 70
     0
300
8:1
140
8.0
141
1.0
290
     0
  0
SCALE
  5
57
102
{ACAD_REACTORS
330
47
102
}
330
47
100
AcDbScale
 70
     0
300
10:1
140
10.0
141
1.0
290
     0
  0
SCALE
  5
58
102
{ACAD_REACTORS
330
47
102
}
330
47
100
AcDbScale
 70
     0
300
100:1
140
100.0
141
1.0
290
     0
  0
SCALE
  5
59
102
{ACAD_REACTORS
330
47
102
}
330
47
100
AcDbScale
 70
     0
300
1/128" = 1'-0"
140
0.0078125
141
12.0
290
     0
  0
SCALE
  5
5A
102
{ACAD_REACTORS
330
47
102
}
330
47
100
AcDbScale
 70
     0
300
1/64" = 1'-0"
140
0.015625
141
12.0
290
     0
  0
SCALE
  5
5B
102
{ACAD_REACTORS
330
47
102
}
330
47
100
AcDbScale
 70
     0
300
1/32" = 1'-0"
140
0.03125
141
12.0
290
     0
  0
SCALE
  5
5C
102
{ACAD_REACTORS
330
47
102
}
330
47
100
AcDbScale
 70
     0
300
1/16" = 1'-0"
140
0.0625
141
12.0
290
     0
  0
SCALE
  5
5D
102
{ACAD_REACTORS
330
47
102
}
330
47
100
AcDbScale
 70
     0
300
3/32" = 1'-0"
140
0.09375
141
12.0
290
     0
  0
SCALE
  5
5E
102
{ACAD_REACTORS
330
47
102
}
330
47
100
AcDbScale
 70
     0
300
1/8" = 1'-0"
140
0.125
141
12.0
290
     0
  0
SCALE
  5
5F
102
{ACAD_REACTORS
330
47
102
}
330
47
100
AcDbScale
 70
     0
300
3/16" = 1'-0"
140
0.1875
141
12.0
290
     0
  0
SCALE
  5
60
102
{ACAD_REACTORS
330
47
102
}
330
47
100
AcDbScale
 70
     0
300
1/4" = 1'-0"
140
0.25
141
12.0
290
     0
  0
SCALE
  5
61
102
{ACAD_REACTORS
330
47
102
}
330
47
100
AcDbScale
 70
     0
300
3/8" = 1'-0"
140
0.375
141
12.0
290
     0
  0
SCALE
  5
62
102
{ACAD_REACTORS
330
47
102
}
330
47
100
AcDbScale
 70
     0
300
1/2" = 1'-0"
140
0.5
141
12.0
290
     0
  0
SCALE
  5
63
102
{ACAD_REACTORS
330
47
102
}
330
47
100
AcDbScale
 70
     0
300
3/4" = 1'-0"
140
0.75
141
12.0
290
     0
  0
SCALE
  5
64
102
{ACAD_REACTORS
330
47
102
}
330
47
100
AcDbScale
 70
     0
300
1" = 1'-0"
140
1.0
141
12.0
290
     0
  0
SCALE
  5
65
102
{ACAD_REACTORS
330
47
102
}
330
47
100
AcDbScale
 70
     0
300
1-1/2" = 1'-0"
140
1.5
141
12.0
290
     0
  0
SCALE
  5
66
102
{ACAD_REACTORS
330
47
102
}
330
47
100
AcDbScale
 70
     0
300
3" = 1'-0"
140
3.0
141
12.0
290
     0
  0
SCALE
  5
67
102
{ACAD_REACTORS
330
47
102
}
330
47
100
AcDbScale
 70
     0
300
6" = 1'-0"
140
6.0
141
12.0
290
     0
  0
SCALE
  5
68
102
{ACAD_REACTORS
330
47
102
}
330
47
100
AcDbScale
 70
     0
300
1'-0" = 1'-0"
140
12.0
141
12.0
290
     0
  0
TABLESTYLE
  5
6A
102
{ACAD_REACTORS
330
69
102
}
102
{ACAD_XDICTIONARY
360
18A
102
}
330
69
100
AcDbTableStyle
  3
Standard
 70
     0
 71
     0
 40
0.06
 41
0.06
280
     0
281
     0
  7
Standard
140
0.18
170
     2
 62
     0
 63
   257
283
     0
 90
        4
 91
        0
  1

274
    -2
284
     1
 64
     0
275
    -2
285
     1
 65
     0
276
    -2
286
     1
 66
     0
277
    -2
287
     1
 67
     0
278
    -2
288
     1
 68
     0
279
    -2
289
     1
 69
     0
  7
Standard
140
0.25
170
     5
 62
     0
 63
   257
283
     0
 90
        4
 91
        0
  1

274
    -2
284
     1
 64
     0
275
    -2
285
     1
 65
     0
276
    -2
286
     1
 66
     0
277
    -2
287
     1
 67
     0
278
    -2
288
     1
 68
     0
279
    -2
289
     1
 69
     0
  7
Standard
140
0.18
170
     5
 62
     0
 63
   257
283
     0
 90
        4
 91
        0
  1

274
    -2
284
     1
 64
     0
275
    -2
285
     1
 65
     0
276
    -2
286
     1
 66
     0
277
    -2
287
     1
 67
     0
278
    -2
288
     1
 68
     0
279
    -2
289
     1
 69
     0
  0
VISUALSTYLE
  5
2F
102
{ACAD_REACTORS
330
2A
102
}
330
2A
100
AcDbVisualStyle
  2
2dWireframe
 70
     4
177
     3
291
     0
 70
    58
 90
        0
176
     1
 90
        2
176
     1
 90
        0
176
     1
 90
        0
176
     1
 40
0.6
176
     1
 40
30.0
176
     1
 62
     7
420
 16777215
176
     1
 90
        1
176
     1
 90
        4
176
     1
 62
     7
176
     1
 62
   257
176
     1
 90
        1
176
     1
 90
        1
176
     1
 40
1.0
176
     1
 90
        0
176
     1
 62
   257
176
     1
 40
1.0
176
     1
 90
        1
176
     1
 90
        6
176
     1
 90
        2
176
     1
 62
     7
176
     1
 90
        5
176
     1
 90
        0
176
     1
 90
        0
176
     1
290
     0
176
     1
 90
        1
176
     1
 40
0.0
176
     1
 90
        0
176
     1
290
     1
176
     1
290
     1
176
     1
290
     0
176
     1
290
     0
176
     1
290
     0
176
     1
290
     0
176
     1
290
     0
176
     1
290
     0
176
     1
290
     0
176
     1
 90
       50
176
     1
 40
0.0
176
     1
 40
1.0
176
     1
 90
        0
176
     1
 62
    18
420
        0
176
     1
 90
       50
176
     1
 90
        3
176
     1
 62
     5
420
      255
176
     1
290
     0
176
     1
 90
       50
176
     1
 90
       50
176
     1
 90
       50
176
     1
290
     0
176
     1
 90
       50
176
     1
 62
   256
176
     0
 40
1.0
176
     0
 90
        2
176
     1
  1
strokes_ogs.tif
176
     1
290
     0
176
     1
 40
1.0
176
     1
 40
1.0
176
     1
  0
VISUALSTYLE
  5
32
102
{ACAD_REACTORS
330
2A
102
}
330
2A
100
AcDbVisualStyle
  2
Basic
 70
     7
177
     3
291
     1
 70
    58
 90
        1
176
     1
 90
        0
176
     1
 90
        1
176
     1
 90
        0
176
     1
 40
0.6
176
     1
 40
30.0
176
     1
 62
     7
420
 16777215
176
     1
 90
        0
176
     1
 90
        4
176
     1
 62
     7
176
     1
 62
   257
176
     1
 90
        1
176
     1
 90
        1
176
     1
 40
1.0
176
     1
 90
        8
176
     1
 62
     7
176
     1
 40
1.0
176
     1
 90
        1
176
     1
 90
        6
176
     1
 90
        2
176
     1
 62
     7
176
     1
 90
        5
176
     1
 90
        0
176
     1
 90
        0
176
     1
290
     0
176
     1
 90
        1
176
     1
 40
0.0
176
     1
 90
        0
176
     1
290
     0
176
     1
290
     1
176
     1
290
     1
176
     1
290
     0
176
     1
290
     0
176
     1
290
     0
176
     1
290
     0
176
     1
290
     0
176
     1
290
     0
176
     1
 90
       50
176
     1
 40
0.0
176
     1
 40
1.0
176
     1
 90
        0
176
     1
 62
    18
420
        0
176
     1
 90
       50
176
     1
 90
        3
176
     1
 62
     5
420
      255
176
     1
290
     0
176
     1
 90
       50
176
     1
 90
       50
176
     1
 90
       50
176
     1
290
     0
176
     1
 90
       50
176
     1
 62
   256
176
     0
 40
1.0
176
     0
 90
        2
176
     1
  1
strokes_ogs.tif
176
     1
290
     0
176
     1
 40
1.0
176
     1
 40
1.0
176
     1
  0
VISUALSTYLE
  5
36
102
{ACAD_REACTORS
330
2A
102
}
330
2A
100
AcDbVisualStyle
  2
Brighten
 70
    12
177
     3
291
     1
 70
    58
 90
        2
176
     1
 90
        2
176
     1
 90
        0
176
     1
 90
        0
176
     1
 40
0.6
176
     1
 40
30.0
176
     1
 62
     7
420
 16777215
176
     1
 90
        1
176
     1
 90
        4
176
     1
 62
     7
176
     1
 62
   257
176
     1
 90
        1
176
     1
 90
        1
176
     1
 40
1.0
176
     1
 90
        8
176
     1
 62
     7
176
     1
 40
1.0
176
     1
 90
        1
176
     1
 90
        6
176
     1
 90
        2
176
     1
 62
     7
176
     1
 90
        5
176
     1
 90
        0
176
     1
 90
        0
176
     1
290
     0
176
     1
 90
        1
176
     1
 40
50.0
176
     1
 90
        0
176
     1
290
     0
176
     1
290
     1
176
     1
290
     1
176
     1
290
     0
176
     1
290
     0
176
     1
290
     0
176
     1
290
     0
176
     1
290
     0
176
     1
290
     0
176
     1
 90
       50
176
     1
 40
0.0
176
     1
 40
1.0
176
     1
 90
        0
176
     1
 62
    18
420
        0
176
     1
 90
       50
176
     1
 90
        3
176
     1
 62
     5
420
      255
176
     1
290
     0
176
     1
 90
       50
176
     1
 90
       50
176
     1
 90
       50
176
     1
290
     0
176
     1
 90
       50
176
     1
 62
   256
176
     0
 40
1.0
176
     0
 90
        2
176
     1
  1
strokes_ogs.tif
176
     1
290
     0
176
     1
 40
1.0
176
     1
 40
1.0
176
     1
  0
VISUALSTYLE
  5
3A
102
{ACAD_REACTORS
330
2A
102
}
330
2A
100
AcDbVisualStyle
  2
ColorChange
 70
    16
177
     3
291
     1
 70
    58
 90
        2
176
     1
 90
        2
176
     1
 90
        3
176
     1
 90
        0
176
     1
 40
0.6
176
     1
 40
30.0
176
     1
 62
     8
420
  8421504
176
     1
 90
        1
176
     1
 90
        4
176
     1
 62
     7
176
     1
 62
   257
176
     1
 90
        1
176
     1
 90
        1
176
     1
 40
1.0
176
     1
 90
        8
176
     1
 62
     8
420
  8421504
176
     1
 40
1.0
176
     1
 90
        1
176
     1
 90
        6
176
     1
 90
        2
176
     1
 62
     7
176
     1
 90
        5
176
     1
 90
        0
176
     1
 90
        0
176
     1
290
     0
176
     1
 90
        1
176
     1
 40
0.0
176
     1
 90
        0
176
     1
290
     0
176
     1
290
     1
176
     1
290
     1
176
     1
290
     0
176
     1
290
     0
176
     1
290
     0
176
     1
290
     0
176
     1
290
     0
176
     1
290
     0
176
     1
 90
       50
176
     1
 40
0.0
176
     1
 40
1.0
176
     1
 90
        0
176
     1
 62
    18
420
        0
176
     1
 90
       50
176
     1
 90
        3
176
     1
 62
     5
420
      255
176
     1
290
     0
176
     1
 90
       50
176
     1
 90
       50
176
     1
 90
       50
176
     1
290
     0
176
     1
 90
       50
176
     1
 62
   256
176
     0
 40
1.0
176
     0
 90
        2
176
     1
  1
strokes_ogs.tif
176
     1
290
     0
176
     1
 40
1.0
176
     1
 40
1.0
176
     1
  0
VISUALSTYLE
  5
34
102
{ACAD_REACTORS
330
2A
102
}
330
2A
100
AcDbVisualStyle
  2
Conceptual
 70
     9
177
     3
291
     0
 70
    58
 90
        3
176
     1
 90
        2
176
     1
 90
        0
176
     1
 90
        0
176
     1
 40
0.6
176
     1
 40
30.0
176
     1
 62
     7
420
 16777215
176
     1
 90
        2
176
     1
 90
        2
176
     1
 62
     7
176
     1
 62
   257
176
     1
 90
        1
176
     1
 90
        1
176
     1
 40
179.0
176
     1
 90
        8
176
     1
 62
     7
176
     1
 40
1.0
176
     1
 90
        1
176
     1
 90
        6
176
     1
 90
        2
176
     1
 62
     7
176
     1
 90
        3
176
     1
 90
        0
176
     1
 90
        0
176
     1
290
     0
176
     1
 90
        1
176
     1
 40
0.0
176
     1
 90
        0
176
     1
290
     0
176
     1
290
     1
176
     1
290
     1
176
     1
290
     0
176
     1
290
     0
176
     1
290
     0
176
     1
290
     0
176
     1
290
     0
176
     1
290
     0
176
     1
 90
       50
176
     1
 40
0.0
176
     1
 40
1.0
176
     1
 90
        0
176
     1
 62
    18
420
        0
176
     1
 90
       50
176
     1
 90
        3
176
     1
 62
     5
420
      255
176
     1
290
     0
176
     1
 90
       50
176
     1
 90
       50
176
     1
 90
       50
176
     1
290
     0
176
     1
 90
       50
176
     1
 62
   256
176
     0
 40
1.0
176
     0
 90
        2
176
     1
  1
strokes_ogs.tif
176
     1
290
     0
176
     1
 40
1.0
176
     1
 40
1.0
176
     1
  0
VISUALSTYLE
  5
35
102
{ACAD_REACTORS
330
2A
102
}
330
2A
100
AcDbVisualStyle
  2
Dim
 70
    11
177
     3
291
     1
 70
    58
 90
        2
176
     1
 90
        2
176
     1
 90
        0
176
     1
 90
        0
176
     1
 40
0.6
176
     1
 40
30.0
176
     1
 62
     7
420
 16777215
176
     1
 90
        1
176
     1
 90
        4
176
     1
 62
     7
176
     1
 62
   257
176
     1
 90
        1
176
     1
 90
        1
176
     1
 40
1.0
176
     1
 90
        8
176
     1
 62
     7
176
     1
 40
1.0
176
     1
 90
        1
176
     1
 90
        6
176
     1
 90
        2
176
     1
 62
     7
176
     1
 90
        5
176
     1
 90
        0
176
     1
 90
        0
176
     1
290
     0
176
     1
 90
        1
176
     1
 40
-50.0
176
     1
 90
        0
176
     1
290
     0
176
     1
290
     1
176
     1
290
     1
176
     1
290
     0
176
     1
290
     0
176
     1
290
     0
176
     1
290
     0
176
     1
290
     0
176
     1
290
     0
176
     1
 90
       50
176
     1
 40
0.0
176
     1
 40
1.0
176
     1
 90
        0
176
     1
 62
    18
420
        0
176
     1
 90
       50
176
     1
 90
        3
176
     1
 62
     5
420
      255
176
     1
290
     0
176
     1
 90
       50
176
     1
 90
       50
176
     1
 90
       50
176
     1
290
     0
176
     1
 90
       50
176
     1
 62
   256
176
     0
 40
1.0
176
     0
 90
        2
176
     1
  1
strokes_ogs.tif
176
     1
290
     0
176
     1
 40
1.0
176
     1
 40
1.0
176
     1
  0
VISUALSTYLE
  5
3D
102
{ACAD_REACTORS
330
2A
102
}
330
2A
100
AcDbVisualStyle
  2
EdgeColorOff
 70
    22
177
     3
291
     1
 70
    58
 90
        2
176
     0
 90
        2
176
     0
 90
        0
176
     0
 90
        0
176
     0
 40
0.6
176
     0
 40
30.0
176
     0
 62
     7
420
 16777215
176
     0
 90
        1
176
     0
 90
        4
176
     0
 62
     7
176
     0
 62
   257
176
     0
 90
        1
176
     0
 90
        1
176
     0
 40
1.0
176
     0
 90
        8
176
     2
 62
     7
176
     0
 40
1.0
176
     0
 90
        1
176
     0
 90
        6
176
     0
 90
        2
176
     0
 62
     7
176
     0
 90
        5
176
     0
 90
        0
176
     0
 90
        0
176
     0
290
     0
176
     0
 90
        1
176
     0
 40
0.0
176
     0
 90
        0
176
     0
290
     0
176
     0
290
     1
176
     0
290
     1
176
     0
290
     0
176
     0
290
     0
176
     0
290
     0
176
     0
290
     0
176
     0
290
     0
176
     0
290
     0
176
     0
 90
       50
176
     0
 40
0.0
176
     0
 40
1.0
176
     0
 90
        0
176
     0
 62
    18
420
        0
176
     0
 90
       50
176
     0
 90
        3
176
     0
 62
     5
420
      255
176
     0
290
     0
176
     0
 90
       50
176
     0
 90
       50
176
     0
 90
       50
176
     0
290
     0
176
     0
 90
       50
176
     0
 62
   256
176
     0
 40
1.0
176
     0
 90
        2
176
     0
  1
strokes_ogs.tif
176
     0
290
     0
176
     0
 40
1.0
176
     0
 40
1.0
176
     0
  0
VISUALSTYLE
  5
39
102
{ACAD_REACTORS
330
2A
102
}
330
2A
100
AcDbVisualStyle
  2
Facepattern
 70
    15
177
     3
291
     1
 70
    58
 90
        2
176
     1
 90
        2
176
     1
 90
        0
176
     1
 90
        0
176
     1
 40
0.6
176
     1
 40
30.0
176
     1
 62
     7
420
 16777215
176
     1
 90
        1
176
     1
 90
        4
176
     1
 62
     7
176
     1
 62
   257
176
     1
 90
        1
176
     1
 90
        1
176
     1
 40
1.0
176
     1
 90
        8
176
     1
 62
     7
176
     1
 40
1.0
176
     1
 90
        1
176
     1
 90
        6
176
     1
 90
        2
176
     1
 62
     7
176
     1
 90
        5
176
     1
 90
        0
176
     1
 90
        0
176
     1
290
     0
176
     1
 90
        1
176
     1
 40
0.0
176
     1
 90
        0
176
     1
290
     0
176
     1
290
     1
176
     1
290
     1
176
     1
290
     0
176
     1
290
     0
176
     1
290
     0
176
     1
290
     0
176
     1
290
     0
176
     1
290
     0
176
     1
 90
       50
176
     1
 40
0.0
176
     1
 40
1.0
176
     1
 90
        0
176
     1
 62
    18
420
        0
176
     1
 90
       50
176
     1
 90
        3
176
     1
 62
     5
420
      255
176
     1
290
     0
176
     1
 90
       50
176
     1
 90
       50
176
     1
 90
       50
176
     1
290
     0
176
     1
 90
       50
176
     1
 62
   256
176
     0
 40
1.0
176
     0
 90
        2
176
     1
  1
strokes_ogs.tif
176
     1
290
     0
176
     1
 40
1.0
176
     1
 40
1.0
176
     1
  0
VISUALSTYLE
  5
2B
102
{ACAD_REACTORS
330
2A
102
}
330
2A
100
AcDbVisualStyle
  2
Flat
 70
     0
177
     3
291
     1
 70
    58
 90
        2
176
     1
 90
        1
176
     1
 90
        1
176
     1
 90
        2
176
     1
 40
0.6
176
     1
 40
30.0
176
     1
 62
     7
420
 16777215
176
     1
 90
        0
176
     1
 90
        0
176
     1
 62
     7
176
     1
 62
   257
176
     1
 90
        1
176
     1
 90
        1
176
     1
 40
1.0
176
     1
 90
        8
176
     1
 62
     7
176
     1
 40
1.0
176
     1
 90
        1
176
     1
 90
        6
176
     1
 90
        2
176
     1
 62
     7
176
     1
 90
        5
176
     1
 90
        0
176
     1
 90
        0
176
     1
290
     0
176
     1
 90
       13
176
     1
 40
0.0
176
     1
 90
        0
176
     1
290
     0
176
     1
290
     1
176
     1
290
     1
176
     1
290
     0
176
     1
290
     0
176
     1
290
     0
176
     1
290
     0
176
     1
290
     0
176
     1
290
     0
176
     1
 90
       50
176
     1
 40
0.0
176
     1
 40
1.0
176
     1
 90
        0
176
     1
 62
    18
420
        0
176
     1
 90
       50
176
     1
 90
        3
176
     1
 62
     5
420
      255
176
     1
290
     0
176
     1
 90
       50
176
     1
 90
       50
176
     1
 90
       50
176
     1
290
     0
176
     1
 90
       50
176
     1
 62
   256
176
     0
 40
1.0
176
     0
 90
        2
176
     1
  1
strokes_ogs.tif
176
     1
290
     0
176
     1
 40
1.0
176
     1
 40
1.0
176
     1
  0
VISUALSTYLE
  5
2C
102
{ACAD_REACTORS
330
2A
102
}
330
2A
100
AcDbVisualStyle
  2
FlatWithEdges
 70
     1
177
     3
291
     1
 70
    58
 90
        2
176
     1
 90
        1
176
     1
 90
        1
176
     1
 90
        2
176
     1
 40
0.6
176
     1
 40
30.0
176
     1
 62
     7
420
 16777215
176
     1
 90
        1
176
     1
 90
        0
176
     1
 62
     7
176
     1
 62
   257
176
     1
 90
        1
176
     1
 90
        1
176
     1
 40
1.0
176
     1
 90
        0
176
     1
 62
   257
176
     1
 40
1.0
176
     1
 90
        1
176
     1
 90
        6
176
     1
 90
        2
176
     1
 62
     7
176
     1
 90
        5
176
     1
 90
        0
176
     1
 90
        0
176
     1
290
     0
176
     1
 90
       13
176
     1
 40
0.0
176
     1
 90
        0
176
     1
290
     0
176
     1
290
     1
176
     1
290
     1
176
     1
290
     0
176
     1
290
     0
176
     1
290
     0
176
     1
290
     0
176
     1
290
     0
176
     1
290
     0
176
     1
 90
       50
176
     1
 40
0.0
176
     1
 40
1.0
176
     1
 90
        0
176
     1
 62
    18
420
        0
176
     1
 90
       50
176
     1
 90
        3
176
     1
 62
     5
420
      255
176
     1
290
     0
176
     1
 90
       50
176
     1
 90
       50
176
     1
 90
       50
176
     1
290
     0
176
     1
 90
       50
176
     1
 62
   256
176
     0
 40
1.0
176
     0
 90
        2
176
     1
  1
strokes_ogs.tif
176
     1
290
     0
176
     1
 40
1.0
176
     1
 40
1.0
176
     1
  0
VISUALSTYLE
  5
2D
102
{ACAD_REACTORS
330
2A
102
}
330
2A
100
AcDbVisualStyle
  2
Gouraud
 70
     2
177
     3
291
     1
 70
    58
 90
        2
176
     1
 90
        2
176
     1
 90
        1
176
     1
 90
        2
176
     1
 40
0.6
176
     1
 40
30.0
176
     1
 62
     7
420
 16777215
176
     1
 90
        0
176
     1
 90
        0
176
     1
 62
     7
176
     1
 62
   257
176
     1
 90
        1
176
     1
 90
        1
176
     1
 40
1.0
176
     1
 90
        0
176
     1
 62
     7
176
     1
 40
1.0
176
     1
 90
        1
176
     1
 90
        6
176
     1
 90
        2
176
     1
 62
     7
176
     1
 90
        5
176
     1
 90
        0
176
     1
 90
        0
176
     1
290
     0
176
     1
 90
       13
176
     1
 40
0.0
176
     1
 90
        0
176
     1
290
     0
176
     1
290
     1
176
     1
290
     1
176
     1
290
     0
176
     1
290
     0
176
     1
290
     0
176
     1
290
     0
176
     1
290
     0
176
     1
290
     0
176
     1
 90
       50
176
     1
 40
0.0
176
     1
 40
1.0
176
     1
 90
        0
176
     1
 62
    18
420
        0
176
     1
 90
       50
176
     1
 90
        3
176
     1
 62
     5
420
      255
176
     1
290
     0
176
     1
 90
       50
176
     1
 90
       50
176
     1
 90
       50
176
     1
290
     0
176
     1
 90
       50
176
     1
 62
   256
176
     0
 40
1.0
176
     0
 90
        2
176
     1
  1
strokes_ogs.tif
176
     1
290
     0
176
     1
 40
1.0
176
     1
 40
1.0
176
     1
  0
VISUALSTYLE
  5
2E
102
{ACAD_REACTORS
330
2A
102
}
330
2A
100
AcDbVisualStyle
  2
GouraudWithEdges
 70
     3
177
     3
291
     1
 70
    58
 90
        2
176
     1
 90
        2
176
     1
 90
        1
176
     1
 90
        2
176
     1
 40
0.6
176
     1
 40
30.0
176
     1
 62
     7
420
 16777215
176
     1
 90
        1
176
     1
 90
        0
176
     1
 62
     7
176
     1
 62
   257
176
     1
 90
        1
176
     1
 90
        1
176
     1
 40
1.0
176
     1
 90
        0
176
     1
 62
   257
176
     1
 40
1.0
176
     1
 90
        1
176
     1
 90
        6
176
     1
 90
        2
176
     1
 62
     7
176
     1
 90
        5
176
     1
 90
        0
176
     1
 90
        0
176
     1
290
     0
176
     1
 90
       13
176
     1
 40
0.0
176
     1
 90
        0
176
     1
290
     0
176
     1
290
     1
176
     1
290
     1
176
     1
290
     0
176
     1
290
     0
176
     1
290
     0
176
     1
290
     0
176
     1
290
     0
176
     1
290
     0
176
     1
 90
       50
176
     1
 40
0.0
176
     1
 40
1.0
176
     1
 90
        0
176
     1
 62
    18
420
        0
176
     1
 90
       50
176
     1
 90
        3
176
     1
 62
     5
420
      255
176
     1
290
     0
176
     1
 90
       50
176
     1
 90
       50
176
     1
 90
       50
176
     1
290
     0
176
     1
 90
       50
176
     1
 62
   256
176
     0
 40
1.0
176
     0
 90
        2
176
     1
  1
strokes_ogs.tif
176
     1
290
     0
176
     1
 40
1.0
176
     1
 40
1.0
176
     1
  0
VISUALSTYLE
  5
31
102
{ACAD_REACTORS
330
2A
102
}
330
2A
100
AcDbVisualStyle
  2
Hidden
 70
     6
177
     3
291
     0
 70
    58
 90
        1
176
     1
 90
        2
176
     1
 90
        2
176
     1
 90
        0
176
     1
 40
0.6
176
     1
 40
30.0
176
     1
 62
     7
420
 16777215
176
     1
 90
        2
176
     1
 90
        2
176
     1
 62
     7
176
     1
 62
   257
176
     1
 90
        2
176
     1
 90
        1
176
     1
 40
40.0
176
     1
 90
        0
176
     1
 62
   257
176
     1
 40
1.0
176
     1
 90
        1
176
     1
 90
        6
176
     1
 90
        2
176
     1
 62
     7
176
     1
 90
        3
176
     1
 90
        0
176
     1
 90
        0
176
     1
290
     0
176
     1
 90
        1
176
     1
 40
0.0
176
     1
 90
        0
176
     1
290
     0
176
     1
290
     1
176
     1
290
     1
176
     1
290
     0
176
     1
290
     0
176
     1
290
     0
176
     1
290
     0
176
     1
290
     0
176
     1
290
     0
176
     1
 90
       50
176
     1
 40
0.0
176
     1
 40
1.0
176
     1
 90
        0
176
     1
 62
    18
420
        0
176
     1
 90
       50
176
     1
 90
        3
176
     1
 62
     5
420
      255
176
     1
290
     0
176
     1
 90
       50
176
     1
 90
       50
176
     1
 90
       50
176
     1
290
     0
176
     1
 90
       50
176
     1
 62
   256
176
     0
 40
1.0
176
     0
 90
        2
176
     1
  1
strokes_ogs.tif
176
     1
290
     0
176
     1
 40
1.0
176
     1
 40
1.0
176
     1
  0
VISUALSTYLE
  5
3B
102
{ACAD_REACTORS
330
2A
102
}
330
2A
100
AcDbVisualStyle
  2
JitterOff
 70
    20
177
     3
291
     1
 70
    58
 90
        2
176
     0
 90
        2
176
     0
 90
        0
176
     0
 90
        0
176
     0
 40
0.6
176
     0
 40
30.0
176
     0
 62
     7
420
 16777215
176
     0
 90
        1
176
     0
 90
        4
176
     0
 62
     7
176
     0
 62
   257
176
     0
 90
        1
176
     0
 90
        1
176
     0
 40
1.0
176
     0
 90
       10
176
     2
 62
     7
176
     0
 40
1.0
176
     0
 90
        1
176
     0
 90
        6
176
     0
 90
        2
176
     0
 62
     7
176
     0
 90
        5
176
     0
 90
        0
176
     0
 90
        0
176
     0
290
     0
176
     0
 90
        1
176
     0
 40
0.0
176
     0
 90
        0
176
     0
290
     0
176
     0
290
     1
176
     0
290
     1
176
     0
290
     0
176
     0
290
     0
176
     0
290
     0
176
     0
290
     0
176
     0
290
     0
176
     0
290
     0
176
     0
 90
       50
176
     0
 40
0.0
176
     0
 40
1.0
176
     0
 90
        0
176
     0
 62
    18
420
        0
176
     0
 90
       50
176
     0
 90
        3
176
     0
 62
     5
420
      255
176
     0
290
     0
176
     0
 90
       50
176
     0
 90
       50
176
     0
 90
       50
176
     0
290
     0
176
     0
 90
       50
176
     0
 62
   256
176
     0
 40
1.0
176
     0
 90
        2
176
     0
  1
strokes_ogs.tif
176
     0
290
     0
176
     0
 40
1.0
176
     0
 40
1.0
176
     0
  0
VISUALSTYLE
  5
38
102
{ACAD_REACTORS
330
2A
102
}
330
2A
100
AcDbVisualStyle
  2
Linepattern
 70
    14
177
     3
291
     1
 70
    58
 90
        2
176
     1
 90
        2
176
     1
 90
        0
176
     1
 90
        0
176
     1
 40
0.6
176
     1
 40
30.0
176
     1
 62
     7
420
 16777215
176
     1
 90
        1
176
     1
 90
        4
176
     1
 62
     7
176
     1
 62
   257
176
     1
 90
        7
176
     1
 90
        7
176
     1
 40
1.0
176
     1
 90
        8
176
     1
 62
     7
176
     1
 40
1.0
176
     1
 90
        1
176
     1
 90
        6
176
     1
 90
        2
176
     1
 62
     7
176
     1
 90
        5
176
     1
 90
        0
176
     1
 90
        0
176
     1
290
     0
176
     1
 90
        1
176
     1
 40
0.0
176
     1
 90
        0
176
     1
290
     0
176
     1
290
     1
176
     1
290
     1
176
     1
290
     0
176
     1
290
     0
176
     1
290
     0
176
     1
290
     0
176
     1
290
     0
176
     1
290
     0
176
     1
 90
       50
176
     1
 40
0.0
176
     1
 40
1.0
176
     1
 90
        0
176
     1
 62
    18
420
        0
176
     1
 90
       50
176
     1
 90
        3
176
     1
 62
     5
420
      255
176
     1
290
     0
176
     1
 90
       50
176
     1
 90
       50
176
     1
 90
       50
176
     1
290
     0
176
     1
 90
       50
176
     1
 62
   256
176
     0
 40
1.0
176
     0
 90
        2
176
     1
  1
strokes_ogs.tif
176
     1
290
     0
176
     1
 40
1.0
176
     1
 40
1.0
176
     1
  0
VISUALSTYLE
  5
3C
102
{ACAD_REACTORS
330
2A
102
}
330
2A
100
AcDbVisualStyle
  2
OverhangOff
 70
    21
177
     3
291
     1
 70
    58
 90
        2
176
     0
 90
        2
176
     0
 90
        0
176
     0
 90
        0
176
     0
 40
0.6
176
     0
 40
30.0
176
     0
 62
     7
420
 16777215
176
     0
 90
        1
176
     0
 90
        4
176
     0
 62
     7
176
     0
 62
   257
176
     0
 90
        1
176
     0
 90
        1
176
     0
 40
1.0
176
     0
 90
        9
176
     2
 62
     7
176
     0
 40
1.0
176
     0
 90
        1
176
     0
 90
        6
176
     0
 90
        2
176
     0
 62
     7
176
     0
 90
        5
176
     0
 90
        0
176
     0
 90
        0
176
     0
290
     0
176
     0
 90
        1
176
     0
 40
0.0
176
     0
 90
        0
176
     0
290
     0
176
     0
290
     1
176
     0
290
     1
176
     0
290
     0
176
     0
290
     0
176
     0
290
     0
176
     0
290
     0
176
     0
290
     0
176
     0
290
     0
176
     0
 90
       50
176
     0
 40
0.0
176
     0
 40
1.0
176
     0
 90
        0
176
     0
 62
    18
420
        0
176
     0
 90
       50
176
     0
 90
        3
176
     0
 62
     5
420
      255
176
     0
290
     0
176
     0
 90
       50
176
     0
 90
       50
176
     0
 90
       50
176
     0
290
     0
176
     0
 90
       50
176
     0
 62
   256
176
     0
 40
1.0
176
     0
 90
        2
176
     0
  1
strokes_ogs.tif
176
     0
290
     0
176
     0
 40
1.0
176
     0
 40
1.0
176
     0
  0
VISUALSTYLE
  5
33
102
{ACAD_REACTORS
330
2A
102
}
330
2A
100
AcDbVisualStyle
  2
Realistic
 70
     8
177
     3
291
     0
 70
    58
 90
        2
176
     1
 90
        3
176
     1
 90
        0
176
     1
 90
        2
176
     1
 40
0.6
176
     1
 40
30.0
176
     1
 62
     7
420
 16777215
176
     1
 90
        0
176
     1
 90
        0
176
     1
 62
     7
176
     1
 62
   257
176
     1
 90
        1
176
     1
 90
        1
176
     1
 40
1.0
176
     1
 90
        8
176
     1
 62
   257
176
     1
 40
1.0
176
     1
 90
        1
176
     1
 90
        6
176
     1
 90
        2
176
     1
 62
     7
176
     1
 90
        3
176
     1
 90
        0
176
     1
 90
        0
176
     1
290
     0
176
     1
 90
       13
176
     1
 40
0.0
176
     1
 90
        0
176
     1
290
     0
176
     1
290
     1
176
     1
290
     1
176
     1
290
     0
176
     1
290
     0
176
     1
290
     0
176
     1
290
     0
176
     1
290
     0
176
     1
290
     0
176
     1
 90
       50
176
     1
 40
0.0
176
     1
 40
1.0
176
     1
 90
        0
176
     1
 62
    18
420
        0
176
     1
 90
       50
176
     1
 90
        3
176
     1
 62
     5
420
      255
176
     1
290
     0
176
     1
 90
       50
176
     1
 90
       50
176
     1
 90
       50
176
     1
290
     0
176
     1
 90
       50
176
     1
 62
   256
176
     0
 40
1.0
176
     0
 90
        2
176
     1
  1
strokes_ogs.tif
176
     1
290
     0
176
     1
 40
1.0
176
     1
 40
1.0
176
     1
  0
VISUALSTYLE
  5
42
102
{ACAD_REACTORS
330
2A
102
}
330
2A
100
AcDbVisualStyle
  2
Shaded
 70
    27
177
     3
291
     0
 70
    58
 90
        2
176
     1
 90
        2
176
     1
 90
        1
176
     1
 90
        2
176
     1
 40
0.6
176
     1
 40
30.0
176
     1
 62
     7
420
 16777215
176
     1
 90
        0
176
     1
 90
        4
176
     1
 62
     7
176
     1
 62
   257
176
     1
 90
        1
176
     1
 90
        1
176
     1
 40
1.0
176
     1
 90
        8
176
     1
 62
   257
176
     1
 40
1.0
176
     1
 90
        1
176
     1
 90
        6
176
     1
 90
        2
176
     1
 62
     8
420
  7895160
176
     1
 90
        3
176
     1
 90
        0
176
     1
 90
        0
176
     1
290
     0
176
     1
 90
        5
176
     1
 40
0.0
176
     1
 90
        0
176
     1
290
     0
176
     1
290
     1
176
     1
290
     1
176
     1
290
     0
176
     1
290
     0
176
     1
290
     0
176
     1
290
     0
176
     1
290
     0
176
     1
290
     0
176
     1
 90
       50
176
     1
 40
0.0
176
     1
 40
1.0
176
     1
 90
        0
176
     1
 62
    18
420
        0
176
     1
 90
       50
176
     1
 90
        3
176
     1
 62
     5
420
      255
176
     1
290
     0
176
     1
 90
       50
176
     1
 90
       50
176
     1
 90
       50
176
     1
290
     0
176
     1
 90
       50
176
     1
 62
   256
176
     0
 40
1.0
176
     0
 90
        2
176
     1
  1
strokes_ogs.tif
176
     1
290
     0
176
     1
 40
1.0
176
     1
 40
1.0
176
     1
  0
VISUALSTYLE
  5
41
102
{ACAD_REACTORS
330
2A
102
}
330
2A
100
AcDbVisualStyle
  2
Shaded with edges
 70
    26
177
     3
291
     0
 70
    58
 90
        2
176
     1
 90
        2
176
     1
 90
        1
176
     1
 90
        2
176
     1
 40
0.6
176
     1
 40
30.0
176
     1
 62
     7
420
 16777215
176
     1
 90
        1
176
     1
 90
       10
176
     1
 62
     7
176
     1
 62
   257
176
     1
 90
        2
176
     1
 90
        1
176
     1
 40
1.0
176
     1
 90
        8
176
     1
 62
   257
176
     1
 40
1.0
176
     1
 90
        1
176
     1
 90
        6
176
     1
 90
        2
176
     1
 62
     7
176
     1
 90
        3
176
     1
 90
        0
176
     1
 90
        0
176
     1
290
     0
176
     1
 90
        5
176
     1
 40
0.0
176
     1
 90
        0
176
     1
290
     0
176
     1
290
     1
176
     1
290
     1
176
     1
290
     0
176
     1
290
     0
176
     1
290
     0
176
     1
290
     0
176
     1
290
     0
176
     1
290
     0
176
     1
 90
       50
176
     1
 40
0.0
176
     1
 40
1.0
176
     1
 90
        0
176
     1
 62
    18
420
        0
176
     1
 90
       50
176
     1
 90
        3
176
     1
 62
     5
420
      255
176
     1
290
     0
176
     1
 90
       50
176
     1
 90
       50
176
     1
 90
       50
176
     1
290
     0
176
     1
 90
       50
176
     1
 62
   256
176
     0
 40
1.0
176
     0
 90
        2
176
     1
  1
strokes_ogs.tif
176
     1
290
     0
176
     1
 40
1.0
176
     1
 40
1.0
176
     1
  0
VISUALSTYLE
  5
3E
102
{ACAD_REACTORS
330
2A
102
}
330
2A
100
AcDbVisualStyle
  2
Shades of Gray
 70
    23
177
     3
291
     0
 70
    58
 90
        2
176
     1
 90
        2
176
     1
 90
        3
176
     1
 90
        0
176
     1
 40
0.6
176
     1
 40
30.0
176
     1
 62
     7
420
 16777215
176
     1
 90
        2
176
     1
 90
        2
176
     1
 62
     7
176
     1
 62
     7
176
     1
 90
        1
176
     1
 90
        1
176
     1
 40
40.0
176
     1
 90
        8
176
     1
 62
     7
176
     1
 40
1.0
176
     1
 90
        1
176
     1
 90
        6
176
     1
 90
        2
176
     1
 62
     7
176
     1
 90
        3
176
     1
 90
        0
176
     1
 90
        0
176
     1
290
     0
176
     1
 90
        1
176
     1
 40
0.0
176
     1
 90
        0
176
     1
290
     0
176
     1
290
     1
176
     1
290
     1
176
     1
290
     0
176
     1
290
     0
176
     1
290
     0
176
     1
290
     0
176
     1
290
     0
176
     1
290
     0
176
     1
 90
       50
176
     1
 40
0.0
176
     1
 40
1.0
176
     1
 90
        0
176
     1
 62
    18
420
        0
176
     1
 90
       50
176
     1
 90
        3
176
     1
 62
     5
420
      255
176
     1
290
     0
176
     1
 90
       50
176
     1
 90
       50
176
     1
 90
       50
176
     1
290
     0
176
     1
 90
       50
176
     1
 62
   256
176
     0
 40
1.0
176
     0
 90
        2
176
     1
  1
strokes_ogs.tif
176
     1
290
     0
176
     1
 40
1.0
176
     1
 40
1.0
176
     1
  0
VISUALSTYLE
  5
3F
102
{ACAD_REACTORS
330
2A
102
}
330
2A
100
AcDbVisualStyle
  2
Sketchy
 70
    24
177
     3
291
     0
 70
    58
 90
        1
176
     1
 90
        2
176
     1
 90
        2
176
     1
 90
        0
176
     1
 40
0.6
176
     1
 40
30.0
176
     1
 62
     7
420
 16777215
176
     1
 90
        2
176
     1
 90
        2
176
     1
 62
     7
176
     1
 62
     7
176
     1
 90
        1
176
     1
 90
        1
176
     1
 40
40.0
176
     1
 90
       11
176
     1
 62
     7
176
     1
 40
1.0
176
     1
 90
        1
176
     1
 90
        6
176
     1
 90
        2
176
     1
 62
     7
176
     1
 90
        6
176
     1
 90
        0
176
     1
 90
        0
176
     1
290
     0
176
     1
 90
        1
176
     1
 40
0.0
176
     1
 90
        0
176
     1
290
     0
176
     1
290
     1
176
     1
290
     1
176
     1
290
     0
176
     1
290
     0
176
     1
290
     0
176
     1
290
     0
176
     1
290
     0
176
     1
290
     0
176
     1
 90
       50
176
     1
 40
0.0
176
     1
 40
1.0
176
     1
 90
        0
176
     1
 62
    18
420
        0
176
     1
 90
       50
176
     1
 90
        3
176
     1
 62
     5
420
      255
176
     1
290
     0
176
     1
 90
       50
176
     1
 90
       50
176
     1
 90
       50
176
     1
290
     0
176
     1
 90
       50
176
     1
 62
   256
176
     0
 40
1.0
176
     0
 90
        2
176
     1
  1
strokes_ogs.tif
176
     1
290
     0
176
     1
 40
1.0
176
     1
 40
1.0
176
     1
  0
VISUALSTYLE
  5
37
102
{ACAD_REACTORS
330
2A
102
}
330
2A
100
AcDbVisualStyle
  2
Thicken
 70
    13
177
     3
291
     1
 70
    58
 90
        2
176
     1
 90
        2
176
     1
 90
        0
176
     1
 90
        0
176
     1
 40
0.6
176
     1
 40
30.0
176
     1
 62
     7
420
 16777215
176
     1
 90
        1
176
     1
 90
        4
176
     1
 62
     7
176
     1
 62
   257
176
     1
 90
        1
176
     1
 90
        1
176
     1
 40
1.0
176
     1
 90
       12
176
     1
 62
     7
176
     1
 40
1.0
176
     1
 90
        1
176
     1
 90
        6
176
     1
 90
        2
176
     1
 62
     7
176
     1
 90
        5
176
     1
 90
        0
176
     1
 90
        0
176
     1
290
     0
176
     1
 90
        1
176
     1
 40
0.0
176
     1
 90
        0
176
     1
290
     0
176
     1
290
     1
176
     1
290
     1
176
     1
290
     0
176
     1
290
     0
176
     1
290
     0
176
     1
290
     0
176
     1
290
     0
176
     1
290
     0
176
     1
 90
       50
176
     1
 40
0.0
176
     1
 40
1.0
176
     1
 90
        0
176
     1
 62
    18
420
        0
176
     1
 90
       50
176
     1
 90
        3
176
     1
 62
     5
420
      255
176
     1
290
     0
176
     1
 90
       50
176
     1
 90
       50
176
     1
 90
       50
176
     1
290
     0
176
     1
 90
       50
176
     1
 62
   256
176
     0
 40
1.0
176
     0
 90
        2
176
     1
  1
strokes_ogs.tif
176
     1
290
     0
176
     1
 40
1.0
176
     1
 40
1.0
176
     1
  0
VISUALSTYLE
  5
30
102
{ACAD_REACTORS
330
2A
102
}
330
2A
100
AcDbVisualStyle
  2
Wireframe
 70
     5
177
     3
291
     0
 70
    58
 90
        0
176
     1
 90
        2
176
     1
 90
        0
176
     1
 90
        0
176
     1
 40
0.6
176
     1
 40
30.0
176
     1
 62
     7
420
 16777215
176
     1
 90
        1
176
     1
 90
        4
176
     1
 62
     7
176
     1
 62
   257
176
     1
 90
        1
176
     1
 90
        1
176
     1
 40
1.0
176
     1
 90
        0
176
     1
 62
   257
176
     1
 40
1.0
176
     1
 90
        1
176
     1
 90
        6
176
     1
 90
        2
176
     1
 62
     7
176
     1
 90
        3
176
     1
 90
        0
176
     1
 90
        0
176
     1
290
     0
176
     1
 90
        1
176
     1
 40
0.0
176
     1
 90
        0
176
     1
290
     0
176
     1
290
     1
176
     1
290
     1
176
     1
290
     0
176
     1
290
     0
176
     1
290
     0
176
     1
290
     0
176
     1
290
     0
176
     1
290
     0
176
     1
 90
       50
176
     1
 40
0.0
176
     1
 40
1.0
176
     1
 90
        0
176
     1
 62
    18
420
        0
176
     1
 90
       50
176
     1
 90
        3
176
     1
 62
     5
420
      255
176
     1
290
     0
176
     1
 90
       50
176
     1
 90
       50
176
     1
 90
       50
176
     1
290
     0
176
     1
 90
       50
176
     1
 62
   256
176
     0
 40
1.0
176
     0
 90
        2
176
     1
  1
strokes_ogs.tif
176
     1
290
     0
176
     1
 40
1.0
176
     1
 40
1.0
176
     1
  0
VISUALSTYLE
  5
40
102
{ACAD_REACTORS
330
2A
102
}
330
2A
100
AcDbVisualStyle
  2
X-Ray
 70
    25
177
     3
291
     0
 70
    58
 90
        2
176
     1
 90
        2
176
     1
 90
        1
176
     1
 90
        1
176
     1
 40
0.5
176
     1
 40
30.0
176
     1
 62
     7
420
 16777215
176
     1
 90
        1
176
     1
 90
        0
176
     1
 62
     7
176
     1
 62
   257
176
     1
 90
        1
176
     1
 90
        1
176
     1
 40
1.0
176
     1
 90
        8
176
     1
 62
     7
176
     1
 40
1.0
176
     1
 90
        1
176
     1
 90
        6
176
     1
 90
        2
176
     1
 62
     7
176
     1
 90
        3
176
     1
 90
        0
176
     1
 90
        0
176
     1
290
     0
176
     1
 90
       13
176
     1
 40
0.0
176
     1
 90
        0
176
     1
290
     0
176
     1
290
     1
176
     1
290
     1
176
     1
290
     0
176
     1
290
     0
176
     1
290
     0
176
     1
290
     0
176
     1
290
     0
176
     1
290
     0
176
     1
 90
       50
176
     1
 40
0.0
176
     1
 40
1.0
176
     1
 90
        0
176
     1
 62
    18
420
        0
176
     1
 90
       50
176
     1
 90
        3
176
     1
 62
     5
420
      255
176
     1
290
     0
176
     1
 90
       50
176
     1
 90
       50
176
     1
 90
       50
176
     1
290
     0
176
     1
 90
       50
176
     1
 62
   256
176
     0
 40
1.0
176
     0
 90
        2
176
     1
  1
strokes_ogs.tif
176
     1
290
     0
176
     1
 40
1.0
176
     1
 40
1.0
176
     1
  0
DICTIONARYVAR
  5
189
102
{ACAD_REACTORS
330
188
102
}
330
188
100
DictionaryVariables
280
     0
  1
1:1
  0
DICTIONARYVAR
  5
18E
102
{ACAD_REACTORS
330
188
102
}
330
188
100
DictionaryVariables
280
     0
  1
Standard
  0
DICTIONARYVAR
  5
18D
102
{ACAD_REACTORS
330
188
102
}
330
188
100
DictionaryVariables
280
     0
  1
Standard
  0
DICTIONARY
  5
18A
330
6A
100
AcDbDictionary
280
     1
281
     1
  3
ACAD_ROUNDTRIP_2008_TABLESTYLE_CELLSTYLEMAP
360
18B
  0
CELLSTYLEMAP
  5
18B
102
{ACAD_REACTORS
330
18A
102
}
330
18A
100
AcDbCellStyleMap
 90
        3
300
CELLSTYLE
  1
TABLEFORMAT_BEGIN
 90
        5
170
     1
 91
        0
 92
    32768
 62
   257
 93
        1
300
CONTENTFORMAT
  1
CONTENTFORMAT_BEGIN
 90
        0
 91
        0
 92
        4
 93
        0
300

 40
0.0
140
1.0
 94
        5
 62
     0
340
11
144
0.25
309
CONTENTFORMAT_END
171
     1
301
MARGIN
  1
CELLMARGIN_BEGIN
 40
0.06
 40
0.06
 40
0.06
 40
0.06
 40
0.06
 40
0.06
309
CELLMARGIN_END
 94
        6
 95
        1
302
GRIDFORMAT
  1
GRIDFORMAT_BEGIN
 90
        0
 91
        1
 62
     0
 92
       -2
340
14
 93
        0
 40
0.045
309
GRIDFORMAT_END
 95
        2
302
GRIDFORMAT
  1
GRIDFORMAT_BEGIN
 90
        0
 91
        1
 62
     0
 92
       -2
340
14
 93
        0
 40
0.045
309
GRIDFORMAT_END
 95
        4
302
GRIDFORMAT
  1
GRIDFORMAT_BEGIN
 90
        0
 91
        1
 62
     0
 92
       -2
340
14
 93
        0
 40
0.045
309
GRIDFORMAT_END
 95
        8
302
GRIDFORMAT
  1
GRIDFORMAT_BEGIN
 90
        0
 91
        1
 62
     0
 92
       -2
340
14
 93
        0
 40
0.045
309
GRIDFORMAT_END
 95
       16
302
GRIDFORMAT
  1
GRIDFORMAT_BEGIN
 90
        0
 91
        1
 62
     0
 92
       -2
340
14
 93
        0
 40
0.045
309
GRIDFORMAT_END
 95
       32
302
GRIDFORMAT
  1
GRIDFORMAT_BEGIN
 90
        0
 91
        1
 62
     0
 92
       -2
340
14
 93
        0
 40
0.045
309
GRIDFORMAT_END
309
TABLEFORMAT_END
  1
CELLSTYLE_BEGIN
 90
        1
 91
        1
300
_TITLE
309
CELLSTYLE_END
300
CELLSTYLE
  1
TABLEFORMAT_BEGIN
 90
        5
170
     1
 91
        0
 92
        0
 62
   257
 93
        1
300
CONTENTFORMAT
  1
CONTENTFORMAT_BEGIN
 90
        0
 91
        0
 92
        4
 93
        0
300

 40
0.0
140
1.0
 94
        5
 62
     0
340
11
144
0.18
309
CONTENTFORMAT_END
171
     1
301
MARGIN
  1
CELLMARGIN_BEGIN
 40
0.06
 40
0.06
 40
0.06
 40
0.06
 40
0.06
 40
0.06
309
CELLMARGIN_END
 94
        6
 95
        1
302
GRIDFORMAT
  1
GRIDFORMAT_BEGIN
 90
        0
 91
        1
 62
     0
 92
       -2
340
14
 93
        0
 40
0.045
309
GRIDFORMAT_END
 95
        2
302
GRIDFORMAT
  1
GRIDFORMAT_BEGIN
 90
        0
 91
        1
 62
     0
 92
       -2
340
14
 93
        0
 40
0.045
309
GRIDFORMAT_END
 95
        4
302
GRIDFORMAT
  1
GRIDFORMAT_BEGIN
 90
        0
 91
        1
 62
     0
 92
       -2
340
14
 93
        0
 40
0.045
309
GRIDFORMAT_END
 95
        8
302
GRIDFORMAT
  1
GRIDFORMAT_BEGIN
 90
        0
 91
        1
 62
     0
 92
       -2
340
14
 93
        0
 40
0.045
309
GRIDFORMAT_END
 95
       16
302
GRIDFORMAT
  1
GRIDFORMAT_BEGIN
 90
        0
 91
        1
 62
     0
 92
       -2
340
14
 93
        0
 40
0.045
309
GRIDFORMAT_END
 95
       32
302
GRIDFORMAT
  1
GRIDFORMAT_BEGIN
 90
        0
 91
        1
 62
     0
 92
       -2
340
14
 93
        0
 40
0.045
309
GRIDFORMAT_END
309
TABLEFORMAT_END
  1
CELLSTYLE_BEGIN
 90
        2
 91
        1
300
_HEADER
309
CELLSTYLE_END
300
CELLSTYLE
  1
TABLEFORMAT_BEGIN
 90
        5
170
     1
 91
        0
 92
        0
 62
   257
 93
        1
300
CONTENTFORMAT
  1
CONTENTFORMAT_BEGIN
 90
        0
 91
        0
 92
        4
 93
        0
300

 40
0.0
140
1.0
 94
        2
 62
     0
340
11
144
0.18
309
CONTENTFORMAT_END
171
     1
301
MARGIN
  1
CELLMARGIN_BEGIN
 40
0.06
 40
0.06
 40
0.06
 40
0.06
 40
0.06
 40
0.06
309
CELLMARGIN_END
 94
        6
 95
        1
302
GRIDFORMAT
  1
GRIDFORMAT_BEGIN
 90
        0
 91
        1
 62
     0
 92
       -2
340
14
 93
        0
 40
0.045
309
GRIDFORMAT_END
 95
        2
302
GRIDFORMAT
  1
GRIDFORMAT_BEGIN
 90
        0
 91
        1
 62
     0
 92
       -2
340
14
 93
        0
 40
0.045
309
GRIDFORMAT_END
 95
        4
302
GRIDFORMAT
  1
GRIDFORMAT_BEGIN
 90
        0
 91
        1
 62
     0
 92
       -2
340
14
 93
        0
 40
0.045
309
GRIDFORMAT_END
 95
        8
302
GRIDFORMAT
  1
GRIDFORMAT_BEGIN
 90
        0
 91
        1
 62
     0
 92
       -2
340
14
 93
        0
 40
0.045
309
GRIDFORMAT_END
 95
       16
302
GRIDFORMAT
  1
GRIDFORMAT_BEGIN
 90
        0
 91
        1
 62
     0
 92
       -2
340
14
 93
        0
 40
0.045
309
GRIDFORMAT_END
 95
       32
302
GRIDFORMAT
  1
GRIDFORMAT_BEGIN
 90
        0
 91
        1
 62
     0
 92
       -2
340
14
 93
        0
 40
0.045
309
GRIDFORMAT_END
309
TABLEFORMAT_END
  1
CELLSTYLE_BEGIN
 90
        3
 91
        2
300
_DATA
309
CELLSTYLE_END
  0
ENDSEC
  0
EOF