0
SECTION
  2
HEADER
  9
$ACADVER
  1
AC1027
  9
$ACADMAINTVER
 70
     8
  9
$DWGCODEPAGE
  3
ANSI_1252
  9
$REQUIREDVERSIONS
160
                 0
  9
$COMMENTS
  1
File was created by Cadenas
  9
$CUSTOMPROPERTYTAG
  1
NN
  9
$CUSTOMPROPERTY
  1
Set Screw Intermediate Duty Two-Bolt Flange Inch Bore
  9
$CUSTOMPROPERTYTAG
  1
NT
  9
$CUSTOMPROPERTY
  1

  9
$CUSTOMPROPERTYTAG
  1
NB
  9
$CUSTOMPROPERTY
  1
057854
  9
$CUSTOMPROPERTYTAG
  1
NBSYN
  9
$CUSTOMPROPERTY
  1
$PN.
  9
$CUSTOMPROPERTYTAG
  1
LINA
  9
$CUSTOMPROPERTY
  1
057854
  9
$CUSTOMPROPERTYTAG
  1
RS
  9
$CUSTOMPROPERTY
  1
204
  9
$CUSTOMPROPERTYTAG
  1
SS
  9
$CUSTOMPROPERTY
  1
3/4
  9
$CUSTOMPROPERTYTAG
  1
PN
  9
$CUSTOMPROPERTY
  1
057854
  9
$CUSTOMPROPERTYTAG
  1
DESCRIPTION
  9
$CUSTOMPROPERTY
  1
F2B-VSC-012-NL
  9
$CUSTOMPROPERTYTAG
  1
LF
  9
$CUSTOMPROPERTY
  1
NO-LUBE
  9
$CUSTOMPROPERTYTAG
  1
WEIGHT
  9
$CUSTOMPROPERTY
  1
1.4
  9
$CUSTOMPROPERTYTAG
  1
A
  9
$CUSTOMPROPERTY
  1
1.23
  9
$CUSTOMPROPERTYTAG
  1
B
  9
$CUSTOMPROPERTY
  1
4.41
  9
$CUSTOMPROPERTYTAG
  1
C
  9
$CUSTOMPROPERTY
  1
1.34
  9
$CUSTOMPROPERTYTAG
  1
D
  9
$CUSTOMPROPERTY
  1
3.53
  9
$CUSTOMPROPERTYTAG
  1
F
  9
$CUSTOMPROPERTY
  1
3/8
  9
$CUSTOMPROPERTYTAG
  1
H
  9
$CUSTOMPROPERTY
  1
0.50
  9
$CUSTOMPROPERTYTAG
  1
J
  9
$CUSTOMPROPERTY
  1
0.36
  9
$CUSTOMPROPERTYTAG
  1
L
  9
$CUSTOMPROPERTY
  1
1.12
  9
$CUSTOMPROPERTYTAG
  1
M
  9
$CUSTOMPROPERTY
  1
2.38
  9
$CUSTOMPROPERTYTAG
  1
N
  9
$CUSTOMPROPERTY
  1
1.50
  9
$CUSTOMPROPERTYTAG
  1
COMPANY
  9
$CUSTOMPROPERTY
  1
baldor
  9
$INSBASE
 10
0.0
 20
0.0
 30
0.0
  9
$EXTMIN
 10
1.000000000000000E+20
 20
1.000000000000000E+20
 30
1.000000000000000E+20
  9
$EXTMAX
 10
-1.000000000000000E+20
 20
-1.000000000000000E+20
 30
-1.000000000000000E+20
  9
$LIMMIN
 10
0.0
 20
0.0
  9
$LIMMAX
 10
12.0
 20
9.0
  9
$ORTHOMODE
 70
     0
  9
$REGENMODE
 70
     1
  9
$FILLMODE
 70
     1
  9
$QTEXTMODE
 70
     0
  9
$MIRRTEXT
 70
     1
  9
$LTSCALE
 40
1.0
  9
$ATTMODE
 70
     1
  9
$TEXTSIZE
 40
0.2
  9
$TRACEWID
 40
0.05
  9
$TEXTSTYLE
  7
Standard
  9
$CLAYER
  8
0
  9
$CELTYPE
  6
ByLayer
  9
$CECOLOR
 62
   256
  9
$CELTSCALE
 40
1.0
  9
$DISPSILH
 70
     0
  9
$DIMSCALE
 40
1.0
  9
$DIMASZ
 40
0.18
  9
$DIMEXO
 40
0.0625
  9
$DIMDLI
 40
0.38
  9
$DIMRND
 40
0.0
  9
$DIMDLE
 40
0.0
  9
$DIMEXE
 40
0.18
  9
$DIMTP
 40
0.0
  9
$DIMTM
 40
0.0
  9
$DIMTXT
 40
0.18
  9
$DIMCEN
 40
0.09
  9
$DIMTSZ
 40
0.0
  9
$DIMTOL
 70
     0
  9
$DIMLIM
 70
     0
  9
$DIMTIH
 70
     1
  9
$DIMTOH
 70
     1
  9
$DIMSE1
 70
     0
  9
$DIMSE2
 70
     0
  9
$DIMTAD
 70
     0
  9
$DIMZIN
 70
     0
  9
$DIMBLK
  1

  9
$DIMASO
 70
     1
  9
$DIMSHO
 70
     1
  9
$DIMPOST
  1

  9
$DIMAPOST
  1

  9
$DIMALT
 70
     0
  9
$DIMALTD
 70
     2
  9
$DIMALTF
 40
25.4
  9
$DIMLFAC
 40
1.0
  9
$DIMTOFL
 70
     0
  9
$DIMTVP
 40
0.0
  9
$DIMTIX
 70
     0
  9
$DIMSOXD
 70
     0
  9
$DIMSAH
 70
     0
  9
$DIMBLK1
  1

  9
$DIMBLK2
  1

  9
$DIMSTYLE
  2
Standard
  9
$DIMCLRD
 70
     0
  9
$DIMCLRE
 70
     0
  9
$DIMCLRT
 70
     0
  9
$DIMTFAC
 40
1.0
  9
$DIMGAP
 40
0.09
  9
$DIMJUST
 70
     0
  9
$DIMSD1
 70
     0
  9
$DIMSD2
 70
     0
  9
$DIMTOLJ
 70
     1
  9
$DIMTZIN
 70
     0
  9
$DIMALTZ
 70
     0
  9
$DIMALTTZ
 70
     0
  9
$DIMUPT
 70
     0
  9
$DIMDEC
 70
     4
  9
$DIMTDEC
 70
     4
  9
$DIMALTU
 70
     2
  9
$DIMALTTD
 70
     2
  9
$DIMTXSTY
  7
Standard
  9
$DIMAUNIT
 70
     0
  9
$DIMADEC
 70
     0
  9
$DIMALTRND
 40
0.0
  9
$DIMAZIN
 70
     0
  9
$DIMDSEP
 70
    46
  9
$DIMATFIT
 70
     3
  9
$DIMFRAC
 70
     0
  9
$DIMLDRBLK
  1

  9
$DIMLUNIT
 70
     2
  9
$DIMLWD
 70
    -2
  9
$DIMLWE
 70
    -2
  9
$DIMTMOVE
 70
     0
  9
$DIMFXL
 40
1.0
  9
$DIMFXLON
 70
     0
  9
$DIMJOGANG
 40
0.7853981633974483
  9
$DIMTFILL
 70
     0
  9
$DIMTFILLCLR
 70
     0
  9
$DIMARCSYM
 70
     0
  9
$DIMLTYPE
  6

  9
$DIMLTEX1
  6

  9
$DIMLTEX2
  6

  9
$DIMTXTDIRECTION
 70
     0
  9
$LUNITS
 70
     2
  9
$LUPREC
 70
     4
  9
$SKETCHINC
 40
0.1
  9
$FILLETRAD
 40
0.5
  9
$AUNITS
 70
     0
  9
$AUPREC
 70
     0
  9
$MENU
  1
.
  9
$ELEVATION
 40
0.0
  9
$PELEVATION
 40
0.0
  9
$THICKNESS
 40
0.0
  9
$LIMCHECK
 70
     0
  9
$CHAMFERA
 40
0.0
  9
$CHAMFERB
 40
0.0
  9
$CHAMFERC
 40
0.0
  9
$CHAMFERD
 40
0.0
  9
$SKPOLY
 70
     0
  9
$TDCREATE
 40
2458168.99841816
  9
$TDUCREATE
 40
2458168.956751493
  9
$TDUPDATE
 40
2458168.998418345
  9
$TDUUPDATE
 40
2458168.956751678
  9
$TDINDWG
 40
0.0000000116
  9
$TDUSRTIMER
 40
0.0000000116
  9
$USRTIMER
 70
     1
  9
$ANGBASE
 50
0.0
  9
$ANGDIR
 70
     0
  9
$PDMODE
 70
     0
  9
$PDSIZE
 40
0.0
  9
$PLINEWID
 40
0.0
  9
$SPLFRAME
 70
     0
  9
$SPLINETYPE
 70
     6
  9
$SPLINESEGS
 70
     8
  9
$HANDSEED
  5
192
  9
$SURFTAB1
 70
     6
  9
$SURFTAB2
 70
     6
  9
$SURFTYPE
 70
     6
  9
$SURFU
 70
     6
  9
$SURFV
 70
     6
  9
$UCSBASE
  2

  9
$UCSNAME
  2

  9
$UCSORG
 10
0.0
 20
0.0
 30
0.0
  9
$UCSXDIR
 10
1.0
 20
0.0
 30
0.0
  9
$UCSYDIR
 10
0.0
 20
1.0
 30
0.0
  9
$UCSORTHOREF
  2

  9
$UCSORTHOVIEW
 70
     0
  9
$UCSORGTOP
 10
0.0
 20
0.0
 30
0.0
  9
$UCSORGBOTTOM
 10
0.0
 20
0.0
 30
0.0
  9
$UCSORGLEFT
 10
0.0
 20
0.0
 30
0.0
  9
$UCSORGRIGHT
 10
0.0
 20
0.0
 30
0.0
  9
$UCSORGFRONT
 10
0.0
 20
0.0
 30
0.0
  9
$UCSORGBACK
 10
0.0
 20
0.0
 30
0.0
  9
$PUCSBASE
  2

  9
$PUCSNAME
  2

  9
$PUCSORG
 10
0.0
 20
0.0
 30
0.0
  9
$PUCSXDIR
 10
1.0
 20
0.0
 30
0.0
  9
$PUCSYDIR
 10
0.0
 20
1.0
 30
0.0
  9
$PUCSORTHOREF
  2

  9
$PUCSORTHOVIEW
 70
     0
  9
$PUCSORGTOP
 10
0.0
 20
0.0
 30
0.0
  9
$PUCSORGBOTTOM
 10
0.0
 20
0.0
 30
0.0
  9
$PUCSORGLEFT
 10
0.0
 20
0.0
 30
0.0
  9
$PUCSORGRIGHT
 10
0.0
 20
0.0
 30
0.0
  9
$PUCSORGFRONT
 10
0.0
 20
0.0
 30
0.0
  9
$PUCSORGBACK
 10
0.0
 20
0.0
 30
0.0
  9
$USERI1
 70
     0
  9
$USERI2
 70
     0
  9
$USERI3
 70
     0
  9
$USERI4
 70
     0
  9
$USERI5
 70
     0
  9
$USERR1
 40
0.0
  9
$USERR2
 40
0.0
  9
$USERR3
 40
0.0
  9
$USERR4
 40
0.0
  9
$USERR5
 40
0.0
  9
$WORLDVIEW
 70
     1
  9
$SHADEDGE
 70
     3
  9
$SHADEDIF
 70
    70
  9
$TILEMODE
 70
     1
  9
$MAXACTVP
 70
    64
  9
$PINSBASE
 10
0.0
 20
0.0
 30
0.0
  9
$PLIMCHECK
 70
     0
  9
$PEXTMIN
 10
1.000000000000000E+20
 20
1.000000000000000E+20
 30
1.000000000000000E+20
  9
$PEXTMAX
 10
-1.000000000000000E+20
 20
-1.000000000000000E+20
 30
-1.000000000000000E+20
  9
$PLIMMIN
 10
0.0
 20
0.0
  9
$PLIMMAX
 10
12.0
 20
9.0
  9
$UNITMODE
 70
     0
  9
$VISRETAIN
 70
     1
  9
$PLINEGEN
 70
     0
  9
$PSLTSCALE
 70
     1
  9
$TREEDEPTH
 70
  3020
  9
$CMLSTYLE
  2
Standard
  9
$CMLJUST
 70
     0
  9
$CMLSCALE
 40
1.0
  9
$PROXYGRAPHICS
 70
     1
  9
$MEASUREMENT
 70
     0
  9
$CELWEIGHT
370
    -1
  9
$ENDCAPS
280
     0
  9
$JOINSTYLE
280
     0
  9
$LWDISPLAY
290
     0
  9
$INSUNITS
 70
     1
  9
$HYPERLINKBASE
  1

  9
$STYLESHEET
  1

  9
$XEDIT
290
     1
  9
$CEPSNTYPE
380
     0
  9
$PSTYLEMODE
290
     1
  9
$FINGERPRINTGUID
  2
{5A7AC6F3-37F8-441F-AE4A-9B0FE0F738C7}
  9
$VERSIONGUID
  2
{FAEB1C32-E019-11D5-929B-00C0DF256EC4}
  9
$EXTNAMES
290
     1
  9
$PSVPSCALE
 40
0.0
  9
$OLESTARTUP
290
     0
  9
$SORTENTS
280
   127
  9
$INDEXCTL
280
     0
  9
$HIDETEXT
280
     1
  9
$XCLIPFRAME
280
     2
  9
$HALOGAP
280
     0
  9
$OBSCOLOR
 70
   257
  9
$OBSLTYPE
280
     0
  9
$INTERSECTIONDISPLAY
280
     0
  9
$INTERSECTIONCOLOR
 70
   257
  9
$DIMASSOC
280
     2
  9
$PROJECTNAME
  1

  9
$CAMERADISPLAY
290
     0
  9
$LENSLENGTH
 40
50.0
  9
$CAMERAHEIGHT
 40
0.0
  9
$STEPSPERSEC
 40
2.0
  9
$STEPSIZE
 40
6.0
  9
$3DDWFPREC
 40
2.0
  9
$PSOLWIDTH
 40
0.25
  9
$PSOLHEIGHT
 40
4.0
  9
$LOFTANG1
 40
1.570796326794897
  9
$LOFTANG2
 40
1.570796326794897
  9
$LOFTMAG1
 40
0.0
  9
$LOFTMAG2
 40
0.0
  9
$LOFTPARAM
 70
     7
  9
$LOFTNORMALS
280
     1
  9
$LATITUDE
 40
37.795
  9
$LONGITUDE
 40
-122.394
  9
$NORTHDIRECTION
 40
0.0
  9
$TIMEZONE
 70
 -8000
  9
$LIGHTGLYPHDISPLAY
280
     1
  9
$TILEMODELIGHTSYNCH
280
     1
  9
$CMATERIAL
347
44
  9
$SOLIDHIST
280
     0
  9
$SHOWHIST
280
     1
  9
$DWFFRAME
280
     2
  9
$DGNFRAME
280
     2
  9
$REALWORLDSCALE
290
     1
  9
$INTERFERECOLOR
 62
   256
  9
$CSHADOW
280
     0
  9
$SHADOWPLANELOCATION
 40
0.0
  0
ENDSEC
  0
SECTION
  2
CLASSES
  0
CLASS
  1
ACDBDICTIONARYWDFLT
  2
AcDbDictionaryWithDefault
  3
ObjectDBX Classes
 90
        0
 91
        4
280
     0
281
     0
  0
CLASS
  1
VISUALSTYLE
  2
AcDbVisualStyle
  3
ObjectDBX Classes
 90
     4095
 91
        4
280
     0
281
     0
  0
CLASS
  1
MATERIAL
  2
AcDbMaterial
  3
ObjectDBX Classes
 90
     1153
 91
        4
280
     0
281
     0
  0
CLASS
  1
SCALE
  2
AcDbScale
  3
ObjectDBX Classes
 90
     1153
 91
        4
280
     0
281
     0
  0
CLASS
  1
TABLESTYLE
  2
AcDbTableStyle
  3
ObjectDBX Classes
 90
     4095
 91
        4
280
     0
281
     0
  0
CLASS
  1
MLEADERSTYLE
  2
AcDbMLeaderStyle
  3
ACDB_MLEADERSTYLE_CLASS
 90
     4095
 91
        4
280
     0
281
     0
  0
CLASS
  1
SUN
  2
AcDbSun
  3
SCENEOE
 90
     1153
 91
        4
280
     0
281
     0
  0
CLASS
  1
DICTIONARYVAR
  2
AcDbDictionaryVar
  3
ObjectDBX Classes
 90
        0
 91
        4
280
     0
281
     0
  0
CLASS
  1
CELLSTYLEMAP
  2
AcDbCellStyleMap
  3
ObjectDBX Classes
 90
     1152
 91
        4
280
     0
281
     0
  0
ENDSEC
  0
SECTION
  2
TABLES
  0
TABLE
  2
VPORT
  5
8
330
0
100
AcDbSymbolTable
 70
     1
  0
VPORT
  5
29
330
8
100
AcDbSymbolTableRecord
100
AcDbViewportTableRecord
  2
*Active
 70
     0
 10
0.0
 20
0.0
 11
1.0
 21
1.0
 12
-0.6762499999999996
 22
0.0
 13
0.0
 23
0.0
 14
0.5
 24
0.5
 15
0.5
 25
0.5
 16
0.0
 26
0.0
 36
1.0
 17
0.0
 27
0.0
 37
0.0
 40
4.498200000000001
 41
0.3289115646258499
 42
50.0
 43
0.0
 44
0.0
 50
0.0
 51
0.0
 71
     0
 72
   100
 73
     1
 74
     3
 75
     0
 76
     0
 77
     0
 78
     0
281
     0
 65
     1
110
0.0
120
0.0
130
0.0
111
1.0
121
0.0
131
0.0
112
0.0
122
1.0
132
0.0
 79
     0
146
0.0
348
2F
 60
     3
 61
     5
292
     1
282
     1
141
0.0
142
0.0
 63
   250
361
6D
  0
ENDTAB
  0
TABLE
  2
LTYPE
  5
5
330
0
100
AcDbSymbolTable
 70
     3
  0
LTYPE
  5
14
330
5
100
AcDbSymbolTableRecord
100
AcDbLinetypeTableRecord
  2
ByBlock
 70
     0
  3

 72
    65
 73
     0
 40
0.0
  0
LTYPE
  5
15
330
5
100
AcDbSymbolTableRecord
100
AcDbLinetypeTableRecord
  2
ByLayer
 70
     0
  3

 72
    65
 73
     0
 40
0.0
  0
LTYPE
  5
16
330
5
100
AcDbSymbolTableRecord
100
AcDbLinetypeTableRecord
  2
Continuous
 70
     0
  3
Solid line
 72
    65
 73
     0
 40
0.0
  0
LTYPE
  5
94
330
5
100
AcDbSymbolTableRecord
100
AcDbLinetypeTableRecord
  2
Dashed
 70
     0
  3

 72
    65
 73
     2
 40
2.0
 49
1.0
 74
     0
 49
-1.0
 74
     0
  0
LTYPE
  5
10D
330
5
100
AcDbSymbolTableRecord
100
AcDbLinetypeTableRecord
  2
Center
 70
     0
  3

 72
    65
 73
     4
 40
1.5
 49
0.45
 74
     0
 49
-0.5
 74
     0
 49
0.05
 74
     0
 49
-0.5
 74
     0
  0
ENDTAB
  0
TABLE
  2
LAYER
  5
2
330
0
100
AcDbSymbolTable
 70
     7
  0
LAYER
  5
10
330
2
100
AcDbSymbolTableRecord
100
AcDbLayerTableRecord
  2
0
 70
     0
 62
     7
  6
Continuous
370
    -3
390
F
347
46
348
0
  0
LAYER
  5
72
330
2
100
AcDbSymbolTableRecord
100
AcDbLayerTableRecord
  2
AM_6
 70
     0
 62
    -2
  6
Continuous
370
    35
390
F
347
46
348
0
  0
LAYER
  5
95
330
2
100
AcDbSymbolTableRecord
100
AcDbLayerTableRecord
  2
AM_9
 70
     0
 62
     6
  6
Dashed
370
    25
390
F
347
46
348
0
  0
LAYER
  5
AA
330
2
100
AcDbSymbolTableRecord
100
AcDbLayerTableRecord
  2
AM_4
 70
     0
 62
     7
  6
Continuous
370
    50
390
F
347
46
348
0
  0
LAYER
  5
10A
330
2
100
AcDbSymbolTableRecord
100
AcDbLayerTableRecord
  2
AM_5
 70
     0
 62
     3
  6
Continuous
370
    25
390
F
347
46
348
0
  0
LAYER
  5
10E
330
2
100
AcDbSymbolTableRecord
100
AcDbLayerTableRecord
  2
AM_7
 70
     0
 62
     7
  6
Center
370
    25
390
F
347
46
348
0
  0
LAYER
  5
185
330
2
100
AcDbSymbolTableRecord
100
AcDbLayerTableRecord
  2
ConnectionPoints
 70
     0
 62
     7
  6
Continuous
370
    50
390
F
347
46
348
0
  0
ENDTAB
  0
TABLE
  2
STYLE
  5
3
330
0
100
AcDbSymbolTable
 70
     1
  0
STYLE
  5
11
330
3
100
AcDbSymbolTableRecord
100
AcDbTextStyleTableRecord
  2
Standard
 70
     0
 40
0.0
 41
1.0
 50
0.0
 71
     0
 42
0.2
  3
txt
  4

  0
ENDTAB
  0
TABLE
  2
VIEW
  5
6
330
0
100
AcDbSymbolTable
 70
     0
  0
ENDTAB
  0
TABLE
  2
UCS
  5
7
330
0
100
AcDbSymbolTable
 70
     0
  0
ENDTAB
  0
TABLE
  2
APPID
  5
9
330
0
100
AcDbSymbolTable
 70
     1
  0
APPID
  5
12
330
9
100
AcDbSymbolTableRecord
100
AcDbRegAppTableRecord
  2
ACAD
 70
     0
  0
ENDTAB
  0
TABLE
  2
DIMSTYLE
  5
A
330
0
100
AcDbSymbolTable
 70
     1
100
AcDbDimStyleTable
  0
DIMSTYLE
105
27
330
A
100
AcDbSymbolTableRecord
100
AcDbDimStyleTableRecord
  2
Standard
 70
     0
178
     0
340
11
  0
ENDTAB
  0
TABLE
  2
BLOCK_RECORD
  5
1
330
0
100
AcDbSymbolTable
 70
     5
  0
BLOCK_RECORD
  5
1F
330
1
100
AcDbSymbolTableRecord
100
AcDbBlockTableRecord
  2
*Model_Space
340
22
 70
     0
280
     1
281
     0
  0
BLOCK_RECORD
  5
1B
330
1
100
AcDbSymbolTableRecord
100
AcDbBlockTableRecord
  2
*Paper_Space
340
1E
 70
     0
280
     1
281
     0
  0
BLOCK_RECORD
  5
23
330
1
100
AcDbSymbolTableRecord
100
AcDbBlockTableRecord
  2
*Paper_Space0
340
26
 70
     0
280
     1
281
     0
  0
BLOCK_RECORD
  5
6E
330
1
100
AcDbSymbolTableRecord
100
AcDbBlockTableRecord
  2
1_057854_2
340
0
102
{BLKREFS
331
6F
102
}
 70
     0
280
     1
281
     0
  0
BLOCK_RECORD
  5
89
330
1
100
AcDbSymbolTableRecord
100
AcDbBlockTableRecord
  2
2_430026_0_in_057854_2
340
0
102
{BLKREFS
331
8A
102
}
 70
     0
280
     1
281
     0
  0
BLOCK_RECORD
  5
BB
330
1
100
AcDbSymbolTableRecord
100
AcDbBlockTableRecord
  2
3_389925_0_in_057854_2
340
0
102
{BLKREFS
331
BC
102
}
 70
     0
280
     1
281
     0
  0
BLOCK_RECORD
  5
11F
330
1
100
AcDbSymbolTableRecord
100
AcDbBlockTableRecord
  2
4_057854vsc_0_in_057854_2
340
0
102
{BLKREFS
331
120
102
}
 70
     0
280
     1
281
     0
  0
ENDTAB
  0
ENDSEC
  0
SECTION
  2
BLOCKS
  0
BLOCK
  5
20
330
1F
100
AcDbEntity
  8
0
100
AcDbBlockBegin
  2
*Model_Space
 70
     0
 10
0.0
 20
0.0
 30
0.0
  3
*Model_Space
  1

  0
ENDBLK
  5
21
330
1F
100
AcDbEntity
  8
0
100
AcDbBlockEnd
  0
BLOCK
  5
1C
330
1B
100
AcDbEntity
 67
     1
  8
0
100
AcDbBlockBegin
  2
*Paper_Space
 70
     0
 10
0.0
 20
0.0
 30
0.0
  3
*Paper_Space
  1

  0
ENDBLK
  5
1D
330
1B
100
AcDbEntity
 67
     1
  8
0
100
AcDbBlockEnd
  0
BLOCK
  5
24
330
23
100
AcDbEntity
  8
0
100
AcDbBlockBegin
  2
*Paper_Space0
 70
     0
 10
0.0
 20
0.0
 30
0.0
  3
*Paper_Space0
  1

  0
ENDBLK
  5
25
330
23
100
AcDbEntity
  8
0
100
AcDbBlockEnd
  0
BLOCK
  5
70
330
6E
100
AcDbEntity
  8
0
100
AcDbBlockBegin
  2
1_057854_2
 70
     2
 10
0.0
 20
0.0
 30
0.0
  3
1_057854_2
  1

  0
ATTDEF
  5
73
330
6E
100
AcDbEntity
  8
AM_6
100
AcDbText
 10
5.048999999999999
 20
2.205
 30
0.0
 40
0.5
  1
Set Screw Intermediate Duty Two-Bolt Flange Inch Bore
100
AcDbAttributeDefinition
  3

  2
NN
 70
     8
280
     0
  0
ATTDEF
  5
74
330
6E
100
AcDbEntity
  8
AM_6
100
AcDbText
 10
5.048999999999999
 20
1.705
 30
0.0
 40
0.5
  1

100
AcDbAttributeDefinition
  3

  2
NT
 70
     8
280
     0
  0
ATTDEF
  5
75
330
6E
100
AcDbEntity
  8
AM_6
100
AcDbText
 10
5.048999999999999
 20
1.205
 30
0.0
 40
0.5
  1
057854
100
AcDbAttributeDefinition
  3

  2
NB
 70
     8
280
     0
  0
ATTDEF
  5
76
330
6E
100
AcDbEntity
  8
AM_6
100
AcDbText
 10
5.048999999999999
 20
0.7050000000000001
 30
0.0
 40
0.5
  1
$PN.
100
AcDbAttributeDefinition
  3

  2
NBSYN
 70
     8
280
     0
  0
ATTDEF
  5
77
330
6E
100
AcDbEntity
  8
AM_6
100
AcDbText
 10
5.048999999999999
 20
0.2050000000000001
 30
0.0
 40
0.5
  1
057854
100
AcDbAttributeDefinition
  3

  2
LINA
 70
     8
280
     0
  0
ATTDEF
  5
78
330
6E
100
AcDbEntity
  8
AM_6
100
AcDbText
 10
5.048999999999999
 20
-0.2949999999999999
 30
0.0
 40
0.5
  1
204
100
AcDbAttributeDefinition
  3

  2
RS
 70
     8
280
     0
  0
ATTDEF
  5
79
330
6E
100
AcDbEntity
  8
AM_6
100
AcDbText
 10
5.048999999999999
 20
-0.7949999999999999
 30
0.0
 40
0.5
  1
3/4
100
AcDbAttributeDefinition
  3

  2
SS
 70
     8
280
     0
  0
ATTDEF
  5
7A
330
6E
100
AcDbEntity
  8
AM_6
100
AcDbText
 10
5.048999999999999
 20
-1.295
 30
0.0
 40
0.5
  1
057854
100
AcDbAttributeDefinition
  3

  2
PN
 70
     8
280
     0
  0
ATTDEF
  5
7B
330
6E
100
AcDbEntity
  8
AM_6
100
AcDbText
 10
5.048999999999999
 20
-1.795
 30
0.0
 40
0.5
  1
F2B-VSC-012-NL
100
AcDbAttributeDefinition
  3

  2
DESCRIPTION
 70
     8
280
     0
  0
ATTDEF
  5
7C
330
6E
100
AcDbEntity
  8
AM_6
100
AcDbText
 10
5.048999999999999
 20
-2.295
 30
0.0
 40
0.5
  1
NO-LUBE
100
AcDbAttributeDefinition
  3

  2
LF
 70
     8
280
     0
  0
ATTDEF
  5
7D
330
6E
100
AcDbEntity
  8
AM_6
100
AcDbText
 10
5.048999999999999
 20
-2.795
 30
0.0
 40
0.5
  1
1.4
100
AcDbAttributeDefinition
  3

  2
WEIGHT
 70
     8
280
     0
  0
ATTDEF
  5
7E
330
6E
100
AcDbEntity
  8
AM_6
100
AcDbText
 10
5.048999999999999
 20
-3.295
 30
0.0
 40
0.5
  1
1.23
100
AcDbAttributeDefinition
  3

  2
A
 70
     8
280
     0
  0
ATTDEF
  5
7F
330
6E
100
AcDbEntity
  8
AM_6
100
AcDbText
 10
5.048999999999999
 20
-3.795
 30
0.0
 40
0.5
  1
4.41
100
AcDbAttributeDefinition
  3

  2
B
 70
     8
280
     0
  0
ATTDEF
  5
80
330
6E
100
AcDbEntity
  8
AM_6
100
AcDbText
 10
5.048999999999999
 20
-4.295
 30
0.0
 40
0.5
  1
1.34
100
AcDbAttributeDefinition
  3

  2
C
 70
     8
280
     0
  0
ATTDEF
  5
81
330
6E
100
AcDbEntity
  8
AM_6
100
AcDbText
 10
5.048999999999999
 20
-4.795
 30
0.0
 40
0.5
  1
3.53
100
AcDbAttributeDefinition
  3

  2
D
 70
     8
280
     0
  0
ATTDEF
  5
82
330
6E
100
AcDbEntity
  8
AM_6
100
AcDbText
 10
5.048999999999999
 20
-5.295
 30
0.0
 40
0.5
  1
3/8
100
AcDbAttributeDefinition
  3

  2
F
 70
     8
280
     0
  0
ATTDEF
  5
83
330
6E
100
AcDbEntity
  8
AM_6
100
AcDbText
 10
5.048999999999999
 20
-5.795
 30
0.0
 40
0.5
  1
0.50
100
AcDbAttributeDefinition
  3

  2
H
 70
     8
280
     0
  0
ATTDEF
  5
84
330
6E
100
AcDbEntity
  8
AM_6
100
AcDbText
 10
5.048999999999999
 20
-6.295
 30
0.0
 40
0.5
  1
0.36
100
AcDbAttributeDefinition
  3

  2
J
 70
     8
280
     0
  0
ATTDEF
  5
85
330
6E
100
AcDbEntity
  8
AM_6
100
AcDbText
 10
5.048999999999999
 20
-6.795
 30
0.0
 40
0.5
  1
1.12
100
AcDbAttributeDefinition
  3

  2
L
 70
     8
280
     0
  0
ATTDEF
  5
86
330
6E
100
AcDbEntity
  8
AM_6
100
AcDbText
 10
5.048999999999999
 20
-7.295
 30
0.0
 40
0.5
  1
2.38
100
AcDbAttributeDefinition
  3

  2
M
 70
     8
280
     0
  0
ATTDEF
  5
87
330
6E
100
AcDbEntity
  8
AM_6
100
AcDbText
 10
5.048999999999999
 20
-7.795
 30
0.0
 40
0.5
  1
1.50
100
AcDbAttributeDefinition
  3

  2
N
 70
     8
280
     0
  0
ATTDEF
  5
88
330
6E
100
AcDbEntity
  8
AM_6
100
AcDbText
 10
5.048999999999999
 20
-8.295
 30
0.0
 40
0.5
  1
baldor
100
AcDbAttributeDefinition
  3

  2
COMPANY
 70
     8
280
     0
  0
INSERT
  5
8A
330
6E
100
AcDbEntity
  8
0
100
AcDbBlockReference
  2
2_430026_0_in_057854_2
 10
0.0
 20
0.0
 30
0.0
  0
INSERT
  5
BC
330
6E
100
AcDbEntity
  8
0
100
AcDbBlockReference
  2
3_389925_0_in_057854_2
 10
0.0
 20
0.0
 30
0.0
  0
INSERT
  5
120
330
6E
100
AcDbEntity
  8
0
100
AcDbBlockReference
  2
4_057854vsc_0_in_057854_2
 10
0.0
 20
0.0
 30
0.0
  0
ENDBLK
  5
71
330
6E
100
AcDbEntity
  8
0
100
AcDbBlockEnd
  0
BLOCK
  5
8B
330
89
100
AcDbEntity
  8
0
100
AcDbBlockBegin
  2
2_430026_0_in_057854_2
 70
     2
 10
0.0
 20
0.0
 30
0.0
  3
2_430026_0_in_057854_2
  1

  0
ATTDEF
  5
8D
330
89
100
AcDbEntity
  8
AM_6
100
AcDbText
 10
4.539381471828122
 20
1.150601637227091
 30
0.0
 40
0.5
  1
430026 Plug
100
AcDbAttributeDefinition
  3

  2
NN
 70
     8
280
     0
  0
ATTDEF
  5
8E
330
89
100
AcDbEntity
  8
AM_6
100
AcDbText
 10
4.539381471828122
 20
0.6506016372270906
 30
0.0
 40
0.5
  1
Plug
100
AcDbAttributeDefinition
  3

  2
NT
 70
     8
280
     0
  0
ATTDEF
  5
8F
330
89
100
AcDbEntity
  8
AM_6
100
AcDbText
 10
4.539381471828122
 20
0.1506016372270906
 30
0.0
 40
0.5
  1
430026
100
AcDbAttributeDefinition
  3

  2
NB
 70
     8
280
     0
  0
ATTDEF
  5
90
330
89
100
AcDbEntity
  8
AM_6
100
AcDbText
 10
4.539381471828122
 20
-0.3493983627729094
 30
0.0
 40
0.5
  1
$PN.
100
AcDbAttributeDefinition
  3

  2
NBSYN
 70
     8
280
     0
  0
ATTDEF
  5
91
330
89
100
AcDbEntity
  8
AM_6
100
AcDbText
 10
4.539381471828122
 20
-0.8493983627729094
 30
0.0
 40
0.5
  1
430026
100
AcDbAttributeDefinition
  3

  2
LINA
 70
     8
280
     0
  0
ATTDEF
  5
92
330
89
100
AcDbEntity
  8
AM_6
100
AcDbText
 10
4.539381471828122
 20
-1.349398362772909
 30
0.0
 40
0.5
  1
430026
100
AcDbAttributeDefinition
  3

  2
PN
 70
     8
280
     0
  0
ATTDEF
  5
93
330
89
100
AcDbEntity
  8
AM_6
100
AcDbText
 10
4.539381471828122
 20
-1.849398362772909
 30
0.0
 40
0.5
  1
baldor
100
AcDbAttributeDefinition
  3

  2
COMPANY
 70
     8
280
     0
  0
ELLIPSE
  5
96
330
89
100
AcDbEntity
  8
AM_9
100
AcDbEllipse
 10
-0.66
 20
0.8023476169663623
 30
0.0
 11
0.1702494517657397
 21
2.536914523925479E-9
 31
0.0
210
0.0
220
0.0
230
1.0
 40
0.7071067811865474
 41
0.0
 42
6.283185307179586
  0
LINE
  5
97
330
89
100
AcDbEntity
  8
AM_9
100
AcDbLine
 10
-0.6058734122634726
 20
0.8686388777026012
 30
0.0
 11
-0.5517468245269452
 21
0.9349301384388399
 31
0.0
  0
LINE
  5
98
330
89
100
AcDbEntity
  8
AM_9
100
AcDbLine
 10
-0.7682531754730548
 20
0.9349301384388399
 30
0.0
 11
-0.7141265877365275
 21
0.8686388777026011
 31
0.0
  0
ELLIPSE
  5
99
330
89
100
AcDbEntity
  8
AM_9
100
AcDbEllipse
 10
-0.6599999999999996
 20
0.9349301384388399
 30
0.0
 11
-0.09374999999999956
 21
1.148106374200638E-17
 31
0.0
210
0.0
220
0.0
230
1.0
 40
0.7071067811865483
 41
5.661395621566498
 42
10.04583097347148
  0
LINE
  5
9A
330
89
100
AcDbEntity
  8
AM_9
100
AcDbLine
 10
-0.5938681160613088
 20
0.872462512545246
 30
0.0
 11
-0.572680258123376
 21
0.9108020927388693
 31
0.0
  0
LINE
  5
9B
330
89
100
AcDbEntity
  8
AM_9
100
AcDbLine
 10
-0.7473197418766241
 20
0.9108020927388693
 30
0.0
 11
-0.7261318839386913
 21
0.872462512545246
 31
0.0
  0
LINE
  5
9C
330
89
100
AcDbEntity
  8
AM_9
100
AcDbLine
 10
-0.7141265877365275
 20
0.8686388777026011
 30
0.0
 11
-0.6058734122634726
 21
0.8686388777026012
 31
0.0
  0
LINE
  5
9D
330
89
100
AcDbEntity
  8
AM_9
100
AcDbLine
 10
-0.7682531754730548
 20
0.9349301384388399
 30
0.0
 11
-0.7682531754730548
 21
1.022790401399799
 31
0.0
  0
LINE
  5
9E
330
89
100
AcDbEntity
  8
AM_9
100
AcDbLine
 10
-0.7363881170478529
 20
0.9739567053216991
 30
0.0
 11
-0.7682531754730548
 21
0.9349301384388399
 31
0.0
  0
LINE
  5
9F
330
89
100
AcDbEntity
  8
AM_9
100
AcDbLine
 10
-0.5517468245269452
 20
0.9349301384388399
 30
0.0
 11
-0.5517468245269452
 21
1.022790401399799
 31
0.0
  0
LINE
  5
A0
330
89
100
AcDbEntity
  8
AM_9
100
AcDbLine
 10
-0.5517468245269452
 20
0.9349301384388399
 30
0.0
 11
-0.5835941541378987
 21
0.9739349920473725
 31
0.0
  0
LINE
  5
A1
330
89
100
AcDbEntity
  8
AM_9
100
AcDbLine
 10
-0.6058734122634726
 20
0.8686388777026012
 30
0.0
 11
-0.6058734122634726
 21
0.9564991406635601
 31
0.0
  0
LINE
  5
A2
330
89
100
AcDbEntity
  8
AM_9
100
AcDbLine
 10
-0.7141265877365275
 20
0.8686388777026011
 30
0.0
 11
-0.7141265877365275
 21
0.9564991406635601
 31
0.0
  0
LINE
  5
A3
330
89
100
AcDbEntity
  8
AM_9
100
AcDbLine
 10
-0.4692195025170771
 20
0.8122692274386114
 30
0.0
 11
-0.4607157164112767
 21
1.004781781710557
 31
0.0
  0
LINE
  5
A4
330
89
100
AcDbEntity
  8
AM_9
100
AcDbLine
 10
-0.8592842835887234
 20
1.004781781710557
 30
0.0
 11
-0.8507804974829231
 21
0.8122692274386114
 31
0.0
  0
LINE
  5
A5
330
89
100
AcDbEntity
  8
AM_9
100
AcDbLine
 10
-0.7067994296985379
 20
1.14623828798392
 30
0.0
 11
-0.7090495380771813
 21
1.145834461463948
 31
0.0
  0
LINE
  5
A6
330
89
100
AcDbEntity
  8
AM_9
100
AcDbLine
 10
-0.6109504619228188
 20
1.145834461463948
 30
0.0
 11
-0.613200570301462
 21
1.14623828798392
 31
0.0
  0
ELLIPSE
  5
A7
330
89
100
AcDbEntity
  8
AM_9
100
AcDbEllipse
 10
-0.66
 20
0.8907359646146807
 30
0.0
 11
-0.07100186035836231
 21
8.695220102137575E-18
 31
0.0
210
0.0
220
0.0
230
1.0
 40
0.7071067811865462
 41
0.0
 42
6.283185307179586
  0
ELLIPSE
  5
A8
330
89
100
AcDbEntity
  8
AM_9
100
AcDbEllipse
 10
-0.6599999999999753
 20
0.8164828657384313
 30
0.0
 11
-0.1908735385412696
 21
2.844237388818819E-9
 31
0.0
210
0.0
220
0.0
230
1.0
 40
0.7071067811865477
 41
0.0
 42
6.283185307179586
  0
ELLIPSE
  5
A9
330
89
100
AcDbEntity
  8
AM_9
100
AcDbEllipse
 10
-0.6600000000000006
 20
1.009183237315089
 30
0.0
 11
-0.1993814718281222
 21
2.441718812835980E-17
 31
0.0
210
0.0
220
0.0
230
1.0
 40
0.7071067811865466
 41
0.0
 42
6.283185307179586
  0
LINE
  5
AB
330
89
100
AcDbEntity
  8
AM_4
100
AcDbLine
 10
-0.6058734122634727
 20
1.001221399175079
 30
0.0
 11
-0.7141265877365275
 21
1.001221399175079
 31
0.0
  0
ELLIPSE
  5
AC
330
89
100
AcDbEntity
  8
AM_4
100
AcDbEllipse
 10
-0.6599999999999998
 20
0.9349301384388397
 30
0.0
 11
-0.09374999999999956
 21
1.148106374200638E-17
 31
0.0
210
0.0
220
0.0
230
1.0
 40
0.707106781186553
 41
3.762645666291892
 42
5.661395621566498
  0
LINE
  5
AD
330
89
100
AcDbEntity
  8
AM_4
100
AcDbLine
 10
-0.7141265877365275
 20
1.001221399175079
 30
0.0
 11
-0.7141265877365275
 21
1.089081662136038
 31
0.0
  0
LINE
  5
AE
330
89
100
AcDbEntity
  8
AM_4
100
AcDbLine
 10
-0.7141265877365275
 20
1.001221399175079
 30
0.0
 11
-0.7363881170478529
 21
0.9739567053216991
 31
0.0
  0
LINE
  5
AF
330
89
100
AcDbEntity
  8
AM_4
100
AcDbLine
 10
-0.6058734122634727
 20
1.001221399175079
 30
0.0
 11
-0.6058734122634727
 21
1.089081662136038
 31
0.0
  0
LINE
  5
B0
330
89
100
AcDbEntity
  8
AM_4
100
AcDbLine
 10
-0.5835941541378987
 20
0.9739349920473725
 30
0.0
 11
-0.6058734122634727
 21
1.001221399175079
 31
0.0
  0
LWPOLYLINE
  5
B1
330
89
100
AcDbEntity
  8
AM_4
100
AcDbPolyline
 90
        9
 70
     0
 43
0.0
 10
-0.6058734122634727
 20
1.089081662136038
 10
-0.6003217274574926
 20
1.078673747102679
 10
-0.5945922645734378
 20
1.068666299845698
 10
-0.5884713493082573
 20
1.058911086456843
 10
-0.582209287707778
 20
1.050017921450536
 10
-0.5735339650285338
 20
1.039637406153632
 10
-0.5647431895155259
 20
1.031372986428662
 10
-0.5581284108040094
 20
1.026515981899219
 10
-0.5517468245269452
 20
1.022790401399799
  0
LWPOLYLINE
  5
B2
330
89
100
AcDbEntity
  8
AM_4
100
AcDbPolyline
 90
        9
 70
     0
 43
0.0
 10
-0.5517468245269452
 20
1.022790401399799
 10
-0.5572985093329254
 20
1.01238248636644
 10
-0.5630279722169801
 20
1.002375039109459
 10
-0.5691488874821605
 20
0.9926198257206039
 10
-0.5754109490826398
 20
0.9837266607142972
 10
-0.5840862717618841
 20
0.9733461454173932
 10
-0.592877047274892
 20
0.9650817256924236
 10
-0.5994918259864085
 20
0.96022472116298
 10
-0.6058734122634726
 20
0.9564991406635601
  0
LWPOLYLINE
  5
B3
330
89
100
AcDbEntity
  8
AM_4
100
AcDbPolyline
 90
        8
 70
     0
 43
0.0
 10
-0.6058734122634726
 20
0.9564991406635601
 10
-0.6196751359325904
 20
0.9521161405834723
 10
-0.6382127987908304
 20
0.9480104462786146
 10
-0.6480779354347725
 20
0.9467802616888209
 10
-0.6580654297830284
 20
0.9462579595205123
 10
-0.6765151875648062
 20
0.9472645982065049
 10
-0.6950364499942058
 20
0.9507219839953938
 10
-0.7141265877365275
 20
0.9564991406635601
  0
LWPOLYLINE
  5
B4
330
89
100
AcDbEntity
  8
AM_4
100
AcDbPolyline
 90
        9
 70
     0
 43
0.0
 10
-0.7141265877365275
 20
0.9564991406635601
 10
-0.7196782725425075
 20
0.9596900206176149
 10
-0.7254077354265623
 20
0.9637168339267826
 10
-0.7315286506917428
 20
0.9689547396964323
 10
-0.737790712292222
 20
0.9754004303491757
 10
-0.7464660349714664
 20
0.9862700289704149
 10
-0.7552568104844741
 20
0.9995385236956674
 10
-0.7618715891959907
 20
1.010884351770864
 10
-0.7682531754730548
 20
1.022790401399799
  0
LWPOLYLINE
  5
B5
330
89
100
AcDbEntity
  8
AM_4
100
AcDbPolyline
 90
        9
 70
     0
 43
0.0
 10
-0.7682531754730548
 20
1.022790401399799
 10
-0.7627014906670747
 20
1.025981281353854
 10
-0.7569720277830201
 20
1.030008094663021
 10
-0.7508511125178395
 20
1.035246000432671
 10
-0.7445890509173604
 20
1.041691691085415
 10
-0.7359137282381161
 20
1.052561289706654
 10
-0.7271229527251081
 20
1.065829784431906
 10
-0.7205081740135916
 20
1.077175612507103
 10
-0.7141265877365275
 20
1.089081662136038
  0
LWPOLYLINE
  5
B6
330
89
100
AcDbEntity
  8
AM_4
100
AcDbPolyline
 90
        7
 70
     0
 43
0.0
 10
-0.7141265877365275
 20
1.089081662136038
 10
-0.6950364499942058
 20
1.083304505467871
 10
-0.6771201995500701
 20
1.079922657461224
 10
-0.6580654297830284
 20
1.07884048099299
 10
-0.6388330957881566
 20
1.080495023558036
 10
-0.6196751359325904
 20
1.08469866205595
 10
-0.6058734122634727
 20
1.089081662136038
  0
ELLIPSE
  5
B7
330
89
100
AcDbEntity
  8
AM_4
100
AcDbEllipse
 10
-0.66
 20
1.023318486087158
 30
0.0
 11
0.109
 21
0.0
 31
0.0
210
0.0
220
0.0
230
1.0
 40
0.7071067811865485
 41
0.0
 42
6.283185307179586
  0
LINE
  5
B8
330
89
100
AcDbEntity
  8
AM_4
100
AcDbLine
 10
-0.7042828986057772
 20
1.146689929337394
 30
0.0
 11
-0.7067994296985379
 21
1.14623828798392
 31
0.0
  0
LINE
  5
B9
330
89
100
AcDbEntity
  8
AM_4
100
AcDbLine
 10
-0.613200570301462
 20
1.14623828798392
 30
0.0
 11
-0.6157171013942229
 21
1.146689929337394
 31
0.0
  0
ELLIPSE
  5
BA
330
89
100
AcDbEntity
  8
AM_4
100
AcDbEllipse
 10
-0.6600000000000001
 20
1.023318486087158
 30
0.0
 11
-0.1800055586036764
 21
2.204432311727236E-17
 31
0.0
210
0.0
220
0.0
230
1.0
 40
0.707106781186548
 41
0.0
 42
6.283185307179586
  0
ENDBLK
  5
8C
330
89
100
AcDbEntity
  8
0
100
AcDbBlockEnd
  0
BLOCK
  5
BD
330
BB
100
AcDbEntity
  8
0
100
AcDbBlockBegin
  2
3_389925_0_in_057854_2
 70
     2
 10
0.0
 20
0.0
 30
0.0
  3
3_389925_0_in_057854_2
  1

  0
ATTDEF
  5
BF
330
BB
100
AcDbEntity
  8
AM_6
100
AcDbText
 10
4.89
 20
0.9244661082685622
 30
0.0
 40
0.5
  1
Set Screw Intermediate Duty Insert Inch Bore
100
AcDbAttributeDefinition
  3

  2
NN
 70
     8
280
     0
  0
ATTDEF
  5
C0
330
BB
100
AcDbEntity
  8
AM_6
100
AcDbText
 10
4.89
 20
0.4244661082685622
 30
0.0
 40
0.5
  1
VSC Intermediate Duty Bearing Inserts
100
AcDbAttributeDefinition
  3

  2
NT
 70
     8
280
     0
  0
ATTDEF
  5
C1
330
BB
100
AcDbEntity
  8
AM_6
100
AcDbText
 10
4.89
 20
-0.0755338917314378
 30
0.0
 40
0.5
  1
389925
100
AcDbAttributeDefinition
  3

  2
NB
 70
     8
280
     0
  0
ATTDEF
  5
C2
330
BB
100
AcDbEntity
  8
AM_6
100
AcDbText
 10
4.89
 20
-0.5755338917314378
 30
0.0
 40
0.5
  1
$PN.
100
AcDbAttributeDefinition
  3

  2
NBSYN
 70
     8
280
     0
  0
ATTDEF
  5
C3
330
BB
100
AcDbEntity
  8
AM_6
100
AcDbText
 10
4.89
 20
-1.075533891731438
 30
0.0
 40
0.5
  1
389925
100
AcDbAttributeDefinition
  3

  2
LINA
 70
     8
280
     0
  0
ATTDEF
  5
C4
330
BB
100
AcDbEntity
  8
AM_6
100
AcDbText
 10
4.89
 20
-1.575533891731438
 30
0.0
 40
0.5
  1
204
100
AcDbAttributeDefinition
  3

  2
SERIES
 70
     8
280
     0
  0
ATTDEF
  5
C5
330
BB
100
AcDbEntity
  8
AM_6
100
AcDbText
 10
4.89
 20
-2.075533891731438
 30
0.0
 40
0.5
  1
3/4
100
AcDbAttributeDefinition
  3

  2
SS
 70
     8
280
     0
  0
ATTDEF
  5
C6
330
BB
100
AcDbEntity
  8
AM_6
100
AcDbText
 10
4.89
 20
-2.575533891731438
 30
0.0
 40
0.5
  1
389925
100
AcDbAttributeDefinition
  3

  2
PN
 70
     8
280
     0
  0
ATTDEF
  5
C7
330
BB
100
AcDbEntity
  8
AM_6
100
AcDbText
 10
4.89
 20
-3.075533891731438
 30
0.0
 40
0.5
  1
INS-VSC-012
100
AcDbAttributeDefinition
  3

  2
DESCRIPTION
 70
     8
280
     0
  0
ATTDEF
  5
C8
330
BB
100
AcDbEntity
  8
AM_6
100
AcDbText
 10
4.89
 20
-3.575533891731438
 30
0.0
 40
0.5
  1
0.25
100
AcDbAttributeDefinition
  3

  2
WEIGHT
 70
     8
280
     0
  0
ATTDEF
  5
C9
330
BB
100
AcDbEntity
  8
AM_6
100
AcDbText
 10
4.89
 20
-4.075533891731437
 30
0.0
 40
0.5
  1
1.23
100
AcDbAttributeDefinition
  3

  2
A
 70
     8
280
     0
  0
ATTDEF
  5
CA
330
BB
100
AcDbEntity
  8
AM_6
100
AcDbText
 10
4.89
 20
-4.575533891731437
 30
0.0
 40
0.5
  1
0.58
100
AcDbAttributeDefinition
  3

  2
C
 70
     8
280
     0
  0
ATTDEF
  5
CB
330
BB
100
AcDbEntity
  8
AM_6
100
AcDbText
 10
4.89
 20
-5.075533891731437
 30
0.0
 40
0.5
  1
1.8504
100
AcDbAttributeDefinition
  3

  2
D
 70
     8
280
     0
  0
ATTDEF
  5
CC
330
BB
100
AcDbEntity
  8
AM_6
100
AcDbText
 10
4.89
 20
-5.575533891731437
 30
0.0
 40
0.5
  1
0.150
100
AcDbAttributeDefinition
  3

  2
J
 70
     8
280
     0
  0
ATTDEF
  5
CD
330
BB
100
AcDbEntity
  8
AM_6
100
AcDbText
 10
4.89
 20
-6.075533891731437
 30
0.0
 40
0.5
  1
1.12
100
AcDbAttributeDefinition
  3

  2
L
 70
     8
280
     0
  0
ATTDEF
  5
CE
330
BB
100
AcDbEntity
  8
AM_6
100
AcDbText
 10
4.89
 20
-6.575533891731437
 30
0.0
 40
0.5
  1
1/4-28
100
AcDbAttributeDefinition
  3

  2
N
 70
     8
280
     0
  0
ATTDEF
  5
CF
330
BB
100
AcDbEntity
  8
AM_6
100
AcDbText
 10
4.89
 20
-7.075533891731437
 30
0.0
 40
0.5
  1
0.50
100
AcDbAttributeDefinition
  3

  2
W
 70
     8
280
     0
  0
ATTDEF
  5
D0
330
BB
100
AcDbEntity
  8
AM_6
100
AcDbText
 10
4.89
 20
-7.575533891731437
 30
0.0
 40
0.5
  1
0.73
100
AcDbAttributeDefinition
  3

  2
Y
 70
     8
280
     0
  0
ATTDEF
  5
D1
330
BB
100
AcDbEntity
  8
AM_6
100
AcDbText
 10
4.89
 20
-8.075533891731437
 30
0.0
 40
0.5
  1
baldor
100
AcDbAttributeDefinition
  3

  2
COMPANY
 70
     8
280
     0
  0
CIRCLE
  5
D2
330
BB
100
AcDbEntity
  8
AM_9
100
AcDbCircle
 10
-0.4600000000000001
 20
0.0
 30
0.0
 40
0.0306060606060618
  0
ARC
  5
D3
330
BB
100
AcDbEntity
  8
AM_9
100
AcDbCircle
 10
-0.4600000000000071
 20
-0.0000000000000005
 30
0.0
 40
0.0833333333333451
100
AcDbArc
 50
0.0
 51
8.474949673575223
  0
LWPOLYLINE
  5
D4
330
BB
100
AcDbEntity
  8
AM_9
100
AcDbPolyline
 90
       19
 70
     0
 43
0.0
 10
-0.4663235634213145
 20
-0.0830926089405085
 10
-0.4780687592138413
 20
-0.0812982016940661
 10
-0.4906670860217063
 20
-0.0773019213576709
 10
-0.5028415376275218
 20
-0.071034144949462
 10
-0.5138214358257679
 20
-0.0628058782084412
 10
-0.5233258968542698
 20
-0.0527773590001565
 10
-0.5310623578565673
 20
-0.0412925165196976
 10
-0.5368306714218052
 20
-0.0285616521037882
 10
-0.5404400300139646
 20
-0.0150380217833949
 10
-0.5417649380806897
 20
-0.0009957525343557
 10
-0.5407688952113922
 20
0.0130744310986188
 10
-0.5374328242531673
 20
0.0268144197364345
 10
-0.5318783263653867
 20
0.0397955914166033
 10
-0.5242478676730359
 20
0.0516044514685302
 10
-0.5147704784764027
 20
0.0619471690276996
 10
-0.5037659505675397
 20
0.0704460666061871
 10
-0.491509266034428
 20
0.0769501532327196
 10
-0.4785124361388546
 20
0.0811941088510398
 10
-0.4649992294153905
 20
0.0831832444047343
  0
LINE
  5
D5
330
BB
100
AcDbEntity
  8
AM_9
100
AcDbLine
 10
-1.107987080992886
 20
0.360259090909091
 30
0.0
 11
-1.072012919007114
 21
0.360259090909091
 31
0.0
  0
LINE
  5
D6
330
BB
100
AcDbEntity
  8
AM_9
100
AcDbLine
 10
-0.98435
 20
0.3750000000000001
 30
0.0
 11
-0.9843500000000002
 21
0.5406500000000002
 31
0.0
  0
LINE
  5
D7
330
BB
100
AcDbEntity
  8
AM_9
100
AcDbLine
 10
-1.19565
 20
0.5406500000000002
 30
0.0
 11
-1.19565
 21
0.3750000000000001
 31
0.0
  0
LINE
  5
D8
330
BB
100
AcDbEntity
  8
AM_9
100
AcDbLine
 10
-1.19565
 20
0.5406500000000002
 30
0.0
 11
-0.9843500000000002
 21
0.5406500000000002
 31
0.0
  0
LINE
  5
D9
330
BB
100
AcDbEntity
  8
AM_9
100
AcDbLine
 10
-0.9843500000000002
 20
0.5406500000000002
 30
0.0
 11
-0.9649999999999999
 21
0.5600000000000004
 31
0.0
  0
LINE
  5
DA
330
BB
100
AcDbEntity
  8
AM_9
100
AcDbLine
 10
-1.215000000000001
 20
0.5600000000000004
 30
0.0
 11
-1.19565
 21
0.5406500000000002
 31
0.0
  0
LWPOLYLINE
  5
DB
330
BB
100
AcDbEntity
  8
AM_9
100
AcDbPolyline
 90
        5
 70
     0
 43
0.0
 10
-1.107987080992886
 20
0.360259090909091
 10
-1.101810974133658
 20
0.3598971675602002
 10
-1.08898254002109
 20
0.3596241841390798
 10
-1.075760151576219
 20
0.360021718216169
 10
-1.072012919007114
 20
0.360259090909091
  0
LWPOLYLINE
  5
DC
330
BB
100
AcDbEntity
  8
AM_9
100
AcDbPolyline
 90
       10
 70
     0
 43
0.0
 10
-1.072012919007114
 20
0.360259090909091
 10
-1.055162411011872
 20
0.361492372127692
 10
-1.038853179642568
 20
0.3634268492182099
 10
-1.024457478752889
 20
0.3657306380267151
 10
-1.011510987381235
 20
0.3682710993301928
 10
-1.000823167663653
 20
0.3706960816161198
 10
-0.9924099571773821
 20
0.3728094606606979
 10
-0.9870389316336995
 20
0.3742513314593952
 10
-0.9845006588515083
 20
0.3749575822446665
 10
-0.984350000002108
 20
0.3749999999994061
  0
LWPOLYLINE
  5
DD
330
BB
100
AcDbEntity
  8
AM_9
100
AcDbPolyline
 90
        5
 70
     0
 43
0.0
 10
-1.072012919007114
 20
0.2466055777545997
 10
-1.080668480828237
 20
0.2478559271098891
 10
-1.093311899722564
 20
0.2482543184075716
 10
-1.106256347279746
 20
0.2469207883337197
 10
-1.107987080992886
 20
0.2466055777545997
  0
LWPOLYLINE
  5
DE
330
BB
100
AcDbEntity
  8
AM_9
100
AcDbPolyline
 90
        5
 70
     0
 43
0.0
 10
-1.107987080992886
 20
0.0578985637979697
 10
-1.099435706309189
 20
0.0562685246042858
 10
-1.090622057394166
 20
0.0556568584373149
 10
-1.081322784807761
 20
0.056173567877263
 10
-1.072012919007115
 20
0.0578985637979697
  0
LINE
  5
DF
330
BB
100
AcDbEntity
  8
AM_9
100
AcDbLine
 10
-1.3176
 20
-0.3749999999999999
 30
0.0
 11
-0.1156000000000002
 21
-0.3749999999999999
 31
0.0
  0
LINE
  5
E0
330
BB
100
AcDbEntity
  8
AM_9
100
AcDbLine
 10
-0.1156000000000002
 20
0.3750000000000001
 30
0.0
 11
-0.9843500000000002
 21
0.3750000000000001
 31
0.0
  0
LINE
  5
E1
330
BB
100
AcDbEntity
  8
AM_9
100
AcDbLine
 10
-1.19565
 20
0.3750000000000001
 30
0.0
 11
-1.3176
 21
0.3750000000000001
 31
0.0
  0
LWPOLYLINE
  5
E2
330
BB
100
AcDbEntity
  8
AM_9
100
AcDbPolyline
 90
       10
 70
     0
 43
0.0
 10
-1.195649999997892
 20
0.3749999999994061
 10
-1.195028205962661
 20
0.3748252947010583
 10
-1.191677966920148
 20
0.3739003696936051
 10
-1.185805864451792
 20
0.3723463994231113
 10
-1.177254614084556
 20
0.3702383626517446
 10
-1.166372444470401
 20
0.3678258117293897
 10
-1.153068432280944
 20
0.3652953663138585
 10
-1.13800777972121
 20
0.3629983807315953
 10
-1.121029395697793
 20
0.3611452628754393
 10
-1.107987080992886
 20
0.360259090909091
  0
LINE
  5
E3
330
BB
100
AcDbEntity
  8
AM_9
100
AcDbLine
 10
-0.1156000000000002
 20
-0.3749999999999999
 30
0.0
 11
-0.1100000000000001
 21
-0.3805999999999999
 31
0.0
  0
LINE
  5
E4
330
BB
100
AcDbEntity
  8
AM_9
100
AcDbLine
 10
-0.1100000000000001
 20
0.3806
 30
0.0
 11
-0.1156000000000002
 21
0.3750000000000001
 31
0.0
  0
LINE
  5
E5
330
BB
100
AcDbEntity
  8
AM_9
100
AcDbLine
 10
-1.3176
 20
0.3750000000000001
 30
0.0
 11
-1.34
 21
0.3974
 31
0.0
  0
LINE
  5
E6
330
BB
100
AcDbEntity
  8
AM_9
100
AcDbLine
 10
-1.34
 20
-0.3973999999999999
 30
0.0
 11
-1.3176
 21
-0.3749999999999999
 31
0.0
  0
LWPOLYLINE
  5
E7
330
BB
100
AcDbEntity
  8
AM_9
100
AcDbPolyline
 90
       10
 70
     0
 43
0.0
 10
-1.072012919007115
 20
0.0578985637979697
 10
-1.055162411011872
 20
0.0623772428928135
 10
-1.038853179642568
 20
0.0698079487163702
 10
-1.024457478752889
 20
0.0794660288215552
 10
-1.011510987381235
 20
0.0915434989531959
 10
-1.000823167663653
 20
0.1053190570952675
 10
-0.9924099571773822
 20
0.1208746174092246
 10
-0.9870389316336996
 20
0.136700280469511
 10
-0.9845006588515083
 20
0.1533521916752424
 10
-0.9843500003389616
 20
0.1584741779360619
  0
ELLIPSE
  5
E8
330
BB
100
AcDbEntity
  8
AM_9
100
AcDbEllipse
 10
-1.09
 20
0.152252070776284
 30
0.0
 11
0.1056499999999997
 21
0.0
 31
0.0
210
0.0
220
0.0
230
1.0
 40
0.9063077870366455
 41
4.541303994515996
 42
4.883473966253381
  0
LWPOLYLINE
  5
E9
330
BB
100
AcDbEntity
  8
AM_9
100
AcDbPolyline
 90
        4
 70
     0
 43
0.0
 10
-1.18790499807703
 20
0.1935764667108746
 10
-1.192961068366301
 20
0.1796306138415127
 10
-1.195499341148492
 20
0.1635756515942301
 10
-1.195649999661039
 20
0.1584895182887455
  0
LINE
  5
EA
330
BB
100
AcDbEntity
  8
AM_9
100
AcDbLine
 10
-0.9843500000000002
 20
0.1584454936259855
 30
0.0
 11
-0.9843500000000002
 21
0.2284885632101093
 31
0.0
  0
LINE
  5
EB
330
BB
100
AcDbEntity
  8
AM_9
100
AcDbLine
 10
-1.19565
 20
0.2284885632101093
 30
0.0
 11
-1.19565
 21
0.1584454936259855
 31
0.0
  0
LWPOLYLINE
  5
EC
330
BB
100
AcDbEntity
  8
AM_9
100
AcDbPolyline
 90
        4
 70
     0
 43
0.0
 10
-0.9843500003389616
 20
0.1584741779360619
 10
-0.9849717940373389
 20
0.1687811199750617
 10
-0.9883220330798526
 20
0.1840253715040475
 10
-0.9920380102414225
 20
0.1934551667326182
  0
LWPOLYLINE
  5
ED
330
BB
100
AcDbEntity
  8
AM_9
100
AcDbPolyline
 90
       10
 70
     0
 43
0.0
 10
-1.195649999661039
 20
0.1584895182887455
 10
-1.195028205962661
 20
0.1480349090309514
 10
-1.191677966920148
 20
0.1320088771041849
 10
-1.185805864451792
 20
0.1170000810734234
 10
-1.177254614084556
 20
0.1024809671940841
 10
-1.166372444470401
 20
0.0892883676258066
 10
-1.153068432280944
 20
0.0775616428830485
 10
-1.13800777972121
 20
0.0681147908138074
 10
-1.121029395697792
 20
0.0610980258423708
 10
-1.107987080992886
 20
0.0578985637979697
  0
LINE
  5
EE
330
BB
100
AcDbEntity
  8
AM_9
100
AcDbLine
 10
-0.1100000000000001
 20
0.5544
 30
0.0
 11
-0.1156000000000001
 21
0.56
 31
0.0
  0
LINE
  5
EF
330
BB
100
AcDbEntity
  8
AM_9
100
AcDbLine
 10
-0.1156000000000001
 20
-0.5599999999999999
 30
0.0
 11
-0.1100000000000001
 21
-0.5543999999999999
 31
0.0
  0
LINE
  5
F0
330
BB
100
AcDbEntity
  8
AM_9
100
AcDbLine
 10
-0.1100000000000001
 20
0.5544
 30
0.0
 11
-0.1100000000000001
 21
-0.5543999999999999
 31
0.0
  0
LINE
  5
F1
330
BB
100
AcDbEntity
  8
AM_9
100
AcDbLine
 10
-0.3200000000000001
 20
-0.5599999999999999
 30
0.0
 11
-0.1156000000000001
 21
-0.5599999999999999
 31
0.0
  0
LINE
  5
F2
330
BB
100
AcDbEntity
  8
AM_9
100
AcDbLine
 10
-0.1156000000000001
 20
0.56
 30
0.0
 11
-0.3200000000000001
 21
0.56
 31
0.0
  0
LINE
  5
F3
330
BB
100
AcDbEntity
  8
AM_9
100
AcDbLine
 10
-0.1156000000000001
 20
0.56
 30
0.0
 11
-0.1156000000000001
 21
-0.5599999999999999
 31
0.0
  0
LWPOLYLINE
  5
F4
330
BB
100
AcDbEntity
  8
AM_9
100
AcDbPolyline
 90
        9
 70
     0
 43
0.0
 10
-0.9799860892082111
 20
0.2842426111138154
 10
-0.9798571712012232
 20
0.2840546518594191
 10
-0.9713532227031331
 20
0.2683888929654318
 10
-0.9663063440110563
 20
0.2513371391634089
 10
-0.9650252804089243
 20
0.2353369996450111
 10
-0.966812902816068
 20
0.2191436804168963
 10
-0.9713426351905089
 20
0.2039899048086445
 10
-0.9783948464069868
 20
0.1895224553461481
 10
-0.9798827219922286
 20
0.1870734973458627
  0
LINE
  5
F5
330
BB
100
AcDbEntity
  8
AM_9
100
AcDbLine
 10
-0.9800000000000002
 20
-0.5600000000000003
 30
0.0
 11
-0.9000000000000002
 21
-0.5600000000000003
 31
0.0
  0
LINE
  5
F6
330
BB
100
AcDbEntity
  8
AM_9
100
AcDbLine
 10
-0.9000000000000002
 20
0.5600000000000004
 30
0.0
 11
-0.9649999999999999
 21
0.5600000000000004
 31
0.0
  0
LINE
  5
F7
330
BB
100
AcDbEntity
  8
AM_9
100
AcDbLine
 10
-0.9650000000009294
 20
0.5599999999998307
 30
0.0
 11
-0.9797295476034013
 21
0.557461080619349
 31
0.0
  0
LINE
  5
F8
330
BB
100
AcDbEntity
  8
AM_9
100
AcDbLine
 10
-0.79
 20
-0.8751999999999999
 30
0.0
 11
-0.7300000000000001
 21
-0.8751999999999999
 31
0.0
  0
LINE
  5
F9
330
BB
100
AcDbEntity
  8
AM_9
100
AcDbLine
 10
-0.7300000000000001
 20
0.8752000000000001
 30
0.0
 11
-0.79
 21
0.8752000000000001
 31
0.0
  0
LINE
  5
FA
330
BB
100
AcDbEntity
  8
AM_9
100
AcDbLine
 10
-0.9000000000000002
 20
0.8566113709062416
 30
0.0
 11
-0.9000000000000002
 21
-0.8566113709062414
 31
0.0
  0
ARC
  5
FB
330
BB
100
AcDbEntity
  8
AM_9
100
AcDbCircle
 10
-0.87
 20
-0.8566113704592063
 30
0.0
 40
0.0300000000000002
100
AcDbArc
 50
180.0
 51
253.1158262695212
  0
ARC
  5
FC
330
BB
100
AcDbEntity
  8
AM_9
100
AcDbCircle
 10
-0.8700000000000001
 20
0.8566113704592067
 30
0.0
 40
0.0300000000000002
100
AcDbArc
 50
106.8841737304786
 51
180.0
  0
LINE
  5
FD
330
BB
100
AcDbEntity
  8
AM_9
100
AcDbLine
 10
-0.3200000000000001
 20
0.8566113704592068
 30
0.0
 11
-0.3200000000000001
 21
-0.8566113704592065
 31
0.0
  0
ARC
  5
FE
330
BB
100
AcDbEntity
  8
AM_9
100
AcDbCircle
 10
-0.3499999999999998
 20
-0.8566113704592068
 30
0.0
 40
0.0299999999999997
100
AcDbArc
 50
286.8841697037852
 51
0.0000008537736463
  0
ARC
  5
FF
330
BB
100
AcDbEntity
  8
AM_9
100
AcDbCircle
 10
-0.3499999999999999
 20
0.856611370459207
 30
0.0
 40
0.0299999999999998
100
AcDbArc
 50
0.0
 51
73.11583029621443
  0
ARC
  5
100
330
BB
100
AcDbEntity
  8
AM_9
100
AcDbCircle
 10
-0.6099999999999867
 20
-0.0000000000000597
 30
0.0
 40
0.9252000000000613
100
AcDbArc
 50
101.2185847845105
 51
106.8841737304779
  0
ARC
  5
101
330
BB
100
AcDbEntity
  8
AM_9
100
AcDbCircle
 10
-0.6100000000071344
 20
-0.000000000028536
 30
0.0
 40
0.9251999999706577
100
AcDbArc
 50
253.1158262694321
 51
258.7814152155795
  0
LINE
  5
102
330
BB
100
AcDbEntity
  8
AM_9
100
AcDbLine
 10
-0.8787131367292229
 20
0.8853181858231212
 30
0.0
 11
-0.8787131367292229
 21
-0.8853181858231582
 31
0.0
  0
LINE
  5
103
330
BB
100
AcDbEntity
  8
AM_9
100
AcDbLine
 10
-0.79
 20
0.9075213716491751
 30
0.0
 11
-0.79
 21
-0.9075213716492122
 31
0.0
  0
LINE
  5
104
330
BB
100
AcDbEntity
  8
AM_9
100
AcDbLine
 10
-0.4649992294154021
 20
-0.0831832444047322
 30
0.0
 11
-0.4663235634213145
 21
-0.0830926089405085
 31
0.0
  0
LWPOLYLINE
  5
105
330
BB
100
AcDbEntity
  8
AM_9
100
AcDbPolyline
 90
       21
 70
     0
 43
0.0
 10
-0.4649992294154022
 20
-0.0831832444047322
 10
-0.4508281322434108
 20
-0.0828187243206514
 10
-0.4369150332375397
 20
-0.0800720222925669
 10
-0.4236357027654885
 20
-0.0749710230825627
 10
-0.4113891332905469
 20
-0.0676862473638552
 10
-0.4006028512347084
 20
-0.0584375849060443
 10
-0.3915129734868905
 20
-0.0474760112460793
 10
-0.3844994076786584
 20
-0.0352509711127221
 10
-0.3796234553515389
 20
-0.0220012616642578
 10
-0.3770877189442307
 20
-0.0082799765374951
 10
-0.3768603310870978
 20
0.0056780188004452
 10
-0.3789579558981098
 20
0.0193712076913924
 10
-0.3832738765895511
 20
0.0325199389736479
 10
-0.3897195730543671
 20
0.0447634184232204
 10
-0.3980711073713595
 20
0.0557607093053481
 10
-0.4082138211116201
 20
0.0652787384362058
 10
-0.4197640405162893
 20
0.0729761057392789
 10
-0.4325877411386678
 20
0.0786872136215961
 10
-0.4461662115330797
 20
0.0821770694360522
 10
-0.4555547859537863
 20
0.0832130583780653
 10
-0.4649992294153972
 20
0.0831832444047326
  0
ARC
  5
106
330
BB
100
AcDbEntity
  8
AM_9
100
AcDbCircle
 10
-0.6099999999999983
 20
0.0000000000000213
 30
0.0
 40
0.9251999999999792
100
AcDbArc
 50
73.11582640008879
 51
97.45235424469982
  0
ARC
  5
107
330
BB
100
AcDbEntity
  8
AM_9
100
AcDbCircle
 10
-0.6099999999999823
 20
-0.0000000000002127
 30
0.0
 40
0.9251999999997862
100
AcDbArc
 50
262.5476457552976
 51
286.8841735999138
  0
LINE
  5
108
330
BB
100
AcDbEntity
  8
AM_9
100
AcDbLine
 10
-0.7300000000000001
 20
0.9173848919619291
 30
0.0
 11
-0.7300000000000001
 21
-0.9173848919619237
 31
0.0
  0
LINE
  5
109
330
BB
100
AcDbEntity
  8
AM_9
100
AcDbLine
 10
-0.341286865288265
 20
0.885318186435472
 30
0.0
 11
-0.341286865288265
 21
-0.8853181864354666
 31
0.0
  0
LINE
  5
10B
330
BB
100
AcDbEntity
  8
AM_5
100
AcDbLine
 10
-0.9650000000000001
 20
0.5600000000000004
 30
0.0
 11
-0.9650000000000001
 21
0.3750000000000001
 31
0.0
  0
LINE
  5
10C
330
BB
100
AcDbEntity
  8
AM_5
100
AcDbLine
 10
-1.215
 20
0.5600000000000004
 30
0.0
 11
-1.215
 21
0.3750000000000001
 31
0.0
  0
LINE
  5
10F
330
BB
100
AcDbEntity
  8
AM_7
100
AcDbLine
 10
-0.4600000000000001
 20
-0.0321363636363649
 30
0.0
 11
-0.4600000000000001
 21
0.0321363636363649
 31
0.0
  0
LINE
  5
110
330
BB
100
AcDbEntity
  8
AM_7
100
AcDbLine
 10
-1.09
 20
0.5709545454545455
 30
0.0
 11
-1.09
 21
0.3299545454545455
 31
0.0
  0
ELLIPSE
  5
111
330
BB
100
AcDbEntity
  8
AM_4
100
AcDbEllipse
 10
-1.09
 20
0.1522520707762811
 30
0.0
 11
0.1056500000000026
 21
0.0
 31
0.0
210
0.0
220
0.0
230
1.0
 40
0.9063077870366624
 41
1.399711340926206
 42
1.741881312663585
  0
LWPOLYLINE
  5
112
330
BB
100
AcDbEntity
  8
AM_4
100
AcDbPolyline
 90
        8
 70
     0
 43
0.0
 10
-1.107987080992886
 20
0.2466055777545997
 10
-1.124837588988128
 20
0.2431693129894411
 10
-1.141146820357432
 20
0.2373736978566281
 10
-1.155542521247112
 20
0.2296628641947794
 10
-1.168489012618765
 20
0.2197326847433291
 10
-1.179176832336347
 20
0.2080068101981184
 10
-1.187590042822618
 20
0.1942375550405989
 10
-1.18790499807703
 20
0.1935764667108746
  0
ELLIPSE
  5
113
330
BB
100
AcDbEntity
  8
AM_4
100
AcDbEllipse
 10
-1.09
 20
0.2284885632101093
 30
0.0
 11
0.10565
 21
0.0
 31
0.0
210
0.0
220
0.0
230
1.0
 40
0.9063077870366496
 41
3.141592653589793
 42
7.853981633974483
  0
LWPOLYLINE
  5
114
330
BB
100
AcDbEntity
  8
AM_4
100
AcDbPolyline
 90
        8
 70
     0
 43
0.0
 10
-0.9920380102414225
 20
0.1934551667326182
 10
-0.9941941355482083
 20
0.1977206951057834
 10
-1.002745385915444
 20
0.2104580193131219
 10
-1.013627555529599
 20
0.2216114427270663
 10
-1.026931567719056
 20
0.2311993425839413
 10
-1.04199222027879
 20
0.2387046985451434
 10
-1.058970604302208
 20
0.2441551406222415
 10
-1.072012919007114
 20
0.2466055777545997
  0
ELLIPSE
  5
115
330
BB
100
AcDbEntity
  8
AM_4
100
AcDbEllipse
 10
-1.09
 20
0.2284885632101094
 30
0.0
 11
0.10565
 21
0.0
 31
0.0
210
0.0
220
0.0
230
1.0
 40
0.906307787036649
 41
1.570796326794897
 42
3.141592653589793
  0
LINE
  5
116
330
BB
100
AcDbEntity
  8
AM_4
100
AcDbLine
 10
-1.34
 20
-0.5376000000000001
 30
0.0
 11
-1.3176
 21
-0.5599999999999999
 31
0.0
  0
LINE
  5
117
330
BB
100
AcDbEntity
  8
AM_4
100
AcDbLine
 10
-1.3176
 20
0.56
 30
0.0
 11
-1.34
 21
0.5376000000000002
 31
0.0
  0
LINE
  5
118
330
BB
100
AcDbEntity
  8
AM_4
100
AcDbLine
 10
-1.34
 20
0.5376000000000002
 30
0.0
 11
-1.34
 21
-0.5376000000000001
 31
0.0
  0
LWPOLYLINE
  5
119
330
BB
100
AcDbEntity
  8
AM_4
100
AcDbPolyline
 90
        3
 70
     0
 43
0.0
 10
-0.9798827219922286
 20
0.1870734973458627
 10
-0.985460414330986
 20
0.1790010029214633
 10
-0.9937521487539211
 20
0.1692451706413774
  0
LWPOLYLINE
  5
11A
330
BB
100
AcDbEntity
  8
AM_4
100
AcDbPolyline
 90
       33
 70
     0
 43
0.0
 10
-0.9937521487539211
 20
0.1692451706413774
 10
-1.006684907637377
 20
0.1574682302710621
 10
-1.021249547264829
 20
0.1475198918160308
 10
-1.039782878384117
 20
0.1385119849721902
 10
-1.059551030796607
 20
0.1324011200751393
 10
-1.08136700333371
 20
0.1292719366656116
 10
-1.103416344381215
 20
0.1296445215491625
 10
-1.125578550098121
 20
0.1336842497551879
 10
-1.146723017493241
 20
0.1412682202514668
 10
-1.166050612605301
 20
0.1521521601432799
 10
-1.183090948691629
 20
0.1660437617935549
 10
-1.19236260570003
 20
0.1762376726470415
 10
-1.200300088311664
 20
0.1873911034112774
 10
-1.206667070425271
 20
0.1992550326876895
 10
-1.212497892719832
 20
0.2161540826938228
 10
-1.214940774376359
 20
0.2335088403185307
 10
-1.214047949696119
 20
0.24912531116435
 10
-1.210290938099593
 20
0.264166597931643
 10
-1.203912699207656
 20
0.2780271625404269
 10
-1.195166163468635
 20
0.2906705520383426
 10
-1.183536898422913
 20
0.3025681270281269
 10
-1.169925277471302
 20
0.3126985452167175
 10
-1.153079411798909
 20
0.3216719729502832
 10
-1.134753116709038
 20
0.328320270736578
 10
-1.113803223850439
 20
0.332817529450698
 10
-1.092228489051422
 20
0.3345221687381801
 10
-1.069820477890607
 20
0.3333017049873029
 10
-1.04798004535642
 20
0.3290812650301638
 10
-1.027300119424928
 20
0.3218352594870261
 10
-1.008472081431357
 20
0.3116625493272869
 10
-0.9976465281891369
 20
0.3035759724230065
 10
-0.9880203244549616
 20
0.2943263982685038
 10
-0.9799860892082111
 20
0.2842426111138154
  0
LINE
  5
11B
330
BB
100
AcDbEntity
  8
AM_4
100
AcDbLine
 10
-1.3176
 20
-0.5600000000000003
 30
0.0
 11
-0.9800000000000002
 21
-0.5600000000000003
 31
0.0
  0
LINE
  5
11C
330
BB
100
AcDbEntity
  8
AM_4
100
AcDbLine
 10
-1.215000000000001
 20
0.5600000000000004
 30
0.0
 11
-1.3176
 21
0.5600000000000004
 31
0.0
  0
LINE
  5
11D
330
BB
100
AcDbEntity
  8
AM_4
100
AcDbLine
 10
-1.3176
 20
0.5600000000000004
 30
0.0
 11
-1.3176
 21
-0.5600000000000003
 31
0.0
  0
LWPOLYLINE
  5
11E
330
BB
100
AcDbEntity
  8
AM_4
100
AcDbPolyline
 90
       19
 70
     0
 43
0.0
 10
-0.9797295476034013
 20
0.557461080619349
 10
-0.9856899706422769
 20
0.5565192341332638
 10
-0.9971742691540827
 20
0.5548456063943024
 10
-1.011475114645461
 20
0.5530247067057387
 10
-1.027894040565783
 20
0.551299827888845
 10
-1.046941792789275
 20
0.5497961850580008
 10
-1.067576008665126
 20
0.5487780821208875
 10
-1.089396290166557
 20
0.5483986736642831
 10
-1.11184194489177
 20
0.5487586380433389
 10
-1.133398175555723
 20
0.5498182974510776
 10
-1.154316034671487
 20
0.5515090210726833
 10
-1.172477783230513
 20
0.5534985749423798
 10
-1.180945564905792
 20
0.5545895784304825
 10
-1.188677648995499
 20
0.5556750866128959
 10
-1.200538668679537
 20
0.557504630316592
 10
-1.205431602971637
 20
0.5583165594301677
 10
-1.209379140002817
 20
0.5589958850907376
 10
-1.213788519650089
 20
0.559779927542619
 10
-1.214999999998728
 20
0.5599999999997681
  0
ENDBLK
  5
BE
330
BB
100
AcDbEntity
  8
0
100
AcDbBlockEnd
  0
BLOCK
  5
121
330
11F
100
AcDbEntity
  8
0
100
AcDbBlockBegin
  2
4_057854vsc_0_in_057854_2
 70
     2
 10
0.0
 20
0.0
 30
0.0
  3
4_057854vsc_0_in_057854_2
  1

  0
ATTDEF
  5
123
330
11F
100
AcDbEntity
  8
AM_6
100
AcDbText
 10
5.048999999999999
 20
2.205
 30
0.0
 40
0.5
  1
F2B-VSC -Inch - housing
100
AcDbAttributeDefinition
  3

  2
NN
 70
     8
280
     0
  0
ATTDEF
  5
124
330
11F
100
AcDbEntity
  8
AM_6
100
AcDbText
 10
5.048999999999999
 20
1.705
 30
0.0
 40
0.5
  1
VSC Intermediate Duty 2-Bolt Flange Bearings
100
AcDbAttributeDefinition
  3

  2
NT
 70
     8
280
     0
  0
ATTDEF
  5
125
330
11F
100
AcDbEntity
  8
AM_6
100
AcDbText
 10
5.048999999999999
 20
1.205
 30
0.0
 40
0.5
  1
057854vsc
100
AcDbAttributeDefinition
  3

  2
NB
 70
     8
280
     0
  0
ATTDEF
  5
126
330
11F
100
AcDbEntity
  8
AM_6
100
AcDbText
 10
5.048999999999999
 20
0.7050000000000001
 30
0.0
 40
0.5
  1
$PN.
100
AcDbAttributeDefinition
  3

  2
NBSYN
 70
     8
280
     0
  0
ATTDEF
  5
127
330
11F
100
AcDbEntity
  8
AM_6
100
AcDbText
 10
5.048999999999999
 20
0.2050000000000001
 30
0.0
 40
0.5
  1
057854vsc
100
AcDbAttributeDefinition
  3

  2
LINA
 70
     8
280
     0
  0
ATTDEF
  5
128
330
11F
100
AcDbEntity
  8
AM_6
100
AcDbText
 10
5.048999999999999
 20
-0.2949999999999999
 30
0.0
 40
0.5
  1
204
100
AcDbAttributeDefinition
  3

  2
RS
 70
     8
280
     0
  0
ATTDEF
  5
129
330
11F
100
AcDbEntity
  8
AM_6
100
AcDbText
 10
5.048999999999999
 20
-0.7949999999999999
 30
0.0
 40
0.5
  1
3/4
100
AcDbAttributeDefinition
  3

  2
SS
 70
     8
280
     0
  0
ATTDEF
  5
12A
330
11F
100
AcDbEntity
  8
AM_6
100
AcDbText
 10
5.048999999999999
 20
-1.295
 30
0.0
 40
0.5
  1
057854vsc
100
AcDbAttributeDefinition
  3

  2
PN
 70
     8
280
     0
  0
ATTDEF
  5
12B
330
11F
100
AcDbEntity
  8
AM_6
100
AcDbText
 10
5.048999999999999
 20
-1.795
 30
0.0
 40
0.5
  1
F2B-VSC-012-NL
100
AcDbAttributeDefinition
  3

  2
DESCRIPTION
 70
     8
280
     0
  0
ATTDEF
  5
12C
330
11F
100
AcDbEntity
  8
AM_6
100
AcDbText
 10
5.048999999999999
 20
-2.295
 30
0.0
 40
0.5
  1
NO-LUBE
100
AcDbAttributeDefinition
  3

  2
LF
 70
     8
280
     0
  0
ATTDEF
  5
12D
330
11F
100
AcDbEntity
  8
AM_6
100
AcDbText
 10
5.048999999999999
 20
-2.795
 30
0.0
 40
0.5
  1
1.4
100
AcDbAttributeDefinition
  3

  2
WEIGHT
 70
     8
280
     0
  0
ATTDEF
  5
12E
330
11F
100
AcDbEntity
  8
AM_6
100
AcDbText
 10
5.048999999999999
 20
-3.295
 30
0.0
 40
0.5
  1
1.23
100
AcDbAttributeDefinition
  3

  2
A
 70
     8
280
     0
  0
ATTDEF
  5
12F
330
11F
100
AcDbEntity
  8
AM_6
100
AcDbText
 10
5.048999999999999
 20
-3.795
 30
0.0
 40
0.5
  1
4.41
100
AcDbAttributeDefinition
  3

  2
B
 70
     8
280
     0
  0
ATTDEF
  5
130
330
11F
100
AcDbEntity
  8
AM_6
100
AcDbText
 10
5.048999999999999
 20
-4.295
 30
0.0
 40
0.5
  1
1.34
100
AcDbAttributeDefinition
  3

  2
C
 70
     8
280
     0
  0
ATTDEF
  5
131
330
11F
100
AcDbEntity
  8
AM_6
100
AcDbText
 10
5.048999999999999
 20
-4.795
 30
0.0
 40
0.5
  1
3.53
100
AcDbAttributeDefinition
  3

  2
D
 70
     8
280
     0
  0
ATTDEF
  5
132
330
11F
100
AcDbEntity
  8
AM_6
100
AcDbText
 10
5.048999999999999
 20
-5.295
 30
0.0
 40
0.5
  1
3/8
100
AcDbAttributeDefinition
  3

  2
F
 70
     8
280
     0
  0
ATTDEF
  5
133
330
11F
100
AcDbEntity
  8
AM_6
100
AcDbText
 10
5.048999999999999
 20
-5.795
 30
0.0
 40
0.5
  1
0.50
100
AcDbAttributeDefinition
  3

  2
H
 70
     8
280
     0
  0
ATTDEF
  5
134
330
11F
100
AcDbEntity
  8
AM_6
100
AcDbText
 10
5.048999999999999
 20
-6.295
 30
0.0
 40
0.5
  1
0.36
100
AcDbAttributeDefinition
  3

  2
J
 70
     8
280
     0
  0
ATTDEF
  5
135
330
11F
100
AcDbEntity
  8
AM_6
100
AcDbText
 10
5.048999999999999
 20
-6.795
 30
0.0
 40
0.5
  1
1.12
100
AcDbAttributeDefinition
  3

  2
L
 70
     8
280
     0
  0
ATTDEF
  5
136
330
11F
100
AcDbEntity
  8
AM_6
100
AcDbText
 10
5.048999999999999
 20
-7.295
 30
0.0
 40
0.5
  1
2.38
100
AcDbAttributeDefinition
  3

  2
M
 70
     8
280
     0
  0
ATTDEF
  5
137
330
11F
100
AcDbEntity
  8
AM_6
100
AcDbText
 10
5.048999999999999
 20
-7.795
 30
0.0
 40
0.5
  1
1.50
100
AcDbAttributeDefinition
  3

  2
N
 70
     8
280
     0
  0
ATTDEF
  5
138
330
11F
100
AcDbEntity
  8
AM_6
100
AcDbText
 10
5.048999999999999
 20
-8.295
 30
0.0
 40
0.5
  1
baldor
100
AcDbAttributeDefinition
  3

  2
COMPANY
 70
     8
280
     0
  0
LINE
  5
139
330
11F
100
AcDbEntity
  8
AM_9
100
AcDbLine
 10
0.0
 20
1.1899326006951
 30
0.0
 11
-0.1000000000000001
 21
1.1899326006951
 31
0.0
  0
LINE
  5
13A
330
11F
100
AcDbEntity
  8
AM_9
100
AcDbLine
 10
-0.5
 20
-1.9525
 30
0.0
 11
0.0
 21
-1.9525
 31
0.0
  0
LINE
  5
13B
330
11F
100
AcDbEntity
  8
AM_9
100
AcDbLine
 10
0.0
 20
-1.5775
 30
0.0
 11
-0.5
 21
-1.5775
 31
0.0
  0
LINE
  5
13C
330
11F
100
AcDbEntity
  8
AM_9
100
AcDbLine
 10
-0.5
 20
1.5775
 30
0.0
 11
0.0
 21
1.5775
 31
0.0
  0
LINE
  5
13D
330
11F
100
AcDbEntity
  8
AM_9
100
AcDbLine
 10
0.0
 20
1.9525
 30
0.0
 11
-0.5
 21
1.9525
 31
0.0
  0
LINE
  5
13E
330
11F
100
AcDbEntity
  8
AM_9
100
AcDbLine
 10
-0.637
 20
0.8562658991224629
 30
0.0
 11
-0.2240000000000001
 21
0.8562658991224629
 31
0.0
  0
LINE
  5
13F
330
11F
100
AcDbEntity
  8
AM_9
100
AcDbLine
 10
-0.637
 20
0.8138765508355673
 30
0.0
 11
-0.637
 21
0.9627
 31
0.0
  0
LINE
  5
140
330
11F
100
AcDbEntity
  8
AM_9
100
AcDbLine
 10
-0.2240000000000001
 20
0.9627
 30
0.0
 11
-0.637
 21
0.9627
 31
0.0
  0
LINE
  5
141
330
11F
100
AcDbEntity
  8
AM_9
100
AcDbLine
 10
-0.637
 20
-0.8562658991224629
 30
0.0
 11
-0.2240000000000001
 21
-0.8562658991224629
 31
0.0
  0
LINE
  5
142
330
11F
100
AcDbEntity
  8
AM_9
100
AcDbLine
 10
-0.637
 20
-0.9627
 30
0.0
 11
-0.2240000000000001
 21
-0.9627
 31
0.0
  0
LINE
  5
143
330
11F
100
AcDbEntity
  8
AM_9
100
AcDbLine
 10
-0.637
 20
-0.9627
 30
0.0
 11
-0.637
 21
-0.8138765508355673
 31
0.0
  0
LINE
  5
144
330
11F
100
AcDbEntity
  8
AM_9
100
AcDbLine
 10
0.0
 20
1.191
 30
0.0
 11
-0.1
 21
1.191
 31
0.0
  0
LINE
  5
145
330
11F
100
AcDbEntity
  8
AM_9
100
AcDbLine
 10
-0.1
 20
-1.191
 30
0.0
 11
0.0
 21
-1.191
 31
0.0
  0
LINE
  5
146
330
11F
100
AcDbEntity
  8
AM_9
100
AcDbLine
 10
-0.1
 20
-1.191
 30
0.0
 11
-0.1
 21
-1.189932600695101
 31
0.0
  0
LINE
  5
147
330
11F
100
AcDbEntity
  8
AM_9
100
AcDbLine
 10
-0.4999999999999999
 20
1.291856270526138
 30
0.0
 11
-0.4499999999999999
 21
1.291856270526138
 31
0.0
  0
LINE
  5
148
330
11F
100
AcDbEntity
  8
AM_9
100
AcDbLine
 10
-0.5000000000000001
 20
0.9868007385900309
 30
0.0
 11
-0.4999999999999999
 21
1.335388850692819
 31
0.0
  0
LINE
  5
149
330
11F
100
AcDbEntity
  8
AM_9
100
AcDbLine
 10
-0.4500000000000001
 20
0.5056657223796033
 30
0.0
 11
-0.4499999999999999
 21
1.333278760384603
 31
0.0
  0
LINE
  5
14A
330
11F
100
AcDbEntity
  8
AM_9
100
AcDbLine
 10
-0.1
 20
-1.042148180364743
 30
0.0
 11
0.0
 21
-1.042148180364743
 31
0.0
  0
LINE
  5
14B
330
11F
100
AcDbEntity
  8
AM_9
100
AcDbLine
 10
-0.1
 20
1.04214818408248
 30
0.0
 11
0.0
 21
1.04214818408248
 31
0.0
  0
LINE
  5
14C
330
11F
100
AcDbEntity
  8
AM_9
100
AcDbLine
 10
-0.637
 20
0.8138765508355673
 30
0.0
 11
-0.2240000000000001
 21
0.8138765508355673
 31
0.0
  0
LINE
  5
14D
330
11F
100
AcDbEntity
  8
AM_9
100
AcDbLine
 10
-0.2240000000000001
 20
-0.8138765508355673
 30
0.0
 11
-0.637
 21
-0.8138765508355673
 31
0.0
  0
LINE
  5
14E
330
11F
100
AcDbEntity
  8
AM_9
100
AcDbLine
 10
-0.8720000000000001
 20
-0.9252
 30
0.0
 11
-0.637
 21
-0.9252
 31
0.0
  0
LINE
  5
14F
330
11F
100
AcDbEntity
  8
AM_9
100
AcDbLine
 10
-0.637
 20
0.9252
 30
0.0
 11
-0.8720000000000001
 21
0.9252
 31
0.0
  0
LINE
  5
150
330
11F
100
AcDbEntity
  8
AM_9
100
AcDbLine
 10
-0.2240000000000002
 20
-1.0002
 30
0.0
 11
-0.1
 21
-1.0002
 31
0.0
  0
LINE
  5
151
330
11F
100
AcDbEntity
  8
AM_9
100
AcDbLine
 10
-0.1
 20
1.0002
 30
0.0
 11
-0.2240000000000002
 21
1.0002
 31
0.0
  0
LINE
  5
152
330
11F
100
AcDbEntity
  8
AM_9
100
AcDbLine
 10
-0.2240000000000002
 20
1.0002
 30
0.0
 11
-0.2240000000000002
 21
-1.0002
 31
0.0
  0
LINE
  5
153
330
11F
100
AcDbEntity
  8
AM_9
100
AcDbLine
 10
-0.9800000000000001
 20
-1.0002
 30
0.0
 11
-0.8720000000000001
 21
-1.0002
 31
0.0
  0
LINE
  5
154
330
11F
100
AcDbEntity
  8
AM_9
100
AcDbLine
 10
-0.8720000000000001
 20
1.0002
 30
0.0
 11
-0.9800000000000001
 21
1.0002
 31
0.0
  0
LINE
  5
155
330
11F
100
AcDbEntity
  8
AM_9
100
AcDbLine
 10
-0.8720000000000001
 20
1.0002
 30
0.0
 11
-0.8720000000000001
 21
-1.0002
 31
0.0
  0
LINE
  5
156
330
11F
100
AcDbEntity
  8
AM_9
100
AcDbLine
 10
-0.4793136768702656
 20
0.7975881452567066
 30
0.0
 11
-0.4695623256339316
 21
1.018343642955442
 31
0.0
  0
LINE
  5
157
330
11F
100
AcDbEntity
  8
AM_9
100
AcDbLine
 10
-0.8504376743660685
 20
1.018343642955442
 30
0.0
 11
-0.8406863231297345
 21
0.7975881452567067
 31
0.0
  0
LINE
  5
158
330
11F
100
AcDbEntity
  8
AM_9
100
AcDbLine
 10
-0.4500000000000001
 20
0.5056657223796033
 30
0.0
 11
-0.1000000000000001
 21
0.5056657223796042
 31
0.0
  0
LINE
  5
159
330
11F
100
AcDbEntity
  8
AM_9
100
AcDbLine
 10
-0.5
 20
1.117509801337458
 30
0.0
 11
-0.9300000000000005
 21
1.117509801337458
 31
0.0
  0
LINE
  5
15A
330
11F
100
AcDbEntity
  8
AM_9
100
AcDbLine
 10
-0.4500000000000001
 20
0.9868007385900311
 30
0.0
 11
-0.5000000000000001
 21
0.9868007385900309
 31
0.0
  0
LINE
  5
15B
330
11F
100
AcDbEntity
  8
AM_9
100
AcDbLine
 10
-0.5
 20
1.190000000000001
 30
0.0
 11
-0.9300000000000005
 21
1.190000000000001
 31
0.0
  0
LWPOLYLINE
  5
15C
330
11F
100
AcDbEntity
  8
AM_9
100
AcDbPolyline
 90
       11
 70
     0
 43
0.0
 10
-0.9800000000000001
 20
1.078345782406548
 10
-0.9799815130669218
 20
1.079415860614848
 10
-0.9788816519320023
 20
1.086614862028707
 10
-0.9759771114510495
 20
1.093782675155309
 10
-0.9715506188559629
 20
1.100177883390616
 10
-0.9653430035405253
 20
1.106087658472493
 10
-0.9585316372074482
 20
1.110535037030067
 10
-0.9503791105724093
 20
1.114123939980985
 10
-0.9426154722953016
 20
1.116248542660788
 10
-0.9341565937953578
 20
1.117374878701245
 10
-0.9300000000000005
 20
1.117509801337458
  0
ARC
  5
15D
330
11F
100
AcDbEntity
  8
AM_9
100
AcDbCircle
 10
-0.9300000000000006
 20
1.14
 30
0.0
 40
0.0499999999999996
100
AcDbArc
 50
90.0
 51
180.0
  0
LINE
  5
15E
330
11F
100
AcDbEntity
  8
AM_9
100
AcDbLine
 10
-0.9300000000000005
 20
0.4089888065885368
 30
0.0
 11
-0.9300000000000005
 21
1.19
 31
0.0
  0
ELLIPSE
  5
15F
330
11F
100
AcDbEntity
  8
AM_9
100
AcDbEllipse
 10
-0.6600000000000004
 20
0.801578840434872
 30
0.0
 11
-0.1807744413963239
 21
2.693749113112873E-9
 31
0.0
210
0.0
220
0.0
230
1.0
 40
0.707106781186548
 41
0.0
 42
6.283185307179586
  0
LINE
  5
160
330
11F
100
AcDbEntity
  8
AM_7
100
AcDbLine
 10
0.025
 20
1.765
 30
0.0
 11
-0.525
 21
1.765
 31
0.0
  0
LINE
  5
161
330
11F
100
AcDbEntity
  8
AM_7
100
AcDbLine
 10
0.025
 20
-1.765
 30
0.0
 11
-0.525
 21
-1.765
 31
0.0
  0
LINE
  5
162
330
11F
100
AcDbEntity
  8
AM_7
100
AcDbLine
 10
-1.4015
 20
0.0000000000000001
 30
0.0
 11
0.0489999999999997
 21
0.0
 31
0.0
  0
LINE
  5
163
330
11F
100
AcDbEntity
  8
AM_4
100
AcDbLine
 10
-0.5
 20
-2.205
 30
0.0
 11
0.0
 21
-2.205
 31
0.0
  0
LINE
  5
164
330
11F
100
AcDbEntity
  8
AM_4
100
AcDbLine
 10
-0.4999999999999999
 20
1.335388850692819
 30
0.0
 11
-0.5
 21
2.205
 31
0.0
  0
LINE
  5
165
330
11F
100
AcDbEntity
  8
AM_4
100
AcDbLine
 10
0.0
 20
2.205
 30
0.0
 11
-0.5
 21
2.205
 31
0.0
  0
LINE
  5
166
330
11F
100
AcDbEntity
  8
AM_4
100
AcDbLine
 10
-0.45
 20
1.879139198890212
 30
0.0
 11
-0.5
 21
1.879139198890212
 31
0.0
  0
LINE
  5
167
330
11F
100
AcDbEntity
  8
AM_4
100
AcDbLine
 10
-0.5
 20
-2.205
 30
0.0
 11
-0.4999999999999999
 21
-0.9868007385900314
 31
0.0
  0
LINE
  5
168
330
11F
100
AcDbEntity
  8
AM_4
100
AcDbLine
 10
-0.45
 20
-1.879139198890212
 30
0.0
 11
-0.5
 21
-1.879139198890212
 31
0.0
  0
LINE
  5
169
330
11F
100
AcDbEntity
  8
AM_4
100
AcDbLine
 10
-0.5
 20
1.951968838526912
 30
0.0
 11
0.0
 21
1.951968838526912
 31
0.0
  0
LINE
  5
16A
330
11F
100
AcDbEntity
  8
AM_4
100
AcDbLine
 10
-0.45
 20
1.925100224768775
 30
0.0
 11
-0.5
 21
1.925100224768775
 31
0.0
  0
LINE
  5
16B
330
11F
100
AcDbEntity
  8
AM_4
100
AcDbLine
 10
-0.4499999999999999
 20
1.333278760384603
 30
0.0
 11
-0.45
 21
1.925100224768775
 31
0.0
  0
LINE
  5
16C
330
11F
100
AcDbEntity
  8
AM_4
100
AcDbLine
 10
0.0
 20
1.333278760384603
 30
0.0
 11
-0.4499999999999999
 21
1.333278760384603
 31
0.0
  0
LINE
  5
16D
330
11F
100
AcDbEntity
  8
AM_4
100
AcDbLine
 10
-0.4499999999999999
 20
1.335388850692819
 30
0.0
 11
-0.9800000000000001
 21
1.335388850692819
 31
0.0
  0
LINE
  5
16E
330
11F
100
AcDbEntity
  8
AM_4
100
AcDbLine
 10
-0.1
 20
1.333014156114327
 30
0.0
 11
0.0
 21
1.333014156114327
 31
0.0
  0
LINE
  5
16F
330
11F
100
AcDbEntity
  8
AM_4
100
AcDbLine
 10
0.0
 20
-2.205
 30
0.0
 11
0.0
 21
-1.026525617340507
 31
0.0
  0
LINE
  5
170
330
11F
100
AcDbEntity
  8
AM_4
100
AcDbLine
 10
0.0
 20
-1.026525617340507
 30
0.0
 11
-0.1
 21
-1.026525617340507
 31
0.0
  0
LINE
  5
171
330
11F
100
AcDbEntity
  8
AM_4
100
AcDbLine
 10
-0.1
 20
1.204641764649288
 30
0.0
 11
0.0
 21
1.204641764649288
 31
0.0
  0
LINE
  5
172
330
11F
100
AcDbEntity
  8
AM_4
100
AcDbLine
 10
-0.1
 20
1.026525617340507
 30
0.0
 11
0.0
 21
1.026525617340507
 31
0.0
  0
LINE
  5
173
330
11F
100
AcDbEntity
  8
AM_4
100
AcDbLine
 10
0.0
 20
1.026525617340507
 30
0.0
 11
0.0
 21
2.205
 31
0.0
  0
LINE
  5
174
330
11F
100
AcDbEntity
  8
AM_4
100
AcDbLine
 10
0.0
 20
-1.189932600695101
 30
0.0
 11
-0.1
 21
-1.189932600695101
 31
0.0
  0
LINE
  5
175
330
11F
100
AcDbEntity
  8
AM_4
100
AcDbLine
 10
-0.45
 20
-1.925100224768784
 30
0.0
 11
-0.4499999999999999
 21
-0.5056657223796034
 31
0.0
  0
LINE
  5
176
330
11F
100
AcDbEntity
  8
AM_4
100
AcDbLine
 10
-0.5
 20
-1.925100224768783
 30
0.0
 11
-0.45
 21
-1.925100224768784
 31
0.0
  0
LINE
  5
177
330
11F
100
AcDbEntity
  8
AM_4
100
AcDbLine
 10
-0.5
 20
-1.951968838526912
 30
0.0
 11
0.0
 21
-1.951968838526912
 31
0.0
  0
LINE
  5
178
330
11F
100
AcDbEntity
  8
AM_4
100
AcDbLine
 10
-0.4499999999999999
 20
-0.9868007385900311
 30
0.0
 11
-0.4999999999999999
 21
-0.9868007385900314
 31
0.0
  0
LINE
  5
179
330
11F
100
AcDbEntity
  8
AM_4
100
AcDbLine
 10
-0.4499999999999999
 20
-0.5056657223796034
 30
0.0
 11
-0.1
 21
-0.5056657223796033
 31
0.0
  0
LINE
  5
17A
330
11F
100
AcDbEntity
  8
AM_4
100
AcDbLine
 10
-0.9300000000000005
 20
-1.190000000000002
 30
0.0
 11
-0.5
 21
-1.190000000000002
 31
0.0
  0
LINE
  5
17B
330
11F
100
AcDbEntity
  8
AM_4
100
AcDbLine
 10
-0.9800000000000001
 20
1.335388850692819
 30
0.0
 11
-0.9800000000000001
 21
-1.14
 31
0.0
  0
LINE
  5
17C
330
11F
100
AcDbEntity
  8
AM_4
100
AcDbLine
 10
-0.9300000000000003
 20
0.4089888065885368
 30
0.0
 11
-0.9300000000000005
 21
-1.19
 31
0.0
  0
ARC
  5
17D
330
11F
100
AcDbEntity
  8
AM_4
100
AcDbCircle
 10
-0.9300000000000006
 20
-1.14
 30
0.0
 40
0.0499999999999995
100
AcDbArc
 50
180.0
 51
270.0
  0
LINE
  5
17E
330
11F
100
AcDbEntity
  8
AM_4
100
AcDbLine
 10
-0.9800000000000001
 20
1.306099528811474
 30
0.0
 11
-0.1
 21
1.306099528811474
 31
0.0
  0
LINE
  5
17F
330
11F
100
AcDbEntity
  8
AM_4
100
AcDbLine
 10
-0.1
 20
-1.189932600695101
 30
0.0
 11
-0.1
 21
1.333014156114327
 31
0.0
  0
LINE
  5
180
330
11F
100
AcDbEntity
  8
AM_4
100
AcDbLine
 10
-0.9300000000000003
 20
0.4089888065885368
 30
0.0
 11
-0.1
 21
0.4089888065885369
 31
0.0
  0
LWPOLYLINE
  5
181
330
11F
100
AcDbEntity
  8
AM_4
100
AcDbPolyline
 90
       11
 70
     0
 43
0.0
 10
-0.9300000000000003
 20
0.4089888065885368
 10
-0.9378084783393206
 20
0.4085064409763857
 10
-0.9453898364436968
 20
0.4070960868990862
 10
-0.952516827625384
 20
0.4048069717197581
 10
-0.959034065454082
 20
0.4017378334077116
 10
-0.9649872572642084
 20
0.3978380211834099
 10
-0.9700287997278576
 20
0.3933386787744473
 10
-0.9743821759816124
 20
0.3879028225693268
 10
-0.9775148383087323
 20
0.3820596550387785
 10
-0.9793761196889955
 20
0.3760054533262161
 10
-0.9800000000000001
 20
0.3698247876576277
  0
LINE
  5
182
330
11F
100
AcDbEntity
  8
AM_4
100
AcDbLine
 10
-0.98
 20
0.5975785340625533
 30
0.0
 11
-0.0999999999999999
 21
0.5975785340625533
 31
0.0
  0
LINE
  5
183
330
11F
100
AcDbEntity
  8
AM_4
100
AcDbLine
 10
-0.98
 20
0.7389998902998625
 30
0.0
 11
-0.0999999999999999
 21
0.7389998902998626
 31
0.0
  0
ELLIPSE
  5
184
330
11F
100
AcDbEntity
  8
AM_4
100
AcDbEllipse
 10
-0.66
 20
1.022549709555668
 30
0.0
 11
-0.1905305482342604
 21
2.333326260348774E-17
 31
0.0
210
0.0
220
0.0
230
1.0
 40
0.7071067811865471
 41
0.0
 42
6.283185307179586
  0
ENDBLK
  5
122
330
11F
100
AcDbEntity
  8
0
100
AcDbBlockEnd
  0
ENDSEC
  0
SECTION
  2
ENTITIES
  0
INSERT
  5
6F
330
1F
100
AcDbEntity
  8
0
100
AcDbBlockReference
  2
1_057854_2
 10
0.0
 20
0.0
 30
0.0
  0
POINT
  5
186
330
1F
100
AcDbEntity
  8
ConnectionPoints
100
AcDbPoint
 10
-1.34
 20
0.0000000000000001
 30
0.0000000000000001
  0
POINT
  5
187
330
1F
100
AcDbEntity
  8
ConnectionPoints
100
AcDbPoint
 10
-0.6599999999999999
 20
0.9865489334654579
 30
0.986548933465458
  0
POINT
  5
188
330
1F
100
AcDbEntity
  8
ConnectionPoints
100
AcDbPoint
 10
-1.34
 20
0.0
 30
0.0000000000000001
  0
ENDSEC
  0
SECTION
  2
OBJECTS
  0
DICTIONARY
  5
C
330
0
100
AcDbDictionary
281
     1
  3
ACAD_DETAILVIEWSTYLE
350
190
  3
ACAD_GROUP
350
D
  3
ACAD_LAYOUT
350
1A
  3
ACAD_MATERIAL
350
43
  3
ACAD_MLEADERSTYLE
350
6B
  3
ACAD_MLINESTYLE
350
17
  3
ACAD_PLOTSETTINGS
350
19
  3
ACAD_PLOTSTYLENAME
350
E
  3
ACAD_SCALELIST
350
47
  3
ACAD_SECTIONVIEWSTYLE
350
191
  3
ACAD_TABLESTYLE
350
69
  3
ACAD_VISUALSTYLE
350
2A
  3
ACDB_RECOMPOSE_DATA
350
18D
  3
AcDbVariableDictionary
350
189
  0
SUN
  5
6D
330
29
100
AcDbSun
 90
        1
290
     0
 63
     7
421
 16777215
 40
1.0
291
     1
 91
  2455826
 92
 54000000
292
     0
 70
     2
 71
   256
280
     1
  0
DICTIONARY
  5
190
102
{ACAD_REACTORS
330
C
102
}
330
C
100
AcDbDictionary
281
     1
  0
DICTIONARY
  5
D
102
{ACAD_REACTORS
330
C
102
}
330
C
100
AcDbDictionary
281
     1
  0
DICTIONARY
  5
1A
102
{ACAD_REACTORS
330
C
102
}
330
C
100
AcDbDictionary
281
     1
  3
Layout1
350
1E
  3
Layout2
350
26
  3
Model
350
22
  0
DICTIONARY
  5
43
102
{ACAD_REACTORS
330
C
102
}
330
C
100
AcDbDictionary
281
     1
  3
ByBlock
350
45
  3
ByLayer
350
44
  3
Global
350
46
  0
DICTIONARY
  5
6B
102
{ACAD_REACTORS
330
C
102
}
330
C
100
AcDbDictionary
281
     1
  3
Standard
350
6C
  0
DICTIONARY
  5
17
102
{ACAD_REACTORS
330
C
102
}
330
C
100
AcDbDictionary
281
     1
  3
Standard
350
18
  0
DICTIONARY
  5
19
102
{ACAD_REACTORS
330
C
102
}
330
C
100
AcDbDictionary
281
     1
  0
ACDBDICTIONARYWDFLT
  5
E
102
{ACAD_REACTORS
330
C
102
}
330
C
100
AcDbDictionary
281
     1
  3
Normal
350
F
100
AcDbDictionaryWithDefault
340
F
  0
DICTIONARY
  5
47
102
{ACAD_REACTORS
330
C
102
}
330
C
100
AcDbDictionary
281
     1
  3
A0
350
48
  3
A1
350
49
  3
A2
350
4A
  3
A3
350
4B
  3
A4
350
4C
  3
A5
350
4D
  3
A6
350
4E
  3
A7
350
4F
  3
A8
350
50
  3
A9
350
51
  3
B0
350
52
  3
B1
350
53
  3
B2
350
54
  3
B3
350
55
  3
B4
350
56
  3
B5
350
57
  3
B6
350
58
  3
B7
350
59
  3
B8
350
5A
  3
B9
350
5B
  3
C0
350
5C
  3
C1
350
5D
  3
C2
350
5E
  3
C3
350
5F
  3
C4
350
60
  3
C5
350
61
  3
C6
350
62
  3
C7
350
63
  3
C8
350
64
  3
C9
350
65
  3
D0
350
66
  3
D1
350
67
  3
D2
350
68
  0
DICTIONARY
  5
191
102
{ACAD_REACTORS
330
C
102
}
330
C
100
AcDbDictionary
281
     1
  0
DICTIONARY
  5
69
102
{ACAD_REACTORS
330
C
102
}
330
C
100
AcDbDictionary
281
     1
  3
Standard
350
6A
  0
DICTIONARY
  5
2A
102
{ACAD_REACTORS
330
C
102
}
330
C
100
AcDbDictionary
281
     1
  3
2dWireframe
350
2F
  3
Basic
350
32
  3
Brighten
350
36
  3
ColorChange
350
3A
  3
Conceptual
350
34
  3
Dim
350
35
  3
EdgeColorOff
350
3D
  3
Facepattern
350
39
  3
Flat
350
2B
  3
FlatWithEdges
350
2C
  3
Gouraud
350
2D
  3
GouraudWithEdges
350
2E
  3
Hidden
350
31
  3
JitterOff
350
3B
  3
Linepattern
350
38
  3
OverhangOff
350
3C
  3
Realistic
350
33
  3
Shaded
350
42
  3
Shaded with edges
350
41
  3
Shades of Gray
350
3E
  3
Sketchy
350
3F
  3
Thicken
350
37
  3
Wireframe
350
30
  3
X-Ray
350
40
  0
XRECORD
  5
18D
102
{ACAD_REACTORS
330
C
102
}
330
C
100
AcDbXrecord
280
     1
 90
        1
330
6A
  0
DICTIONARY
  5
189
102
{ACAD_REACTORS
330
C
102
}
330
C
100
AcDbDictionary
281
     1
  3
CANNOSCALE
350
18A
  3
CMLEADERSTYLE
350
18F
  3
CTABLESTYLE
350
18E
  0
LAYOUT
  5
1E
102
{ACAD_REACTORS
330
1A
102
}
330
1A
100
AcDbPlotSettings
  1

  2
none_device
  4

  6

 40
0.0
 41
0.0
 42
0.0
 43
0.0
 44
0.0
 45
0.0
 46
0.0
 47
0.0
 48
0.0
 49
0.0
140
0.0
141
0.0
142
1.0
143
1.0
 70
   688
 72
     0
 73
     0
 74
     5
  7

 75
    16
 76
     0
 77
     2
 78
   300
147
1.0
148
0.0
149
0.0
100
AcDbLayout
  1
Layout1
 70
     1
 71
     1
 10
0.0
 20
0.0
 11
12.0
 21
9.0
 12
0.0
 22
0.0
 32
0.0
 14
1.000000000000000E+20
 24
1.000000000000000E+20
 34
1.000000000000000E+20
 15
-1.000000000000000E+20
 25
-1.000000000000000E+20
 35
-1.000000000000000E+20
146
0.0
 13
0.0
 23
0.0
 33
0.0
 16
1.0
 26
0.0
 36
0.0
 17
0.0
 27
1.0
 37
0.0
 76
     0
330
1B
  0
LAYOUT
  5
26
102
{ACAD_REACTORS
330
1A
102
}
330
1A
100
AcDbPlotSettings
  1

  2
none_device
  4

  6

 40
0.0
 41
0.0
 42
0.0
 43
0.0
 44
0.0
 45
0.0
 46
0.0
 47
0.0
 48
0.0
 49
0.0
140
0.0
141
0.0
142
1.0
143
1.0
 70
   688
 72
     0
 73
     0
 74
     5
  7

 75
    16
 76
     0
 77
     2
 78
   300
147
1.0
148
0.0
149
0.0
100
AcDbLayout
  1
Layout2
 70
     1
 71
     2
 10
0.0
 20
0.0
 11
0.0
 21
0.0
 12
0.0
 22
0.0
 32
0.0
 14
0.0
 24
0.0
 34
0.0
 15
0.0
 25
0.0
 35
0.0
146
0.0
 13
0.0
 23
0.0
 33
0.0
 16
1.0
 26
0.0
 36
0.0
 17
0.0
 27
1.0
 37
0.0
 76
     0
330
23
  0
LAYOUT
  5
22
102
{ACAD_REACTORS
330
1A
102
}
330
1A
100
AcDbPlotSettings
  1

  2
none_device
  4
Letter_(8.50_x_11.00_Inches)
  6

 40
6.35
 41
6.35
 42
6.35000508
 43
6.35000508
 44
215.9
 45
279.4
 46
0.0
 47
0.0
 48
0.0
 49
0.0
140
0.0
141
0.0
142
1.0
143
1.0
 70
  1712
 72
     0
 73
     0
 74
     0
  7

 75
     0
 76
     0
 77
     2
 78
   300
147
1.0
148
0.0
149
0.0
100
AcDbLayout
  1
Model
 70
     1
 71
     0
 10
0.0
 20
0.0
 11
12.0
 21
9.0
 12
0.0
 22
0.0
 32
0.0
 14
1.000000000000000E+20
 24
1.000000000000000E+20
 34
1.000000000000000E+20
 15
-1.000000000000000E+20
 25
-1.000000000000000E+20
 35
-1.000000000000000E+20
146
0.0
 13
0.0
 23
0.0
 33
0.0
 16
1.0
 26
0.0
 36
0.0
 17
0.0
 27
1.0
 37
0.0
 76
     0
330
1F
331
29
  0
MATERIAL
  5
45
102
{ACAD_REACTORS
330
43
102
}
330
43
100
AcDbMaterial
  1
ByBlock
 72
     1
 94
      127
  0
MATERIAL
  5
44
102
{ACAD_REACTORS
330
43
102
}
330
43
100
AcDbMaterial
  1
ByLayer
 72
     1
 94
      127
  0
MATERIAL
  5
46
102
{ACAD_REACTORS
330
43
102
}
330
43
100
AcDbMaterial
  1
Global
 72
     1
 94
      127
  0
MLEADERSTYLE
  5
6C
102
{ACAD_REACTORS
330
6B
102
}
330
6B
100
AcDbMLeaderStyle
179
     2
170
     2
171
     1
172
     0
 90
        2
 40
0.0
 41
0.0
173
     1
 91
-1056964608
340
14
 92
       -2
290
     1
 42
0.09
291
     1
 43
0.36
  3
Standard
341
0
 44
0.18
300

342
11
174
     1
178
     6
175
     1
176
     0
 93
-1056964608
 45
0.18
292
     0
297
     0
 46
0.18
343
0
 94
-1056964608
 47
1.0
 49
1.0
140
1.0
293
     1
141
0.0
294
     1
177
     0
142
1.0
295
     0
296
     0
143
0.125
271
     0
272
     9
273
     9
298
     0
  0
MLINESTYLE
  5
18
102
{ACAD_REACTORS
330
17
102
}
330
17
100
AcDbMlineStyle
  2
Standard
 70
     0
  3

 62
   256
 51
90.0
 52
90.0
 71
     2
 49
0.5
 62
   256
  6
BYLAYER
 49
-0.5
 62
   256
  6
BYLAYER
  0
ACDBPLACEHOLDER
  5
F
102
{ACAD_REACTORS
330
E
102
}
330
E
  0
SCALE
  5
48
102
{ACAD_REACTORS
330
47
102
}
330
47
100
AcDbScale
 70
     0
300
1:1
140
1.0
141
1.0
290
     1
  0
SCALE
  5
49
102
{ACAD_REACTORS
330
47
102
}
330
47
100
AcDbScale
 70
     0
300
1:2
140
1.0
141
2.0
290
     0
  0
SCALE
  5
4A
102
{ACAD_REACTORS
330
47
102
}
330
47
100
AcDbScale
 70
     0
300
1:4
140
1.0
141
4.0
290
     0
  0
SCALE
  5
4B
102
{ACAD_REACTORS
330
47
102
}
330
47
100
AcDbScale
 70
     0
300
1:5
140
1.0
141
5.0
290
     0
  0
SCALE
  5
4C
102
{ACAD_REACTORS
330
47
102
}
330
47
100
AcDbScale
 70
     0
300
1:8
140
1.0
141
8.0
290
     0
  0
SCALE
  5
4D
102
{ACAD_REACTORS
330
47
102
}
330
47
100
AcDbScale
 70
     0
300
1:10
140
1.0
141
10.0
290
     0
  0
SCALE
  5
4E
102
{ACAD_REACTORS
330
47
102
}
330
47
100
AcDbScale
 70
     0
300
1:16
140
1.0
141
16.0
290
     0
  0
SCALE
  5
4F
102
{ACAD_REACTORS
330
47
102
}
330
47
100
AcDbScale
 70
     0
300
1:20
140
1.0
141
20.0
290
     0
  0
SCALE
  5
50
102
{ACAD_REACTORS
330
47
102
}
330
47
100
AcDbScale
 70
     0
300
1:30
140
1.0
141
30.0
290
     0
  0
SCALE
  5
51
102
{ACAD_REACTORS
330
47
102
}
330
47
100
AcDbScale
 70
     0
300
1:40
140
1.0
141
40.0
290
     0
  0
SCALE
  5
52
102
{ACAD_REACTORS
330
47
102
}
330
47
100
AcDbScale
 70
     0
300
1:50
140
1.0
141
50.0
290
     0
  0
SCALE
  5
53
102
{ACAD_REACTORS
330
47
102
}
330
47
100
AcDbScale
 70
     0
300
1:100
140
1.0
141
100.0
290
     0
  0
SCALE
  5
54
102
{ACAD_REACTORS
330
47
102
}
330
47
100
AcDbScale
 70
     0
300
2:1
140
2.0
141
1.0
290
     0
  0
SCALE
  5
55
102
{ACAD_REACTORS
330
47
102
}
330
47
100
AcDbScale
 70
     0
300
4:1
140
4.0
141
1.0
290
     0
  0
SCALE
  5
56
102
{ACAD_REACTORS
330
47
102
}
330
47
100
AcDbScale
 70
     0
300
8:1
140
8.0
141
1.0
290
     0
  0
SCALE
  5
57
102
{ACAD_REACTORS
330
47
102
}
330
47
100
AcDbScale
 70
     0
300
10:1
140
10.0
141
1.0
290
     0
  0
SCALE
  5
58
102
{ACAD_REACTORS
330
47
102
}
330
47
100
AcDbScale
 70
     0
300
100:1
140
100.0
141
1.0
290
     0
  0
SCALE
  5
59
102
{ACAD_REACTORS
330
47
102
}
330
47
100
AcDbScale
 70
     0
300
1/128" = 1'-0"
140
0.0078125
141
12.0
290
     0
  0
SCALE
  5
5A
102
{ACAD_REACTORS
330
47
102
}
330
47
100
AcDbScale
 70
     0
300
1/64" = 1'-0"
140
0.015625
141
12.0
290
     0
  0
SCALE
  5
5B
102
{ACAD_REACTORS
330
47
102
}
330
47
100
AcDbScale
 70
     0
300
1/32" = 1'-0"
140
0.03125
141
12.0
290
     0
  0
SCALE
  5
5C
102
{ACAD_REACTORS
330
47
102
}
330
47
100
AcDbScale
 70
     0
300
1/16" = 1'-0"
140
0.0625
141
12.0
290
     0
  0
SCALE
  5
5D
102
{ACAD_REACTORS
330
47
102
}
330
47
100
AcDbScale
 70
     0
300
3/32" = 1'-0"
140
0.09375
141
12.0
290
     0
  0
SCALE
  5
5E
102
{ACAD_REACTORS
330
47
102
}
330
47
100
AcDbScale
 70
     0
300
1/8" = 1'-0"
140
0.125
141
12.0
290
     0
  0
SCALE
  5
5F
102
{ACAD_REACTORS
330
47
102
}
330
47
100
AcDbScale
 70
     0
300
3/16" = 1'-0"
140
0.1875
141
12.0
290
     0
  0
SCALE
  5
60
102
{ACAD_REACTORS
330
47
102
}
330
47
100
AcDbScale
 70
     0
300
1/4" = 1'-0"
140
0.25
141
12.0
290
     0
  0
SCALE
  5
61
102
{ACAD_REACTORS
330
47
102
}
330
47
100
AcDbScale
 70
     0
300
3/8" = 1'-0"
140
0.375
141
12.0
290
     0
  0
SCALE
  5
62
102
{ACAD_REACTORS
330
47
102
}
330
47
100
AcDbScale
 70
     0
300
1/2" = 1'-0"
140
0.5
141
12.0
290
     0
  0
SCALE
  5
63
102
{ACAD_REACTORS
330
47
102
}
330
47
100
AcDbScale
 70
     0
300
3/4" = 1'-0"
140
0.75
141
12.0
290
     0
  0
SCALE
  5
64
102
{ACAD_REACTORS
330
47
102
}
330
47
100
AcDbScale
 70
     0
300
1" = 1'-0"
140
1.0
141
12.0
290
     0
  0
SCALE
  5
65
102
{ACAD_REACTORS
330
47
102
}
330
47
100
AcDbScale
 70
     0
300
1-1/2" = 1'-0"
140
1.5
141
12.0
290
     0
  0
SCALE
  5
66
102
{ACAD_REACTORS
330
47
102
}
330
47
100
AcDbScale
 70
     0
300
3" = 1'-0"
140
3.0
141
12.0
290
     0
  0
SCALE
  5
67
102
{ACAD_REACTORS
330
47
102
}
330
47
100
AcDbScale
 70
     0
300
6" = 1'-0"
140
6.0
141
12.0
290
     0
  0
SCALE
  5
68
102
{ACAD_REACTORS
330
47
102
}
330
47
100
AcDbScale
 70
     0
300
1'-0" = 1'-0"
140
12.0
141
12.0
290
     0
  0
TABLESTYLE
  5
6A
102
{ACAD_REACTORS
330
69
102
}
102
{ACAD_XDICTIONARY
360
18B
102
}
330
69
100
AcDbTableStyle
  3
Standard
 70
     0
 71
     0
 40
0.06
 41
0.06
280
     0
281
     0
  7
Standard
140
0.18
170
     2
 62
     0
 63
   257
283
     0
 90
        4
 91
        0
  1

274
    -2
284
     1
 64
     0
275
    -2
285
     1
 65
     0
276
    -2
286
     1
 66
     0
277
    -2
287
     1
 67
     0
278
    -2
288
     1
 68
     0
279
    -2
289
     1
 69
     0
  7
Standard
140
0.25
170
     5
 62
     0
 63
   257
283
     0
 90
        4
 91
        0
  1

274
    -2
284
     1
 64
     0
275
    -2
285
     1
 65
     0
276
    -2
286
     1
 66
     0
277
    -2
287
     1
 67
     0
278
    -2
288
     1
 68
     0
279
    -2
289
     1
 69
     0
  7
Standard
140
0.18
170
     5
 62
     0
 63
   257
283
     0
 90
        4
 91
        0
  1

274
    -2
284
     1
 64
     0
275
    -2
285
     1
 65
     0
276
    -2
286
     1
 66
     0
277
    -2
287
     1
 67
     0
278
    -2
288
     1
 68
     0
279
    -2
289
     1
 69
     0
  0
VISUALSTYLE
  5
2F
102
{ACAD_REACTORS
330
2A
102
}
330
2A
100
AcDbVisualStyle
  2
2dWireframe
 70
     4
177
     3
291
     0
 70
    58
 90
        0
176
     1
 90
        2
176
     1
 90
        0
176
     1
 90
        0
176
     1
 40
0.6
176
     1
 40
30.0
176
     1
 62
     7
420
 16777215
176
     1
 90
        1
176
     1
 90
        4
176
     1
 62
     7
176
     1
 62
   257
176
     1
 90
        1
176
     1
 90
        1
176
     1
 40
1.0
176
     1
 90
        0
176
     1
 62
   257
176
     1
 40
1.0
176
     1
 90
        1
176
     1
 90
        6
176
     1
 90
        2
176
     1
 62
     7
176
     1
 90
        5
176
     1
 90
        0
176
     1
 90
        0
176
     1
290
     0
176
     1
 90
        1
176
     1
 40
0.0
176
     1
 90
        0
176
     1
290
     1
176
     1
290
     1
176
     1
290
     0
176
     1
290
     0
176
     1
290
     0
176
     1
290
     0
176
     1
290
     0
176
     1
290
     0
176
     1
290
     0
176
     1
 90
       50
176
     1
 40
0.0
176
     1
 40
1.0
176
     1
 90
        0
176
     1
 62
    18
420
        0
176
     1
 90
       50
176
     1
 90
        3
176
     1
 62
     5
420
      255
176
     1
290
     0
176
     1
 90
       50
176
     1
 90
       50
176
     1
 90
       50
176
     1
290
     0
176
     1
 90
       50
176
     1
 62
   256
176
     0
 40
1.0
176
     0
 90
        2
176
     1
  1
strokes_ogs.tif
176
     1
290
     0
176
     1
 40
1.0
176
     1
 40
1.0
176
     1
  0
VISUALSTYLE
  5
32
102
{ACAD_REACTORS
330
2A
102
}
330
2A
100
AcDbVisualStyle
  2
Basic
 70
     7
177
     3
291
     1
 70
    58
 90
        1
176
     1
 90
        0
176
     1
 90
        1
176
     1
 90
        0
176
     1
 40
0.6
176
     1
 40
30.0
176
     1
 62
     7
420
 16777215
176
     1
 90
        0
176
     1
 90
        4
176
     1
 62
     7
176
     1
 62
   257
176
     1
 90
        1
176
     1
 90
        1
176
     1
 40
1.0
176
     1
 90
        8
176
     1
 62
     7
176
     1
 40
1.0
176
     1
 90
        1
176
     1
 90
        6
176
     1
 90
        2
176
     1
 62
     7
176
     1
 90
        5
176
     1
 90
        0
176
     1
 90
        0
176
     1
290
     0
176
     1
 90
        1
176
     1
 40
0.0
176
     1
 90
        0
176
     1
290
     0
176
     1
290
     1
176
     1
290
     1
176
     1
290
     0
176
     1
290
     0
176
     1
290
     0
176
     1
290
     0
176
     1
290
     0
176
     1
290
     0
176
     1
 90
       50
176
     1
 40
0.0
176
     1
 40
1.0
176
     1
 90
        0
176
     1
 62
    18
420
        0
176
     1
 90
       50
176
     1
 90
        3
176
     1
 62
     5
420
      255
176
     1
290
     0
176
     1
 90
       50
176
     1
 90
       50
176
     1
 90
       50
176
     1
290
     0
176
     1
 90
       50
176
     1
 62
   256
176
     0
 40
1.0
176
     0
 90
        2
176
     1
  1
strokes_ogs.tif
176
     1
290
     0
176
     1
 40
1.0
176
     1
 40
1.0
176
     1
  0
VISUALSTYLE
  5
36
102
{ACAD_REACTORS
330
2A
102
}
330
2A
100
AcDbVisualStyle
  2
Brighten
 70
    12
177
     3
291
     1
 70
    58
 90
        2
176
     1
 90
        2
176
     1
 90
        0
176
     1
 90
        0
176
     1
 40
0.6
176
     1
 40
30.0
176
     1
 62
     7
420
 16777215
176
     1
 90
        1
176
     1
 90
        4
176
     1
 62
     7
176
     1
 62
   257
176
     1
 90
        1
176
     1
 90
        1
176
     1
 40
1.0
176
     1
 90
        8
176
     1
 62
     7
176
     1
 40
1.0
176
     1
 90
        1
176
     1
 90
        6
176
     1
 90
        2
176
     1
 62
     7
176
     1
 90
        5
176
     1
 90
        0
176
     1
 90
        0
176
     1
290
     0
176
     1
 90
        1
176
     1
 40
50.0
176
     1
 90
        0
176
     1
290
     0
176
     1
290
     1
176
     1
290
     1
176
     1
290
     0
176
     1
290
     0
176
     1
290
     0
176
     1
290
     0
176
     1
290
     0
176
     1
290
     0
176
     1
 90
       50
176
     1
 40
0.0
176
     1
 40
1.0
176
     1
 90
        0
176
     1
 62
    18
420
        0
176
     1
 90
       50
176
     1
 90
        3
176
     1
 62
     5
420
      255
176
     1
290
     0
176
     1
 90
       50
176
     1
 90
       50
176
     1
 90
       50
176
     1
290
     0
176
     1
 90
       50
176
     1
 62
   256
176
     0
 40
1.0
176
     0
 90
        2
176
     1
  1
strokes_ogs.tif
176
     1
290
     0
176
     1
 40
1.0
176
     1
 40
1.0
176
     1
  0
VISUALSTYLE
  5
3A
102
{ACAD_REACTORS
330
2A
102
}
330
2A
100
AcDbVisualStyle
  2
ColorChange
 70
    16
177
     3
291
     1
 70
    58
 90
        2
176
     1
 90
        2
176
     1
 90
        3
176
     1
 90
        0
176
     1
 40
0.6
176
     1
 40
30.0
176
     1
 62
     8
420
  8421504
176
     1
 90
        1
176
     1
 90
        4
176
     1
 62
     7
176
     1
 62
   257
176
     1
 90
        1
176
     1
 90
        1
176
     1
 40
1.0
176
     1
 90
        8
176
     1
 62
     8
420
  8421504
176
     1
 40
1.0
176
     1
 90
        1
176
     1
 90
        6
176
     1
 90
        2
176
     1
 62
     7
176
     1
 90
        5
176
     1
 90
        0
176
     1
 90
        0
176
     1
290
     0
176
     1
 90
        1
176
     1
 40
0.0
176
     1
 90
        0
176
     1
290
     0
176
     1
290
     1
176
     1
290
     1
176
     1
290
     0
176
     1
290
     0
176
     1
290
     0
176
     1
290
     0
176
     1
290
     0
176
     1
290
     0
176
     1
 90
       50
176
     1
 40
0.0
176
     1
 40
1.0
176
     1
 90
        0
176
     1
 62
    18
420
        0
176
     1
 90
       50
176
     1
 90
        3
176
     1
 62
     5
420
      255
176
     1
290
     0
176
     1
 90
       50
176
     1
 90
       50
176
     1
 90
       50
176
     1
290
     0
176
     1
 90
       50
176
     1
 62
   256
176
     0
 40
1.0
176
     0
 90
        2
176
     1
  1
strokes_ogs.tif
176
     1
290
     0
176
     1
 40
1.0
176
     1
 40
1.0
176
     1
  0
VISUALSTYLE
  5
34
102
{ACAD_REACTORS
330
2A
102
}
330
2A
100
AcDbVisualStyle
  2
Conceptual
 70
     9
177
     3
291
     0
 70
    58
 90
        3
176
     1
 90
        2
176
     1
 90
        0
176
     1
 90
        0
176
     1
 40
0.6
176
     1
 40
30.0
176
     1
 62
     7
420
 16777215
176
     1
 90
        2
176
     1
 90
        2
176
     1
 62
     7
176
     1
 62
   257
176
     1
 90
        1
176
     1
 90
        1
176
     1
 40
179.0
176
     1
 90
        8
176
     1
 62
     7
176
     1
 40
1.0
176
     1
 90
        1
176
     1
 90
        6
176
     1
 90
        2
176
     1
 62
     7
176
     1
 90
        3
176
     1
 90
        0
176
     1
 90
        0
176
     1
290
     0
176
     1
 90
        1
176
     1
 40
0.0
176
     1
 90
        0
176
     1
290
     0
176
     1
290
     1
176
     1
290
     1
176
     1
290
     0
176
     1
290
     0
176
     1
290
     0
176
     1
290
     0
176
     1
290
     0
176
     1
290
     0
176
     1
 90
       50
176
     1
 40
0.0
176
     1
 40
1.0
176
     1
 90
        0
176
     1
 62
    18
420
        0
176
     1
 90
       50
176
     1
 90
        3
176
     1
 62
     5
420
      255
176
     1
290
     0
176
     1
 90
       50
176
     1
 90
       50
176
     1
 90
       50
176
     1
290
     0
176
     1
 90
       50
176
     1
 62
   256
176
     0
 40
1.0
176
     0
 90
        2
176
     1
  1
strokes_ogs.tif
176
     1
290
     0
176
     1
 40
1.0
176
     1
 40
1.0
176
     1
  0
VISUALSTYLE
  5
35
102
{ACAD_REACTORS
330
2A
102
}
330
2A
100
AcDbVisualStyle
  2
Dim
 70
    11
177
     3
291
     1
 70
    58
 90
        2
176
     1
 90
        2
176
     1
 90
        0
176
     1
 90
        0
176
     1
 40
0.6
176
     1
 40
30.0
176
     1
 62
     7
420
 16777215
176
     1
 90
        1
176
     1
 90
        4
176
     1
 62
     7
176
     1
 62
   257
176
     1
 90
        1
176
     1
 90
        1
176
     1
 40
1.0
176
     1
 90
        8
176
     1
 62
     7
176
     1
 40
1.0
176
     1
 90
        1
176
     1
 90
        6
176
     1
 90
        2
176
     1
 62
     7
176
     1
 90
        5
176
     1
 90
        0
176
     1
 90
        0
176
     1
290
     0
176
     1
 90
        1
176
     1
 40
-50.0
176
     1
 90
        0
176
     1
290
     0
176
     1
290
     1
176
     1
290
     1
176
     1
290
     0
176
     1
290
     0
176
     1
290
     0
176
     1
290
     0
176
     1
290
     0
176
     1
290
     0
176
     1
 90
       50
176
     1
 40
0.0
176
     1
 40
1.0
176
     1
 90
        0
176
     1
 62
    18
420
        0
176
     1
 90
       50
176
     1
 90
        3
176
     1
 62
     5
420
      255
176
     1
290
     0
176
     1
 90
       50
176
     1
 90
       50
176
     1
 90
       50
176
     1
290
     0
176
     1
 90
       50
176
     1
 62
   256
176
     0
 40
1.0
176
     0
 90
        2
176
     1
  1
strokes_ogs.tif
176
     1
290
     0
176
     1
 40
1.0
176
     1
 40
1.0
176
     1
  0
VISUALSTYLE
  5
3D
102
{ACAD_REACTORS
330
2A
102
}
330
2A
100
AcDbVisualStyle
  2
EdgeColorOff
 70
    22
177
     3
291
     1
 70
    58
 90
        2
176
     0
 90
        2
176
     0
 90
        0
176
     0
 90
        0
176
     0
 40
0.6
176
     0
 40
30.0
176
     0
 62
     7
420
 16777215
176
     0
 90
        1
176
     0
 90
        4
176
     0
 62
     7
176
     0
 62
   257
176
     0
 90
        1
176
     0
 90
        1
176
     0
 40
1.0
176
     0
 90
        8
176
     2
 62
     7
176
     0
 40
1.0
176
     0
 90
        1
176
     0
 90
        6
176
     0
 90
        2
176
     0
 62
     7
176
     0
 90
        5
176
     0
 90
        0
176
     0
 90
        0
176
     0
290
     0
176
     0
 90
        1
176
     0
 40
0.0
176
     0
 90
        0
176
     0
290
     0
176
     0
290
     1
176
     0
290
     1
176
     0
290
     0
176
     0
290
     0
176
     0
290
     0
176
     0
290
     0
176
     0
290
     0
176
     0
290
     0
176
     0
 90
       50
176
     0
 40
0.0
176
     0
 40
1.0
176
     0
 90
        0
176
     0
 62
    18
420
        0
176
     0
 90
       50
176
     0
 90
        3
176
     0
 62
     5
420
      255
176
     0
290
     0
176
     0
 90
       50
176
     0
 90
       50
176
     0
 90
       50
176
     0
290
     0
176
     0
 90
       50
176
     0
 62
   256
176
     0
 40
1.0
176
     0
 90
        2
176
     0
  1
strokes_ogs.tif
176
     0
290
     0
176
     0
 40
1.0
176
     0
 40
1.0
176
     0
  0
VISUALSTYLE
  5
39
102
{ACAD_REACTORS
330
2A
102
}
330
2A
100
AcDbVisualStyle
  2
Facepattern
 70
    15
177
     3
291
     1
 70
    58
 90
        2
176
     1
 90
        2
176
     1
 90
        0
176
     1
 90
        0
176
     1
 40
0.6
176
     1
 40
30.0
176
     1
 62
     7
420
 16777215
176
     1
 90
        1
176
     1
 90
        4
176
     1
 62
     7
176
     1
 62
   257
176
     1
 90
        1
176
     1
 90
        1
176
     1
 40
1.0
176
     1
 90
        8
176
     1
 62
     7
176
     1
 40
1.0
176
     1
 90
        1
176
     1
 90
        6
176
     1
 90
        2
176
     1
 62
     7
176
     1
 90
        5
176
     1
 90
        0
176
     1
 90
        0
176
     1
290
     0
176
     1
 90
        1
176
     1
 40
0.0
176
     1
 90
        0
176
     1
290
     0
176
     1
290
     1
176
     1
290
     1
176
     1
290
     0
176
     1
290
     0
176
     1
290
     0
176
     1
290
     0
176
     1
290
     0
176
     1
290
     0
176
     1
 90
       50
176
     1
 40
0.0
176
     1
 40
1.0
176
     1
 90
        0
176
     1
 62
    18
420
        0
176
     1
 90
       50
176
     1
 90
        3
176
     1
 62
     5
420
      255
176
     1
290
     0
176
     1
 90
       50
176
     1
 90
       50
176
     1
 90
       50
176
     1
290
     0
176
     1
 90
       50
176
     1
 62
   256
176
     0
 40
1.0
176
     0
 90
        2
176
     1
  1
strokes_ogs.tif
176
     1
290
     0
176
     1
 40
1.0
176
     1
 40
1.0
176
     1
  0
VISUALSTYLE
  5
2B
102
{ACAD_REACTORS
330
2A
102
}
330
2A
100
AcDbVisualStyle
  2
Flat
 70
     0
177
     3
291
     1
 70
    58
 90
        2
176
     1
 90
        1
176
     1
 90
        1
176
     1
 90
        2
176
     1
 40
0.6
176
     1
 40
30.0
176
     1
 62
     7
420
 16777215
176
     1
 90
        0
176
     1
 90
        0
176
     1
 62
     7
176
     1
 62
   257
176
     1
 90
        1
176
     1
 90
        1
176
     1
 40
1.0
176
     1
 90
        8
176
     1
 62
     7
176
     1
 40
1.0
176
     1
 90
        1
176
     1
 90
        6
176
     1
 90
        2
176
     1
 62
     7
176
     1
 90
        5
176
     1
 90
        0
176
     1
 90
        0
176
     1
290
     0
176
     1
 90
       13
176
     1
 40
0.0
176
     1
 90
        0
176
     1
290
     0
176
     1
290
     1
176
     1
290
     1
176
     1
290
     0
176
     1
290
     0
176
     1
290
     0
176
     1
290
     0
176
     1
290
     0
176
     1
290
     0
176
     1
 90
       50
176
     1
 40
0.0
176
     1
 40
1.0
176
     1
 90
        0
176
     1
 62
    18
420
        0
176
     1
 90
       50
176
     1
 90
        3
176
     1
 62
     5
420
      255
176
     1
290
     0
176
     1
 90
       50
176
     1
 90
       50
176
     1
 90
       50
176
     1
290
     0
176
     1
 90
       50
176
     1
 62
   256
176
     0
 40
1.0
176
     0
 90
        2
176
     1
  1
strokes_ogs.tif
176
     1
290
     0
176
     1
 40
1.0
176
     1
 40
1.0
176
     1
  0
VISUALSTYLE
  5
2C
102
{ACAD_REACTORS
330
2A
102
}
330
2A
100
AcDbVisualStyle
  2
FlatWithEdges
 70
     1
177
     3
291
     1
 70
    58
 90
        2
176
     1
 90
        1
176
     1
 90
        1
176
     1
 90
        2
176
     1
 40
0.6
176
     1
 40
30.0
176
     1
 62
     7
420
 16777215
176
     1
 90
        1
176
     1
 90
        0
176
     1
 62
     7
176
     1
 62
   257
176
     1
 90
        1
176
     1
 90
        1
176
     1
 40
1.0
176
     1
 90
        0
176
     1
 62
   257
176
     1
 40
1.0
176
     1
 90
        1
176
     1
 90
        6
176
     1
 90
        2
176
     1
 62
     7
176
     1
 90
        5
176
     1
 90
        0
176
     1
 90
        0
176
     1
290
     0
176
     1
 90
       13
176
     1
 40
0.0
176
     1
 90
        0
176
     1
290
     0
176
     1
290
     1
176
     1
290
     1
176
     1
290
     0
176
     1
290
     0
176
     1
290
     0
176
     1
290
     0
176
     1
290
     0
176
     1
290
     0
176
     1
 90
       50
176
     1
 40
0.0
176
     1
 40
1.0
176
     1
 90
        0
176
     1
 62
    18
420
        0
176
     1
 90
       50
176
     1
 90
        3
176
     1
 62
     5
420
      255
176
     1
290
     0
176
     1
 90
       50
176
     1
 90
       50
176
     1
 90
       50
176
     1
290
     0
176
     1
 90
       50
176
     1
 62
   256
176
     0
 40
1.0
176
     0
 90
        2
176
     1
  1
strokes_ogs.tif
176
     1
290
     0
176
     1
 40
1.0
176
     1
 40
1.0
176
     1
  0
VISUALSTYLE
  5
2D
102
{ACAD_REACTORS
330
2A
102
}
330
2A
100
AcDbVisualStyle
  2
Gouraud
 70
     2
177
     3
291
     1
 70
    58
 90
        2
176
     1
 90
        2
176
     1
 90
        1
176
     1
 90
        2
176
     1
 40
0.6
176
     1
 40
30.0
176
     1
 62
     7
420
 16777215
176
     1
 90
        0
176
     1
 90
        0
176
     1
 62
     7
176
     1
 62
   257
176
     1
 90
        1
176
     1
 90
        1
176
     1
 40
1.0
176
     1
 90
        0
176
     1
 62
     7
176
     1
 40
1.0
176
     1
 90
        1
176
     1
 90
        6
176
     1
 90
        2
176
     1
 62
     7
176
     1
 90
        5
176
     1
 90
        0
176
     1
 90
        0
176
     1
290
     0
176
     1
 90
       13
176
     1
 40
0.0
176
     1
 90
        0
176
     1
290
     0
176
     1
290
     1
176
     1
290
     1
176
     1
290
     0
176
     1
290
     0
176
     1
290
     0
176
     1
290
     0
176
     1
290
     0
176
     1
290
     0
176
     1
 90
       50
176
     1
 40
0.0
176
     1
 40
1.0
176
     1
 90
        0
176
     1
 62
    18
420
        0
176
     1
 90
       50
176
     1
 90
        3
176
     1
 62
     5
420
      255
176
     1
290
     0
176
     1
 90
       50
176
     1
 90
       50
176
     1
 90
       50
176
     1
290
     0
176
     1
 90
       50
176
     1
 62
   256
176
     0
 40
1.0
176
     0
 90
        2
176
     1
  1
strokes_ogs.tif
176
     1
290
     0
176
     1
 40
1.0
176
     1
 40
1.0
176
     1
  0
VISUALSTYLE
  5
2E
102
{ACAD_REACTORS
330
2A
102
}
330
2A
100
AcDbVisualStyle
  2
GouraudWithEdges
 70
     3
177
     3
291
     1
 70
    58
 90
        2
176
     1
 90
        2
176
     1
 90
        1
176
     1
 90
        2
176
     1
 40
0.6
176
     1
 40
30.0
176
     1
 62
     7
420
 16777215
176
     1
 90
        1
176
     1
 90
        0
176
     1
 62
     7
176
     1
 62
   257
176
     1
 90
        1
176
     1
 90
        1
176
     1
 40
1.0
176
     1
 90
        0
176
     1
 62
   257
176
     1
 40
1.0
176
     1
 90
        1
176
     1
 90
        6
176
     1
 90
        2
176
     1
 62
     7
176
     1
 90
        5
176
     1
 90
        0
176
     1
 90
        0
176
     1
290
     0
176
     1
 90
       13
176
     1
 40
0.0
176
     1
 90
        0
176
     1
290
     0
176
     1
290
     1
176
     1
290
     1
176
     1
290
     0
176
     1
290
     0
176
     1
290
     0
176
     1
290
     0
176
     1
290
     0
176
     1
290
     0
176
     1
 90
       50
176
     1
 40
0.0
176
     1
 40
1.0
176
     1
 90
        0
176
     1
 62
    18
420
        0
176
     1
 90
       50
176
     1
 90
        3
176
     1
 62
     5
420
      255
176
     1
290
     0
176
     1
 90
       50
176
     1
 90
       50
176
     1
 90
       50
176
     1
290
     0
176
     1
 90
       50
176
     1
 62
   256
176
     0
 40
1.0
176
     0
 90
        2
176
     1
  1
strokes_ogs.tif
176
     1
290
     0
176
     1
 40
1.0
176
     1
 40
1.0
176
     1
  0
VISUALSTYLE
  5
31
102
{ACAD_REACTORS
330
2A
102
}
330
2A
100
AcDbVisualStyle
  2
Hidden
 70
     6
177
     3
291
     0
 70
    58
 90
        1
176
     1
 90
        2
176
     1
 90
        2
176
     1
 90
        0
176
     1
 40
0.6
176
     1
 40
30.0
176
     1
 62
     7
420
 16777215
176
     1
 90
        2
176
     1
 90
        2
176
     1
 62
     7
176
     1
 62
   257
176
     1
 90
        2
176
     1
 90
        1
176
     1
 40
40.0
176
     1
 90
        0
176
     1
 62
   257
176
     1
 40
1.0
176
     1
 90
        1
176
     1
 90
        6
176
     1
 90
        2
176
     1
 62
     7
176
     1
 90
        3
176
     1
 90
        0
176
     1
 90
        0
176
     1
290
     0
176
     1
 90
        1
176
     1
 40
0.0
176
     1
 90
        0
176
     1
290
     0
176
     1
290
     1
176
     1
290
     1
176
     1
290
     0
176
     1
290
     0
176
     1
290
     0
176
     1
290
     0
176
     1
290
     0
176
     1
290
     0
176
     1
 90
       50
176
     1
 40
0.0
176
     1
 40
1.0
176
     1
 90
        0
176
     1
 62
    18
420
        0
176
     1
 90
       50
176
     1
 90
        3
176
     1
 62
     5
420
      255
176
     1
290
     0
176
     1
 90
       50
176
     1
 90
       50
176
     1
 90
       50
176
     1
290
     0
176
     1
 90
       50
176
     1
 62
   256
176
     0
 40
1.0
176
     0
 90
        2
176
     1
  1
strokes_ogs.tif
176
     1
290
     0
176
     1
 40
1.0
176
     1
 40
1.0
176
     1
  0
VISUALSTYLE
  5
3B
102
{ACAD_REACTORS
330
2A
102
}
330
2A
100
AcDbVisualStyle
  2
JitterOff
 70
    20
177
     3
291
     1
 70
    58
 90
        2
176
     0
 90
        2
176
     0
 90
        0
176
     0
 90
        0
176
     0
 40
0.6
176
     0
 40
30.0
176
     0
 62
     7
420
 16777215
176
     0
 90
        1
176
     0
 90
        4
176
     0
 62
     7
176
     0
 62
   257
176
     0
 90
        1
176
     0
 90
        1
176
     0
 40
1.0
176
     0
 90
       10
176
     2
 62
     7
176
     0
 40
1.0
176
     0
 90
        1
176
     0
 90
        6
176
     0
 90
        2
176
     0
 62
     7
176
     0
 90
        5
176
     0
 90
        0
176
     0
 90
        0
176
     0
290
     0
176
     0
 90
        1
176
     0
 40
0.0
176
     0
 90
        0
176
     0
290
     0
176
     0
290
     1
176
     0
290
     1
176
     0
290
     0
176
     0
290
     0
176
     0
290
     0
176
     0
290
     0
176
     0
290
     0
176
     0
290
     0
176
     0
 90
       50
176
     0
 40
0.0
176
     0
 40
1.0
176
     0
 90
        0
176
     0
 62
    18
420
        0
176
     0
 90
       50
176
     0
 90
        3
176
     0
 62
     5
420
      255
176
     0
290
     0
176
     0
 90
       50
176
     0
 90
       50
176
     0
 90
       50
176
     0
290
     0
176
     0
 90
       50
176
     0
 62
   256
176
     0
 40
1.0
176
     0
 90
        2
176
     0
  1
strokes_ogs.tif
176
     0
290
     0
176
     0
 40
1.0
176
     0
 40
1.0
176
     0
  0
VISUALSTYLE
  5
38
102
{ACAD_REACTORS
330
2A
102
}
330
2A
100
AcDbVisualStyle
  2
Linepattern
 70
    14
177
     3
291
     1
 70
    58
 90
        2
176
     1
 90
        2
176
     1
 90
        0
176
     1
 90
        0
176
     1
 40
0.6
176
     1
 40
30.0
176
     1
 62
     7
420
 16777215
176
     1
 90
        1
176
     1
 90
        4
176
     1
 62
     7
176
     1
 62
   257
176
     1
 90
        7
176
     1
 90
        7
176
     1
 40
1.0
176
     1
 90
        8
176
     1
 62
     7
176
     1
 40
1.0
176
     1
 90
        1
176
     1
 90
        6
176
     1
 90
        2
176
     1
 62
     7
176
     1
 90
        5
176
     1
 90
        0
176
     1
 90
        0
176
     1
290
     0
176
     1
 90
        1
176
     1
 40
0.0
176
     1
 90
        0
176
     1
290
     0
176
     1
290
     1
176
     1
290
     1
176
     1
290
     0
176
     1
290
     0
176
     1
290
     0
176
     1
290
     0
176
     1
290
     0
176
     1
290
     0
176
     1
 90
       50
176
     1
 40
0.0
176
     1
 40
1.0
176
     1
 90
        0
176
     1
 62
    18
420
        0
176
     1
 90
       50
176
     1
 90
        3
176
     1
 62
     5
420
      255
176
     1
290
     0
176
     1
 90
       50
176
     1
 90
       50
176
     1
 90
       50
176
     1
290
     0
176
     1
 90
       50
176
     1
 62
   256
176
     0
 40
1.0
176
     0
 90
        2
176
     1
  1
strokes_ogs.tif
176
     1
290
     0
176
     1
 40
1.0
176
     1
 40
1.0
176
     1
  0
VISUALSTYLE
  5
3C
102
{ACAD_REACTORS
330
2A
102
}
330
2A
100
AcDbVisualStyle
  2
OverhangOff
 70
    21
177
     3
291
     1
 70
    58
 90
        2
176
     0
 90
        2
176
     0
 90
        0
176
     0
 90
        0
176
     0
 40
0.6
176
     0
 40
30.0
176
     0
 62
     7
420
 16777215
176
     0
 90
        1
176
     0
 90
        4
176
     0
 62
     7
176
     0
 62
   257
176
     0
 90
        1
176
     0
 90
        1
176
     0
 40
1.0
176
     0
 90
        9
176
     2
 62
     7
176
     0
 40
1.0
176
     0
 90
        1
176
     0
 90
        6
176
     0
 90
        2
176
     0
 62
     7
176
     0
 90
        5
176
     0
 90
        0
176
     0
 90
        0
176
     0
290
     0
176
     0
 90
        1
176
     0
 40
0.0
176
     0
 90
        0
176
     0
290
     0
176
     0
290
     1
176
     0
290
     1
176
     0
290
     0
176
     0
290
     0
176
     0
290
     0
176
     0
290
     0
176
     0
290
     0
176
     0
290
     0
176
     0
 90
       50
176
     0
 40
0.0
176
     0
 40
1.0
176
     0
 90
        0
176
     0
 62
    18
420
        0
176
     0
 90
       50
176
     0
 90
        3
176
     0
 62
     5
420
      255
176
     0
290
     0
176
     0
 90
       50
176
     0
 90
       50
176
     0
 90
       50
176
     0
290
     0
176
     0
 90
       50
176
     0
 62
   256
176
     0
 40
1.0
176
     0
 90
        2
176
     0
  1
strokes_ogs.tif
176
     0
290
     0
176
     0
 40
1.0
176
     0
 40
1.0
176
     0
  0
VISUALSTYLE
  5
33
102
{ACAD_REACTORS
330
2A
102
}
330
2A
100
AcDbVisualStyle
  2
Realistic
 70
     8
177
     3
291
     0
 70
    58
 90
        2
176
     1
 90
        3
176
     1
 90
        0
176
     1
 90
        2
176
     1
 40
0.6
176
     1
 40
30.0
176
     1
 62
     7
420
 16777215
176
     1
 90
        0
176
     1
 90
        0
176
     1
 62
     7
176
     1
 62
   257
176
     1
 90
        1
176
     1
 90
        1
176
     1
 40
1.0
176
     1
 90
        8
176
     1
 62
   257
176
     1
 40
1.0
176
     1
 90
        1
176
     1
 90
        6
176
     1
 90
        2
176
     1
 62
     7
176
     1
 90
        3
176
     1
 90
        0
176
     1
 90
        0
176
     1
290
     0
176
     1
 90
       13
176
     1
 40
0.0
176
     1
 90
        0
176
     1
290
     0
176
     1
290
     1
176
     1
290
     1
176
     1
290
     0
176
     1
290
     0
176
     1
290
     0
176
     1
290
     0
176
     1
290
     0
176
     1
290
     0
176
     1
 90
       50
176
     1
 40
0.0
176
     1
 40
1.0
176
     1
 90
        0
176
     1
 62
    18
420
        0
176
     1
 90
       50
176
     1
 90
        3
176
     1
 62
     5
420
      255
176
     1
290
     0
176
     1
 90
       50
176
     1
 90
       50
176
     1
 90
       50
176
     1
290
     0
176
     1
 90
       50
176
     1
 62
   256
176
     0
 40
1.0
176
     0
 90
        2
176
     1
  1
strokes_ogs.tif
176
     1
290
     0
176
     1
 40
1.0
176
     1
 40
1.0
176
     1
  0
VISUALSTYLE
  5
42
102
{ACAD_REACTORS
330
2A
102
}
330
2A
100
AcDbVisualStyle
  2
Shaded
 70
    27
177
     3
291
     0
 70
    58
 90
        2
176
     1
 90
        2
176
     1
 90
        1
176
     1
 90
        2
176
     1
 40
0.6
176
     1
 40
30.0
176
     1
 62
     7
420
 16777215
176
     1
 90
        0
176
     1
 90
        4
176
     1
 62
     7
176
     1
 62
   257
176
     1
 90
        1
176
     1
 90
        1
176
     1
 40
1.0
176
     1
 90
        8
176
     1
 62
   257
176
     1
 40
1.0
176
     1
 90
        1
176
     1
 90
        6
176
     1
 90
        2
176
     1
 62
     8
420
  7895160
176
     1
 90
        3
176
     1
 90
        0
176
     1
 90
        0
176
     1
290
     0
176
     1
 90
        5
176
     1
 40
0.0
176
     1
 90
        0
176
     1
290
     0
176
     1
290
     1
176
     1
290
     1
176
     1
290
     0
176
     1
290
     0
176
     1
290
     0
176
     1
290
     0
176
     1
290
     0
176
     1
290
     0
176
     1
 90
       50
176
     1
 40
0.0
176
     1
 40
1.0
176
     1
 90
        0
176
     1
 62
    18
420
        0
176
     1
 90
       50
176
     1
 90
        3
176
     1
 62
     5
420
      255
176
     1
290
     0
176
     1
 90
       50
176
     1
 90
       50
176
     1
 90
       50
176
     1
290
     0
176
     1
 90
       50
176
     1
 62
   256
176
     0
 40
1.0
176
     0
 90
        2
176
     1
  1
strokes_ogs.tif
176
     1
290
     0
176
     1
 40
1.0
176
     1
 40
1.0
176
     1
  0
VISUALSTYLE
  5
41
102
{ACAD_REACTORS
330
2A
102
}
330
2A
100
AcDbVisualStyle
  2
Shaded with edges
 70
    26
177
     3
291
     0
 70
    58
 90
        2
176
     1
 90
        2
176
     1
 90
        1
176
     1
 90
        2
176
     1
 40
0.6
176
     1
 40
30.0
176
     1
 62
     7
420
 16777215
176
     1
 90
        1
176
     1
 90
       10
176
     1
 62
     7
176
     1
 62
   257
176
     1
 90
        2
176
     1
 90
        1
176
     1
 40
1.0
176
     1
 90
        8
176
     1
 62
   257
176
     1
 40
1.0
176
     1
 90
        1
176
     1
 90
        6
176
     1
 90
        2
176
     1
 62
     7
176
     1
 90
        3
176
     1
 90
        0
176
     1
 90
        0
176
     1
290
     0
176
     1
 90
        5
176
     1
 40
0.0
176
     1
 90
        0
176
     1
290
     0
176
     1
290
     1
176
     1
290
     1
176
     1
290
     0
176
     1
290
     0
176
     1
290
     0
176
     1
290
     0
176
     1
290
     0
176
     1
290
     0
176
     1
 90
       50
176
     1
 40
0.0
176
     1
 40
1.0
176
     1
 90
        0
176
     1
 62
    18
420
        0
176
     1
 90
       50
176
     1
 90
        3
176
     1
 62
     5
420
      255
176
     1
290
     0
176
     1
 90
       50
176
     1
 90
       50
176
     1
 90
       50
176
     1
290
     0
176
     1
 90
       50
176
     1
 62
   256
176
     0
 40
1.0
176
     0
 90
        2
176
     1
  1
strokes_ogs.tif
176
     1
290
     0
176
     1
 40
1.0
176
     1
 40
1.0
176
     1
  0
VISUALSTYLE
  5
3E
102
{ACAD_REACTORS
330
2A
102
}
330
2A
100
AcDbVisualStyle
  2
Shades of Gray
 70
    23
177
     3
291
     0
 70
    58
 90
        2
176
     1
 90
        2
176
     1
 90
        3
176
     1
 90
        0
176
     1
 40
0.6
176
     1
 40
30.0
176
     1
 62
     7
420
 16777215
176
     1
 90
        2
176
     1
 90
        2
176
     1
 62
     7
176
     1
 62
     7
176
     1
 90
        1
176
     1
 90
        1
176
     1
 40
40.0
176
     1
 90
        8
176
     1
 62
     7
176
     1
 40
1.0
176
     1
 90
        1
176
     1
 90
        6
176
     1
 90
        2
176
     1
 62
     7
176
     1
 90
        3
176
     1
 90
        0
176
     1
 90
        0
176
     1
290
     0
176
     1
 90
        1
176
     1
 40
0.0
176
     1
 90
        0
176
     1
290
     0
176
     1
290
     1
176
     1
290
     1
176
     1
290
     0
176
     1
290
     0
176
     1
290
     0
176
     1
290
     0
176
     1
290
     0
176
     1
290
     0
176
     1
 90
       50
176
     1
 40
0.0
176
     1
 40
1.0
176
     1
 90
        0
176
     1
 62
    18
420
        0
176
     1
 90
       50
176
     1
 90
        3
176
     1
 62
     5
420
      255
176
     1
290
     0
176
     1
 90
       50
176
     1
 90
       50
176
     1
 90
       50
176
     1
290
     0
176
     1
 90
       50
176
     1
 62
   256
176
     0
 40
1.0
176
     0
 90
        2
176
     1
  1
strokes_ogs.tif
176
     1
290
     0
176
     1
 40
1.0
176
     1
 40
1.0
176
     1
  0
VISUALSTYLE
  5
3F
102
{ACAD_REACTORS
330
2A
102
}
330
2A
100
AcDbVisualStyle
  2
Sketchy
 70
    24
177
     3
291
     0
 70
    58
 90
        1
176
     1
 90
        2
176
     1
 90
        2
176
     1
 90
        0
176
     1
 40
0.6
176
     1
 40
30.0
176
     1
 62
     7
420
 16777215
176
     1
 90
        2
176
     1
 90
        2
176
     1
 62
     7
176
     1
 62
     7
176
     1
 90
        1
176
     1
 90
        1
176
     1
 40
40.0
176
     1
 90
       11
176
     1
 62
     7
176
     1
 40
1.0
176
     1
 90
        1
176
     1
 90
        6
176
     1
 90
        2
176
     1
 62
     7
176
     1
 90
        6
176
     1
 90
        0
176
     1
 90
        0
176
     1
290
     0
176
     1
 90
        1
176
     1
 40
0.0
176
     1
 90
        0
176
     1
290
     0
176
     1
290
     1
176
     1
290
     1
176
     1
290
     0
176
     1
290
     0
176
     1
290
     0
176
     1
290
     0
176
     1
290
     0
176
     1
290
     0
176
     1
 90
       50
176
     1
 40
0.0
176
     1
 40
1.0
176
     1
 90
        0
176
     1
 62
    18
420
        0
176
     1
 90
       50
176
     1
 90
        3
176
     1
 62
     5
420
      255
176
     1
290
     0
176
     1
 90
       50
176
     1
 90
       50
176
     1
 90
       50
176
     1
290
     0
176
     1
 90
       50
176
     1
 62
   256
176
     0
 40
1.0
176
     0
 90
        2
176
     1
  1
strokes_ogs.tif
176
     1
290
     0
176
     1
 40
1.0
176
     1
 40
1.0
176
     1
  0
VISUALSTYLE
  5
37
102
{ACAD_REACTORS
330
2A
102
}
330
2A
100
AcDbVisualStyle
  2
Thicken
 70
    13
177
     3
291
     1
 70
    58
 90
        2
176
     1
 90
        2
176
     1
 90
        0
176
     1
 90
        0
176
     1
 40
0.6
176
     1
 40
30.0
176
     1
 62
     7
420
 16777215
176
     1
 90
        1
176
     1
 90
        4
176
     1
 62
     7
176
     1
 62
   257
176
     1
 90
        1
176
     1
 90
        1
176
     1
 40
1.0
176
     1
 90
       12
176
     1
 62
     7
176
     1
 40
1.0
176
     1
 90
        1
176
     1
 90
        6
176
     1
 90
        2
176
     1
 62
     7
176
     1
 90
        5
176
     1
 90
        0
176
     1
 90
        0
176
     1
290
     0
176
     1
 90
        1
176
     1
 40
0.0
176
     1
 90
        0
176
     1
290
     0
176
     1
290
     1
176
     1
290
     1
176
     1
290
     0
176
     1
290
     0
176
     1
290
     0
176
     1
290
     0
176
     1
290
     0
176
     1
290
     0
176
     1
 90
       50
176
     1
 40
0.0
176
     1
 40
1.0
176
     1
 90
        0
176
     1
 62
    18
420
        0
176
     1
 90
       50
176
     1
 90
        3
176
     1
 62
     5
420
      255
176
     1
290
     0
176
     1
 90
       50
176
     1
 90
       50
176
     1
 90
       50
176
     1
290
     0
176
     1
 90
       50
176
     1
 62
   256
176
     0
 40
1.0
176
     0
 90
        2
176
     1
  1
strokes_ogs.tif
176
     1
290
     0
176
     1
 40
1.0
176
     1
 40
1.0
176
     1
  0
VISUALSTYLE
  5
30
102
{ACAD_REACTORS
330
2A
102
}
330
2A
100
AcDbVisualStyle
  2
Wireframe
 70
     5
177
     3
291
     0
 70
    58
 90
        0
176
     1
 90
        2
176
     1
 90
        0
176
     1
 90
        0
176
     1
 40
0.6
176
     1
 40
30.0
176
     1
 62
     7
420
 16777215
176
     1
 90
        1
176
     1
 90
        4
176
     1
 62
     7
176
     1
 62
   257
176
     1
 90
        1
176
     1
 90
        1
176
     1
 40
1.0
176
     1
 90
        0
176
     1
 62
   257
176
     1
 40
1.0
176
     1
 90
        1
176
     1
 90
        6
176
     1
 90
        2
176
     1
 62
     7
176
     1
 90
        3
176
     1
 90
        0
176
     1
 90
        0
176
     1
290
     0
176
     1
 90
        1
176
     1
 40
0.0
176
     1
 90
        0
176
     1
290
     0
176
     1
290
     1
176
     1
290
     1
176
     1
290
     0
176
     1
290
     0
176
     1
290
     0
176
     1
290
     0
176
     1
290
     0
176
     1
290
     0
176
     1
 90
       50
176
     1
 40
0.0
176
     1
 40
1.0
176
     1
 90
        0
176
     1
 62
    18
420
        0
176
     1
 90
       50
176
     1
 90
        3
176
     1
 62
     5
420
      255
176
     1
290
     0
176
     1
 90
       50
176
     1
 90
       50
176
     1
 90
       50
176
     1
290
     0
176
     1
 90
       50
176
     1
 62
   256
176
     0
 40
1.0
176
     0
 90
        2
176
     1
  1
strokes_ogs.tif
176
     1
290
     0
176
     1
 40
1.0
176
     1
 40
1.0
176
     1
  0
VISUALSTYLE
  5
40
102
{ACAD_REACTORS
330
2A
102
}
330
2A
100
AcDbVisualStyle
  2
X-Ray
 70
    25
177
     3
291
     0
 70
    58
 90
        2
176
     1
 90
        2
176
     1
 90
        1
176
     1
 90
        1
176
     1
 40
0.5
176
     1
 40
30.0
176
     1
 62
     7
420
 16777215
176
     1
 90
        1
176
     1
 90
        0
176
     1
 62
     7
176
     1
 62
   257
176
     1
 90
        1
176
     1
 90
        1
176
     1
 40
1.0
176
     1
 90
        8
176
     1
 62
     7
176
     1
 40
1.0
176
     1
 90
        1
176
     1
 90
        6
176
     1
 90
        2
176
     1
 62
     7
176
     1
 90
        3
176
     1
 90
        0
176
     1
 90
        0
176
     1
290
     0
176
     1
 90
       13
176
     1
 40
0.0
176
     1
 90
        0
176
     1
290
     0
176
     1
290
     1
176
     1
290
     1
176
     1
290
     0
176
     1
290
     0
176
     1
290
     0
176
     1
290
     0
176
     1
290
     0
176
     1
290
     0
176
     1
 90
       50
176
     1
 40
0.0
176
     1
 40
1.0
176
     1
 90
        0
176
     1
 62
    18
420
        0
176
     1
 90
       50
176
     1
 90
        3
176
     1
 62
     5
420
      255
176
     1
290
     0
176
     1
 90
       50
176
     1
 90
       50
176
     1
 90
       50
176
     1
290
     0
176
     1
 90
       50
176
     1
 62
   256
176
     0
 40
1.0
176
     0
 90
        2
176
     1
  1
strokes_ogs.tif
176
     1
290
     0
176
     1
 40
1.0
176
     1
 40
1.0
176
     1
  0
DICTIONARYVAR
  5
18A
102
{ACAD_REACTORS
330
189
102
}
330
189
100
DictionaryVariables
280
     0
  1
1:1
  0
DICTIONARYVAR
  5
18F
102
{ACAD_REACTORS
330
189
102
}
330
189
100
DictionaryVariables
280
     0
  1
Standard
  0
DICTIONARYVAR
  5
18E
102
{ACAD_REACTORS
330
189
102
}
330
189
100
DictionaryVariables
280
     0
  1
Standard
  0
DICTIONARY
  5
18B
330
6A
100
AcDbDictionary
280
     1
281
     1
  3
ACAD_ROUNDTRIP_2008_TABLESTYLE_CELLSTYLEMAP
360
18C
  0
CELLSTYLEMAP
  5
18C
102
{ACAD_REACTORS
330
18B
102
}
330
18B
100
AcDbCellStyleMap
 90
        3
300
CELLSTYLE
  1
TABLEFORMAT_BEGIN
 90
        5
170
     1
 91
        0
 92
    32768
 62
   257
 93
        1
300
CONTENTFORMAT
  1
CONTENTFORMAT_BEGIN
 90
        0
 91
        0
 92
        4
 93
        0
300

 40
0.0
140
1.0
 94
        5
 62
     0
340
11
144
0.25
309
CONTENTFORMAT_END
171
     1
301
MARGIN
  1
CELLMARGIN_BEGIN
 40
0.06
 40
0.06
 40
0.06
 40
0.06
 40
0.06
 40
0.06
309
CELLMARGIN_END
 94
        6
 95
        1
302
GRIDFORMAT
  1
GRIDFORMAT_BEGIN
 90
        0
 91
        1
 62
     0
 92
       -2
340
14
 93
        0
 40
0.045
309
GRIDFORMAT_END
 95
        2
302
GRIDFORMAT
  1
GRIDFORMAT_BEGIN
 90
        0
 91
        1
 62
     0
 92
       -2
340
14
 93
        0
 40
0.045
309
GRIDFORMAT_END
 95
        4
302
GRIDFORMAT
  1
GRIDFORMAT_BEGIN
 90
        0
 91
        1
 62
     0
 92
       -2
340
14
 93
        0
 40
0.045
309
GRIDFORMAT_END
 95
        8
302
GRIDFORMAT
  1
GRIDFORMAT_BEGIN
 90
        0
 91
        1
 62
     0
 92
       -2
340
14
 93
        0
 40
0.045
309
GRIDFORMAT_END
 95
       16
302
GRIDFORMAT
  1
GRIDFORMAT_BEGIN
 90
        0
 91
        1
 62
     0
 92
       -2
340
14
 93
        0
 40
0.045
309
GRIDFORMAT_END
 95
       32
302
GRIDFORMAT
  1
GRIDFORMAT_BEGIN
 90
        0
 91
        1
 62
     0
 92
       -2
340
14
 93
        0
 40
0.045
309
GRIDFORMAT_END
309
TABLEFORMAT_END
  1
CELLSTYLE_BEGIN
 90
        1
 91
        1
300
_TITLE
309
CELLSTYLE_END
300
CELLSTYLE
  1
TABLEFORMAT_BEGIN
 90
        5
170
     1
 91
        0
 92
        0
 62
   257
 93
        1
300
CONTENTFORMAT
  1
CONTENTFORMAT_BEGIN
 90
        0
 91
        0
 92
        4
 93
        0
300

 40
0.0
140
1.0
 94
        5
 62
     0
340
11
144
0.18
309
CONTENTFORMAT_END
171
     1
301
MARGIN
  1
CELLMARGIN_BEGIN
 40
0.06
 40
0.06
 40
0.06
 40
0.06
 40
0.06
 40
0.06
309
CELLMARGIN_END
 94
        6
 95
        1
302
GRIDFORMAT
  1
GRIDFORMAT_BEGIN
 90
        0
 91
        1
 62
     0
 92
       -2
340
14
 93
        0
 40
0.045
309
GRIDFORMAT_END
 95
        2
302
GRIDFORMAT
  1
GRIDFORMAT_BEGIN
 90
        0
 91
        1
 62
     0
 92
       -2
340
14
 93
        0
 40
0.045
309
GRIDFORMAT_END
 95
        4
302
GRIDFORMAT
  1
GRIDFORMAT_BEGIN
 90
        0
 91
        1
 62
     0
 92
       -2
340
14
 93
        0
 40
0.045
309
GRIDFORMAT_END
 95
        8
302
GRIDFORMAT
  1
GRIDFORMAT_BEGIN
 90
        0
 91
        1
 62
     0
 92
       -2
340
14
 93
        0
 40
0.045
309
GRIDFORMAT_END
 95
       16
302
GRIDFORMAT
  1
GRIDFORMAT_BEGIN
 90
        0
 91
        1
 62
     0
 92
       -2
340
14
 93
        0
 40
0.045
309
GRIDFORMAT_END
 95
       32
302
GRIDFORMAT
  1
GRIDFORMAT_BEGIN
 90
        0
 91
        1
 62
     0
 92
       -2
340
14
 93
        0
 40
0.045
309
GRIDFORMAT_END
309
TABLEFORMAT_END
  1
CELLSTYLE_BEGIN
 90
        2
 91
        1
300
_HEADER
309
CELLSTYLE_END
300
CELLSTYLE
  1
TABLEFORMAT_BEGIN
 90
        5
170
     1
 91
        0
 92
        0
 62
   257
 93
        1
300
CONTENTFORMAT
  1
CONTENTFORMAT_BEGIN
 90
        0
 91
        0
 92
        4
 93
        0
300

 40
0.0
140
1.0
 94
        2
 62
     0
340
11
144
0.18
309
CONTENTFORMAT_END
171
     1
301
MARGIN
  1
CELLMARGIN_BEGIN
 40
0.06
 40
0.06
 40
0.06
 40
0.06
 40
0.06
 40
0.06
309
CELLMARGIN_END
 94
        6
 95
        1
302
GRIDFORMAT
  1
GRIDFORMAT_BEGIN
 90
        0
 91
        1
 62
     0
 92
       -2
340
14
 93
        0
 40
0.045
309
GRIDFORMAT_END
 95
        2
302
GRIDFORMAT
  1
GRIDFORMAT_BEGIN
 90
        0
 91
        1
 62
     0
 92
       -2
340
14
 93
        0
 40
0.045
309
GRIDFORMAT_END
 95
        4
302
GRIDFORMAT
  1
GRIDFORMAT_BEGIN
 90
        0
 91
        1
 62
     0
 92
       -2
340
14
 93
        0
 40
0.045
309
GRIDFORMAT_END
 95
        8
302
GRIDFORMAT
  1
GRIDFORMAT_BEGIN
 90
        0
 91
        1
 62
     0
 92
       -2
340
14
 93
        0
 40
0.045
309
GRIDFORMAT_END
 95
       16
302
GRIDFORMAT
  1
GRIDFORMAT_BEGIN
 90
        0
 91
        1
 62
     0
 92
       -2
340
14
 93
        0
 40
0.045
309
GRIDFORMAT_END
 95
       32
302
GRIDFORMAT
  1
GRIDFORMAT_BEGIN
 90
        0
 91
        1
 62
     0
 92
       -2
340
14
 93
        0
 40
0.045
309
GRIDFORMAT_END
309
TABLEFORMAT_END
  1
CELLSTYLE_BEGIN
 90
        3
 91
        2
300
_DATA
309
CELLSTYLE_END
  0
ENDSEC
  0
EOF