0
SECTION
  2
HEADER
  9
$ACADVER
  1
AC1027
  9
$ACADMAINTVER
 70
     8
  9
$DWGCODEPAGE
  3
ANSI_1252
  9
$REQUIREDVERSIONS
160
                 0
  9
$COMMENTS
  1
File was created by Cadenas
  9
$CUSTOMPROPERTYTAG
  1
NN
  9
$CUSTOMPROPERTY
  1
Set Screw Two-Bolt Flange Inch Bore - Polymer Housing, Corrosion Resistant Insert
  9
$CUSTOMPROPERTYTAG
  1
NT
  9
$CUSTOMPROPERTY
  1
SC 2 Bolt Flange Bearings -(Normal Duty) -Corrosion Resistant Insert -Polymer Housed -E-Z KLEEN
  9
$CUSTOMPROPERTYTAG
  1
NB
  9
$CUSTOMPROPERTY
  1
057687
  9
$CUSTOMPROPERTYTAG
  1
NBSYN
  9
$CUSTOMPROPERTY
  1
$PN.
  9
$CUSTOMPROPERTYTAG
  1
LINA
  9
$CUSTOMPROPERTY
  1
057687
  9
$CUSTOMPROPERTYTAG
  1
SERIES
  9
$CUSTOMPROPERTY
  1
207
  9
$CUSTOMPROPERTYTAG
  1
SS
  9
$CUSTOMPROPERTY
  1
1-1/4
  9
$CUSTOMPROPERTYTAG
  1
PN
  9
$CUSTOMPROPERTY
  1
057687
  9
$CUSTOMPROPERTYTAG
  1
DESCRIPTION
  9
$CUSTOMPROPERTY
  1
F2B-SCEZ-104-P
  9
$CUSTOMPROPERTYTAG
  1
W
  9
$CUSTOMPROPERTY
  1
1.36
  9
$CUSTOMPROPERTYTAG
  1
A
  9
$CUSTOMPROPERTY
  1
1.71
  9
$CUSTOMPROPERTYTAG
  1
B
  9
$CUSTOMPROPERTY
  1
6.31
  9
$CUSTOMPROPERTYTAG
  1
C
  9
$CUSTOMPROPERTY
  1
1.82
  9
$CUSTOMPROPERTYTAG
  1
D
  9
$CUSTOMPROPERTY
  1
5.12
  9
$CUSTOMPROPERTYTAG
  1
F
  9
$CUSTOMPROPERTY
  1
1/2
  9
$CUSTOMPROPERTYTAG
  1
H
  9
$CUSTOMPROPERTY
  1
0.62
  9
$CUSTOMPROPERTYTAG
  1
J
  9
$CUSTOMPROPERTY
  1
0.54
  9
$CUSTOMPROPERTYTAG
  1
L
  9
$CUSTOMPROPERTY
  1
1.84
  9
$CUSTOMPROPERTYTAG
  1
M
  9
$CUSTOMPROPERTY
  1
3.69
  9
$CUSTOMPROPERTYTAG
  1
COMPANY
  9
$CUSTOMPROPERTY
  1
baldor
  9
$INSBASE
 10
0.0
 20
0.0
 30
0.0
  9
$EXTMIN
 10
1.000000000000000E+20
 20
1.000000000000000E+20
 30
1.000000000000000E+20
  9
$EXTMAX
 10
-1.000000000000000E+20
 20
-1.000000000000000E+20
 30
-1.000000000000000E+20
  9
$LIMMIN
 10
0.0
 20
0.0
  9
$LIMMAX
 10
12.0
 20
9.0
  9
$ORTHOMODE
 70
     0
  9
$REGENMODE
 70
     1
  9
$FILLMODE
 70
     1
  9
$QTEXTMODE
 70
     0
  9
$MIRRTEXT
 70
     1
  9
$LTSCALE
 40
1.0
  9
$ATTMODE
 70
     1
  9
$TEXTSIZE
 40
0.2
  9
$TRACEWID
 40
0.05
  9
$TEXTSTYLE
  7
Standard
  9
$CLAYER
  8
0
  9
$CELTYPE
  6
ByLayer
  9
$CECOLOR
 62
   256
  9
$CELTSCALE
 40
1.0
  9
$DISPSILH
 70
     0
  9
$DIMSCALE
 40
1.0
  9
$DIMASZ
 40
0.18
  9
$DIMEXO
 40
0.0625
  9
$DIMDLI
 40
0.38
  9
$DIMRND
 40
0.0
  9
$DIMDLE
 40
0.0
  9
$DIMEXE
 40
0.18
  9
$DIMTP
 40
0.0
  9
$DIMTM
 40
0.0
  9
$DIMTXT
 40
0.18
  9
$DIMCEN
 40
0.09
  9
$DIMTSZ
 40
0.0
  9
$DIMTOL
 70
     0
  9
$DIMLIM
 70
     0
  9
$DIMTIH
 70
     1
  9
$DIMTOH
 70
     1
  9
$DIMSE1
 70
     0
  9
$DIMSE2
 70
     0
  9
$DIMTAD
 70
     0
  9
$DIMZIN
 70
     0
  9
$DIMBLK
  1

  9
$DIMASO
 70
     1
  9
$DIMSHO
 70
     1
  9
$DIMPOST
  1

  9
$DIMAPOST
  1

  9
$DIMALT
 70
     0
  9
$DIMALTD
 70
     2
  9
$DIMALTF
 40
25.4
  9
$DIMLFAC
 40
1.0
  9
$DIMTOFL
 70
     0
  9
$DIMTVP
 40
0.0
  9
$DIMTIX
 70
     0
  9
$DIMSOXD
 70
     0
  9
$DIMSAH
 70
     0
  9
$DIMBLK1
  1

  9
$DIMBLK2
  1

  9
$DIMSTYLE
  2
Standard
  9
$DIMCLRD
 70
     0
  9
$DIMCLRE
 70
     0
  9
$DIMCLRT
 70
     0
  9
$DIMTFAC
 40
1.0
  9
$DIMGAP
 40
0.09
  9
$DIMJUST
 70
     0
  9
$DIMSD1
 70
     0
  9
$DIMSD2
 70
     0
  9
$DIMTOLJ
 70
     1
  9
$DIMTZIN
 70
     0
  9
$DIMALTZ
 70
     0
  9
$DIMALTTZ
 70
     0
  9
$DIMUPT
 70
     0
  9
$DIMDEC
 70
     4
  9
$DIMTDEC
 70
     4
  9
$DIMALTU
 70
     2
  9
$DIMALTTD
 70
     2
  9
$DIMTXSTY
  7
Standard
  9
$DIMAUNIT
 70
     0
  9
$DIMADEC
 70
     0
  9
$DIMALTRND
 40
0.0
  9
$DIMAZIN
 70
     0
  9
$DIMDSEP
 70
    46
  9
$DIMATFIT
 70
     3
  9
$DIMFRAC
 70
     0
  9
$DIMLDRBLK
  1

  9
$DIMLUNIT
 70
     2
  9
$DIMLWD
 70
    -2
  9
$DIMLWE
 70
    -2
  9
$DIMTMOVE
 70
     0
  9
$DIMFXL
 40
1.0
  9
$DIMFXLON
 70
     0
  9
$DIMJOGANG
 40
0.7853981633974483
  9
$DIMTFILL
 70
     0
  9
$DIMTFILLCLR
 70
     0
  9
$DIMARCSYM
 70
     0
  9
$DIMLTYPE
  6

  9
$DIMLTEX1
  6

  9
$DIMLTEX2
  6

  9
$DIMTXTDIRECTION
 70
     0
  9
$LUNITS
 70
     2
  9
$LUPREC
 70
     4
  9
$SKETCHINC
 40
0.1
  9
$FILLETRAD
 40
0.5
  9
$AUNITS
 70
     0
  9
$AUPREC
 70
     0
  9
$MENU
  1
.
  9
$ELEVATION
 40
0.0
  9
$PELEVATION
 40
0.0
  9
$THICKNESS
 40
0.0
  9
$LIMCHECK
 70
     0
  9
$CHAMFERA
 40
0.0
  9
$CHAMFERB
 40
0.0
  9
$CHAMFERC
 40
0.0
  9
$CHAMFERD
 40
0.0
  9
$SKPOLY
 70
     0
  9
$TDCREATE
 40
2458168.99796272
  9
$TDUCREATE
 40
2458168.956296053
  9
$TDUPDATE
 40
2458168.997962893
  9
$TDUUPDATE
 40
2458168.956296227
  9
$TDINDWG
 40
0.0000000116
  9
$TDUSRTIMER
 40
0.0000000116
  9
$USRTIMER
 70
     1
  9
$ANGBASE
 50
0.0
  9
$ANGDIR
 70
     0
  9
$PDMODE
 70
     0
  9
$PDSIZE
 40
0.0
  9
$PLINEWID
 40
0.0
  9
$SPLFRAME
 70
     0
  9
$SPLINETYPE
 70
     6
  9
$SPLINESEGS
 70
     8
  9
$HANDSEED
  5
170
  9
$SURFTAB1
 70
     6
  9
$SURFTAB2
 70
     6
  9
$SURFTYPE
 70
     6
  9
$SURFU
 70
     6
  9
$SURFV
 70
     6
  9
$UCSBASE
  2

  9
$UCSNAME
  2

  9
$UCSORG
 10
0.0
 20
0.0
 30
0.0
  9
$UCSXDIR
 10
1.0
 20
0.0
 30
0.0
  9
$UCSYDIR
 10
0.0
 20
1.0
 30
0.0
  9
$UCSORTHOREF
  2

  9
$UCSORTHOVIEW
 70
     0
  9
$UCSORGTOP
 10
0.0
 20
0.0
 30
0.0
  9
$UCSORGBOTTOM
 10
0.0
 20
0.0
 30
0.0
  9
$UCSORGLEFT
 10
0.0
 20
0.0
 30
0.0
  9
$UCSORGRIGHT
 10
0.0
 20
0.0
 30
0.0
  9
$UCSORGFRONT
 10
0.0
 20
0.0
 30
0.0
  9
$UCSORGBACK
 10
0.0
 20
0.0
 30
0.0
  9
$PUCSBASE
  2

  9
$PUCSNAME
  2

  9
$PUCSORG
 10
0.0
 20
0.0
 30
0.0
  9
$PUCSXDIR
 10
1.0
 20
0.0
 30
0.0
  9
$PUCSYDIR
 10
0.0
 20
1.0
 30
0.0
  9
$PUCSORTHOREF
  2

  9
$PUCSORTHOVIEW
 70
     0
  9
$PUCSORGTOP
 10
0.0
 20
0.0
 30
0.0
  9
$PUCSORGBOTTOM
 10
0.0
 20
0.0
 30
0.0
  9
$PUCSORGLEFT
 10
0.0
 20
0.0
 30
0.0
  9
$PUCSORGRIGHT
 10
0.0
 20
0.0
 30
0.0
  9
$PUCSORGFRONT
 10
0.0
 20
0.0
 30
0.0
  9
$PUCSORGBACK
 10
0.0
 20
0.0
 30
0.0
  9
$USERI1
 70
     0
  9
$USERI2
 70
     0
  9
$USERI3
 70
     0
  9
$USERI4
 70
     0
  9
$USERI5
 70
     0
  9
$USERR1
 40
0.0
  9
$USERR2
 40
0.0
  9
$USERR3
 40
0.0
  9
$USERR4
 40
0.0
  9
$USERR5
 40
0.0
  9
$WORLDVIEW
 70
     1
  9
$SHADEDGE
 70
     3
  9
$SHADEDIF
 70
    70
  9
$TILEMODE
 70
     1
  9
$MAXACTVP
 70
    64
  9
$PINSBASE
 10
0.0
 20
0.0
 30
0.0
  9
$PLIMCHECK
 70
     0
  9
$PEXTMIN
 10
1.000000000000000E+20
 20
1.000000000000000E+20
 30
1.000000000000000E+20
  9
$PEXTMAX
 10
-1.000000000000000E+20
 20
-1.000000000000000E+20
 30
-1.000000000000000E+20
  9
$PLIMMIN
 10
0.0
 20
0.0
  9
$PLIMMAX
 10
12.0
 20
9.0
  9
$UNITMODE
 70
     0
  9
$VISRETAIN
 70
     1
  9
$PLINEGEN
 70
     0
  9
$PSLTSCALE
 70
     1
  9
$TREEDEPTH
 70
  3020
  9
$CMLSTYLE
  2
Standard
  9
$CMLJUST
 70
     0
  9
$CMLSCALE
 40
1.0
  9
$PROXYGRAPHICS
 70
     1
  9
$MEASUREMENT
 70
     0
  9
$CELWEIGHT
370
    -1
  9
$ENDCAPS
280
     0
  9
$JOINSTYLE
280
     0
  9
$LWDISPLAY
290
     0
  9
$INSUNITS
 70
     1
  9
$HYPERLINKBASE
  1

  9
$STYLESHEET
  1

  9
$XEDIT
290
     1
  9
$CEPSNTYPE
380
     0
  9
$PSTYLEMODE
290
     1
  9
$FINGERPRINTGUID
  2
{2F5873E4-FECE-4493-873F-0BAF5C981A41}
  9
$VERSIONGUID
  2
{FAEB1C32-E019-11D5-929B-00C0DF256EC4}
  9
$EXTNAMES
290
     1
  9
$PSVPSCALE
 40
0.0
  9
$OLESTARTUP
290
     0
  9
$SORTENTS
280
   127
  9
$INDEXCTL
280
     0
  9
$HIDETEXT
280
     1
  9
$XCLIPFRAME
280
     2
  9
$HALOGAP
280
     0
  9
$OBSCOLOR
 70
   257
  9
$OBSLTYPE
280
     0
  9
$INTERSECTIONDISPLAY
280
     0
  9
$INTERSECTIONCOLOR
 70
   257
  9
$DIMASSOC
280
     2
  9
$PROJECTNAME
  1

  9
$CAMERADISPLAY
290
     0
  9
$LENSLENGTH
 40
50.0
  9
$CAMERAHEIGHT
 40
0.0
  9
$STEPSPERSEC
 40
2.0
  9
$STEPSIZE
 40
6.0
  9
$3DDWFPREC
 40
2.0
  9
$PSOLWIDTH
 40
0.25
  9
$PSOLHEIGHT
 40
4.0
  9
$LOFTANG1
 40
1.570796326794897
  9
$LOFTANG2
 40
1.570796326794897
  9
$LOFTMAG1
 40
0.0
  9
$LOFTMAG2
 40
0.0
  9
$LOFTPARAM
 70
     7
  9
$LOFTNORMALS
280
     1
  9
$LATITUDE
 40
37.795
  9
$LONGITUDE
 40
-122.394
  9
$NORTHDIRECTION
 40
0.0
  9
$TIMEZONE
 70
 -8000
  9
$LIGHTGLYPHDISPLAY
280
     1
  9
$TILEMODELIGHTSYNCH
280
     1
  9
$CMATERIAL
347
44
  9
$SOLIDHIST
280
     0
  9
$SHOWHIST
280
     1
  9
$DWFFRAME
280
     2
  9
$DGNFRAME
280
     2
  9
$REALWORLDSCALE
290
     1
  9
$INTERFERECOLOR
 62
   256
  9
$CSHADOW
280
     0
  9
$SHADOWPLANELOCATION
 40
0.0
  0
ENDSEC
  0
SECTION
  2
CLASSES
  0
CLASS
  1
ACDBDICTIONARYWDFLT
  2
AcDbDictionaryWithDefault
  3
ObjectDBX Classes
 90
        0
 91
        4
280
     0
281
     0
  0
CLASS
  1
VISUALSTYLE
  2
AcDbVisualStyle
  3
ObjectDBX Classes
 90
     4095
 91
        4
280
     0
281
     0
  0
CLASS
  1
MATERIAL
  2
AcDbMaterial
  3
ObjectDBX Classes
 90
     1153
 91
        4
280
     0
281
     0
  0
CLASS
  1
SCALE
  2
AcDbScale
  3
ObjectDBX Classes
 90
     1153
 91
        4
280
     0
281
     0
  0
CLASS
  1
TABLESTYLE
  2
AcDbTableStyle
  3
ObjectDBX Classes
 90
     4095
 91
        4
280
     0
281
     0
  0
CLASS
  1
MLEADERSTYLE
  2
AcDbMLeaderStyle
  3
ACDB_MLEADERSTYLE_CLASS
 90
     4095
 91
        4
280
     0
281
     0
  0
CLASS
  1
SUN
  2
AcDbSun
  3
SCENEOE
 90
     1153
 91
        4
280
     0
281
     0
  0
CLASS
  1
DICTIONARYVAR
  2
AcDbDictionaryVar
  3
ObjectDBX Classes
 90
        0
 91
        4
280
     0
281
     0
  0
CLASS
  1
CELLSTYLEMAP
  2
AcDbCellStyleMap
  3
ObjectDBX Classes
 90
     1152
 91
        4
280
     0
281
     0
  0
ENDSEC
  0
SECTION
  2
TABLES
  0
TABLE
  2
VPORT
  5
8
330
0
100
AcDbSymbolTable
 70
     1
  0
VPORT
  5
29
330
8
100
AcDbSymbolTableRecord
100
AcDbViewportTableRecord
  2
*Active
 70
     0
 10
0.0
 20
0.0
 11
1.0
 21
1.0
 12
0.0
 22
-0.9184749999999999
 13
0.0
 23
0.0
 14
0.5
 24
0.5
 15
0.5
 25
0.5
 16
0.0
 26
0.0
 36
1.0
 17
0.0
 27
0.0
 37
0.0
 40
2.013531
 41
1.869253565005953
 42
50.0
 43
0.0
 44
0.0
 50
0.0
 51
0.0
 71
     0
 72
   100
 73
     1
 74
     3
 75
     0
 76
     0
 77
     0
 78
     0
281
     0
 65
     1
110
0.0
120
0.0
130
0.0
111
1.0
121
0.0
131
0.0
112
0.0
122
1.0
132
0.0
 79
     0
146
0.0
348
2F
 60
     3
 61
     5
292
     1
282
     1
141
0.0
142
0.0
 63
   250
361
6D
  0
ENDTAB
  0
TABLE
  2
LTYPE
  5
5
330
0
100
AcDbSymbolTable
 70
     3
  0
LTYPE
  5
14
330
5
100
AcDbSymbolTableRecord
100
AcDbLinetypeTableRecord
  2
ByBlock
 70
     0
  3

 72
    65
 73
     0
 40
0.0
  0
LTYPE
  5
15
330
5
100
AcDbSymbolTableRecord
100
AcDbLinetypeTableRecord
  2
ByLayer
 70
     0
  3

 72
    65
 73
     0
 40
0.0
  0
LTYPE
  5
16
330
5
100
AcDbSymbolTableRecord
100
AcDbLinetypeTableRecord
  2
Continuous
 70
     0
  3
Solid line
 72
    65
 73
     0
 40
0.0
  0
LTYPE
  5
99
330
5
100
AcDbSymbolTableRecord
100
AcDbLinetypeTableRecord
  2
Dashed
 70
     0
  3

 72
    65
 73
     2
 40
2.0
 49
1.0
 74
     0
 49
-1.0
 74
     0
  0
LTYPE
  5
11C
330
5
100
AcDbSymbolTableRecord
100
AcDbLinetypeTableRecord
  2
Center
 70
     0
  3

 72
    65
 73
     4
 40
1.5
 49
0.45
 74
     0
 49
-0.5
 74
     0
 49
0.05
 74
     0
 49
-0.5
 74
     0
  0
ENDTAB
  0
TABLE
  2
LAYER
  5
2
330
0
100
AcDbSymbolTable
 70
     7
  0
LAYER
  5
10
330
2
100
AcDbSymbolTableRecord
100
AcDbLayerTableRecord
  2
0
 70
     0
 62
     7
  6
Continuous
370
    -3
390
F
347
46
348
0
  0
LAYER
  5
72
330
2
100
AcDbSymbolTableRecord
100
AcDbLayerTableRecord
  2
AM_6
 70
     0
 62
    -2
  6
Continuous
370
    35
390
F
347
46
348
0
  0
LAYER
  5
9A
330
2
100
AcDbSymbolTableRecord
100
AcDbLayerTableRecord
  2
AM_9
 70
     0
 62
     6
  6
Dashed
370
    25
390
F
347
46
348
0
  0
LAYER
  5
B6
330
2
100
AcDbSymbolTableRecord
100
AcDbLayerTableRecord
  2
AM_4
 70
     0
 62
     7
  6
Continuous
370
    50
390
F
347
46
348
0
  0
LAYER
  5
11D
330
2
100
AcDbSymbolTableRecord
100
AcDbLayerTableRecord
  2
AM_7
 70
     0
 62
     7
  6
Center
370
    25
390
F
347
46
348
0
  0
LAYER
  5
12C
330
2
100
AcDbSymbolTableRecord
100
AcDbLayerTableRecord
  2
AM_5
 70
     0
 62
     3
  6
Continuous
370
    25
390
F
347
46
348
0
  0
LAYER
  5
162
330
2
100
AcDbSymbolTableRecord
100
AcDbLayerTableRecord
  2
ConnectionPoints
 70
     0
 62
     7
  6
Continuous
370
    50
390
F
347
46
348
0
  0
ENDTAB
  0
TABLE
  2
STYLE
  5
3
330
0
100
AcDbSymbolTable
 70
     1
  0
STYLE
  5
11
330
3
100
AcDbSymbolTableRecord
100
AcDbTextStyleTableRecord
  2
Standard
 70
     0
 40
0.0
 41
1.0
 50
0.0
 71
     0
 42
0.2
  3
txt
  4

  0
ENDTAB
  0
TABLE
  2
VIEW
  5
6
330
0
100
AcDbSymbolTable
 70
     0
  0
ENDTAB
  0
TABLE
  2
UCS
  5
7
330
0
100
AcDbSymbolTable
 70
     0
  0
ENDTAB
  0
TABLE
  2
APPID
  5
9
330
0
100
AcDbSymbolTable
 70
     1
  0
APPID
  5
12
330
9
100
AcDbSymbolTableRecord
100
AcDbRegAppTableRecord
  2
ACAD
 70
     0
  0
ENDTAB
  0
TABLE
  2
DIMSTYLE
  5
A
330
0
100
AcDbSymbolTable
 70
     1
100
AcDbDimStyleTable
  0
DIMSTYLE
105
27
330
A
100
AcDbSymbolTableRecord
100
AcDbDimStyleTableRecord
  2
Standard
 70
     0
178
     0
340
11
  0
ENDTAB
  0
TABLE
  2
BLOCK_RECORD
  5
1
330
0
100
AcDbSymbolTable
 70
     5
  0
BLOCK_RECORD
  5
1F
330
1
100
AcDbSymbolTableRecord
100
AcDbBlockTableRecord
  2
*Model_Space
340
22
 70
     0
280
     1
281
     0
  0
BLOCK_RECORD
  5
1B
330
1
100
AcDbSymbolTableRecord
100
AcDbBlockTableRecord
  2
*Paper_Space
340
1E
 70
     0
280
     1
281
     0
  0
BLOCK_RECORD
  5
23
330
1
100
AcDbSymbolTableRecord
100
AcDbBlockTableRecord
  2
*Paper_Space0
340
26
 70
     0
280
     1
281
     0
  0
BLOCK_RECORD
  5
6E
330
1
100
AcDbSymbolTableRecord
100
AcDbBlockTableRecord
  2
1_057687_4
340
0
102
{BLKREFS
331
6F
102
}
 70
     0
280
     1
281
     0
  0
BLOCK_RECORD
  5
87
330
1
100
AcDbSymbolTableRecord
100
AcDbBlockTableRecord
  2
2_405020c_Inch_0_in_057687_4
340
0
102
{BLKREFS
331
88
102
}
 70
     0
280
     1
281
     0
  0
BLOCK_RECORD
  5
D3
330
1
100
AcDbSymbolTableRecord
100
AcDbBlockTableRecord
  2
3_123339_0_in_057687_4
340
0
102
{BLKREFS
331
D4
102
}
 70
     0
280
     1
281
     0
  0
BLOCK_RECORD
  5
12F
330
1
100
AcDbSymbolTableRecord
100
AcDbBlockTableRecord
  2
4_057687H_0_in_057687_4
340
0
102
{BLKREFS
331
130
102
}
 70
     0
280
     1
281
     0
  0
ENDTAB
  0
ENDSEC
  0
SECTION
  2
BLOCKS
  0
BLOCK
  5
20
330
1F
100
AcDbEntity
  8
0
100
AcDbBlockBegin
  2
*Model_Space
 70
     0
 10
0.0
 20
0.0
 30
0.0
  3
*Model_Space
  1

  0
ENDBLK
  5
21
330
1F
100
AcDbEntity
  8
0
100
AcDbBlockEnd
  0
BLOCK
  5
1C
330
1B
100
AcDbEntity
 67
     1
  8
0
100
AcDbBlockBegin
  2
*Paper_Space
 70
     0
 10
0.0
 20
0.0
 30
0.0
  3
*Paper_Space
  1

  0
ENDBLK
  5
1D
330
1B
100
AcDbEntity
 67
     1
  8
0
100
AcDbBlockEnd
  0
BLOCK
  5
24
330
23
100
AcDbEntity
  8
0
100
AcDbBlockBegin
  2
*Paper_Space0
 70
     0
 10
0.0
 20
0.0
 30
0.0
  3
*Paper_Space0
  1

  0
ENDBLK
  5
25
330
23
100
AcDbEntity
  8
0
100
AcDbBlockEnd
  0
BLOCK
  5
70
330
6E
100
AcDbEntity
  8
0
100
AcDbBlockBegin
  2
1_057687_4
 70
     2
 10
0.0
 20
0.0
 30
0.0
  3
1_057687_4
  1

  0
ATTDEF
  5
73
330
6E
100
AcDbEntity
  8
AM_6
100
AcDbText
 10
6.845
 20
0.06855
 30
0.0
 40
0.5
  1
Set Screw Two-Bolt Flange Inch Bore - Polymer Housing, Corrosion Resistant Insert
100
AcDbAttributeDefinition
  3

  2
NN
 70
     8
280
     0
  0
ATTDEF
  5
74
330
6E
100
AcDbEntity
  8
AM_6
100
AcDbText
 10
6.845
 20
-0.43145
 30
0.0
 40
0.5
  1
SC 2 Bolt Flange Bearings -(Normal Duty) -Corrosion Resistant Insert -Polymer Housed -E-Z KLEEN
100
AcDbAttributeDefinition
  3

  2
NT
 70
     8
280
     0
  0
ATTDEF
  5
75
330
6E
100
AcDbEntity
  8
AM_6
100
AcDbText
 10
6.845
 20
-0.93145
 30
0.0
 40
0.5
  1
057687
100
AcDbAttributeDefinition
  3

  2
NB
 70
     8
280
     0
  0
ATTDEF
  5
76
330
6E
100
AcDbEntity
  8
AM_6
100
AcDbText
 10
6.845
 20
-1.43145
 30
0.0
 40
0.5
  1
$PN.
100
AcDbAttributeDefinition
  3

  2
NBSYN
 70
     8
280
     0
  0
ATTDEF
  5
77
330
6E
100
AcDbEntity
  8
AM_6
100
AcDbText
 10
6.845
 20
-1.93145
 30
0.0
 40
0.5
  1
057687
100
AcDbAttributeDefinition
  3

  2
LINA
 70
     8
280
     0
  0
ATTDEF
  5
78
330
6E
100
AcDbEntity
  8
AM_6
100
AcDbText
 10
6.845
 20
-2.43145
 30
0.0
 40
0.5
  1
207
100
AcDbAttributeDefinition
  3

  2
SERIES
 70
     8
280
     0
  0
ATTDEF
  5
79
330
6E
100
AcDbEntity
  8
AM_6
100
AcDbText
 10
6.845
 20
-2.93145
 30
0.0
 40
0.5
  1
1-1/4
100
AcDbAttributeDefinition
  3

  2
SS
 70
     8
280
     0
  0
ATTDEF
  5
7A
330
6E
100
AcDbEntity
  8
AM_6
100
AcDbText
 10
6.845
 20
-3.43145
 30
0.0
 40
0.5
  1
057687
100
AcDbAttributeDefinition
  3

  2
PN
 70
     8
280
     0
  0
ATTDEF
  5
7B
330
6E
100
AcDbEntity
  8
AM_6
100
AcDbText
 10
6.845
 20
-3.93145
 30
0.0
 40
0.5
  1
F2B-SCEZ-104-P
100
AcDbAttributeDefinition
  3

  2
DESCRIPTION
 70
     8
280
     0
  0
ATTDEF
  5
7C
330
6E
100
AcDbEntity
  8
AM_6
100
AcDbText
 10
6.845
 20
-4.43145
 30
0.0
 40
0.5
  1
1.36
100
AcDbAttributeDefinition
  3

  2
W
 70
     8
280
     0
  0
ATTDEF
  5
7D
330
6E
100
AcDbEntity
  8
AM_6
100
AcDbText
 10
6.845
 20
-4.93145
 30
0.0
 40
0.5
  1
1.71
100
AcDbAttributeDefinition
  3

  2
A
 70
     8
280
     0
  0
ATTDEF
  5
7E
330
6E
100
AcDbEntity
  8
AM_6
100
AcDbText
 10
6.845
 20
-5.43145
 30
0.0
 40
0.5
  1
6.31
100
AcDbAttributeDefinition
  3

  2
B
 70
     8
280
     0
  0
ATTDEF
  5
7F
330
6E
100
AcDbEntity
  8
AM_6
100
AcDbText
 10
6.845
 20
-5.93145
 30
0.0
 40
0.5
  1
1.82
100
AcDbAttributeDefinition
  3

  2
C
 70
     8
280
     0
  0
ATTDEF
  5
80
330
6E
100
AcDbEntity
  8
AM_6
100
AcDbText
 10
6.845
 20
-6.43145
 30
0.0
 40
0.5
  1
5.12
100
AcDbAttributeDefinition
  3

  2
D
 70
     8
280
     0
  0
ATTDEF
  5
81
330
6E
100
AcDbEntity
  8
AM_6
100
AcDbText
 10
6.845
 20
-6.93145
 30
0.0
 40
0.5
  1
1/2
100
AcDbAttributeDefinition
  3

  2
F
 70
     8
280
     0
  0
ATTDEF
  5
82
330
6E
100
AcDbEntity
  8
AM_6
100
AcDbText
 10
6.845
 20
-7.43145
 30
0.0
 40
0.5
  1
0.62
100
AcDbAttributeDefinition
  3

  2
H
 70
     8
280
     0
  0
ATTDEF
  5
83
330
6E
100
AcDbEntity
  8
AM_6
100
AcDbText
 10
6.845
 20
-7.93145
 30
0.0
 40
0.5
  1
0.54
100
AcDbAttributeDefinition
  3

  2
J
 70
     8
280
     0
  0
ATTDEF
  5
84
330
6E
100
AcDbEntity
  8
AM_6
100
AcDbText
 10
6.845
 20
-8.43145
 30
0.0
 40
0.5
  1
1.84
100
AcDbAttributeDefinition
  3

  2
L
 70
     8
280
     0
  0
ATTDEF
  5
85
330
6E
100
AcDbEntity
  8
AM_6
100
AcDbText
 10
6.845
 20
-8.93145
 30
0.0
 40
0.5
  1
3.69
100
AcDbAttributeDefinition
  3

  2
M
 70
     8
280
     0
  0
ATTDEF
  5
86
330
6E
100
AcDbEntity
  8
AM_6
100
AcDbText
 10
6.845
 20
-9.43145
 30
0.0
 40
0.5
  1
baldor
100
AcDbAttributeDefinition
  3

  2
COMPANY
 70
     8
280
     0
  0
INSERT
  5
88
330
6E
100
AcDbEntity
  8
0
100
AcDbBlockReference
  2
2_405020c_Inch_0_in_057687_4
 10
0.0
 20
0.0
 30
0.0
  0
INSERT
  5
D4
330
6E
100
AcDbEntity
  8
0
100
AcDbBlockReference
  2
3_123339_0_in_057687_4
 10
0.0
 20
0.0
 30
0.0
  0
INSERT
  5
130
330
6E
100
AcDbEntity
  8
0
100
AcDbBlockReference
  2
4_057687H_0_in_057687_4
 10
0.0
 20
0.0
 30
0.0
  0
ENDBLK
  5
71
330
6E
100
AcDbEntity
  8
0
100
AcDbBlockEnd
  0
BLOCK
  5
89
330
87
100
AcDbEntity
  8
0
100
AcDbBlockBegin
  2
2_405020c_Inch_0_in_057687_4
 70
     2
 10
0.0
 20
0.0
 30
0.0
  3
2_405020c_Inch_0_in_057687_4
  1

  0
ATTDEF
  5
8B
330
87
100
AcDbEntity
  8
AM_6
100
AcDbText
 10
6.612990773981124
 20
-0.8093499999999973
 30
0.0
 40
0.5
  1
405020C -Inch
100
AcDbAttributeDefinition
  3

  2
NN
 70
     8
280
     0
  0
ATTDEF
  5
8C
330
87
100
AcDbEntity
  8
AM_6
100
AcDbText
 10
6.612990773981124
 20
-1.309349999999997
 30
0.0
 40
0.5
  1
Grease fitting
100
AcDbAttributeDefinition
  3

  2
NT
 70
     8
280
     0
  0
ATTDEF
  5
8D
330
87
100
AcDbEntity
  8
AM_6
100
AcDbText
 10
6.612990773981124
 20
-1.809349999999997
 30
0.0
 40
0.5
  1
405020c-Inch
100
AcDbAttributeDefinition
  3

  2
NB
 70
     8
280
     0
  0
ATTDEF
  5
8E
330
87
100
AcDbEntity
  8
AM_6
100
AcDbText
 10
6.612990773981124
 20
-2.309349999999998
 30
0.0
 40
0.5
  1
$MN.-Inch
100
AcDbAttributeDefinition
  3

  2
NBSYN
 70
     8
280
     0
  0
ATTDEF
  5
8F
330
87
100
AcDbEntity
  8
AM_6
100
AcDbText
 10
6.612990773981124
 20
-2.809349999999998
 30
0.0
 40
0.5
  1
405020c
100
AcDbAttributeDefinition
  3

  2
LINA
 70
     8
280
     0
  0
ATTDEF
  5
90
330
87
100
AcDbEntity
  8
AM_6
100
AcDbText
 10
6.612990773981124
 20
-3.309349999999998
 30
0.0
 40
0.5
  1
405020c
100
AcDbAttributeDefinition
  3

  2
MN
 70
     8
280
     0
  0
ATTDEF
  5
91
330
87
100
AcDbEntity
  8
AM_6
100
AcDbText
 10
6.612990773981124
 20
-3.809349999999998
 30
0.0
 40
0.5
  1
0.230
100
AcDbAttributeDefinition
  3

  2
NDR
 70
     8
280
     0
  0
ATTDEF
  5
92
330
87
100
AcDbEntity
  8
AM_6
100
AcDbText
 10
6.612990773981124
 20
-4.309349999999998
 30
0.0
 40
0.5
  1
0.210
100
AcDbAttributeDefinition
  3

  2
KDR
 70
     8
280
     0
  0
ATTDEF
  5
93
330
87
100
AcDbEntity
  8
AM_6
100
AcDbText
 10
6.612990773981124
 20
-4.809349999999998
 30
0.0
 40
0.5
  1
0.157
100
AcDbAttributeDefinition
  3

  2
BZE
 70
     8
280
     0
  0
ATTDEF
  5
94
330
87
100
AcDbEntity
  8
AM_6
100
AcDbText
 10
6.612990773981124
 20
-5.309349999999998
 30
0.0
 40
0.5
  1
9/32
100
AcDbAttributeDefinition
  3

  2
WAF
 70
     8
280
     0
  0
ATTDEF
  5
95
330
87
100
AcDbEntity
  8
AM_6
100
AcDbText
 10
6.612990773981124
 20
-5.809349999999998
 30
0.0
 40
0.5
  1
0.2813
100
AcDbAttributeDefinition
  3

  2
WAF1
 70
     8
280
     0
  0
ATTDEF
  5
96
330
87
100
AcDbEntity
  8
AM_6
100
AcDbText
 10
6.612990773981124
 20
-6.309349999999998
 30
0.0
 40
0.5
  1
0.545
100
AcDbAttributeDefinition
  3

  2
BL
 70
     8
280
     0
  0
ATTDEF
  5
97
330
87
100
AcDbEntity
  8
AM_6
100
AcDbText
 10
6.612990773981124
 20
-6.809349999999998
 30
0.0
 40
0.5
  1
0.200
100
AcDbAttributeDefinition
  3

  2
TL
 70
     8
280
     0
  0
ATTDEF
  5
98
330
87
100
AcDbEntity
  8
AM_6
100
AcDbText
 10
6.612990773981124
 20
-7.309349999999998
 30
0.0
 40
0.5
  1
baldor
100
AcDbAttributeDefinition
  3

  2
COMPANY
 70
     8
280
     0
  0
LWPOLYLINE
  5
9B
330
87
100
AcDbEntity
  8
AM_9
100
AcDbPolyline
 90
        3
 70
     0
 43
0.0
 10
1.390742194369794
 20
-0.879675
 10
1.406185374158143
 20
-0.9148374999999999
 10
1.423574834677309
 20
-0.9499999999999998
  0
LWPOLYLINE
  5
9C
330
87
100
AcDbEntity
  8
AM_9
100
AcDbPolyline
 90
        3
 70
     0
 43
0.0
 10
1.423574834677309
 20
-0.9499999999999998
 10
1.406259531423702
 20
-0.9850043999316987
 10
1.390742194369794
 20
-1.020325
  0
ELLIPSE
  5
9D
330
87
100
AcDbEntity
  8
AM_9
100
AcDbEllipse
 10
1.16319065505187
 20
-0.9499999999999998
 30
0.0
 11
-1.838598171376525E-17
 21
-0.1000886227036578
 31
0.0
210
0.0
220
0.0
230
1.0
 40
0.7071067811865466
 41
0.0
 42
6.283185307179586
  0
LWPOLYLINE
  5
9E
330
87
100
AcDbEntity
  8
AM_9
100
AcDbPolyline
 90
        3
 70
     0
 43
0.0
 10
1.462470128195123
 20
-0.9499999999999998
 10
1.451204458587072
 20
-0.9149956000683008
 10
1.437882646448897
 20
-0.8796749999999998
  0
LWPOLYLINE
  5
9F
330
87
100
AcDbEntity
  8
AM_9
100
AcDbPolyline
 90
        3
 70
     0
 43
0.0
 10
1.437882646448897
 20
-1.020325
 10
1.451149527687419
 20
-0.9851624999999998
 10
1.462470128195123
 20
-0.9499999999999998
  0
LWPOLYLINE
  5
A0
330
87
100
AcDbEntity
  8
AM_9
100
AcDbPolyline
 90
        3
 70
     0
 43
0.0
 10
1.390742194369794
 20
-1.020325
 10
1.377475313131272
 20
-1.0554875
 10
1.366154712623567
 20
-1.09065
  0
LINE
  5
A1
330
87
100
AcDbEntity
  8
AM_9
100
AcDbLine
 10
1.462470128195123
 20
-0.9499999999999998
 30
0.0
 11
1.423574834677309
 21
-0.9499999999999998
 31
0.0
  0
LWPOLYLINE
  5
A2
330
87
100
AcDbEntity
  8
AM_9
100
AcDbPolyline
 90
        3
 70
     0
 43
0.0
 10
1.366154712623567
 20
-0.8093499999999998
 10
1.377420382231618
 20
-0.8443543999316988
 10
1.390742194369794
 20
-0.879675
  0
LWPOLYLINE
  5
A3
330
87
100
AcDbEntity
  8
AM_9
100
AcDbPolyline
 90
        3
 70
     0
 43
0.0
 10
1.41781599572588
 20
-1.065190793939556
 10
1.422365309394989
 20
-1.055645600068301
 10
1.437882646448897
 20
-1.020325
  0
LWPOLYLINE
  5
A4
330
87
100
AcDbEntity
  8
AM_9
100
AcDbPolyline
 90
        3
 70
     0
 43
0.0
 10
1.437882646448897
 20
-0.8796749999999998
 10
1.422439466660548
 20
-0.8445124999999998
 10
1.417816610394761
 20
-0.8348104763908093
  0
LINE
  5
A5
330
87
100
AcDbEntity
  8
AM_9
100
AcDbLine
 10
1.168053397514156
 20
-1.060362326844218
 30
0.0
 11
1.302041023372364
 21
-1.066286989091894
 31
0.0
  0
LINE
  5
A6
330
87
100
AcDbEntity
  8
AM_9
100
AcDbLine
 10
1.302041023372364
 20
-0.8337130109081056
 30
0.0
 11
1.168053397514156
 21
-0.8396376731557812
 31
0.0
  0
ELLIPSE
  5
A7
330
87
100
AcDbEntity
  8
AM_9
100
AcDbEllipse
 10
1.35175246336828
 20
-0.950000000000005
 30
0.0
 11
8.612328615004193E-18
 21
0.140650000000007
 31
0.0
210
0.0
220
0.0
230
1.0
 40
0.7071067811865485
 41
3.79890669679367
 42
5.625871263975753
  0
ELLIPSE
  5
A8
330
87
100
AcDbEntity
  8
AM_9
100
AcDbEllipse
 10
1.373899436253816
 20
-0.9500000000000007
 30
0.0
 11
6.694498085252857E-18
 21
0.1093294505797725
 31
0.0
210
0.0
220
0.0
230
1.0
 40
0.7071067811865396
 41
5.408306067167823
 42
5.92898666616589
  0
ELLIPSE
  5
A9
330
87
100
AcDbEntity
  8
AM_9
100
AcDbEllipse
 10
1.373899436253815
 20
-0.9500000000000017
 30
0.0
 11
6.694498085252653E-18
 21
0.1093294505797692
 31
0.0
210
0.0
220
0.0
230
1.0
 40
0.707106781186557
 41
3.495791294603514
 42
4.010085657517062
  0
ELLIPSE
  5
AA
330
87
100
AcDbEntity
  8
AM_9
100
AcDbEllipse
 10
1.373899436253791
 20
-0.9499999999999935
 30
0.0
 11
6.694498085253761E-18
 21
0.1093294505797873
 31
0.0
210
0.0
220
0.0
230
1.0
 40
0.7071067811866573
 41
4.182976571067424
 42
5.071165486359217
  0
LWPOLYLINE
  5
AB
330
87
100
AcDbEntity
  8
AM_9
100
AcDbPolyline
 90
       16
 70
     0
 43
0.0
 10
1.387319384909843
 20
-0.858230858153871
 10
1.389061045859408
 20
-0.8574326426397655
 10
1.393245103100341
 20
-0.8560243223188119
 10
1.39746817947274
 20
-0.855361024710462
 10
1.402270942422896
 20
-0.855568731674241
 10
1.406612646079263
 20
-0.8566262669247928
 10
1.410913841472924
 20
-0.8584490023767154
 10
1.415312953166096
 20
-0.8610853779156482
 10
1.420311586184474
 20
-0.865040374471826
 10
1.425237560754766
 20
-0.8700098944900445
 10
1.430012994249791
 20
-0.8759936434548979
 10
1.43454111086933
 20
-0.8829702621694451
 10
1.438713996400985
 20
-0.8908860298144201
 10
1.442422611120628
 20
-0.8996504859995478
 10
1.445571673668861
 20
-0.9091549754622998
 10
1.44670370485053
 20
-0.9133232594182765
  0
LWPOLYLINE
  5
AC
330
87
100
AcDbEntity
  8
AM_9
100
AcDbPolyline
 90
        3
 70
     0
 43
0.0
 10
1.381365748285672
 20
-0.8618814872559898
 10
1.384711206081817
 20
-0.8596545865320626
 10
1.387319384909843
 20
-0.858230858153871
  0
LWPOLYLINE
  5
AD
330
87
100
AcDbEntity
  8
AM_9
100
AcDbPolyline
 90
        3
 70
     0
 43
0.0
 10
1.386656564961103
 20
-1.04143321114897
 10
1.384092068328131
 20
-1.039967350550012
 10
1.381349149975754
 20
-1.038106330895258
  0
LWPOLYLINE
  5
AE
330
87
100
AcDbEntity
  8
AM_9
100
AcDbPolyline
 90
       16
 70
     0
 43
0.0
 10
1.446626323460268
 20
-0.9869792470980793
 10
1.44459171133488
 20
-0.9940808959818846
 10
1.441248089600122
 20
-1.003349303581768
 10
1.437387603484986
 20
-1.011816166521937
 10
1.433121295522655
 20
-1.019374412450337
 10
1.428572898563101
 20
-1.025944744930629
 10
1.423877920020863
 20
-1.031475389644924
 10
1.419171351885012
 20
-1.035954328758207
 10
1.414570089451473
 20
-1.039414465927839
 10
1.410153087364327
 20
-1.041928069785303
 10
1.405925919029922
 20
-1.043594336057255
 10
1.401754889324697
 20
-1.044502768377728
 10
1.397230982042717
 20
-1.044622545621642
 10
1.392737465473672
 20
-1.04384389245146
 10
1.388451248452823
 20
-1.042301856380766
 10
1.386656564961103
 20
-1.04143321114897
  0
ELLIPSE
  5
AF
330
87
100
AcDbEntity
  8
AM_9
100
AcDbEllipse
 10
1.413841248190322
 20
-0.9499999999999998
 30
0.0
 11
6.084620899749615E-18
 21
0.09936940028726593
 31
0.0
210
0.0
220
0.0
230
1.0
 40
0.7071067811865475
 41
2.656480407116015
 42
6.768297553653364
  0
ELLIPSE
  5
B0
330
87
100
AcDbEntity
  8
AM_9
100
AcDbEllipse
 10
1.490928820360075
 20
-0.9499999999999997
 30
0.0
 11
8.079715312105955E-18
 21
0.13195176466768
 31
0.0
210
0.0
220
0.0
230
1.0
 40
0.7071067811865522
 41
3.58972491664731
 42
5.838246938927768
  0
ELLIPSE
  5
B1
330
87
100
AcDbEntity
  8
AM_9
100
AcDbEllipse
 10
1.462172576894797
 20
-0.9499999999999997
 30
0.0
 11
8.036249332247511E-18
 21
0.1312419113468906
 31
0.0
210
0.0
220
0.0
230
1.0
 40
0.7071067811865454
 41
2.656480407116015
 42
6.772683965766608
  0
ELLIPSE
  5
B2
330
87
100
AcDbEntity
  8
AM_9
100
AcDbEllipse
 10
1.537793397033235
 20
-0.9500000000000618
 30
0.0
 11
6.357083428135399E-18
 21
0.103819051053111
 31
0.0
210
0.0
220
0.0
230
1.0
 40
0.7071067811865466
 41
3.579974428544375
 42
5.827147329503935
  0
ELLIPSE
  5
B3
330
87
100
AcDbEntity
  8
AM_9
100
AcDbEllipse
 10
1.30461201128918
 20
-0.9499999999999998
 30
0.0
 11
7.124004163867288E-18
 21
0.1163438171532771
 31
0.0
210
0.0
220
0.0
230
1.0
 40
0.7071067811865471
 41
0.0
 42
6.283185307179586
  0
ELLIPSE
  5
B4
330
87
100
AcDbEntity
  8
AM_9
100
AcDbEllipse
 10
1.170493397130656
 20
-0.9500000000000002
 30
0.0
 11
6.761045944280116E-18
 21
0.1104162595939894
 31
0.0
210
0.0
220
0.0
230
1.0
 40
0.7071067811865476
 41
0.0
 42
6.283185307179586
  0
ELLIPSE
  5
B5
330
87
100
AcDbEntity
  8
AM_9
100
AcDbEllipse
 10
1.304612011289183
 20
-0.9499999999999998
 30
0.0
 11
8.612328615003914E-18
 21
0.1406500000000025
 31
0.0
210
0.0
220
0.0
230
1.0
 40
0.707106781186554
 41
0.0
 42
6.283185307179586
  0
LINE
  5
B7
330
87
100
AcDbEntity
  8
AM_4
100
AcDbLine
 10
1.405050006141381
 20
-1.09065
 30
0.0
 11
1.41781599572588
 21
-1.065190793939556
 31
0.0
  0
LINE
  5
B8
330
87
100
AcDbEntity
  8
AM_4
100
AcDbLine
 10
1.417816610394761
 20
-0.8348104763908093
 30
0.0
 11
1.405050006141381
 21
-0.8093499999999998
 31
0.0
  0
LINE
  5
B9
330
87
100
AcDbEntity
  8
AM_4
100
AcDbLine
 10
1.405050006141381
 20
-0.8093499999999998
 30
0.0
 11
1.251314468516082
 21
-0.8093499999999998
 31
0.0
  0
LWPOLYLINE
  5
BA
330
87
100
AcDbEntity
  8
AM_4
100
AcDbPolyline
 90
        3
 70
     0
 43
0.0
 10
1.218481828208567
 20
-0.8796749999999998
 10
1.233925007996916
 20
-0.8445124999999998
 10
1.251314468516082
 20
-0.8093499999999998
  0
LWPOLYLINE
  5
BB
330
87
100
AcDbEntity
  8
AM_4
100
AcDbPolyline
 90
        3
 70
     0
 43
0.0
 10
1.19389434646234
 20
-0.9499999999999998
 10
1.205160016070391
 20
-0.9149956000683008
 10
1.218481828208567
 20
-0.8796749999999998
  0
LWPOLYLINE
  5
BC
330
87
100
AcDbEntity
  8
AM_4
100
AcDbPolyline
 90
        3
 70
     0
 43
0.0
 10
1.290209762033896
 20
-0.8093499999999998
 10
1.278944092425845
 20
-0.8443543999316988
 10
1.26562228028767
 20
-0.8796749999999998
  0
LWPOLYLINE
  5
BD
330
87
100
AcDbEntity
  8
AM_4
100
AcDbPolyline
 90
        3
 70
     0
 43
0.0
 10
1.26562228028767
 20
-0.8796749999999998
 10
1.250179100499321
 20
-0.9148374999999999
 10
1.232789639980154
 20
-0.9499999999999998
  0
LINE
  5
BE
330
87
100
AcDbEntity
  8
AM_4
100
AcDbLine
 10
1.232789639980154
 20
-0.9499999999999998
 30
0.0
 11
1.19389434646234
 21
-0.9499999999999998
 31
0.0
  0
LWPOLYLINE
  5
BF
330
87
100
AcDbEntity
  8
AM_4
100
AcDbPolyline
 90
        3
 70
     0
 43
0.0
 10
1.218481828208567
 20
-1.020325
 10
1.205214946970045
 20
-0.9851624999999998
 10
1.19389434646234
 20
-0.9499999999999998
  0
LWPOLYLINE
  5
C0
330
87
100
AcDbEntity
  8
AM_4
100
AcDbPolyline
 90
        3
 70
     0
 43
0.0
 10
1.251314468516082
 20
-1.09065
 10
1.233999165262475
 20
-1.055645600068301
 10
1.218481828208567
 20
-1.020325
  0
LINE
  5
C1
330
87
100
AcDbEntity
  8
AM_4
100
AcDbLine
 10
1.405050006141381
 20
-1.09065
 30
0.0
 11
1.251314468516082
 21
-1.09065
 31
0.0
  0
LWPOLYLINE
  5
C2
330
87
100
AcDbEntity
  8
AM_4
100
AcDbPolyline
 90
        3
 70
     0
 43
0.0
 10
1.26562228028767
 20
-1.020325
 10
1.278889161526192
 20
-1.0554875
 10
1.290209762033896
 20
-1.09065
  0
LWPOLYLINE
  5
C3
330
87
100
AcDbEntity
  8
AM_4
100
AcDbPolyline
 90
        3
 70
     0
 43
0.0
 10
1.232789639980154
 20
-0.9499999999999998
 10
1.250104943233762
 20
-0.9850043999316987
 10
1.26562228028767
 20
-1.020325
  0
ELLIPSE
  5
C4
330
87
100
AcDbEntity
  8
AM_4
100
AcDbEllipse
 10
1.351752463368283
 20
-0.9499999999999998
 30
0.0
 11
8.612328615003724E-18
 21
0.1406499999999994
 31
0.0
210
0.0
220
0.0
230
1.0
 40
0.7071067811865475
 41
5.625871263975756
 42
10.08209200397321
  0
ELLIPSE
  5
C5
330
87
100
AcDbEntity
  8
AM_4
100
AcDbEllipse
 10
1.373899436253815
 20
-0.9500000000000001
 30
0.0
 11
6.694498085252802E-18
 21
0.1093294505797716
 31
0.0
210
0.0
220
0.0
230
1.0
 40
0.7071067811865474
 41
5.928986666165878
 42
9.778976601783087
  0
ELLIPSE
  5
C6
330
87
100
AcDbEntity
  8
AM_4
100
AcDbEllipse
 10
1.413841248190321
 20
-0.9499999999999994
 30
0.0
 11
6.084620899749588E-18
 21
0.09936940028726549
 31
0.0
210
0.0
220
0.0
230
1.0
 40
0.7071067811865506
 41
0.4851122464737738
 42
2.656480407116022
  0
LINE
  5
C7
330
87
100
AcDbEntity
  8
AM_4
100
AcDbLine
 10
1.38107624467666
 20
-1.037904418563292
 30
0.0
 11
1.418898272390702
 21
-1.066099562589007
 31
0.0
  0
LINE
  5
C8
330
87
100
AcDbEntity
  8
AM_4
100
AcDbLine
 10
1.418898272390702
 20
-0.8339004374109928
 30
0.0
 11
1.38107624467666
 21
-0.8620955814367076
 31
0.0
  0
ELLIPSE
  5
C9
330
87
100
AcDbEntity
  8
AM_4
100
AcDbEllipse
 10
1.462172576894799
 20
-0.9500000000000006
 30
0.0
 11
8.036249332247605E-18
 21
0.1312419113468921
 31
0.0
210
0.0
220
0.0
230
1.0
 40
0.7071067811865557
 41
0.4894986585870331
 42
2.648988730760395
  0
LWPOLYLINE
  5
CA
330
87
100
AcDbEntity
  8
AM_4
100
AcDbPolyline
 90
       13
 70
     0
 43
0.0
 10
1.418122432725224
 20
-1.065515747460894
 10
1.424414817897274
 20
-1.069947517907735
 10
1.434793117792177
 20
-1.075879308373921
 10
1.445556579099608
 20
-1.080446521640175
 10
1.456566220865613
 20
-1.083633891789866
 10
1.467692385266502
 20
-1.085448106817338
 10
1.478816202598214
 20
-1.085910944030921
 10
1.48983010638148
 20
-1.085053732229006
 10
1.500627712503744
 20
-1.082915496485527
 10
1.511119737229307
 20
-1.079539261169583
 10
1.521232167265087
 20
-1.074965788971034
 10
1.530897070635487
 20
-1.069232582874525
 10
1.53155942761859
 20
-1.068785837430206
  0
LWPOLYLINE
  5
CB
330
87
100
AcDbEntity
  8
AM_4
100
AcDbPolyline
 90
       12
 70
     0
 43
0.0
 10
1.531240488412557
 20
-0.8309981334403134
 10
1.52386493382302
 20
-0.8264561688116182
 10
1.51324641319185
 20
-0.8213104454461683
 10
1.502324130692712
 20
-0.8175412456928541
 10
1.491231942090588
 20
-0.815150225709319
 10
1.480093363478719
 20
-0.8141212175216378
 10
1.469020751522049
 20
-0.8144263198900483
 10
1.458118755418121
 20
-0.8160300174406654
 10
1.447488448728694
 20
-0.8188896706975529
 10
1.437207503971609
 20
-0.8229633594586063
 10
1.427345942531801
 20
-0.8282122091202655
 10
1.418455790319803
 20
-0.8342320629457313
  0
ELLIPSE
  5
CC
330
87
100
AcDbEntity
  8
AM_4
100
AcDbEllipse
 10
1.548563850798539
 20
-0.9499999999999998
 30
0.0
 11
-1.484390032546748E-17
 21
-0.08080642971672802
 31
0.0
210
0.0
220
0.0
230
1.0
 40
0.707106781186549
 41
0.0
 42
6.283185307179586
  0
LWPOLYLINE
  5
CD
330
87
100
AcDbEntity
  8
AM_4
100
AcDbPolyline
 90
       21
 70
     0
 43
0.0
 10
1.568917605015596
 20
-1.044026396089935
 10
1.573044144059804
 20
-1.041096345565128
 10
1.580588583190613
 20
-1.034605292300817
 10
1.587542342808105
 20
-1.027035709230024
 10
1.593812791396399
 20
-1.018465206338519
 10
1.599309310547666
 20
-1.008999178530704
 10
1.603952359223399
 20
-0.9987665360375524
 10
1.607679333979631
 20
-0.9879103111417996
 10
1.610444953726672
 20
-0.9765814401780275
 10
1.612220932041851
 20
-0.9649261034480724
 10
1.612990773981124
 20
-0.9530853461495089
 10
1.612746299189842
 20
-0.9411977361352177
 10
1.611486177469744
 20
-0.9294007833095291
 10
1.609215590923482
 20
-0.9178323270457882
 10
1.605945395207095
 20
-0.9066273678099626
 10
1.601692755304725
 20
-0.895921965089232
 10
1.596483509948503
 20
-0.885855357064507
 10
1.590361371707242
 20
-0.8765776292741901
 10
1.583392094049912
 20
-0.8682394623273467
 10
1.575670688227056
 20
-0.8609864686369577
 10
1.570316897891459
 20
-0.8569223931319785
  0
ELLIPSE
  5
CE
330
87
100
AcDbEntity
  8
AM_4
100
AcDbEllipse
 10
1.490928820360075
 20
-0.9499999999999996
 30
0.0
 11
8.079715312105949E-18
 21
0.1319517646676799
 31
0.0
210
0.0
220
0.0
230
1.0
 40
0.7071067811865478
 41
5.844803532225578
 42
9.863159735723386
  0
ELLIPSE
  5
CF
330
87
100
AcDbEntity
  8
AM_4
100
AcDbEllipse
 10
1.537793397033261
 20
-0.9499999999999998
 30
0.0
 11
6.357083428131001E-18
 21
0.1038190510530391
 31
0.0
210
0.0
220
0.0
230
1.0
 40
0.7071067811865481
 41
5.844803532225583
 42
9.863159735723382
  0
LINE
  5
D0
330
87
100
AcDbEntity
  8
AM_4
100
AcDbLine
 10
1.568954583566394
 20
-0.8559981049699094
 30
0.0
 11
1.530534013342286
 21
-0.8305256279505998
 31
0.0
  0
LINE
  5
D1
330
87
100
AcDbEntity
  8
AM_4
100
AcDbLine
 10
1.530534013342286
 20
-1.0694743720494
 30
0.0
 11
1.568954583566394
 21
-1.04400189503009
 31
0.0
  0
ELLIPSE
  5
D2
330
87
100
AcDbEntity
  8
AM_4
100
AcDbEllipse
 10
1.537793397032567
 20
-0.9500000000020397
 30
0.0
 11
6.357083428269608E-18
 21
0.1038190510553028
 31
0.0
210
0.0
220
0.0
230
1.0
 40
0.7071067811865469
 41
-0.4560379776754324
 42
-0.4383817749542285
  0
ENDBLK
  5
8A
330
87
100
AcDbEntity
  8
0
100
AcDbBlockEnd
  0
BLOCK
  5
D5
330
D3
100
AcDbEntity
  8
0
100
AcDbBlockBegin
  2
3_123339_0_in_057687_4
 70
     2
 10
0.0
 20
0.0
 30
0.0
  3
3_123339_0_in_057687_4
  1

  0
ATTDEF
  5
D7
330
D3
100
AcDbEntity
  8
AM_6
100
AcDbText
 10
6.416481655034806
 20
-0.1099999999999999
 30
0.0
 40
0.5
  1
Set Screw Insert Inch Bore
100
AcDbAttributeDefinition
  3

  2
NN
 70
     8
280
     0
  0
ATTDEF
  5
D8
330
D3
100
AcDbEntity
  8
AM_6
100
AcDbText
 10
6.416481655034806
 20
-0.6099999999999999
 30
0.0
 40
0.5
  1
SC Normal Duty Bearing Inserts
100
AcDbAttributeDefinition
  3

  2
NT
 70
     8
280
     0
  0
ATTDEF
  5
D9
330
D3
100
AcDbEntity
  8
AM_6
100
AcDbText
 10
6.416481655034806
 20
-1.11
 30
0.0
 40
0.5
  1
123339
100
AcDbAttributeDefinition
  3

  2
NB
 70
     8
280
     0
  0
ATTDEF
  5
DA
330
D3
100
AcDbEntity
  8
AM_6
100
AcDbText
 10
6.416481655034806
 20
-1.61
 30
0.0
 40
0.5
  1
$PN.
100
AcDbAttributeDefinition
  3

  2
NBSYN
 70
     8
280
     0
  0
ATTDEF
  5
DB
330
D3
100
AcDbEntity
  8
AM_6
100
AcDbText
 10
6.416481655034806
 20
-2.11
 30
0.0
 40
0.5
  1
123339
100
AcDbAttributeDefinition
  3

  2
LINA
 70
     8
280
     0
  0
ATTDEF
  5
DC
330
D3
100
AcDbEntity
  8
AM_6
100
AcDbText
 10
6.416481655034806
 20
-2.61
 30
0.0
 40
0.5
  1
207
100
AcDbAttributeDefinition
  3

  2
SERIES
 70
     8
280
     0
  0
ATTDEF
  5
DD
330
D3
100
AcDbEntity
  8
AM_6
100
AcDbText
 10
6.416481655034806
 20
-3.11
 30
0.0
 40
0.5
  1
1-1/4
100
AcDbAttributeDefinition
  3

  2
SS
 70
     8
280
     0
  0
ATTDEF
  5
DE
330
D3
100
AcDbEntity
  8
AM_6
100
AcDbText
 10
6.416481655034806
 20
-3.61
 30
0.0
 40
0.5
  1
123339
100
AcDbAttributeDefinition
  3

  2
PN
 70
     8
280
     0
  0
ATTDEF
  5
DF
330
D3
100
AcDbEntity
  8
AM_6
100
AcDbText
 10
6.416481655034806
 20
-4.109999999999999
 30
0.0
 40
0.5
  1
INS-SC-104
100
AcDbAttributeDefinition
  3

  2
DESCRIPTION
 70
     8
280
     0
  0
ATTDEF
  5
E0
330
D3
100
AcDbEntity
  8
AM_6
100
AcDbText
 10
6.416481655034806
 20
-4.609999999999999
 30
0.0
 40
0.5
  1
1.71
100
AcDbAttributeDefinition
  3

  2
A
 70
     8
280
     0
  0
ATTDEF
  5
E1
330
D3
100
AcDbEntity
  8
AM_6
100
AcDbText
 10
6.416481655034806
 20
-5.109999999999999
 30
0.0
 40
0.5
  1
0.75
100
AcDbAttributeDefinition
  3

  2
C
 70
     8
280
     0
  0
ATTDEF
  5
E2
330
D3
100
AcDbEntity
  8
AM_6
100
AcDbText
 10
6.416481655034806
 20
-5.609999999999999
 30
0.0
 40
0.5
  1
2.8346
100
AcDbAttributeDefinition
  3

  2
D
 70
     8
280
     0
  0
ATTDEF
  5
E3
330
D3
100
AcDbEntity
  8
AM_6
100
AcDbText
 10
6.416481655034806
 20
-6.109999999999999
 30
0.0
 40
0.5
  1
0.2
100
AcDbAttributeDefinition
  3

  2
J
 70
     8
280
     0
  0
ATTDEF
  5
E4
330
D3
100
AcDbEntity
  8
AM_6
100
AcDbText
 10
6.416481655034806
 20
-6.609999999999999
 30
0.0
 40
0.5
  1
1.84
100
AcDbAttributeDefinition
  3

  2
L
 70
     8
280
     0
  0
ATTDEF
  5
E5
330
D3
100
AcDbEntity
  8
AM_6
100
AcDbText
 10
6.416481655034806
 20
-7.109999999999999
 30
0.0
 40
0.5
  1
5/16 - 24
100
AcDbAttributeDefinition
  3

  2
N
 70
     8
280
     0
  0
ATTDEF
  5
E6
330
D3
100
AcDbEntity
  8
AM_6
100
AcDbText
 10
6.416481655034806
 20
-7.609999999999999
 30
0.0
 40
0.5
  1
0.67
100
AcDbAttributeDefinition
  3

  2
W
 70
     8
280
     0
  0
ATTDEF
  5
E7
330
D3
100
AcDbEntity
  8
AM_6
100
AcDbText
 10
6.416481655034806
 20
-8.11
 30
0.0
 40
0.5
  1
1.04
100
AcDbAttributeDefinition
  3

  2
Y
 70
     8
280
     0
  0
ATTDEF
  5
E8
330
D3
100
AcDbEntity
  8
AM_6
100
AcDbText
 10
6.416481655034806
 20
-8.61
 30
0.0
 40
0.5
  1
baldor
100
AcDbAttributeDefinition
  3

  2
COMPANY
 70
     8
280
     0
  0
LINE
  5
E9
330
D3
100
AcDbEntity
  8
AM_9
100
AcDbLine
 10
-1.4798
 20
-0.5440151515151459
 30
0.0
 11
-1.4798
 21
-0.615984848484854
 31
0.0
  0
ARC
  5
EA
330
D3
100
AcDbEntity
  8
AM_9
100
AcDbCircle
 10
-1.411618181818182
 20
-0.6159848484848436
 30
0.0
 40
0.0681818181818181
100
AcDbArc
 50
180.0
 51
267.998471424511
  0
ARC
  5
EB
330
D3
100
AcDbEntity
  8
AM_9
100
AcDbCircle
 10
-1.411618181818181
 20
-0.5440151515151563
 30
0.0
 40
0.0681818181818183
100
AcDbArc
 50
90.0
 51
180.0
  0
LINE
  5
EC
330
D3
100
AcDbEntity
  8
AM_9
100
AcDbLine
 10
-1.384299799507563
 20
-0.475833333333338
 30
0.0
 11
-1.411618181818182
 21
-0.475833333333338
 31
0.0
  0
LINE
  5
ED
330
D3
100
AcDbEntity
  8
AM_9
100
AcDbLine
 10
-1.411618181818182
 20
-0.475833333333338
 30
0.0
 11
-1.411618181818185
 21
-0.66694323921031
 31
0.0
  0
ELLIPSE
  5
EE
330
D3
100
AcDbEntity
  8
AM_9
100
AcDbEllipse
 10
0.5552527717982502
 20
-1.4875
 30
0.0
 11
-2.318256390785978E-17
 21
-0.1262000000000021
 31
0.0
210
0.0
220
0.0
230
1.0
 40
0.4226182617406915
 41
1.368021328389961
 42
1.773571325199831
  0
ELLIPSE
  5
EF
330
D3
100
AcDbEntity
  8
AM_9
100
AcDbEllipse
 10
0.555252771798251
 20
-1.4875
 30
0.0
 11
-2.318256390785994E-17
 21
-0.126200000000003
 31
0.0
210
0.0
220
0.0
230
1.0
 40
0.4226182617406964
 41
4.509613981979767
 42
4.915163978789613
  0
LINE
  5
F0
330
D3
100
AcDbEntity
  8
AM_9
100
AcDbLine
 10
0.566410269397127
 20
-1.6137
 30
0.0
 11
0.8148925094304427
 21
-1.6137
 31
0.0
  0
LINE
  5
F1
330
D3
100
AcDbEntity
  8
AM_9
100
AcDbLine
 10
0.8148925094304427
 20
-1.3613
 30
0.0
 11
0.566410269397127
 21
-1.3613
 31
0.0
  0
LWPOLYLINE
  5
F2
330
D3
100
AcDbEntity
  8
AM_9
100
AcDbPolyline
 90
       10
 70
     0
 43
0.0
 10
0.5664377014420741
 20
-1.613699999517179
 10
0.5738765698891233
 20
-1.612387074062192
 10
0.58175884474975
 20
-1.607577356135929
 10
0.5884463144758448
 20
-1.599679353243735
 10
0.5942632466702885
 20
-1.588477643554194
 10
0.5989469890933597
 20
-1.574639688110244
 10
0.6026909811408597
 20
-1.557930131590426
 10
0.6053673784033562
 20
-1.539517248679161
 10
0.6071545506709888
 20
-1.519009693777457
 10
0.60749445395976
 20
-1.51291519658931
  0
LWPOLYLINE
  5
F3
330
D3
100
AcDbEntity
  8
AM_9
100
AcDbPolyline
 90
       10
 70
     0
 43
0.0
 10
0.5664470321770245
 20
-1.361300000482821
 10
0.5585300273657198
 20
-1.362612925937808
 10
0.5489372260612013
 20
-1.367422643864071
 10
0.5395814613843047
 20
-1.375320646756266
 10
0.5302818259085434
 20
-1.386522356445807
 10
0.5217888159583661
 20
-1.400360311889757
 10
0.5141787883836271
 20
-1.417069868409575
 10
0.5081811808036899
 20
-1.43548275132084
 10
0.5038640910798808
 20
-1.455990306222544
 10
0.5030110896367399
 20
-1.462084803410692
  0
ELLIPSE
  5
F4
330
D3
100
AcDbEntity
  8
AM_9
100
AcDbEllipse
 10
0.8148925094304432
 20
-1.487499999999999
 30
0.0
 11
-2.318256390785957E-17
 21
-0.126200000000001
 31
0.0
210
0.0
220
0.0
230
1.0
 40
0.4226182617407005
 41
3.509440659640486
 42
5.914952223687601
  0
LINE
  5
F5
330
D3
100
AcDbEntity
  8
AM_9
100
AcDbLine
 10
0.7900222587814014
 20
-1.599139373797339
 30
0.0
 11
0.8029176110143219
 21
-1.615223573655302
 31
0.0
  0
LINE
  5
F6
330
D3
100
AcDbEntity
  8
AM_9
100
AcDbLine
 10
0.8030206807922765
 20
-1.359647868793264
 30
0.0
 11
0.7900222587814014
 21
-1.375860626202661
 31
0.0
  0
LWPOLYLINE
  5
F7
330
D3
100
AcDbEntity
  8
AM_9
100
AcDbPolyline
 90
        5
 70
     0
 43
0.0
 10
0.6074944539597598
 20
-1.51291519658931
 10
0.6079335657027942
 20
-1.504284978834104
 10
0.6082651758518465
 20
-1.486878965044173
 10
0.6078579523601161
 20
-1.46892258290199
 10
0.6074944539597598
 20
-1.462084803410691
  0
LWPOLYLINE
  5
F8
330
D3
100
AcDbEntity
  8
AM_9
100
AcDbPolyline
 90
       10
 70
     0
 43
0.0
 10
0.6074944539597598
 20
-1.462084803410691
 10
0.6060556131126011
 20
-1.442030747505717
 10
0.6036453025922364
 20
-1.422725330044757
 10
0.600341283801554
 20
-1.40578906082209
 10
0.5958899040343147
 20
-1.39070452419877
 10
0.5904333634087712
 20
-1.378591530090474
 10
0.5836901489583447
 20
-1.369279124700161
 10
0.5761536479071577
 20
-1.363596231434494
 10
0.567472300143138
 20
-1.361323731635991
 10
0.5664470321770245
 20
-1.361300000482821
  0
LWPOLYLINE
  5
F9
330
D3
100
AcDbEntity
  8
AM_9
100
AcDbPolyline
 90
        4
 70
     0
 43
0.0
 10
0.5030110896367405
 20
-1.462084803410692
 10
0.5010755558929062
 20
-1.483837750294389
 10
0.5013917278724979
 20
-1.498335710527354
 10
0.5030110896367405
 20
-1.512915196589308
  0
LWPOLYLINE
  5
FA
330
D3
100
AcDbEntity
  8
AM_9
100
AcDbPolyline
 90
       10
 70
     0
 43
0.0
 10
0.5030110896367405
 20
-1.512915196589308
 10
0.5065508202499771
 20
-1.532969252494282
 10
0.512099193942586
 20
-1.552274669955242
 10
0.519050082021748
 20
-1.56921093917791
 10
0.527446222908971
 20
-1.58429547580123
 10
0.5365407672865763
 20
-1.596408469909525
 10
0.5463629820422427
 20
-1.605720875299839
 10
0.5558979970794997
 20
-1.611403768565506
 10
0.5654037485781024
 20
-1.613676268364009
 10
0.5664377014420741
 20
-1.613699999517179
  0
LINE
  5
FB
330
D3
100
AcDbEntity
  8
AM_9
100
AcDbLine
 10
0.625
 20
-1.7832
 30
0.0
 11
0.625
 21
-0.1468000000000001
 31
0.0
  0
LINE
  5
FC
330
D3
100
AcDbEntity
  8
AM_9
100
AcDbLine
 10
-0.625
 20
-0.1468000000000001
 30
0.0
 11
-0.625
 21
-1.7832
 31
0.0
  0
LINE
  5
FD
330
D3
100
AcDbEntity
  8
AM_9
100
AcDbLine
 10
0.625
 20
-0.1468000000000001
 30
0.0
 11
0.6617999999999999
 21
-0.1099999999999999
 31
0.0
  0
LINE
  5
FE
330
D3
100
AcDbEntity
  8
AM_9
100
AcDbLine
 10
-0.6617999999999999
 20
-0.1099999999999999
 30
0.0
 11
-0.625
 21
-0.1468000000000001
 31
0.0
  0
LINE
  5
FF
330
D3
100
AcDbEntity
  8
AM_9
100
AcDbLine
 10
-0.6250000000000001
 20
-1.7832
 30
0.0
 11
-0.6618000000000002
 21
-1.82
 31
0.0
  0
LINE
  5
100
330
D3
100
AcDbEntity
  8
AM_9
100
AcDbLine
 10
0.6618000000000002
 20
-1.82
 30
0.0
 11
0.6250000000000001
 21
-1.7832
 31
0.0
  0
LINE
  5
101
330
D3
100
AcDbEntity
  8
AM_9
100
AcDbLine
 10
0.92
 20
-1.28
 30
0.0
 11
0.92
 21
-1.155
 31
0.0
  0
LINE
  5
102
330
D3
100
AcDbEntity
  8
AM_9
100
AcDbLine
 10
-0.92
 20
-1.155
 30
0.0
 11
-0.92
 21
-1.28
 31
0.0
  0
LINE
  5
103
330
D3
100
AcDbEntity
  8
AM_9
100
AcDbLine
 10
0.9199999999999997
 20
-0.405
 30
0.0
 11
0.9199999999999997
 21
-0.1468000000000001
 31
0.0
  0
LINE
  5
104
330
D3
100
AcDbEntity
  8
AM_9
100
AcDbLine
 10
-0.9199999999999997
 20
-0.1468000000000001
 30
0.0
 11
-0.9199999999999997
 21
-0.405
 31
0.0
  0
LINE
  5
105
330
D3
100
AcDbEntity
  8
AM_9
100
AcDbLine
 10
-0.9200000000000002
 20
-0.1468000000000001
 30
0.0
 11
0.9200000000000002
 21
-0.1468000000000001
 31
0.0
  0
LINE
  5
106
330
D3
100
AcDbEntity
  8
AM_9
100
AcDbLine
 10
-0.8832000000000002
 20
-0.1099999999999999
 30
0.0
 11
0.8832000000000002
 21
-0.1099999999999999
 31
0.0
  0
LINE
  5
107
330
D3
100
AcDbEntity
  8
AM_9
100
AcDbLine
 10
-0.8832000000000002
 20
-0.1099999999999999
 30
0.0
 11
-0.9200000000000002
 21
-0.1468000000000001
 31
0.0
  0
LINE
  5
108
330
D3
100
AcDbEntity
  8
AM_9
100
AcDbLine
 10
0.9200000000000002
 20
-0.1468000000000001
 30
0.0
 11
0.8832000000000002
 21
-0.1099999999999999
 31
0.0
  0
LINE
  5
109
330
D3
100
AcDbEntity
  8
AM_9
100
AcDbLine
 10
1.350633333333333
 20
-1.02
 30
0.0
 11
1.350633333333333
 21
-0.94
 31
0.0
  0
LINE
  5
10A
330
D3
100
AcDbEntity
  8
AM_9
100
AcDbLine
 10
-1.350633333333333
 20
-0.94
 30
0.0
 11
-1.350633333333333
 21
-1.02
 31
0.0
  0
LINE
  5
10B
330
D3
100
AcDbEntity
  8
AM_9
100
AcDbLine
 10
-1.335937981344943
 20
-0.405
 30
0.0
 11
1.335937981344377
 21
-0.405
 31
0.0
  0
ARC
  5
10C
330
D3
100
AcDbEntity
  8
AM_9
100
AcDbCircle
 10
1.335937981344943
 20
-0.4449999999999998
 30
0.0
 40
0.0399999999999997
100
AcDbArc
 50
14.0772302633402
 51
90.0
  0
ARC
  5
10D
330
D3
100
AcDbEntity
  8
AM_9
100
AcDbCircle
 10
-1.335937981344943
 20
-0.4449999999999998
 30
0.0
 40
0.0399999999999998
100
AcDbArc
 50
90.0
 51
165.9227697366598
  0
LINE
  5
10E
330
D3
100
AcDbEntity
  8
AM_9
100
AcDbLine
 10
-1.335937981344943
 20
-1.155
 30
0.0
 11
1.335937981344377
 21
-1.155
 31
0.0
  0
ARC
  5
10F
330
D3
100
AcDbEntity
  8
AM_9
100
AcDbCircle
 10
1.335937981344942
 20
-1.115
 30
0.0
 40
0.0400000000000003
100
AcDbArc
 50
270.0
 51
345.9227727932864
  0
ARC
  5
110
330
D3
100
AcDbEntity
  8
AM_9
100
AcDbCircle
 10
-1.335937981344942
 20
-1.115
 30
0.0
 40
0.0400000000000003
100
AcDbArc
 50
194.0772272067136
 51
270.0
  0
LINE
  5
111
330
D3
100
AcDbEntity
  8
AM_9
100
AcDbLine
 10
-1.374736731983001
 20
-1.124729180280259
 30
0.0
 11
1.37473673198297
 21
-1.124729180280259
 31
0.0
  0
LINE
  5
112
330
D3
100
AcDbEntity
  8
AM_9
100
AcDbLine
 10
-1.396831876068126
 20
-1.02
 30
0.0
 11
1.396831876068094
 21
-1.02
 31
0.0
  0
ARC
  5
113
330
D3
100
AcDbEntity
  8
AM_9
100
AcDbCircle
 10
-0.0000000000417544
 20
-0.7799999999912077
 30
0.0
 40
1.417300000042609
100
AcDbArc
 50
345.9227727933522
 51
350.2507814750213
  0
ARC
  5
114
330
D3
100
AcDbEntity
  8
AM_9
100
AcDbCircle
 10
0.0000000000418798
 20
-0.7799999999911812
 30
0.0
 40
1.417300000042737
100
AcDbArc
 50
189.7492185249788
 51
194.0772272066475
  0
LINE
  5
115
330
D3
100
AcDbEntity
  8
AM_9
100
AcDbLine
 10
-1.40823978426971
 20
-0.94
 30
0.0
 11
1.40823978426971
 21
-0.94
 31
0.0
  0
LINE
  5
116
330
D3
100
AcDbEntity
  8
AM_9
100
AcDbLine
 10
-1.374736731463967
 20
-0.4352708176498978
 30
0.0
 11
1.374736731463966
 21
-0.4352708176498979
 31
0.0
  0
ARC
  5
117
330
D3
100
AcDbEntity
  8
AM_9
100
AcDbCircle
 10
0.0000000000017366
 20
-0.7799999999998163
 30
0.0
 40
1.417299999998271
100
AcDbArc
 50
357.9037695850745
 51
14.07722729298929
  0
ARC
  5
118
330
D3
100
AcDbEntity
  8
AM_9
100
AcDbCircle
 10
-0.0000000000004885
 20
-0.7799999999999665
 30
0.0
 40
1.417300000000489
100
AcDbArc
 50
353.5180207994829
 51
357.7390158930646
  0
ARC
  5
119
330
D3
100
AcDbEntity
  8
AM_9
100
AcDbCircle
 10
0.0000000000050115
 20
-0.7800000000011535
 30
0.0
 40
1.417300000005141
100
AcDbArc
 50
165.9227727070246
 51
167.6138076586453
  0
ARC
  5
11A
330
D3
100
AcDbEntity
  8
AM_9
100
AcDbCircle
 10
0.0000000000001159
 20
-0.7799999999999981
 30
0.0
 40
1.417300000000115
100
AcDbArc
 50
176.1059048048811
 51
186.4819792005176
  0
LINE
  5
11B
330
D3
100
AcDbEntity
  8
AM_9
100
AcDbLine
 10
-1.384276680758259
 20
-0.4758333333388705
 30
0.0
 11
-1.414053366232152
 21
-0.6841231652195905
 31
0.0
  0
LINE
  5
11E
330
D3
100
AcDbEntity
  8
AM_7
100
AcDbLine
 10
-0.13251
 20
-1.4875
 30
0.0
 11
0.13251
 21
-1.4875
 31
0.0
  0
LINE
  5
11F
330
D3
100
AcDbEntity
  8
AM_7
100
AcDbLine
 10
-1.50779
 20
-0.58
 30
0.0
 11
-0.8920100000000001
 21
-0.58
 31
0.0
  0
ELLIPSE
  5
120
330
D3
100
AcDbEntity
  8
AM_4
100
AcDbEllipse
 10
0.8148925094304427
 20
-1.4875
 30
0.0
 11
-2.318256390785941E-17
 21
-0.1262000000000001
 31
0.0
210
0.0
220
0.0
230
1.0
 40
0.4226182617406991
 41
5.914952223687606
 42
9.792625966820061
  0
LWPOLYLINE
  5
121
330
D3
100
AcDbEntity
  8
AM_4
100
AcDbPolyline
 90
       14
 70
     0
 43
0.0
 10
0.8030536920670432
 20
-1.615393302188435
 10
0.799946475955041
 20
-1.611295558663527
 10
0.7912915877057912
 20
-1.59728363479781
 10
0.7836061445765111
 20
-1.580767127281401
 10
0.7767412176447328
 20
-1.560772242004618
 10
0.771521188565616
 20
-1.538988278381379
 10
0.7680136773610051
 20
-1.51451362704652
 10
0.7667070585634598
 20
-1.489323221429411
 10
0.7677560775678577
 20
-1.463299974210065
 10
0.7711554158505997
 20
-1.437957872439703
 10
0.7768109492897658
 20
-1.413998489361334
 10
0.7844399761037789
 20
-1.392199127722069
 10
0.7934534387992556
 20
-1.373834546057553
 10
0.803064799386377
 20
-1.359592840311665
  0
LWPOLYLINE
  5
122
330
D3
100
AcDbEntity
  8
AM_4
100
AcDbPolyline
 90
        6
 70
     0
 43
0.0
 10
0.803064799386377
 20
-1.359592840311665
 10
0.8036359003476897
 20
-1.358887730866234
 10
0.8138338949555558
 20
-1.348626074280927
 10
0.8242576997106629
 20
-1.342359048713396
 10
0.8304150206999563
 20
-1.340686268088152
 10
0.8364200418006986
 20
-1.340587895833631
  0
LINE
  5
123
330
D3
100
AcDbEntity
  8
AM_4
100
AcDbLine
 10
-0.8832
 20
-1.82
 30
0.0
 11
0.8832
 21
-1.82
 31
0.0
  0
LINE
  5
124
330
D3
100
AcDbEntity
  8
AM_4
100
AcDbLine
 10
0.8832
 20
-1.82
 30
0.0
 11
0.92
 21
-1.7832
 31
0.0
  0
LINE
  5
125
330
D3
100
AcDbEntity
  8
AM_4
100
AcDbLine
 10
-0.92
 20
-1.7832
 30
0.0
 11
-0.8832
 21
-1.82
 31
0.0
  0
LINE
  5
126
330
D3
100
AcDbEntity
  8
AM_4
100
AcDbLine
 10
-0.92
 20
-1.7832
 30
0.0
 11
0.92
 21
-1.7832
 31
0.0
  0
LWPOLYLINE
  5
127
330
D3
100
AcDbEntity
  8
AM_4
100
AcDbPolyline
 90
       23
 70
     0
 43
0.0
 10
0.8364200418006986
 20
-1.340587895833631
 10
0.84523522179502
 20
-1.34356803566994
 10
0.8532824103906758
 20
-1.35017294150792
 10
0.8602397306751867
 20
-1.359923739369652
 10
0.8662397807921377
 20
-1.372545338161938
 10
0.8715099360739705
 20
-1.388634546105366
 10
0.8756964721186201
 20
-1.407020047003139
 10
0.879015258710987
 20
-1.428751955752624
 10
0.8811831958308243
 20
-1.451959314178339
 10
0.8822617265662864
 20
-1.477331216822105
 10
0.8821386239732293
 20
-1.50297882914705
 10
0.8807631372408959
 20
-1.528722166329964
 10
0.8780978394089982
 20
-1.55328707486616
 10
0.8741084630623616
 20
-1.575751488410156
 10
0.8687299636509869
 20
-1.595592100612283
 10
0.8622062848454316
 20
-1.611435801956261
 10
0.8543798591777444
 20
-1.623571312991382
 10
0.8460197404765809
 20
-1.630962801603789
 10
0.8367914119524856
 20
-1.634364995150952
 10
0.8276050497532312
 20
-1.633728340589699
 10
0.818157690520508
 20
-1.629496834881177
 10
0.8088816593979681
 20
-1.621921484303224
 10
0.8030536920670432
 20
-1.615393302188435
  0
LINE
  5
128
330
D3
100
AcDbEntity
  8
AM_4
100
AcDbLine
 10
0.92
 20
-1.7832
 30
0.0
 11
0.92
 21
-1.28
 31
0.0
  0
LINE
  5
129
330
D3
100
AcDbEntity
  8
AM_4
100
AcDbLine
 10
-0.92
 20
-1.28
 30
0.0
 11
-0.92
 21
-1.7832
 31
0.0
  0
LWPOLYLINE
  5
12A
330
D3
100
AcDbEntity
  8
AM_4
100
AcDbPolyline
 90
       39
 70
     0
 43
0.0
 10
-0.0990834330639697
 20
-1.38618143700423
 10
-0.084227053524363
 20
-1.371687218831369
 10
-0.0669681475490529
 20
-1.359313964111615
 10
-0.0461710098732804
 20
-1.349091594188536
 10
-0.0231139790003437
 20
-1.342556210024947
 10
-0.0015676258759983
 20
-1.340444092066901
 10
0.020694660079328
 20
-1.342132856383575
 10
0.0409755909830389
 20
-1.347208884942602
 10
0.0606773322778276
 20
-1.355737401136482
 10
0.0787355157368327
 20
-1.36730182454522
 10
0.0951532253816025
 20
-1.381919379660177
 10
0.1096395699417921
 20
-1.399625130926781
 10
0.1214666823348717
 20
-1.419897328290216
 10
0.1303109567384669
 20
-1.44272102344004
 10
0.1355338288805017
 20
-1.467323160109408
 10
0.1367427051778834
 20
-1.49283093357559
 10
0.1336639999275327
 20
-1.518905759595552
 10
0.1264221979832151
 20
-1.543667926452418
 10
0.1147418003498326
 20
-1.567508596106985
 10
0.099845627736629
 20
-1.587950695161804
 10
0.080963402422981
 20
-1.605973913522221
 10
0.0609477324307625
 20
-1.619118001804216
 10
0.038108187957825
 20
-1.628724767186288
 10
0.0164660334176918
 20
-1.633492592610008
 10
-0.0064038383597319
 20
-1.63440379892908
 10
-0.0272285804617179
 20
-1.631612859322334
 10
-0.0478689225270828
 20
-1.625238399453746
 10
-0.0667800430447169
 20
-1.615799587205847
 10
-0.0843932464781528
 20
-1.603172799736616
 10
-0.1002724782663171
 20
-1.587458466812009
 10
-0.1138322299328559
 20
-1.568993253454556
 10
-0.124809464472325
 20
-1.547679360323451
 10
-0.1324680822367561
 20
-1.524278107339604
 10
-0.1363890040729782
 20
-1.499313533502227
 10
-0.1361941960916929
 20
-1.473334843220143
 10
-0.1317649089748035
 20
-1.447921003811312
 10
-0.1228845007114305
 20
-1.422917525169868
 10
-0.1124758416585894
 20
-1.403862640651568
 10
-0.099083433124887
 20
-1.386181436964264
  0
CIRCLE
  5
12B
330
D3
100
AcDbEntity
  8
AM_4
100
AcDbCircle
 10
0.0
 20
-1.4875
 30
0.0
 40
0.1262
  0
ARC
  5
12D
330
D3
100
AcDbEntity
  8
AM_5
100
AcDbCircle
 10
0.0
 20
-1.4875
 30
0.0
 40
0.1562499999999999
100
AcDbArc
 50
75.0
 51
15.00000000000004
  0
ARC
  5
12E
330
D3
100
AcDbEntity
  8
AM_5
100
AcDbCircle
 10
0.0000000000000001
 20
-1.5075
 30
0.0
 40
0.1562499999999998
100
AcDbArc
 50
75.00000000000004
 51
14.99999999999997
  0
ENDBLK
  5
D6
330
D3
100
AcDbEntity
  8
0
100
AcDbBlockEnd
  0
BLOCK
  5
131
330
12F
100
AcDbEntity
  8
0
100
AcDbBlockBegin
  2
4_057687H_0_in_057687_4
 70
     2
 10
0.0
 20
0.0
 30
0.0
  3
4_057687H_0_in_057687_4
  1

  0
ATTDEF
  5
133
330
12F
100
AcDbEntity
  8
AM_6
100
AcDbText
 10
6.845
 20
0.06855
 30
0.0
 40
0.5
  1
F2B-SCEZ-PCR -Inch - Housing
100
AcDbAttributeDefinition
  3

  2
NN
 70
     8
280
     0
  0
ATTDEF
  5
134
330
12F
100
AcDbEntity
  8
AM_6
100
AcDbText
 10
6.845
 20
-0.43145
 30
0.0
 40
0.5
  1
SC 2 Bolt Flange Bearings -(Normal Duty) -Corrosion Resistant Insert -Polymer Housed -E-Z KLEEN
100
AcDbAttributeDefinition
  3

  2
NT
 70
     8
280
     0
  0
ATTDEF
  5
135
330
12F
100
AcDbEntity
  8
AM_6
100
AcDbText
 10
6.845
 20
-0.93145
 30
0.0
 40
0.5
  1
057687H
100
AcDbAttributeDefinition
  3

  2
NB
 70
     8
280
     0
  0
ATTDEF
  5
136
330
12F
100
AcDbEntity
  8
AM_6
100
AcDbText
 10
6.845
 20
-1.43145
 30
0.0
 40
0.5
  1
$PN.H
100
AcDbAttributeDefinition
  3

  2
NBSYN
 70
     8
280
     0
  0
ATTDEF
  5
137
330
12F
100
AcDbEntity
  8
AM_6
100
AcDbText
 10
6.845
 20
-1.93145
 30
0.0
 40
0.5
  1
057687
100
AcDbAttributeDefinition
  3

  2
LINA
 70
     8
280
     0
  0
ATTDEF
  5
138
330
12F
100
AcDbEntity
  8
AM_6
100
AcDbText
 10
6.845
 20
-2.43145
 30
0.0
 40
0.5
  1
207
100
AcDbAttributeDefinition
  3

  2
SERIES
 70
     8
280
     0
  0
ATTDEF
  5
139
330
12F
100
AcDbEntity
  8
AM_6
100
AcDbText
 10
6.845
 20
-2.93145
 30
0.0
 40
0.5
  1
1-1/4
100
AcDbAttributeDefinition
  3

  2
SS
 70
     8
280
     0
  0
ATTDEF
  5
13A
330
12F
100
AcDbEntity
  8
AM_6
100
AcDbText
 10
6.845
 20
-3.43145
 30
0.0
 40
0.5
  1
057687
100
AcDbAttributeDefinition
  3

  2
PN
 70
     8
280
     0
  0
ATTDEF
  5
13B
330
12F
100
AcDbEntity
  8
AM_6
100
AcDbText
 10
6.845
 20
-3.93145
 30
0.0
 40
0.5
  1
F2B-SCEZ-104-PCR-P
100
AcDbAttributeDefinition
  3

  2
DESCRIPTION
 70
     8
280
     0
  0
ATTDEF
  5
13C
330
12F
100
AcDbEntity
  8
AM_6
100
AcDbText
 10
6.845
 20
-4.43145
 30
0.0
 40
0.5
  1
1.36
100
AcDbAttributeDefinition
  3

  2
W
 70
     8
280
     0
  0
ATTDEF
  5
13D
330
12F
100
AcDbEntity
  8
AM_6
100
AcDbText
 10
6.845
 20
-4.93145
 30
0.0
 40
0.5
  1
1.71
100
AcDbAttributeDefinition
  3

  2
A
 70
     8
280
     0
  0
ATTDEF
  5
13E
330
12F
100
AcDbEntity
  8
AM_6
100
AcDbText
 10
6.845
 20
-5.43145
 30
0.0
 40
0.5
  1
6.31
100
AcDbAttributeDefinition
  3

  2
B
 70
     8
280
     0
  0
ATTDEF
  5
13F
330
12F
100
AcDbEntity
  8
AM_6
100
AcDbText
 10
6.845
 20
-5.93145
 30
0.0
 40
0.5
  1
1.82
100
AcDbAttributeDefinition
  3

  2
C
 70
     8
280
     0
  0
ATTDEF
  5
140
330
12F
100
AcDbEntity
  8
AM_6
100
AcDbText
 10
6.845
 20
-6.43145
 30
0.0
 40
0.5
  1
5.12
100
AcDbAttributeDefinition
  3

  2
D
 70
     8
280
     0
  0
ATTDEF
  5
141
330
12F
100
AcDbEntity
  8
AM_6
100
AcDbText
 10
6.845
 20
-6.93145
 30
0.0
 40
0.5
  1
1/2
100
AcDbAttributeDefinition
  3

  2
F
 70
     8
280
     0
  0
ATTDEF
  5
142
330
12F
100
AcDbEntity
  8
AM_6
100
AcDbText
 10
6.845
 20
-7.43145
 30
0.0
 40
0.5
  1
0.62
100
AcDbAttributeDefinition
  3

  2
H
 70
     8
280
     0
  0
ATTDEF
  5
143
330
12F
100
AcDbEntity
  8
AM_6
100
AcDbText
 10
6.845
 20
-7.93145
 30
0.0
 40
0.5
  1
0.54
100
AcDbAttributeDefinition
  3

  2
J
 70
     8
280
     0
  0
ATTDEF
  5
144
330
12F
100
AcDbEntity
  8
AM_6
100
AcDbText
 10
6.845
 20
-8.43145
 30
0.0
 40
0.5
  1
1.84
100
AcDbAttributeDefinition
  3

  2
L
 70
     8
280
     0
  0
ATTDEF
  5
145
330
12F
100
AcDbEntity
  8
AM_6
100
AcDbText
 10
6.845
 20
-8.93145
 30
0.0
 40
0.5
  1
3.69
100
AcDbAttributeDefinition
  3

  2
M
 70
     8
280
     0
  0
ATTDEF
  5
146
330
12F
100
AcDbEntity
  8
AM_6
100
AcDbText
 10
6.845
 20
-9.43145
 30
0.0
 40
0.5
  1
3065
100
AcDbAttributeDefinition
  3

  2
CAPS
 70
     8
280
     0
  0
ATTDEF
  5
147
330
12F
100
AcDbEntity
  8
AM_6
100
AcDbText
 10
6.845
 20
-9.93145
 30
0.0
 40
0.5
  1
5759
100
AcDbAttributeDefinition
  3

  2
CAPD
 70
     8
280
     0
  0
ATTDEF
  5
148
330
12F
100
AcDbEntity
  8
AM_6
100
AcDbText
 10
6.845
 20
-10.43145
 30
0.0
 40
0.5
  1
baldor
100
AcDbAttributeDefinition
  3

  2
COMPANY
 70
     8
280
     0
  0
LINE
  5
149
330
12F
100
AcDbEntity
  8
AM_9
100
AcDbLine
 10
0.5949999999999998
 20
-0.8319999999999999
 30
0.0
 11
0.5949999999999998
 21
0.0000000000000001
 31
0.0
  0
LINE
  5
14A
330
12F
100
AcDbEntity
  8
AM_9
100
AcDbLine
 10
-0.5949999999999998
 20
-0.8319999999999999
 30
0.0
 11
-0.5949999999999998
 21
0.0000000000000001
 31
0.0
  0
LINE
  5
14B
330
12F
100
AcDbEntity
  8
AM_9
100
AcDbLine
 10
1.4173
 20
-1.28
 30
0.0
 11
1.4173
 21
0.0
 31
0.0
  0
LINE
  5
14C
330
12F
100
AcDbEntity
  8
AM_9
100
AcDbLine
 10
-1.4173
 20
0.0
 30
0.0
 11
-1.4173
 21
-1.28
 31
0.0
  0
LINE
  5
14D
330
12F
100
AcDbEntity
  8
AM_9
100
AcDbLine
 10
0.5949999999999998
 20
-0.8319999999999999
 30
0.0
 11
-0.5949999999999998
 21
-0.8319999999999999
 31
0.0
  0
LINE
  5
14E
330
12F
100
AcDbEntity
  8
AM_9
100
AcDbLine
 10
0.25
 20
-0.6199999999999998
 30
0.0
 11
0.25
 21
0.0000000000000002
 31
0.0
  0
LINE
  5
14F
330
12F
100
AcDbEntity
  8
AM_9
100
AcDbLine
 10
-0.25
 20
0.0000000000000002
 30
0.0
 11
-0.25
 21
-0.6199999999999998
 31
0.0
  0
LINE
  5
150
330
12F
100
AcDbEntity
  8
AM_7
100
AcDbLine
 10
0.0
 20
0.06855
 30
0.0
 11
0.0
 21
-1.9055
 31
0.0
  0
LINE
  5
151
330
12F
100
AcDbEntity
  8
AM_4
100
AcDbLine
 10
1.845
 20
-0.5579999999999999
 30
0.0
 11
0.6113792180626895
 21
-0.5579999999999997
 31
0.0
  0
LINE
  5
152
330
12F
100
AcDbEntity
  8
AM_4
100
AcDbLine
 10
1.845
 20
-1.28
 30
0.0
 11
1.845
 21
0.0
 31
0.0
  0
LINE
  5
153
330
12F
100
AcDbEntity
  8
AM_4
100
AcDbLine
 10
1.845
 20
0.0
 30
0.0
 11
-1.845
 21
0.0
 31
0.0
  0
LINE
  5
154
330
12F
100
AcDbEntity
  8
AM_4
100
AcDbLine
 10
-0.6113792180626872
 20
-0.5579999999999997
 30
0.0
 11
-1.845
 21
-0.5579999999999999
 31
0.0
  0
LINE
  5
155
330
12F
100
AcDbEntity
  8
AM_4
100
AcDbLine
 10
-1.845
 20
-1.28
 30
0.0
 11
-1.845
 21
0.0
 31
0.0
  0
LINE
  5
156
330
12F
100
AcDbEntity
  8
AM_4
100
AcDbLine
 10
1.845
 20
-1.28
 30
0.0
 11
-1.845
 21
-1.28
 31
0.0
  0
LINE
  5
157
330
12F
100
AcDbEntity
  8
AM_4
100
AcDbLine
 10
-1.75420310216783
 20
-1.28
 30
0.0
 11
-1.75420310216783
 21
-0.5579999999999998
 31
0.0
  0
LINE
  5
158
330
12F
100
AcDbEntity
  8
AM_4
100
AcDbLine
 10
1.75420310216783
 20
-1.28
 30
0.0
 11
1.75420310216783
 21
-0.5579999999999998
 31
0.0
  0
LINE
  5
159
330
12F
100
AcDbEntity
  8
AM_4
100
AcDbLine
 10
-0.7642240225783602
 20
-1.28
 30
0.0
 11
-0.7642240225783602
 21
-0.5579999999999997
 31
0.0
  0
LINE
  5
15A
330
12F
100
AcDbEntity
  8
AM_4
100
AcDbLine
 10
0.7642240225783604
 20
-1.28
 30
0.0
 11
0.7642240225783604
 21
-0.5579999999999997
 31
0.0
  0
LINE
  5
15B
330
12F
100
AcDbEntity
  8
AM_4
100
AcDbLine
 10
0.6113792180626895
 20
-0.5579999999999997
 30
0.0
 11
0.6113792180626882
 21
-0.6199999999999998
 31
0.0
  0
LINE
  5
15C
330
12F
100
AcDbEntity
  8
AM_4
100
AcDbLine
 10
1.803467875173175
 20
-0.5579999999999999
 30
0.0
 11
1.803467875173175
 21
0.0000000000000001
 31
0.0
  0
LINE
  5
15D
330
12F
100
AcDbEntity
  8
AM_4
100
AcDbLine
 10
0.4646848458635264
 20
-0.6199999999999998
 30
0.0
 11
0.4646848458635264
 21
0.0000000000000002
 31
0.0
  0
LINE
  5
15E
330
12F
100
AcDbEntity
  8
AM_4
100
AcDbLine
 10
-0.6113792180626884
 20
-0.6199999999999998
 30
0.0
 11
-0.6113792180626872
 21
-0.5579999999999997
 31
0.0
  0
LINE
  5
15F
330
12F
100
AcDbEntity
  8
AM_4
100
AcDbLine
 10
0.6113792180626882
 20
-0.6199999999999998
 30
0.0
 11
-0.6113792180626884
 21
-0.6199999999999998
 31
0.0
  0
LINE
  5
160
330
12F
100
AcDbEntity
  8
AM_4
100
AcDbLine
 10
-0.4646848458635249
 20
-0.6199999999999998
 30
0.0
 11
-0.4646848458635249
 21
0.0000000000000002
 31
0.0
  0
LINE
  5
161
330
12F
100
AcDbEntity
  8
AM_4
100
AcDbLine
 10
-1.803467875173175
 20
-0.5579999999999999
 30
0.0
 11
-1.803467875173175
 21
0.0000000000000001
 31
0.0
  0
ENDBLK
  5
132
330
12F
100
AcDbEntity
  8
0
100
AcDbBlockEnd
  0
ENDSEC
  0
SECTION
  2
ENTITIES
  0
INSERT
  5
6F
330
1F
100
AcDbEntity
  8
0
100
AcDbBlockReference
  2
1_057687_4
 10
0.0
 20
0.0
 30
0.0
  0
POINT
  5
163
330
1F
100
AcDbEntity
  8
ConnectionPoints
100
AcDbPoint
 10
0.0
 20
-0.11
 30
0.0
  0
POINT
  5
164
330
1F
100
AcDbEntity
  8
ConnectionPoints
100
AcDbPoint
 10
0.0
 20
-1.82
 30
0.0000000000000001
  0
POINT
  5
165
330
1F
100
AcDbEntity
  8
ConnectionPoints
100
AcDbPoint
 10
1.30461201128918
 20
-0.9499999999999998
 30
1.30461201128918
  0
POINT
  5
166
330
1F
100
AcDbEntity
  8
ConnectionPoints
100
AcDbPoint
 10
0.0
 20
-1.82
 30
0.0000000000000001
  0
ENDSEC
  0
SECTION
  2
OBJECTS
  0
DICTIONARY
  5
C
330
0
100
AcDbDictionary
281
     1
  3
ACAD_DETAILVIEWSTYLE
350
16E
  3
ACAD_GROUP
350
D
  3
ACAD_LAYOUT
350
1A
  3
ACAD_MATERIAL
350
43
  3
ACAD_MLEADERSTYLE
350
6B
  3
ACAD_MLINESTYLE
350
17
  3
ACAD_PLOTSETTINGS
350
19
  3
ACAD_PLOTSTYLENAME
350
E
  3
ACAD_SCALELIST
350
47
  3
ACAD_SECTIONVIEWSTYLE
350
16F
  3
ACAD_TABLESTYLE
350
69
  3
ACAD_VISUALSTYLE
350
2A
  3
ACDB_RECOMPOSE_DATA
350
16B
  3
AcDbVariableDictionary
350
167
  0
SUN
  5
6D
330
29
100
AcDbSun
 90
        1
290
     0
 63
     7
421
 16777215
 40
1.0
291
     1
 91
  2455826
 92
 54000000
292
     0
 70
     2
 71
   256
280
     1
  0
DICTIONARY
  5
16E
102
{ACAD_REACTORS
330
C
102
}
330
C
100
AcDbDictionary
281
     1
  0
DICTIONARY
  5
D
102
{ACAD_REACTORS
330
C
102
}
330
C
100
AcDbDictionary
281
     1
  0
DICTIONARY
  5
1A
102
{ACAD_REACTORS
330
C
102
}
330
C
100
AcDbDictionary
281
     1
  3
Layout1
350
1E
  3
Layout2
350
26
  3
Model
350
22
  0
DICTIONARY
  5
43
102
{ACAD_REACTORS
330
C
102
}
330
C
100
AcDbDictionary
281
     1
  3
ByBlock
350
45
  3
ByLayer
350
44
  3
Global
350
46
  0
DICTIONARY
  5
6B
102
{ACAD_REACTORS
330
C
102
}
330
C
100
AcDbDictionary
281
     1
  3
Standard
350
6C
  0
DICTIONARY
  5
17
102
{ACAD_REACTORS
330
C
102
}
330
C
100
AcDbDictionary
281
     1
  3
Standard
350
18
  0
DICTIONARY
  5
19
102
{ACAD_REACTORS
330
C
102
}
330
C
100
AcDbDictionary
281
     1
  0
ACDBDICTIONARYWDFLT
  5
E
102
{ACAD_REACTORS
330
C
102
}
330
C
100
AcDbDictionary
281
     1
  3
Normal
350
F
100
AcDbDictionaryWithDefault
340
F
  0
DICTIONARY
  5
47
102
{ACAD_REACTORS
330
C
102
}
330
C
100
AcDbDictionary
281
     1
  3
A0
350
48
  3
A1
350
49
  3
A2
350
4A
  3
A3
350
4B
  3
A4
350
4C
  3
A5
350
4D
  3
A6
350
4E
  3
A7
350
4F
  3
A8
350
50
  3
A9
350
51
  3
B0
350
52
  3
B1
350
53
  3
B2
350
54
  3
B3
350
55
  3
B4
350
56
  3
B5
350
57
  3
B6
350
58
  3
B7
350
59
  3
B8
350
5A
  3
B9
350
5B
  3
C0
350
5C
  3
C1
350
5D
  3
C2
350
5E
  3
C3
350
5F
  3
C4
350
60
  3
C5
350
61
  3
C6
350
62
  3
C7
350
63
  3
C8
350
64
  3
C9
350
65
  3
D0
350
66
  3
D1
350
67
  3
D2
350
68
  0
DICTIONARY
  5
16F
102
{ACAD_REACTORS
330
C
102
}
330
C
100
AcDbDictionary
281
     1
  0
DICTIONARY
  5
69
102
{ACAD_REACTORS
330
C
102
}
330
C
100
AcDbDictionary
281
     1
  3
Standard
350
6A
  0
DICTIONARY
  5
2A
102
{ACAD_REACTORS
330
C
102
}
330
C
100
AcDbDictionary
281
     1
  3
2dWireframe
350
2F
  3
Basic
350
32
  3
Brighten
350
36
  3
ColorChange
350
3A
  3
Conceptual
350
34
  3
Dim
350
35
  3
EdgeColorOff
350
3D
  3
Facepattern
350
39
  3
Flat
350
2B
  3
FlatWithEdges
350
2C
  3
Gouraud
350
2D
  3
GouraudWithEdges
350
2E
  3
Hidden
350
31
  3
JitterOff
350
3B
  3
Linepattern
350
38
  3
OverhangOff
350
3C
  3
Realistic
350
33
  3
Shaded
350
42
  3
Shaded with edges
350
41
  3
Shades of Gray
350
3E
  3
Sketchy
350
3F
  3
Thicken
350
37
  3
Wireframe
350
30
  3
X-Ray
350
40
  0
XRECORD
  5
16B
102
{ACAD_REACTORS
330
C
102
}
330
C
100
AcDbXrecord
280
     1
 90
        1
330
6A
  0
DICTIONARY
  5
167
102
{ACAD_REACTORS
330
C
102
}
330
C
100
AcDbDictionary
281
     1
  3
CANNOSCALE
350
168
  3
CMLEADERSTYLE
350
16D
  3
CTABLESTYLE
350
16C
  0
LAYOUT
  5
1E
102
{ACAD_REACTORS
330
1A
102
}
330
1A
100
AcDbPlotSettings
  1

  2
none_device
  4

  6

 40
0.0
 41
0.0
 42
0.0
 43
0.0
 44
0.0
 45
0.0
 46
0.0
 47
0.0
 48
0.0
 49
0.0
140
0.0
141
0.0
142
1.0
143
1.0
 70
   688
 72
     0
 73
     0
 74
     5
  7

 75
    16
 76
     0
 77
     2
 78
   300
147
1.0
148
0.0
149
0.0
100
AcDbLayout
  1
Layout1
 70
     1
 71
     1
 10
0.0
 20
0.0
 11
12.0
 21
9.0
 12
0.0
 22
0.0
 32
0.0
 14
1.000000000000000E+20
 24
1.000000000000000E+20
 34
1.000000000000000E+20
 15
-1.000000000000000E+20
 25
-1.000000000000000E+20
 35
-1.000000000000000E+20
146
0.0
 13
0.0
 23
0.0
 33
0.0
 16
1.0
 26
0.0
 36
0.0
 17
0.0
 27
1.0
 37
0.0
 76
     0
330
1B
  0
LAYOUT
  5
26
102
{ACAD_REACTORS
330
1A
102
}
330
1A
100
AcDbPlotSettings
  1

  2
none_device
  4

  6

 40
0.0
 41
0.0
 42
0.0
 43
0.0
 44
0.0
 45
0.0
 46
0.0
 47
0.0
 48
0.0
 49
0.0
140
0.0
141
0.0
142
1.0
143
1.0
 70
   688
 72
     0
 73
     0
 74
     5
  7

 75
    16
 76
     0
 77
     2
 78
   300
147
1.0
148
0.0
149
0.0
100
AcDbLayout
  1
Layout2
 70
     1
 71
     2
 10
0.0
 20
0.0
 11
0.0
 21
0.0
 12
0.0
 22
0.0
 32
0.0
 14
0.0
 24
0.0
 34
0.0
 15
0.0
 25
0.0
 35
0.0
146
0.0
 13
0.0
 23
0.0
 33
0.0
 16
1.0
 26
0.0
 36
0.0
 17
0.0
 27
1.0
 37
0.0
 76
     0
330
23
  0
LAYOUT
  5
22
102
{ACAD_REACTORS
330
1A
102
}
330
1A
100
AcDbPlotSettings
  1

  2
none_device
  4
Letter_(8.50_x_11.00_Inches)
  6

 40
6.35
 41
6.35
 42
6.35000508
 43
6.35000508
 44
215.9
 45
279.4
 46
0.0
 47
0.0
 48
0.0
 49
0.0
140
0.0
141
0.0
142
1.0
143
1.0
 70
  1712
 72
     0
 73
     0
 74
     0
  7

 75
     0
 76
     0
 77
     2
 78
   300
147
1.0
148
0.0
149
0.0
100
AcDbLayout
  1
Model
 70
     1
 71
     0
 10
0.0
 20
0.0
 11
12.0
 21
9.0
 12
0.0
 22
0.0
 32
0.0
 14
1.000000000000000E+20
 24
1.000000000000000E+20
 34
1.000000000000000E+20
 15
-1.000000000000000E+20
 25
-1.000000000000000E+20
 35
-1.000000000000000E+20
146
0.0
 13
0.0
 23
0.0
 33
0.0
 16
1.0
 26
0.0
 36
0.0
 17
0.0
 27
1.0
 37
0.0
 76
     0
330
1F
331
29
  0
MATERIAL
  5
45
102
{ACAD_REACTORS
330
43
102
}
330
43
100
AcDbMaterial
  1
ByBlock
 72
     1
 94
      127
  0
MATERIAL
  5
44
102
{ACAD_REACTORS
330
43
102
}
330
43
100
AcDbMaterial
  1
ByLayer
 72
     1
 94
      127
  0
MATERIAL
  5
46
102
{ACAD_REACTORS
330
43
102
}
330
43
100
AcDbMaterial
  1
Global
 72
     1
 94
      127
  0
MLEADERSTYLE
  5
6C
102
{ACAD_REACTORS
330
6B
102
}
330
6B
100
AcDbMLeaderStyle
179
     2
170
     2
171
     1
172
     0
 90
        2
 40
0.0
 41
0.0
173
     1
 91
-1056964608
340
14
 92
       -2
290
     1
 42
0.09
291
     1
 43
0.36
  3
Standard
341
0
 44
0.18
300

342
11
174
     1
178
     6
175
     1
176
     0
 93
-1056964608
 45
0.18
292
     0
297
     0
 46
0.18
343
0
 94
-1056964608
 47
1.0
 49
1.0
140
1.0
293
     1
141
0.0
294
     1
177
     0
142
1.0
295
     0
296
     0
143
0.125
271
     0
272
     9
273
     9
298
     0
  0
MLINESTYLE
  5
18
102
{ACAD_REACTORS
330
17
102
}
330
17
100
AcDbMlineStyle
  2
Standard
 70
     0
  3

 62
   256
 51
90.0
 52
90.0
 71
     2
 49
0.5
 62
   256
  6
BYLAYER
 49
-0.5
 62
   256
  6
BYLAYER
  0
ACDBPLACEHOLDER
  5
F
102
{ACAD_REACTORS
330
E
102
}
330
E
  0
SCALE
  5
48
102
{ACAD_REACTORS
330
47
102
}
330
47
100
AcDbScale
 70
     0
300
1:1
140
1.0
141
1.0
290
     1
  0
SCALE
  5
49
102
{ACAD_REACTORS
330
47
102
}
330
47
100
AcDbScale
 70
     0
300
1:2
140
1.0
141
2.0
290
     0
  0
SCALE
  5
4A
102
{ACAD_REACTORS
330
47
102
}
330
47
100
AcDbScale
 70
     0
300
1:4
140
1.0
141
4.0
290
     0
  0
SCALE
  5
4B
102
{ACAD_REACTORS
330
47
102
}
330
47
100
AcDbScale
 70
     0
300
1:5
140
1.0
141
5.0
290
     0
  0
SCALE
  5
4C
102
{ACAD_REACTORS
330
47
102
}
330
47
100
AcDbScale
 70
     0
300
1:8
140
1.0
141
8.0
290
     0
  0
SCALE
  5
4D
102
{ACAD_REACTORS
330
47
102
}
330
47
100
AcDbScale
 70
     0
300
1:10
140
1.0
141
10.0
290
     0
  0
SCALE
  5
4E
102
{ACAD_REACTORS
330
47
102
}
330
47
100
AcDbScale
 70
     0
300
1:16
140
1.0
141
16.0
290
     0
  0
SCALE
  5
4F
102
{ACAD_REACTORS
330
47
102
}
330
47
100
AcDbScale
 70
     0
300
1:20
140
1.0
141
20.0
290
     0
  0
SCALE
  5
50
102
{ACAD_REACTORS
330
47
102
}
330
47
100
AcDbScale
 70
     0
300
1:30
140
1.0
141
30.0
290
     0
  0
SCALE
  5
51
102
{ACAD_REACTORS
330
47
102
}
330
47
100
AcDbScale
 70
     0
300
1:40
140
1.0
141
40.0
290
     0
  0
SCALE
  5
52
102
{ACAD_REACTORS
330
47
102
}
330
47
100
AcDbScale
 70
     0
300
1:50
140
1.0
141
50.0
290
     0
  0
SCALE
  5
53
102
{ACAD_REACTORS
330
47
102
}
330
47
100
AcDbScale
 70
     0
300
1:100
140
1.0
141
100.0
290
     0
  0
SCALE
  5
54
102
{ACAD_REACTORS
330
47
102
}
330
47
100
AcDbScale
 70
     0
300
2:1
140
2.0
141
1.0
290
     0
  0
SCALE
  5
55
102
{ACAD_REACTORS
330
47
102
}
330
47
100
AcDbScale
 70
     0
300
4:1
140
4.0
141
1.0
290
     0
  0
SCALE
  5
56
102
{ACAD_REACTORS
330
47
102
}
330
47
100
AcDbScale
 70
     0
300
8:1
140
8.0
141
1.0
290
     0
  0
SCALE
  5
57
102
{ACAD_REACTORS
330
47
102
}
330
47
100
AcDbScale
 70
     0
300
10:1
140
10.0
141
1.0
290
     0
  0
SCALE
  5
58
102
{ACAD_REACTORS
330
47
102
}
330
47
100
AcDbScale
 70
     0
300
100:1
140
100.0
141
1.0
290
     0
  0
SCALE
  5
59
102
{ACAD_REACTORS
330
47
102
}
330
47
100
AcDbScale
 70
     0
300
1/128" = 1'-0"
140
0.0078125
141
12.0
290
     0
  0
SCALE
  5
5A
102
{ACAD_REACTORS
330
47
102
}
330
47
100
AcDbScale
 70
     0
300
1/64" = 1'-0"
140
0.015625
141
12.0
290
     0
  0
SCALE
  5
5B
102
{ACAD_REACTORS
330
47
102
}
330
47
100
AcDbScale
 70
     0
300
1/32" = 1'-0"
140
0.03125
141
12.0
290
     0
  0
SCALE
  5
5C
102
{ACAD_REACTORS
330
47
102
}
330
47
100
AcDbScale
 70
     0
300
1/16" = 1'-0"
140
0.0625
141
12.0
290
     0
  0
SCALE
  5
5D
102
{ACAD_REACTORS
330
47
102
}
330
47
100
AcDbScale
 70
     0
300
3/32" = 1'-0"
140
0.09375
141
12.0
290
     0
  0
SCALE
  5
5E
102
{ACAD_REACTORS
330
47
102
}
330
47
100
AcDbScale
 70
     0
300
1/8" = 1'-0"
140
0.125
141
12.0
290
     0
  0
SCALE
  5
5F
102
{ACAD_REACTORS
330
47
102
}
330
47
100
AcDbScale
 70
     0
300
3/16" = 1'-0"
140
0.1875
141
12.0
290
     0
  0
SCALE
  5
60
102
{ACAD_REACTORS
330
47
102
}
330
47
100
AcDbScale
 70
     0
300
1/4" = 1'-0"
140
0.25
141
12.0
290
     0
  0
SCALE
  5
61
102
{ACAD_REACTORS
330
47
102
}
330
47
100
AcDbScale
 70
     0
300
3/8" = 1'-0"
140
0.375
141
12.0
290
     0
  0
SCALE
  5
62
102
{ACAD_REACTORS
330
47
102
}
330
47
100
AcDbScale
 70
     0
300
1/2" = 1'-0"
140
0.5
141
12.0
290
     0
  0
SCALE
  5
63
102
{ACAD_REACTORS
330
47
102
}
330
47
100
AcDbScale
 70
     0
300
3/4" = 1'-0"
140
0.75
141
12.0
290
     0
  0
SCALE
  5
64
102
{ACAD_REACTORS
330
47
102
}
330
47
100
AcDbScale
 70
     0
300
1" = 1'-0"
140
1.0
141
12.0
290
     0
  0
SCALE
  5
65
102
{ACAD_REACTORS
330
47
102
}
330
47
100
AcDbScale
 70
     0
300
1-1/2" = 1'-0"
140
1.5
141
12.0
290
     0
  0
SCALE
  5
66
102
{ACAD_REACTORS
330
47
102
}
330
47
100
AcDbScale
 70
     0
300
3" = 1'-0"
140
3.0
141
12.0
290
     0
  0
SCALE
  5
67
102
{ACAD_REACTORS
330
47
102
}
330
47
100
AcDbScale
 70
     0
300
6" = 1'-0"
140
6.0
141
12.0
290
     0
  0
SCALE
  5
68
102
{ACAD_REACTORS
330
47
102
}
330
47
100
AcDbScale
 70
     0
300
1'-0" = 1'-0"
140
12.0
141
12.0
290
     0
  0
TABLESTYLE
  5
6A
102
{ACAD_REACTORS
330
69
102
}
102
{ACAD_XDICTIONARY
360
169
102
}
330
69
100
AcDbTableStyle
  3
Standard
 70
     0
 71
     0
 40
0.06
 41
0.06
280
     0
281
     0
  7
Standard
140
0.18
170
     2
 62
     0
 63
   257
283
     0
 90
        4
 91
        0
  1

274
    -2
284
     1
 64
     0
275
    -2
285
     1
 65
     0
276
    -2
286
     1
 66
     0
277
    -2
287
     1
 67
     0
278
    -2
288
     1
 68
     0
279
    -2
289
     1
 69
     0
  7
Standard
140
0.25
170
     5
 62
     0
 63
   257
283
     0
 90
        4
 91
        0
  1

274
    -2
284
     1
 64
     0
275
    -2
285
     1
 65
     0
276
    -2
286
     1
 66
     0
277
    -2
287
     1
 67
     0
278
    -2
288
     1
 68
     0
279
    -2
289
     1
 69
     0
  7
Standard
140
0.18
170
     5
 62
     0
 63
   257
283
     0
 90
        4
 91
        0
  1

274
    -2
284
     1
 64
     0
275
    -2
285
     1
 65
     0
276
    -2
286
     1
 66
     0
277
    -2
287
     1
 67
     0
278
    -2
288
     1
 68
     0
279
    -2
289
     1
 69
     0
  0
VISUALSTYLE
  5
2F
102
{ACAD_REACTORS
330
2A
102
}
330
2A
100
AcDbVisualStyle
  2
2dWireframe
 70
     4
177
     3
291
     0
 70
    58
 90
        0
176
     1
 90
        2
176
     1
 90
        0
176
     1
 90
        0
176
     1
 40
0.6
176
     1
 40
30.0
176
     1
 62
     7
420
 16777215
176
     1
 90
        1
176
     1
 90
        4
176
     1
 62
     7
176
     1
 62
   257
176
     1
 90
        1
176
     1
 90
        1
176
     1
 40
1.0
176
     1
 90
        0
176
     1
 62
   257
176
     1
 40
1.0
176
     1
 90
        1
176
     1
 90
        6
176
     1
 90
        2
176
     1
 62
     7
176
     1
 90
        5
176
     1
 90
        0
176
     1
 90
        0
176
     1
290
     0
176
     1
 90
        1
176
     1
 40
0.0
176
     1
 90
        0
176
     1
290
     1
176
     1
290
     1
176
     1
290
     0
176
     1
290
     0
176
     1
290
     0
176
     1
290
     0
176
     1
290
     0
176
     1
290
     0
176
     1
290
     0
176
     1
 90
       50
176
     1
 40
0.0
176
     1
 40
1.0
176
     1
 90
        0
176
     1
 62
    18
420
        0
176
     1
 90
       50
176
     1
 90
        3
176
     1
 62
     5
420
      255
176
     1
290
     0
176
     1
 90
       50
176
     1
 90
       50
176
     1
 90
       50
176
     1
290
     0
176
     1
 90
       50
176
     1
 62
   256
176
     0
 40
1.0
176
     0
 90
        2
176
     1
  1
strokes_ogs.tif
176
     1
290
     0
176
     1
 40
1.0
176
     1
 40
1.0
176
     1
  0
VISUALSTYLE
  5
32
102
{ACAD_REACTORS
330
2A
102
}
330
2A
100
AcDbVisualStyle
  2
Basic
 70
     7
177
     3
291
     1
 70
    58
 90
        1
176
     1
 90
        0
176
     1
 90
        1
176
     1
 90
        0
176
     1
 40
0.6
176
     1
 40
30.0
176
     1
 62
     7
420
 16777215
176
     1
 90
        0
176
     1
 90
        4
176
     1
 62
     7
176
     1
 62
   257
176
     1
 90
        1
176
     1
 90
        1
176
     1
 40
1.0
176
     1
 90
        8
176
     1
 62
     7
176
     1
 40
1.0
176
     1
 90
        1
176
     1
 90
        6
176
     1
 90
        2
176
     1
 62
     7
176
     1
 90
        5
176
     1
 90
        0
176
     1
 90
        0
176
     1
290
     0
176
     1
 90
        1
176
     1
 40
0.0
176
     1
 90
        0
176
     1
290
     0
176
     1
290
     1
176
     1
290
     1
176
     1
290
     0
176
     1
290
     0
176
     1
290
     0
176
     1
290
     0
176
     1
290
     0
176
     1
290
     0
176
     1
 90
       50
176
     1
 40
0.0
176
     1
 40
1.0
176
     1
 90
        0
176
     1
 62
    18
420
        0
176
     1
 90
       50
176
     1
 90
        3
176
     1
 62
     5
420
      255
176
     1
290
     0
176
     1
 90
       50
176
     1
 90
       50
176
     1
 90
       50
176
     1
290
     0
176
     1
 90
       50
176
     1
 62
   256
176
     0
 40
1.0
176
     0
 90
        2
176
     1
  1
strokes_ogs.tif
176
     1
290
     0
176
     1
 40
1.0
176
     1
 40
1.0
176
     1
  0
VISUALSTYLE
  5
36
102
{ACAD_REACTORS
330
2A
102
}
330
2A
100
AcDbVisualStyle
  2
Brighten
 70
    12
177
     3
291
     1
 70
    58
 90
        2
176
     1
 90
        2
176
     1
 90
        0
176
     1
 90
        0
176
     1
 40
0.6
176
     1
 40
30.0
176
     1
 62
     7
420
 16777215
176
     1
 90
        1
176
     1
 90
        4
176
     1
 62
     7
176
     1
 62
   257
176
     1
 90
        1
176
     1
 90
        1
176
     1
 40
1.0
176
     1
 90
        8
176
     1
 62
     7
176
     1
 40
1.0
176
     1
 90
        1
176
     1
 90
        6
176
     1
 90
        2
176
     1
 62
     7
176
     1
 90
        5
176
     1
 90
        0
176
     1
 90
        0
176
     1
290
     0
176
     1
 90
        1
176
     1
 40
50.0
176
     1
 90
        0
176
     1
290
     0
176
     1
290
     1
176
     1
290
     1
176
     1
290
     0
176
     1
290
     0
176
     1
290
     0
176
     1
290
     0
176
     1
290
     0
176
     1
290
     0
176
     1
 90
       50
176
     1
 40
0.0
176
     1
 40
1.0
176
     1
 90
        0
176
     1
 62
    18
420
        0
176
     1
 90
       50
176
     1
 90
        3
176
     1
 62
     5
420
      255
176
     1
290
     0
176
     1
 90
       50
176
     1
 90
       50
176
     1
 90
       50
176
     1
290
     0
176
     1
 90
       50
176
     1
 62
   256
176
     0
 40
1.0
176
     0
 90
        2
176
     1
  1
strokes_ogs.tif
176
     1
290
     0
176
     1
 40
1.0
176
     1
 40
1.0
176
     1
  0
VISUALSTYLE
  5
3A
102
{ACAD_REACTORS
330
2A
102
}
330
2A
100
AcDbVisualStyle
  2
ColorChange
 70
    16
177
     3
291
     1
 70
    58
 90
        2
176
     1
 90
        2
176
     1
 90
        3
176
     1
 90
        0
176
     1
 40
0.6
176
     1
 40
30.0
176
     1
 62
     8
420
  8421504
176
     1
 90
        1
176
     1
 90
        4
176
     1
 62
     7
176
     1
 62
   257
176
     1
 90
        1
176
     1
 90
        1
176
     1
 40
1.0
176
     1
 90
        8
176
     1
 62
     8
420
  8421504
176
     1
 40
1.0
176
     1
 90
        1
176
     1
 90
        6
176
     1
 90
        2
176
     1
 62
     7
176
     1
 90
        5
176
     1
 90
        0
176
     1
 90
        0
176
     1
290
     0
176
     1
 90
        1
176
     1
 40
0.0
176
     1
 90
        0
176
     1
290
     0
176
     1
290
     1
176
     1
290
     1
176
     1
290
     0
176
     1
290
     0
176
     1
290
     0
176
     1
290
     0
176
     1
290
     0
176
     1
290
     0
176
     1
 90
       50
176
     1
 40
0.0
176
     1
 40
1.0
176
     1
 90
        0
176
     1
 62
    18
420
        0
176
     1
 90
       50
176
     1
 90
        3
176
     1
 62
     5
420
      255
176
     1
290
     0
176
     1
 90
       50
176
     1
 90
       50
176
     1
 90
       50
176
     1
290
     0
176
     1
 90
       50
176
     1
 62
   256
176
     0
 40
1.0
176
     0
 90
        2
176
     1
  1
strokes_ogs.tif
176
     1
290
     0
176
     1
 40
1.0
176
     1
 40
1.0
176
     1
  0
VISUALSTYLE
  5
34
102
{ACAD_REACTORS
330
2A
102
}
330
2A
100
AcDbVisualStyle
  2
Conceptual
 70
     9
177
     3
291
     0
 70
    58
 90
        3
176
     1
 90
        2
176
     1
 90
        0
176
     1
 90
        0
176
     1
 40
0.6
176
     1
 40
30.0
176
     1
 62
     7
420
 16777215
176
     1
 90
        2
176
     1
 90
        2
176
     1
 62
     7
176
     1
 62
   257
176
     1
 90
        1
176
     1
 90
        1
176
     1
 40
179.0
176
     1
 90
        8
176
     1
 62
     7
176
     1
 40
1.0
176
     1
 90
        1
176
     1
 90
        6
176
     1
 90
        2
176
     1
 62
     7
176
     1
 90
        3
176
     1
 90
        0
176
     1
 90
        0
176
     1
290
     0
176
     1
 90
        1
176
     1
 40
0.0
176
     1
 90
        0
176
     1
290
     0
176
     1
290
     1
176
     1
290
     1
176
     1
290
     0
176
     1
290
     0
176
     1
290
     0
176
     1
290
     0
176
     1
290
     0
176
     1
290
     0
176
     1
 90
       50
176
     1
 40
0.0
176
     1
 40
1.0
176
     1
 90
        0
176
     1
 62
    18
420
        0
176
     1
 90
       50
176
     1
 90
        3
176
     1
 62
     5
420
      255
176
     1
290
     0
176
     1
 90
       50
176
     1
 90
       50
176
     1
 90
       50
176
     1
290
     0
176
     1
 90
       50
176
     1
 62
   256
176
     0
 40
1.0
176
     0
 90
        2
176
     1
  1
strokes_ogs.tif
176
     1
290
     0
176
     1
 40
1.0
176
     1
 40
1.0
176
     1
  0
VISUALSTYLE
  5
35
102
{ACAD_REACTORS
330
2A
102
}
330
2A
100
AcDbVisualStyle
  2
Dim
 70
    11
177
     3
291
     1
 70
    58
 90
        2
176
     1
 90
        2
176
     1
 90
        0
176
     1
 90
        0
176
     1
 40
0.6
176
     1
 40
30.0
176
     1
 62
     7
420
 16777215
176
     1
 90
        1
176
     1
 90
        4
176
     1
 62
     7
176
     1
 62
   257
176
     1
 90
        1
176
     1
 90
        1
176
     1
 40
1.0
176
     1
 90
        8
176
     1
 62
     7
176
     1
 40
1.0
176
     1
 90
        1
176
     1
 90
        6
176
     1
 90
        2
176
     1
 62
     7
176
     1
 90
        5
176
     1
 90
        0
176
     1
 90
        0
176
     1
290
     0
176
     1
 90
        1
176
     1
 40
-50.0
176
     1
 90
        0
176
     1
290
     0
176
     1
290
     1
176
     1
290
     1
176
     1
290
     0
176
     1
290
     0
176
     1
290
     0
176
     1
290
     0
176
     1
290
     0
176
     1
290
     0
176
     1
 90
       50
176
     1
 40
0.0
176
     1
 40
1.0
176
     1
 90
        0
176
     1
 62
    18
420
        0
176
     1
 90
       50
176
     1
 90
        3
176
     1
 62
     5
420
      255
176
     1
290
     0
176
     1
 90
       50
176
     1
 90
       50
176
     1
 90
       50
176
     1
290
     0
176
     1
 90
       50
176
     1
 62
   256
176
     0
 40
1.0
176
     0
 90
        2
176
     1
  1
strokes_ogs.tif
176
     1
290
     0
176
     1
 40
1.0
176
     1
 40
1.0
176
     1
  0
VISUALSTYLE
  5
3D
102
{ACAD_REACTORS
330
2A
102
}
330
2A
100
AcDbVisualStyle
  2
EdgeColorOff
 70
    22
177
     3
291
     1
 70
    58
 90
        2
176
     0
 90
        2
176
     0
 90
        0
176
     0
 90
        0
176
     0
 40
0.6
176
     0
 40
30.0
176
     0
 62
     7
420
 16777215
176
     0
 90
        1
176
     0
 90
        4
176
     0
 62
     7
176
     0
 62
   257
176
     0
 90
        1
176
     0
 90
        1
176
     0
 40
1.0
176
     0
 90
        8
176
     2
 62
     7
176
     0
 40
1.0
176
     0
 90
        1
176
     0
 90
        6
176
     0
 90
        2
176
     0
 62
     7
176
     0
 90
        5
176
     0
 90
        0
176
     0
 90
        0
176
     0
290
     0
176
     0
 90
        1
176
     0
 40
0.0
176
     0
 90
        0
176
     0
290
     0
176
     0
290
     1
176
     0
290
     1
176
     0
290
     0
176
     0
290
     0
176
     0
290
     0
176
     0
290
     0
176
     0
290
     0
176
     0
290
     0
176
     0
 90
       50
176
     0
 40
0.0
176
     0
 40
1.0
176
     0
 90
        0
176
     0
 62
    18
420
        0
176
     0
 90
       50
176
     0
 90
        3
176
     0
 62
     5
420
      255
176
     0
290
     0
176
     0
 90
       50
176
     0
 90
       50
176
     0
 90
       50
176
     0
290
     0
176
     0
 90
       50
176
     0
 62
   256
176
     0
 40
1.0
176
     0
 90
        2
176
     0
  1
strokes_ogs.tif
176
     0
290
     0
176
     0
 40
1.0
176
     0
 40
1.0
176
     0
  0
VISUALSTYLE
  5
39
102
{ACAD_REACTORS
330
2A
102
}
330
2A
100
AcDbVisualStyle
  2
Facepattern
 70
    15
177
     3
291
     1
 70
    58
 90
        2
176
     1
 90
        2
176
     1
 90
        0
176
     1
 90
        0
176
     1
 40
0.6
176
     1
 40
30.0
176
     1
 62
     7
420
 16777215
176
     1
 90
        1
176
     1
 90
        4
176
     1
 62
     7
176
     1
 62
   257
176
     1
 90
        1
176
     1
 90
        1
176
     1
 40
1.0
176
     1
 90
        8
176
     1
 62
     7
176
     1
 40
1.0
176
     1
 90
        1
176
     1
 90
        6
176
     1
 90
        2
176
     1
 62
     7
176
     1
 90
        5
176
     1
 90
        0
176
     1
 90
        0
176
     1
290
     0
176
     1
 90
        1
176
     1
 40
0.0
176
     1
 90
        0
176
     1
290
     0
176
     1
290
     1
176
     1
290
     1
176
     1
290
     0
176
     1
290
     0
176
     1
290
     0
176
     1
290
     0
176
     1
290
     0
176
     1
290
     0
176
     1
 90
       50
176
     1
 40
0.0
176
     1
 40
1.0
176
     1
 90
        0
176
     1
 62
    18
420
        0
176
     1
 90
       50
176
     1
 90
        3
176
     1
 62
     5
420
      255
176
     1
290
     0
176
     1
 90
       50
176
     1
 90
       50
176
     1
 90
       50
176
     1
290
     0
176
     1
 90
       50
176
     1
 62
   256
176
     0
 40
1.0
176
     0
 90
        2
176
     1
  1
strokes_ogs.tif
176
     1
290
     0
176
     1
 40
1.0
176
     1
 40
1.0
176
     1
  0
VISUALSTYLE
  5
2B
102
{ACAD_REACTORS
330
2A
102
}
330
2A
100
AcDbVisualStyle
  2
Flat
 70
     0
177
     3
291
     1
 70
    58
 90
        2
176
     1
 90
        1
176
     1
 90
        1
176
     1
 90
        2
176
     1
 40
0.6
176
     1
 40
30.0
176
     1
 62
     7
420
 16777215
176
     1
 90
        0
176
     1
 90
        0
176
     1
 62
     7
176
     1
 62
   257
176
     1
 90
        1
176
     1
 90
        1
176
     1
 40
1.0
176
     1
 90
        8
176
     1
 62
     7
176
     1
 40
1.0
176
     1
 90
        1
176
     1
 90
        6
176
     1
 90
        2
176
     1
 62
     7
176
     1
 90
        5
176
     1
 90
        0
176
     1
 90
        0
176
     1
290
     0
176
     1
 90
       13
176
     1
 40
0.0
176
     1
 90
        0
176
     1
290
     0
176
     1
290
     1
176
     1
290
     1
176
     1
290
     0
176
     1
290
     0
176
     1
290
     0
176
     1
290
     0
176
     1
290
     0
176
     1
290
     0
176
     1
 90
       50
176
     1
 40
0.0
176
     1
 40
1.0
176
     1
 90
        0
176
     1
 62
    18
420
        0
176
     1
 90
       50
176
     1
 90
        3
176
     1
 62
     5
420
      255
176
     1
290
     0
176
     1
 90
       50
176
     1
 90
       50
176
     1
 90
       50
176
     1
290
     0
176
     1
 90
       50
176
     1
 62
   256
176
     0
 40
1.0
176
     0
 90
        2
176
     1
  1
strokes_ogs.tif
176
     1
290
     0
176
     1
 40
1.0
176
     1
 40
1.0
176
     1
  0
VISUALSTYLE
  5
2C
102
{ACAD_REACTORS
330
2A
102
}
330
2A
100
AcDbVisualStyle
  2
FlatWithEdges
 70
     1
177
     3
291
     1
 70
    58
 90
        2
176
     1
 90
        1
176
     1
 90
        1
176
     1
 90
        2
176
     1
 40
0.6
176
     1
 40
30.0
176
     1
 62
     7
420
 16777215
176
     1
 90
        1
176
     1
 90
        0
176
     1
 62
     7
176
     1
 62
   257
176
     1
 90
        1
176
     1
 90
        1
176
     1
 40
1.0
176
     1
 90
        0
176
     1
 62
   257
176
     1
 40
1.0
176
     1
 90
        1
176
     1
 90
        6
176
     1
 90
        2
176
     1
 62
     7
176
     1
 90
        5
176
     1
 90
        0
176
     1
 90
        0
176
     1
290
     0
176
     1
 90
       13
176
     1
 40
0.0
176
     1
 90
        0
176
     1
290
     0
176
     1
290
     1
176
     1
290
     1
176
     1
290
     0
176
     1
290
     0
176
     1
290
     0
176
     1
290
     0
176
     1
290
     0
176
     1
290
     0
176
     1
 90
       50
176
     1
 40
0.0
176
     1
 40
1.0
176
     1
 90
        0
176
     1
 62
    18
420
        0
176
     1
 90
       50
176
     1
 90
        3
176
     1
 62
     5
420
      255
176
     1
290
     0
176
     1
 90
       50
176
     1
 90
       50
176
     1
 90
       50
176
     1
290
     0
176
     1
 90
       50
176
     1
 62
   256
176
     0
 40
1.0
176
     0
 90
        2
176
     1
  1
strokes_ogs.tif
176
     1
290
     0
176
     1
 40
1.0
176
     1
 40
1.0
176
     1
  0
VISUALSTYLE
  5
2D
102
{ACAD_REACTORS
330
2A
102
}
330
2A
100
AcDbVisualStyle
  2
Gouraud
 70
     2
177
     3
291
     1
 70
    58
 90
        2
176
     1
 90
        2
176
     1
 90
        1
176
     1
 90
        2
176
     1
 40
0.6
176
     1
 40
30.0
176
     1
 62
     7
420
 16777215
176
     1
 90
        0
176
     1
 90
        0
176
     1
 62
     7
176
     1
 62
   257
176
     1
 90
        1
176
     1
 90
        1
176
     1
 40
1.0
176
     1
 90
        0
176
     1
 62
     7
176
     1
 40
1.0
176
     1
 90
        1
176
     1
 90
        6
176
     1
 90
        2
176
     1
 62
     7
176
     1
 90
        5
176
     1
 90
        0
176
     1
 90
        0
176
     1
290
     0
176
     1
 90
       13
176
     1
 40
0.0
176
     1
 90
        0
176
     1
290
     0
176
     1
290
     1
176
     1
290
     1
176
     1
290
     0
176
     1
290
     0
176
     1
290
     0
176
     1
290
     0
176
     1
290
     0
176
     1
290
     0
176
     1
 90
       50
176
     1
 40
0.0
176
     1
 40
1.0
176
     1
 90
        0
176
     1
 62
    18
420
        0
176
     1
 90
       50
176
     1
 90
        3
176
     1
 62
     5
420
      255
176
     1
290
     0
176
     1
 90
       50
176
     1
 90
       50
176
     1
 90
       50
176
     1
290
     0
176
     1
 90
       50
176
     1
 62
   256
176
     0
 40
1.0
176
     0
 90
        2
176
     1
  1
strokes_ogs.tif
176
     1
290
     0
176
     1
 40
1.0
176
     1
 40
1.0
176
     1
  0
VISUALSTYLE
  5
2E
102
{ACAD_REACTORS
330
2A
102
}
330
2A
100
AcDbVisualStyle
  2
GouraudWithEdges
 70
     3
177
     3
291
     1
 70
    58
 90
        2
176
     1
 90
        2
176
     1
 90
        1
176
     1
 90
        2
176
     1
 40
0.6
176
     1
 40
30.0
176
     1
 62
     7
420
 16777215
176
     1
 90
        1
176
     1
 90
        0
176
     1
 62
     7
176
     1
 62
   257
176
     1
 90
        1
176
     1
 90
        1
176
     1
 40
1.0
176
     1
 90
        0
176
     1
 62
   257
176
     1
 40
1.0
176
     1
 90
        1
176
     1
 90
        6
176
     1
 90
        2
176
     1
 62
     7
176
     1
 90
        5
176
     1
 90
        0
176
     1
 90
        0
176
     1
290
     0
176
     1
 90
       13
176
     1
 40
0.0
176
     1
 90
        0
176
     1
290
     0
176
     1
290
     1
176
     1
290
     1
176
     1
290
     0
176
     1
290
     0
176
     1
290
     0
176
     1
290
     0
176
     1
290
     0
176
     1
290
     0
176
     1
 90
       50
176
     1
 40
0.0
176
     1
 40
1.0
176
     1
 90
        0
176
     1
 62
    18
420
        0
176
     1
 90
       50
176
     1
 90
        3
176
     1
 62
     5
420
      255
176
     1
290
     0
176
     1
 90
       50
176
     1
 90
       50
176
     1
 90
       50
176
     1
290
     0
176
     1
 90
       50
176
     1
 62
   256
176
     0
 40
1.0
176
     0
 90
        2
176
     1
  1
strokes_ogs.tif
176
     1
290
     0
176
     1
 40
1.0
176
     1
 40
1.0
176
     1
  0
VISUALSTYLE
  5
31
102
{ACAD_REACTORS
330
2A
102
}
330
2A
100
AcDbVisualStyle
  2
Hidden
 70
     6
177
     3
291
     0
 70
    58
 90
        1
176
     1
 90
        2
176
     1
 90
        2
176
     1
 90
        0
176
     1
 40
0.6
176
     1
 40
30.0
176
     1
 62
     7
420
 16777215
176
     1
 90
        2
176
     1
 90
        2
176
     1
 62
     7
176
     1
 62
   257
176
     1
 90
        2
176
     1
 90
        1
176
     1
 40
40.0
176
     1
 90
        0
176
     1
 62
   257
176
     1
 40
1.0
176
     1
 90
        1
176
     1
 90
        6
176
     1
 90
        2
176
     1
 62
     7
176
     1
 90
        3
176
     1
 90
        0
176
     1
 90
        0
176
     1
290
     0
176
     1
 90
        1
176
     1
 40
0.0
176
     1
 90
        0
176
     1
290
     0
176
     1
290
     1
176
     1
290
     1
176
     1
290
     0
176
     1
290
     0
176
     1
290
     0
176
     1
290
     0
176
     1
290
     0
176
     1
290
     0
176
     1
 90
       50
176
     1
 40
0.0
176
     1
 40
1.0
176
     1
 90
        0
176
     1
 62
    18
420
        0
176
     1
 90
       50
176
     1
 90
        3
176
     1
 62
     5
420
      255
176
     1
290
     0
176
     1
 90
       50
176
     1
 90
       50
176
     1
 90
       50
176
     1
290
     0
176
     1
 90
       50
176
     1
 62
   256
176
     0
 40
1.0
176
     0
 90
        2
176
     1
  1
strokes_ogs.tif
176
     1
290
     0
176
     1
 40
1.0
176
     1
 40
1.0
176
     1
  0
VISUALSTYLE
  5
3B
102
{ACAD_REACTORS
330
2A
102
}
330
2A
100
AcDbVisualStyle
  2
JitterOff
 70
    20
177
     3
291
     1
 70
    58
 90
        2
176
     0
 90
        2
176
     0
 90
        0
176
     0
 90
        0
176
     0
 40
0.6
176
     0
 40
30.0
176
     0
 62
     7
420
 16777215
176
     0
 90
        1
176
     0
 90
        4
176
     0
 62
     7
176
     0
 62
   257
176
     0
 90
        1
176
     0
 90
        1
176
     0
 40
1.0
176
     0
 90
       10
176
     2
 62
     7
176
     0
 40
1.0
176
     0
 90
        1
176
     0
 90
        6
176
     0
 90
        2
176
     0
 62
     7
176
     0
 90
        5
176
     0
 90
        0
176
     0
 90
        0
176
     0
290
     0
176
     0
 90
        1
176
     0
 40
0.0
176
     0
 90
        0
176
     0
290
     0
176
     0
290
     1
176
     0
290
     1
176
     0
290
     0
176
     0
290
     0
176
     0
290
     0
176
     0
290
     0
176
     0
290
     0
176
     0
290
     0
176
     0
 90
       50
176
     0
 40
0.0
176
     0
 40
1.0
176
     0
 90
        0
176
     0
 62
    18
420
        0
176
     0
 90
       50
176
     0
 90
        3
176
     0
 62
     5
420
      255
176
     0
290
     0
176
     0
 90
       50
176
     0
 90
       50
176
     0
 90
       50
176
     0
290
     0
176
     0
 90
       50
176
     0
 62
   256
176
     0
 40
1.0
176
     0
 90
        2
176
     0
  1
strokes_ogs.tif
176
     0
290
     0
176
     0
 40
1.0
176
     0
 40
1.0
176
     0
  0
VISUALSTYLE
  5
38
102
{ACAD_REACTORS
330
2A
102
}
330
2A
100
AcDbVisualStyle
  2
Linepattern
 70
    14
177
     3
291
     1
 70
    58
 90
        2
176
     1
 90
        2
176
     1
 90
        0
176
     1
 90
        0
176
     1
 40
0.6
176
     1
 40
30.0
176
     1
 62
     7
420
 16777215
176
     1
 90
        1
176
     1
 90
        4
176
     1
 62
     7
176
     1
 62
   257
176
     1
 90
        7
176
     1
 90
        7
176
     1
 40
1.0
176
     1
 90
        8
176
     1
 62
     7
176
     1
 40
1.0
176
     1
 90
        1
176
     1
 90
        6
176
     1
 90
        2
176
     1
 62
     7
176
     1
 90
        5
176
     1
 90
        0
176
     1
 90
        0
176
     1
290
     0
176
     1
 90
        1
176
     1
 40
0.0
176
     1
 90
        0
176
     1
290
     0
176
     1
290
     1
176
     1
290
     1
176
     1
290
     0
176
     1
290
     0
176
     1
290
     0
176
     1
290
     0
176
     1
290
     0
176
     1
290
     0
176
     1
 90
       50
176
     1
 40
0.0
176
     1
 40
1.0
176
     1
 90
        0
176
     1
 62
    18
420
        0
176
     1
 90
       50
176
     1
 90
        3
176
     1
 62
     5
420
      255
176
     1
290
     0
176
     1
 90
       50
176
     1
 90
       50
176
     1
 90
       50
176
     1
290
     0
176
     1
 90
       50
176
     1
 62
   256
176
     0
 40
1.0
176
     0
 90
        2
176
     1
  1
strokes_ogs.tif
176
     1
290
     0
176
     1
 40
1.0
176
     1
 40
1.0
176
     1
  0
VISUALSTYLE
  5
3C
102
{ACAD_REACTORS
330
2A
102
}
330
2A
100
AcDbVisualStyle
  2
OverhangOff
 70
    21
177
     3
291
     1
 70
    58
 90
        2
176
     0
 90
        2
176
     0
 90
        0
176
     0
 90
        0
176
     0
 40
0.6
176
     0
 40
30.0
176
     0
 62
     7
420
 16777215
176
     0
 90
        1
176
     0
 90
        4
176
     0
 62
     7
176
     0
 62
   257
176
     0
 90
        1
176
     0
 90
        1
176
     0
 40
1.0
176
     0
 90
        9
176
     2
 62
     7
176
     0
 40
1.0
176
     0
 90
        1
176
     0
 90
        6
176
     0
 90
        2
176
     0
 62
     7
176
     0
 90
        5
176
     0
 90
        0
176
     0
 90
        0
176
     0
290
     0
176
     0
 90
        1
176
     0
 40
0.0
176
     0
 90
        0
176
     0
290
     0
176
     0
290
     1
176
     0
290
     1
176
     0
290
     0
176
     0
290
     0
176
     0
290
     0
176
     0
290
     0
176
     0
290
     0
176
     0
290
     0
176
     0
 90
       50
176
     0
 40
0.0
176
     0
 40
1.0
176
     0
 90
        0
176
     0
 62
    18
420
        0
176
     0
 90
       50
176
     0
 90
        3
176
     0
 62
     5
420
      255
176
     0
290
     0
176
     0
 90
       50
176
     0
 90
       50
176
     0
 90
       50
176
     0
290
     0
176
     0
 90
       50
176
     0
 62
   256
176
     0
 40
1.0
176
     0
 90
        2
176
     0
  1
strokes_ogs.tif
176
     0
290
     0
176
     0
 40
1.0
176
     0
 40
1.0
176
     0
  0
VISUALSTYLE
  5
33
102
{ACAD_REACTORS
330
2A
102
}
330
2A
100
AcDbVisualStyle
  2
Realistic
 70
     8
177
     3
291
     0
 70
    58
 90
        2
176
     1
 90
        3
176
     1
 90
        0
176
     1
 90
        2
176
     1
 40
0.6
176
     1
 40
30.0
176
     1
 62
     7
420
 16777215
176
     1
 90
        0
176
     1
 90
        0
176
     1
 62
     7
176
     1
 62
   257
176
     1
 90
        1
176
     1
 90
        1
176
     1
 40
1.0
176
     1
 90
        8
176
     1
 62
   257
176
     1
 40
1.0
176
     1
 90
        1
176
     1
 90
        6
176
     1
 90
        2
176
     1
 62
     7
176
     1
 90
        3
176
     1
 90
        0
176
     1
 90
        0
176
     1
290
     0
176
     1
 90
       13
176
     1
 40
0.0
176
     1
 90
        0
176
     1
290
     0
176
     1
290
     1
176
     1
290
     1
176
     1
290
     0
176
     1
290
     0
176
     1
290
     0
176
     1
290
     0
176
     1
290
     0
176
     1
290
     0
176
     1
 90
       50
176
     1
 40
0.0
176
     1
 40
1.0
176
     1
 90
        0
176
     1
 62
    18
420
        0
176
     1
 90
       50
176
     1
 90
        3
176
     1
 62
     5
420
      255
176
     1
290
     0
176
     1
 90
       50
176
     1
 90
       50
176
     1
 90
       50
176
     1
290
     0
176
     1
 90
       50
176
     1
 62
   256
176
     0
 40
1.0
176
     0
 90
        2
176
     1
  1
strokes_ogs.tif
176
     1
290
     0
176
     1
 40
1.0
176
     1
 40
1.0
176
     1
  0
VISUALSTYLE
  5
42
102
{ACAD_REACTORS
330
2A
102
}
330
2A
100
AcDbVisualStyle
  2
Shaded
 70
    27
177
     3
291
     0
 70
    58
 90
        2
176
     1
 90
        2
176
     1
 90
        1
176
     1
 90
        2
176
     1
 40
0.6
176
     1
 40
30.0
176
     1
 62
     7
420
 16777215
176
     1
 90
        0
176
     1
 90
        4
176
     1
 62
     7
176
     1
 62
   257
176
     1
 90
        1
176
     1
 90
        1
176
     1
 40
1.0
176
     1
 90
        8
176
     1
 62
   257
176
     1
 40
1.0
176
     1
 90
        1
176
     1
 90
        6
176
     1
 90
        2
176
     1
 62
     8
420
  7895160
176
     1
 90
        3
176
     1
 90
        0
176
     1
 90
        0
176
     1
290
     0
176
     1
 90
        5
176
     1
 40
0.0
176
     1
 90
        0
176
     1
290
     0
176
     1
290
     1
176
     1
290
     1
176
     1
290
     0
176
     1
290
     0
176
     1
290
     0
176
     1
290
     0
176
     1
290
     0
176
     1
290
     0
176
     1
 90
       50
176
     1
 40
0.0
176
     1
 40
1.0
176
     1
 90
        0
176
     1
 62
    18
420
        0
176
     1
 90
       50
176
     1
 90
        3
176
     1
 62
     5
420
      255
176
     1
290
     0
176
     1
 90
       50
176
     1
 90
       50
176
     1
 90
       50
176
     1
290
     0
176
     1
 90
       50
176
     1
 62
   256
176
     0
 40
1.0
176
     0
 90
        2
176
     1
  1
strokes_ogs.tif
176
     1
290
     0
176
     1
 40
1.0
176
     1
 40
1.0
176
     1
  0
VISUALSTYLE
  5
41
102
{ACAD_REACTORS
330
2A
102
}
330
2A
100
AcDbVisualStyle
  2
Shaded with edges
 70
    26
177
     3
291
     0
 70
    58
 90
        2
176
     1
 90
        2
176
     1
 90
        1
176
     1
 90
        2
176
     1
 40
0.6
176
     1
 40
30.0
176
     1
 62
     7
420
 16777215
176
     1
 90
        1
176
     1
 90
       10
176
     1
 62
     7
176
     1
 62
   257
176
     1
 90
        2
176
     1
 90
        1
176
     1
 40
1.0
176
     1
 90
        8
176
     1
 62
   257
176
     1
 40
1.0
176
     1
 90
        1
176
     1
 90
        6
176
     1
 90
        2
176
     1
 62
     7
176
     1
 90
        3
176
     1
 90
        0
176
     1
 90
        0
176
     1
290
     0
176
     1
 90
        5
176
     1
 40
0.0
176
     1
 90
        0
176
     1
290
     0
176
     1
290
     1
176
     1
290
     1
176
     1
290
     0
176
     1
290
     0
176
     1
290
     0
176
     1
290
     0
176
     1
290
     0
176
     1
290
     0
176
     1
 90
       50
176
     1
 40
0.0
176
     1
 40
1.0
176
     1
 90
        0
176
     1
 62
    18
420
        0
176
     1
 90
       50
176
     1
 90
        3
176
     1
 62
     5
420
      255
176
     1
290
     0
176
     1
 90
       50
176
     1
 90
       50
176
     1
 90
       50
176
     1
290
     0
176
     1
 90
       50
176
     1
 62
   256
176
     0
 40
1.0
176
     0
 90
        2
176
     1
  1
strokes_ogs.tif
176
     1
290
     0
176
     1
 40
1.0
176
     1
 40
1.0
176
     1
  0
VISUALSTYLE
  5
3E
102
{ACAD_REACTORS
330
2A
102
}
330
2A
100
AcDbVisualStyle
  2
Shades of Gray
 70
    23
177
     3
291
     0
 70
    58
 90
        2
176
     1
 90
        2
176
     1
 90
        3
176
     1
 90
        0
176
     1
 40
0.6
176
     1
 40
30.0
176
     1
 62
     7
420
 16777215
176
     1
 90
        2
176
     1
 90
        2
176
     1
 62
     7
176
     1
 62
     7
176
     1
 90
        1
176
     1
 90
        1
176
     1
 40
40.0
176
     1
 90
        8
176
     1
 62
     7
176
     1
 40
1.0
176
     1
 90
        1
176
     1
 90
        6
176
     1
 90
        2
176
     1
 62
     7
176
     1
 90
        3
176
     1
 90
        0
176
     1
 90
        0
176
     1
290
     0
176
     1
 90
        1
176
     1
 40
0.0
176
     1
 90
        0
176
     1
290
     0
176
     1
290
     1
176
     1
290
     1
176
     1
290
     0
176
     1
290
     0
176
     1
290
     0
176
     1
290
     0
176
     1
290
     0
176
     1
290
     0
176
     1
 90
       50
176
     1
 40
0.0
176
     1
 40
1.0
176
     1
 90
        0
176
     1
 62
    18
420
        0
176
     1
 90
       50
176
     1
 90
        3
176
     1
 62
     5
420
      255
176
     1
290
     0
176
     1
 90
       50
176
     1
 90
       50
176
     1
 90
       50
176
     1
290
     0
176
     1
 90
       50
176
     1
 62
   256
176
     0
 40
1.0
176
     0
 90
        2
176
     1
  1
strokes_ogs.tif
176
     1
290
     0
176
     1
 40
1.0
176
     1
 40
1.0
176
     1
  0
VISUALSTYLE
  5
3F
102
{ACAD_REACTORS
330
2A
102
}
330
2A
100
AcDbVisualStyle
  2
Sketchy
 70
    24
177
     3
291
     0
 70
    58
 90
        1
176
     1
 90
        2
176
     1
 90
        2
176
     1
 90
        0
176
     1
 40
0.6
176
     1
 40
30.0
176
     1
 62
     7
420
 16777215
176
     1
 90
        2
176
     1
 90
        2
176
     1
 62
     7
176
     1
 62
     7
176
     1
 90
        1
176
     1
 90
        1
176
     1
 40
40.0
176
     1
 90
       11
176
     1
 62
     7
176
     1
 40
1.0
176
     1
 90
        1
176
     1
 90
        6
176
     1
 90
        2
176
     1
 62
     7
176
     1
 90
        6
176
     1
 90
        0
176
     1
 90
        0
176
     1
290
     0
176
     1
 90
        1
176
     1
 40
0.0
176
     1
 90
        0
176
     1
290
     0
176
     1
290
     1
176
     1
290
     1
176
     1
290
     0
176
     1
290
     0
176
     1
290
     0
176
     1
290
     0
176
     1
290
     0
176
     1
290
     0
176
     1
 90
       50
176
     1
 40
0.0
176
     1
 40
1.0
176
     1
 90
        0
176
     1
 62
    18
420
        0
176
     1
 90
       50
176
     1
 90
        3
176
     1
 62
     5
420
      255
176
     1
290
     0
176
     1
 90
       50
176
     1
 90
       50
176
     1
 90
       50
176
     1
290
     0
176
     1
 90
       50
176
     1
 62
   256
176
     0
 40
1.0
176
     0
 90
        2
176
     1
  1
strokes_ogs.tif
176
     1
290
     0
176
     1
 40
1.0
176
     1
 40
1.0
176
     1
  0
VISUALSTYLE
  5
37
102
{ACAD_REACTORS
330
2A
102
}
330
2A
100
AcDbVisualStyle
  2
Thicken
 70
    13
177
     3
291
     1
 70
    58
 90
        2
176
     1
 90
        2
176
     1
 90
        0
176
     1
 90
        0
176
     1
 40
0.6
176
     1
 40
30.0
176
     1
 62
     7
420
 16777215
176
     1
 90
        1
176
     1
 90
        4
176
     1
 62
     7
176
     1
 62
   257
176
     1
 90
        1
176
     1
 90
        1
176
     1
 40
1.0
176
     1
 90
       12
176
     1
 62
     7
176
     1
 40
1.0
176
     1
 90
        1
176
     1
 90
        6
176
     1
 90
        2
176
     1
 62
     7
176
     1
 90
        5
176
     1
 90
        0
176
     1
 90
        0
176
     1
290
     0
176
     1
 90
        1
176
     1
 40
0.0
176
     1
 90
        0
176
     1
290
     0
176
     1
290
     1
176
     1
290
     1
176
     1
290
     0
176
     1
290
     0
176
     1
290
     0
176
     1
290
     0
176
     1
290
     0
176
     1
290
     0
176
     1
 90
       50
176
     1
 40
0.0
176
     1
 40
1.0
176
     1
 90
        0
176
     1
 62
    18
420
        0
176
     1
 90
       50
176
     1
 90
        3
176
     1
 62
     5
420
      255
176
     1
290
     0
176
     1
 90
       50
176
     1
 90
       50
176
     1
 90
       50
176
     1
290
     0
176
     1
 90
       50
176
     1
 62
   256
176
     0
 40
1.0
176
     0
 90
        2
176
     1
  1
strokes_ogs.tif
176
     1
290
     0
176
     1
 40
1.0
176
     1
 40
1.0
176
     1
  0
VISUALSTYLE
  5
30
102
{ACAD_REACTORS
330
2A
102
}
330
2A
100
AcDbVisualStyle
  2
Wireframe
 70
     5
177
     3
291
     0
 70
    58
 90
        0
176
     1
 90
        2
176
     1
 90
        0
176
     1
 90
        0
176
     1
 40
0.6
176
     1
 40
30.0
176
     1
 62
     7
420
 16777215
176
     1
 90
        1
176
     1
 90
        4
176
     1
 62
     7
176
     1
 62
   257
176
     1
 90
        1
176
     1
 90
        1
176
     1
 40
1.0
176
     1
 90
        0
176
     1
 62
   257
176
     1
 40
1.0
176
     1
 90
        1
176
     1
 90
        6
176
     1
 90
        2
176
     1
 62
     7
176
     1
 90
        3
176
     1
 90
        0
176
     1
 90
        0
176
     1
290
     0
176
     1
 90
        1
176
     1
 40
0.0
176
     1
 90
        0
176
     1
290
     0
176
     1
290
     1
176
     1
290
     1
176
     1
290
     0
176
     1
290
     0
176
     1
290
     0
176
     1
290
     0
176
     1
290
     0
176
     1
290
     0
176
     1
 90
       50
176
     1
 40
0.0
176
     1
 40
1.0
176
     1
 90
        0
176
     1
 62
    18
420
        0
176
     1
 90
       50
176
     1
 90
        3
176
     1
 62
     5
420
      255
176
     1
290
     0
176
     1
 90
       50
176
     1
 90
       50
176
     1
 90
       50
176
     1
290
     0
176
     1
 90
       50
176
     1
 62
   256
176
     0
 40
1.0
176
     0
 90
        2
176
     1
  1
strokes_ogs.tif
176
     1
290
     0
176
     1
 40
1.0
176
     1
 40
1.0
176
     1
  0
VISUALSTYLE
  5
40
102
{ACAD_REACTORS
330
2A
102
}
330
2A
100
AcDbVisualStyle
  2
X-Ray
 70
    25
177
     3
291
     0
 70
    58
 90
        2
176
     1
 90
        2
176
     1
 90
        1
176
     1
 90
        1
176
     1
 40
0.5
176
     1
 40
30.0
176
     1
 62
     7
420
 16777215
176
     1
 90
        1
176
     1
 90
        0
176
     1
 62
     7
176
     1
 62
   257
176
     1
 90
        1
176
     1
 90
        1
176
     1
 40
1.0
176
     1
 90
        8
176
     1
 62
     7
176
     1
 40
1.0
176
     1
 90
        1
176
     1
 90
        6
176
     1
 90
        2
176
     1
 62
     7
176
     1
 90
        3
176
     1
 90
        0
176
     1
 90
        0
176
     1
290
     0
176
     1
 90
       13
176
     1
 40
0.0
176
     1
 90
        0
176
     1
290
     0
176
     1
290
     1
176
     1
290
     1
176
     1
290
     0
176
     1
290
     0
176
     1
290
     0
176
     1
290
     0
176
     1
290
     0
176
     1
290
     0
176
     1
 90
       50
176
     1
 40
0.0
176
     1
 40
1.0
176
     1
 90
        0
176
     1
 62
    18
420
        0
176
     1
 90
       50
176
     1
 90
        3
176
     1
 62
     5
420
      255
176
     1
290
     0
176
     1
 90
       50
176
     1
 90
       50
176
     1
 90
       50
176
     1
290
     0
176
     1
 90
       50
176
     1
 62
   256
176
     0
 40
1.0
176
     0
 90
        2
176
     1
  1
strokes_ogs.tif
176
     1
290
     0
176
     1
 40
1.0
176
     1
 40
1.0
176
     1
  0
DICTIONARYVAR
  5
168
102
{ACAD_REACTORS
330
167
102
}
330
167
100
DictionaryVariables
280
     0
  1
1:1
  0
DICTIONARYVAR
  5
16D
102
{ACAD_REACTORS
330
167
102
}
330
167
100
DictionaryVariables
280
     0
  1
Standard
  0
DICTIONARYVAR
  5
16C
102
{ACAD_REACTORS
330
167
102
}
330
167
100
DictionaryVariables
280
     0
  1
Standard
  0
DICTIONARY
  5
169
330
6A
100
AcDbDictionary
280
     1
281
     1
  3
ACAD_ROUNDTRIP_2008_TABLESTYLE_CELLSTYLEMAP
360
16A
  0
CELLSTYLEMAP
  5
16A
102
{ACAD_REACTORS
330
169
102
}
330
169
100
AcDbCellStyleMap
 90
        3
300
CELLSTYLE
  1
TABLEFORMAT_BEGIN
 90
        5
170
     1
 91
        0
 92
    32768
 62
   257
 93
        1
300
CONTENTFORMAT
  1
CONTENTFORMAT_BEGIN
 90
        0
 91
        0
 92
        4
 93
        0
300

 40
0.0
140
1.0
 94
        5
 62
     0
340
11
144
0.25
309
CONTENTFORMAT_END
171
     1
301
MARGIN
  1
CELLMARGIN_BEGIN
 40
0.06
 40
0.06
 40
0.06
 40
0.06
 40
0.06
 40
0.06
309
CELLMARGIN_END
 94
        6
 95
        1
302
GRIDFORMAT
  1
GRIDFORMAT_BEGIN
 90
        0
 91
        1
 62
     0
 92
       -2
340
14
 93
        0
 40
0.045
309
GRIDFORMAT_END
 95
        2
302
GRIDFORMAT
  1
GRIDFORMAT_BEGIN
 90
        0
 91
        1
 62
     0
 92
       -2
340
14
 93
        0
 40
0.045
309
GRIDFORMAT_END
 95
        4
302
GRIDFORMAT
  1
GRIDFORMAT_BEGIN
 90
        0
 91
        1
 62
     0
 92
       -2
340
14
 93
        0
 40
0.045
309
GRIDFORMAT_END
 95
        8
302
GRIDFORMAT
  1
GRIDFORMAT_BEGIN
 90
        0
 91
        1
 62
     0
 92
       -2
340
14
 93
        0
 40
0.045
309
GRIDFORMAT_END
 95
       16
302
GRIDFORMAT
  1
GRIDFORMAT_BEGIN
 90
        0
 91
        1
 62
     0
 92
       -2
340
14
 93
        0
 40
0.045
309
GRIDFORMAT_END
 95
       32
302
GRIDFORMAT
  1
GRIDFORMAT_BEGIN
 90
        0
 91
        1
 62
     0
 92
       -2
340
14
 93
        0
 40
0.045
309
GRIDFORMAT_END
309
TABLEFORMAT_END
  1
CELLSTYLE_BEGIN
 90
        1
 91
        1
300
_TITLE
309
CELLSTYLE_END
300
CELLSTYLE
  1
TABLEFORMAT_BEGIN
 90
        5
170
     1
 91
        0
 92
        0
 62
   257
 93
        1
300
CONTENTFORMAT
  1
CONTENTFORMAT_BEGIN
 90
        0
 91
        0
 92
        4
 93
        0
300

 40
0.0
140
1.0
 94
        5
 62
     0
340
11
144
0.18
309
CONTENTFORMAT_END
171
     1
301
MARGIN
  1
CELLMARGIN_BEGIN
 40
0.06
 40
0.06
 40
0.06
 40
0.06
 40
0.06
 40
0.06
309
CELLMARGIN_END
 94
        6
 95
        1
302
GRIDFORMAT
  1
GRIDFORMAT_BEGIN
 90
        0
 91
        1
 62
     0
 92
       -2
340
14
 93
        0
 40
0.045
309
GRIDFORMAT_END
 95
        2
302
GRIDFORMAT
  1
GRIDFORMAT_BEGIN
 90
        0
 91
        1
 62
     0
 92
       -2
340
14
 93
        0
 40
0.045
309
GRIDFORMAT_END
 95
        4
302
GRIDFORMAT
  1
GRIDFORMAT_BEGIN
 90
        0
 91
        1
 62
     0
 92
       -2
340
14
 93
        0
 40
0.045
309
GRIDFORMAT_END
 95
        8
302
GRIDFORMAT
  1
GRIDFORMAT_BEGIN
 90
        0
 91
        1
 62
     0
 92
       -2
340
14
 93
        0
 40
0.045
309
GRIDFORMAT_END
 95
       16
302
GRIDFORMAT
  1
GRIDFORMAT_BEGIN
 90
        0
 91
        1
 62
     0
 92
       -2
340
14
 93
        0
 40
0.045
309
GRIDFORMAT_END
 95
       32
302
GRIDFORMAT
  1
GRIDFORMAT_BEGIN
 90
        0
 91
        1
 62
     0
 92
       -2
340
14
 93
        0
 40
0.045
309
GRIDFORMAT_END
309
TABLEFORMAT_END
  1
CELLSTYLE_BEGIN
 90
        2
 91
        1
300
_HEADER
309
CELLSTYLE_END
300
CELLSTYLE
  1
TABLEFORMAT_BEGIN
 90
        5
170
     1
 91
        0
 92
        0
 62
   257
 93
        1
300
CONTENTFORMAT
  1
CONTENTFORMAT_BEGIN
 90
        0
 91
        0
 92
        4
 93
        0
300

 40
0.0
140
1.0
 94
        2
 62
     0
340
11
144
0.18
309
CONTENTFORMAT_END
171
     1
301
MARGIN
  1
CELLMARGIN_BEGIN
 40
0.06
 40
0.06
 40
0.06
 40
0.06
 40
0.06
 40
0.06
309
CELLMARGIN_END
 94
        6
 95
        1
302
GRIDFORMAT
  1
GRIDFORMAT_BEGIN
 90
        0
 91
        1
 62
     0
 92
       -2
340
14
 93
        0
 40
0.045
309
GRIDFORMAT_END
 95
        2
302
GRIDFORMAT
  1
GRIDFORMAT_BEGIN
 90
        0
 91
        1
 62
     0
 92
       -2
340
14
 93
        0
 40
0.045
309
GRIDFORMAT_END
 95
        4
302
GRIDFORMAT
  1
GRIDFORMAT_BEGIN
 90
        0
 91
        1
 62
     0
 92
       -2
340
14
 93
        0
 40
0.045
309
GRIDFORMAT_END
 95
        8
302
GRIDFORMAT
  1
GRIDFORMAT_BEGIN
 90
        0
 91
        1
 62
     0
 92
       -2
340
14
 93
        0
 40
0.045
309
GRIDFORMAT_END
 95
       16
302
GRIDFORMAT
  1
GRIDFORMAT_BEGIN
 90
        0
 91
        1
 62
     0
 92
       -2
340
14
 93
        0
 40
0.045
309
GRIDFORMAT_END
 95
       32
302
GRIDFORMAT
  1
GRIDFORMAT_BEGIN
 90
        0
 91
        1
 62
     0
 92
       -2
340
14
 93
        0
 40
0.045
309
GRIDFORMAT_END
309
TABLEFORMAT_END
  1
CELLSTYLE_BEGIN
 90
        3
 91
        2
300
_DATA
309
CELLSTYLE_END
  0
ENDSEC
  0
EOF