0
SECTION
  2
HEADER
  9
$ACADVER
  1
AC1027
  9
$ACADMAINTVER
 70
     8
  9
$DWGCODEPAGE
  3
ANSI_1252
  9
$REQUIREDVERSIONS
160
                 0
  9
$COMMENTS
  1
File was created by Cadenas
  9
$CUSTOMPROPERTYTAG
  1
NN
  9
$CUSTOMPROPERTY
  1
Eccentric Collar Two-Bolt Flange Metric Bore
  9
$CUSTOMPROPERTYTAG
  1
NT
  9
$CUSTOMPROPERTY
  1
Eccentric Collar 2 Bolt Flange Bearings -(Normal Duty)
  9
$CUSTOMPROPERTYTAG
  1
NB
  9
$CUSTOMPROPERTY
  1
056862
  9
$CUSTOMPROPERTYTAG
  1
NBSYN
  9
$CUSTOMPROPERTY
  1
$PN.
  9
$CUSTOMPROPERTYTAG
  1
LINA
  9
$CUSTOMPROPERTY
  1
056862
  9
$CUSTOMPROPERTYTAG
  1
SERIES
  9
$CUSTOMPROPERTY
  1
211
  9
$CUSTOMPROPERTYTAG
  1
SS
  9
$CUSTOMPROPERTY
  1
55
  9
$CUSTOMPROPERTYTAG
  1
PN
  9
$CUSTOMPROPERTY
  1
056862
  9
$CUSTOMPROPERTYTAG
  1
DESCRIPTION
  9
$CUSTOMPROPERTY
  1
F2B-SXR-55M
  9
$CUSTOMPROPERTYTAG
  1
W
  9
$CUSTOMPROPERTY
  1
3.5
  9
$CUSTOMPROPERTYTAG
  1
A
  9
$CUSTOMPROPERTY
  1
65.8
  9
$CUSTOMPROPERTYTAG
  1
B
  9
$CUSTOMPROPERTY
  1
219.2
  9
$CUSTOMPROPERTYTAG
  1
C
  9
$CUSTOMPROPERTY
  1
67.3
  9
$CUSTOMPROPERTYTAG
  1
D
  9
$CUSTOMPROPERTY
  1
184.2
  9
$CUSTOMPROPERTYTAG
  1
F
  9
$CUSTOMPROPERTY
  1
M16
  9
$CUSTOMPROPERTYTAG
  1
H
  9
$CUSTOMPROPERTY
  1
17.0
  9
$CUSTOMPROPERTYTAG
  1
J
  9
$CUSTOMPROPERTY
  1
26.7
  9
$CUSTOMPROPERTYTAG
  1
L
  9
$CUSTOMPROPERTY
  1
76.2
  9
$CUSTOMPROPERTYTAG
  1
M
  9
$CUSTOMPROPERTY
  1
133.4
  9
$CUSTOMPROPERTYTAG
  1
N
  9
$CUSTOMPROPERTY
  1
57.7
  9
$CUSTOMPROPERTYTAG
  1
COMPANY
  9
$CUSTOMPROPERTY
  1
baldor
  9
$INSBASE
 10
0.0
 20
0.0
 30
0.0
  9
$EXTMIN
 10
1.000000000000000E+20
 20
1.000000000000000E+20
 30
1.000000000000000E+20
  9
$EXTMAX
 10
-1.000000000000000E+20
 20
-1.000000000000000E+20
 30
-1.000000000000000E+20
  9
$LIMMIN
 10
0.0
 20
0.0
  9
$LIMMAX
 10
420.0
 20
297.0
  9
$ORTHOMODE
 70
     0
  9
$REGENMODE
 70
     1
  9
$FILLMODE
 70
     1
  9
$QTEXTMODE
 70
     0
  9
$MIRRTEXT
 70
     1
  9
$LTSCALE
 40
1.0
  9
$ATTMODE
 70
     1
  9
$TEXTSIZE
 40
2.5
  9
$TRACEWID
 40
1.0
  9
$TEXTSTYLE
  7
Standard
  9
$CLAYER
  8
0
  9
$CELTYPE
  6
ByLayer
  9
$CECOLOR
 62
   256
  9
$CELTSCALE
 40
1.0
  9
$DISPSILH
 70
     0
  9
$DIMSCALE
 40
1.0
  9
$DIMASZ
 40
2.5
  9
$DIMEXO
 40
0.625
  9
$DIMDLI
 40
3.75
  9
$DIMRND
 40
0.0
  9
$DIMDLE
 40
0.0
  9
$DIMEXE
 40
1.25
  9
$DIMTP
 40
0.0
  9
$DIMTM
 40
0.0
  9
$DIMTXT
 40
2.5
  9
$DIMCEN
 40
2.5
  9
$DIMTSZ
 40
0.0
  9
$DIMTOL
 70
     0
  9
$DIMLIM
 70
     0
  9
$DIMTIH
 70
     0
  9
$DIMTOH
 70
     0
  9
$DIMSE1
 70
     0
  9
$DIMSE2
 70
     0
  9
$DIMTAD
 70
     1
  9
$DIMZIN
 70
     8
  9
$DIMBLK
  1

  9
$DIMASO
 70
     1
  9
$DIMSHO
 70
     1
  9
$DIMPOST
  1

  9
$DIMAPOST
  1

  9
$DIMALT
 70
     0
  9
$DIMALTD
 70
     3
  9
$DIMALTF
 40
0.03937007874016
  9
$DIMLFAC
 40
1.0
  9
$DIMTOFL
 70
     1
  9
$DIMTVP
 40
0.0
  9
$DIMTIX
 70
     0
  9
$DIMSOXD
 70
     0
  9
$DIMSAH
 70
     0
  9
$DIMBLK1
  1

  9
$DIMBLK2
  1

  9
$DIMSTYLE
  2
ISO-25
  9
$DIMCLRD
 70
     0
  9
$DIMCLRE
 70
     0
  9
$DIMCLRT
 70
     0
  9
$DIMTFAC
 40
1.0
  9
$DIMGAP
 40
0.625
  9
$DIMJUST
 70
     0
  9
$DIMSD1
 70
     0
  9
$DIMSD2
 70
     0
  9
$DIMTOLJ
 70
     0
  9
$DIMTZIN
 70
     8
  9
$DIMALTZ
 70
     0
  9
$DIMALTTZ
 70
     0
  9
$DIMUPT
 70
     0
  9
$DIMDEC
 70
     2
  9
$DIMTDEC
 70
     2
  9
$DIMALTU
 70
     2
  9
$DIMALTTD
 70
     3
  9
$DIMTXSTY
  7
Standard
  9
$DIMAUNIT
 70
     0
  9
$DIMADEC
 70
     0
  9
$DIMALTRND
 40
0.0
  9
$DIMAZIN
 70
     0
  9
$DIMDSEP
 70
    44
  9
$DIMATFIT
 70
     3
  9
$DIMFRAC
 70
     0
  9
$DIMLDRBLK
  1

  9
$DIMLUNIT
 70
     2
  9
$DIMLWD
 70
    -2
  9
$DIMLWE
 70
    -2
  9
$DIMTMOVE
 70
     0
  9
$DIMFXL
 40
1.0
  9
$DIMFXLON
 70
     0
  9
$DIMJOGANG
 40
0.7853981633974483
  9
$DIMTFILL
 70
     0
  9
$DIMTFILLCLR
 70
     0
  9
$DIMARCSYM
 70
     0
  9
$DIMLTYPE
  6

  9
$DIMLTEX1
  6

  9
$DIMLTEX2
  6

  9
$DIMTXTDIRECTION
 70
     0
  9
$LUNITS
 70
     2
  9
$LUPREC
 70
     4
  9
$SKETCHINC
 40
1.0
  9
$FILLETRAD
 40
10.0
  9
$AUNITS
 70
     0
  9
$AUPREC
 70
     0
  9
$MENU
  1
.
  9
$ELEVATION
 40
0.0
  9
$PELEVATION
 40
0.0
  9
$THICKNESS
 40
0.0
  9
$LIMCHECK
 70
     0
  9
$CHAMFERA
 40
0.0
  9
$CHAMFERB
 40
0.0
  9
$CHAMFERC
 40
0.0
  9
$CHAMFERD
 40
0.0
  9
$SKPOLY
 70
     0
  9
$TDCREATE
 40
2458168.971272975
  9
$TDUCREATE
 40
2458168.929606308
  9
$TDUPDATE
 40
2458168.971273148
  9
$TDUUPDATE
 40
2458168.929606481
  9
$TDINDWG
 40
0.0000000116
  9
$TDUSRTIMER
 40
0.0000000116
  9
$USRTIMER
 70
     1
  9
$ANGBASE
 50
0.0
  9
$ANGDIR
 70
     0
  9
$PDMODE
 70
     0
  9
$PDSIZE
 40
0.0
  9
$PLINEWID
 40
0.0
  9
$SPLFRAME
 70
     0
  9
$SPLINETYPE
 70
     6
  9
$SPLINESEGS
 70
     8
  9
$HANDSEED
  5
1B4
  9
$SURFTAB1
 70
     6
  9
$SURFTAB2
 70
     6
  9
$SURFTYPE
 70
     6
  9
$SURFU
 70
     6
  9
$SURFV
 70
     6
  9
$UCSBASE
  2

  9
$UCSNAME
  2

  9
$UCSORG
 10
0.0
 20
0.0
 30
0.0
  9
$UCSXDIR
 10
1.0
 20
0.0
 30
0.0
  9
$UCSYDIR
 10
0.0
 20
1.0
 30
0.0
  9
$UCSORTHOREF
  2

  9
$UCSORTHOVIEW
 70
     0
  9
$UCSORGTOP
 10
0.0
 20
0.0
 30
0.0
  9
$UCSORGBOTTOM
 10
0.0
 20
0.0
 30
0.0
  9
$UCSORGLEFT
 10
0.0
 20
0.0
 30
0.0
  9
$UCSORGRIGHT
 10
0.0
 20
0.0
 30
0.0
  9
$UCSORGFRONT
 10
0.0
 20
0.0
 30
0.0
  9
$UCSORGBACK
 10
0.0
 20
0.0
 30
0.0
  9
$PUCSBASE
  2

  9
$PUCSNAME
  2

  9
$PUCSORG
 10
0.0
 20
0.0
 30
0.0
  9
$PUCSXDIR
 10
1.0
 20
0.0
 30
0.0
  9
$PUCSYDIR
 10
0.0
 20
1.0
 30
0.0
  9
$PUCSORTHOREF
  2

  9
$PUCSORTHOVIEW
 70
     0
  9
$PUCSORGTOP
 10
0.0
 20
0.0
 30
0.0
  9
$PUCSORGBOTTOM
 10
0.0
 20
0.0
 30
0.0
  9
$PUCSORGLEFT
 10
0.0
 20
0.0
 30
0.0
  9
$PUCSORGRIGHT
 10
0.0
 20
0.0
 30
0.0
  9
$PUCSORGFRONT
 10
0.0
 20
0.0
 30
0.0
  9
$PUCSORGBACK
 10
0.0
 20
0.0
 30
0.0
  9
$USERI1
 70
     0
  9
$USERI2
 70
     0
  9
$USERI3
 70
     0
  9
$USERI4
 70
     0
  9
$USERI5
 70
     0
  9
$USERR1
 40
0.0
  9
$USERR2
 40
0.0
  9
$USERR3
 40
0.0
  9
$USERR4
 40
0.0
  9
$USERR5
 40
0.0
  9
$WORLDVIEW
 70
     1
  9
$SHADEDGE
 70
     3
  9
$SHADEDIF
 70
    70
  9
$TILEMODE
 70
     1
  9
$MAXACTVP
 70
    64
  9
$PINSBASE
 10
0.0
 20
0.0
 30
0.0
  9
$PLIMCHECK
 70
     0
  9
$PEXTMIN
 10
1.000000000000000E+20
 20
1.000000000000000E+20
 30
1.000000000000000E+20
  9
$PEXTMAX
 10
-1.000000000000000E+20
 20
-1.000000000000000E+20
 30
-1.000000000000000E+20
  9
$PLIMMIN
 10
0.0
 20
0.0
  9
$PLIMMAX
 10
420.0
 20
297.0
  9
$UNITMODE
 70
     0
  9
$VISRETAIN
 70
     1
  9
$PLINEGEN
 70
     0
  9
$PSLTSCALE
 70
     1
  9
$TREEDEPTH
 70
  3020
  9
$CMLSTYLE
  2
Standard
  9
$CMLJUST
 70
     0
  9
$CMLSCALE
 40
20.0
  9
$PROXYGRAPHICS
 70
     1
  9
$MEASUREMENT
 70
     1
  9
$CELWEIGHT
370
    -1
  9
$ENDCAPS
280
     0
  9
$JOINSTYLE
280
     0
  9
$LWDISPLAY
290
     0
  9
$INSUNITS
 70
     4
  9
$HYPERLINKBASE
  1

  9
$STYLESHEET
  1

  9
$XEDIT
290
     1
  9
$CEPSNTYPE
380
     0
  9
$PSTYLEMODE
290
     1
  9
$FINGERPRINTGUID
  2
{DFF95C09-5A7C-4E7A-9DC7-138652D11296}
  9
$VERSIONGUID
  2
{FAEB1C32-E019-11D5-929B-00C0DF256EC4}
  9
$EXTNAMES
290
     1
  9
$PSVPSCALE
 40
0.0
  9
$OLESTARTUP
290
     0
  9
$SORTENTS
280
   127
  9
$INDEXCTL
280
     0
  9
$HIDETEXT
280
     1
  9
$XCLIPFRAME
280
     2
  9
$HALOGAP
280
     0
  9
$OBSCOLOR
 70
   257
  9
$OBSLTYPE
280
     0
  9
$INTERSECTIONDISPLAY
280
     0
  9
$INTERSECTIONCOLOR
 70
   257
  9
$DIMASSOC
280
     2
  9
$PROJECTNAME
  1

  9
$CAMERADISPLAY
290
     0
  9
$LENSLENGTH
 40
50.0
  9
$CAMERAHEIGHT
 40
0.0
  9
$STEPSPERSEC
 40
2.0
  9
$STEPSIZE
 40
6.0
  9
$3DDWFPREC
 40
2.0
  9
$PSOLWIDTH
 40
5.0
  9
$PSOLHEIGHT
 40
80.0
  9
$LOFTANG1
 40
1.570796326794897
  9
$LOFTANG2
 40
1.570796326794897
  9
$LOFTMAG1
 40
0.0
  9
$LOFTMAG2
 40
0.0
  9
$LOFTPARAM
 70
     7
  9
$LOFTNORMALS
280
     1
  9
$LATITUDE
 40
37.795
  9
$LONGITUDE
 40
-122.394
  9
$NORTHDIRECTION
 40
0.0
  9
$TIMEZONE
 70
 -8000
  9
$LIGHTGLYPHDISPLAY
280
     1
  9
$TILEMODELIGHTSYNCH
280
     1
  9
$CMATERIAL
347
44
  9
$SOLIDHIST
280
     0
  9
$SHOWHIST
280
     1
  9
$DWFFRAME
280
     2
  9
$DGNFRAME
280
     2
  9
$REALWORLDSCALE
290
     1
  9
$INTERFERECOLOR
 62
   256
  9
$CSHADOW
280
     0
  9
$SHADOWPLANELOCATION
 40
0.0
  0
ENDSEC
  0
SECTION
  2
CLASSES
  0
CLASS
  1
ACDBDICTIONARYWDFLT
  2
AcDbDictionaryWithDefault
  3
ObjectDBX Classes
 90
        0
 91
        4
280
     0
281
     0
  0
CLASS
  1
VISUALSTYLE
  2
AcDbVisualStyle
  3
ObjectDBX Classes
 90
     4095
 91
        4
280
     0
281
     0
  0
CLASS
  1
MATERIAL
  2
AcDbMaterial
  3
ObjectDBX Classes
 90
     1153
 91
        4
280
     0
281
     0
  0
CLASS
  1
SCALE
  2
AcDbScale
  3
ObjectDBX Classes
 90
     1153
 91
        4
280
     0
281
     0
  0
CLASS
  1
TABLESTYLE
  2
AcDbTableStyle
  3
ObjectDBX Classes
 90
     4095
 91
        4
280
     0
281
     0
  0
CLASS
  1
MLEADERSTYLE
  2
AcDbMLeaderStyle
  3
ACDB_MLEADERSTYLE_CLASS
 90
     4095
 91
        4
280
     0
281
     0
  0
CLASS
  1
SUN
  2
AcDbSun
  3
SCENEOE
 90
     1153
 91
        4
280
     0
281
     0
  0
CLASS
  1
DICTIONARYVAR
  2
AcDbDictionaryVar
  3
ObjectDBX Classes
 90
        0
 91
        4
280
     0
281
     0
  0
CLASS
  1
CELLSTYLEMAP
  2
AcDbCellStyleMap
  3
ObjectDBX Classes
 90
     1152
 91
        4
280
     0
281
     0
  0
ENDSEC
  0
SECTION
  2
TABLES
  0
TABLE
  2
VPORT
  5
8
330
0
100
AcDbSymbolTable
 70
     1
  0
VPORT
  5
29
330
8
100
AcDbSymbolTableRecord
100
AcDbViewportTableRecord
  2
*Active
 70
     0
 10
0.0
 20
0.0
 11
1.0
 21
1.0
 12
0.0000000000000568
 22
-34.19587511441
 13
0.0
 23
0.0
 14
10.0
 24
10.0
 15
10.0
 25
10.0
 16
0.0
 26
0.0
 36
1.0
 17
0.0
 27
0.0
 37
0.0
 40
74.24401476660361
 41
1.832713390133178
 42
50.0
 43
0.0
 44
0.0
 50
0.0
 51
0.0
 71
     0
 72
   100
 73
     1
 74
     3
 75
     0
 76
     0
 77
     0
 78
     0
281
     0
 65
     1
110
0.0
120
0.0
130
0.0
111
1.0
121
0.0
131
0.0
112
0.0
122
1.0
132
0.0
 79
     0
146
0.0
348
2F
 60
     3
 61
     5
292
     1
282
     1
141
0.0
142
0.0
 63
   250
361
6D
  0
ENDTAB
  0
TABLE
  2
LTYPE
  5
5
330
0
100
AcDbSymbolTable
 70
     3
  0
LTYPE
  5
14
330
5
100
AcDbSymbolTableRecord
100
AcDbLinetypeTableRecord
  2
ByBlock
 70
     0
  3

 72
    65
 73
     0
 40
0.0
  0
LTYPE
  5
15
330
5
100
AcDbSymbolTableRecord
100
AcDbLinetypeTableRecord
  2
ByLayer
 70
     0
  3

 72
    65
 73
     0
 40
0.0
  0
LTYPE
  5
16
330
5
100
AcDbSymbolTableRecord
100
AcDbLinetypeTableRecord
  2
Continuous
 70
     0
  3
Solid line
 72
    65
 73
     0
 40
0.0
  0
LTYPE
  5
94
330
5
100
AcDbSymbolTableRecord
100
AcDbLinetypeTableRecord
  2
Dashed
 70
     0
  3

 72
    65
 73
     2
 40
2.0
 49
1.0
 74
     0
 49
-1.0
 74
     0
  0
LTYPE
  5
184
330
5
100
AcDbSymbolTableRecord
100
AcDbLinetypeTableRecord
  2
Center
 70
     0
  3

 72
    65
 73
     4
 40
1.5
 49
0.45
 74
     0
 49
-0.5
 74
     0
 49
0.05
 74
     0
 49
-0.5
 74
     0
  0
ENDTAB
  0
TABLE
  2
LAYER
  5
2
330
0
100
AcDbSymbolTable
 70
     6
  0
LAYER
  5
10
330
2
100
AcDbSymbolTableRecord
100
AcDbLayerTableRecord
  2
0
 70
     0
 62
     7
  6
Continuous
370
    -3
390
F
347
46
348
0
  0
LAYER
  5
72
330
2
100
AcDbSymbolTableRecord
100
AcDbLayerTableRecord
  2
AM_6
 70
     0
 62
    -2
  6
Continuous
370
    35
390
F
347
46
348
0
  0
LAYER
  5
95
330
2
100
AcDbSymbolTableRecord
100
AcDbLayerTableRecord
  2
AM_9
 70
     0
 62
     6
  6
Dashed
370
    25
390
F
347
46
348
0
  0
LAYER
  5
BD
330
2
100
AcDbSymbolTableRecord
100
AcDbLayerTableRecord
  2
AM_4
 70
     0
 62
     7
  6
Continuous
370
    50
390
F
347
46
348
0
  0
LAYER
  5
185
330
2
100
AcDbSymbolTableRecord
100
AcDbLayerTableRecord
  2
AM_7
 70
     0
 62
     7
  6
Center
370
    25
390
F
347
46
348
0
  0
LAYER
  5
1A4
330
2
100
AcDbSymbolTableRecord
100
AcDbLayerTableRecord
  2
ConnectionPoints
 70
     0
 62
     7
  6
Continuous
370
    50
390
F
347
46
348
0
  0
ENDTAB
  0
TABLE
  2
STYLE
  5
3
330
0
100
AcDbSymbolTable
 70
     1
  0
STYLE
  5
11
330
3
100
AcDbSymbolTableRecord
100
AcDbTextStyleTableRecord
  2
Standard
 70
     0
 40
0.0
 41
1.0
 50
0.0
 71
     0
 42
2.5
  3
txt
  4

  0
ENDTAB
  0
TABLE
  2
VIEW
  5
6
330
0
100
AcDbSymbolTable
 70
     0
  0
ENDTAB
  0
TABLE
  2
UCS
  5
7
330
0
100
AcDbSymbolTable
 70
     0
  0
ENDTAB
  0
TABLE
  2
APPID
  5
9
330
0
100
AcDbSymbolTable
 70
     1
  0
APPID
  5
12
330
9
100
AcDbSymbolTableRecord
100
AcDbRegAppTableRecord
  2
ACAD
 70
     0
  0
ENDTAB
  0
TABLE
  2
DIMSTYLE
  5
A
330
0
100
AcDbSymbolTable
 70
     1
100
AcDbDimStyleTable
  0
DIMSTYLE
105
27
330
A
100
AcDbSymbolTableRecord
100
AcDbDimStyleTableRecord
  2
ISO-25
 70
     0
 41
2.5
 42
0.625
 43
3.75
 44
1.25
 73
     0
 74
     0
 77
     1
 78
     8
140
2.5
141
2.5
143
0.03937007874016
147
0.625
171
     3
172
     1
178
     0
271
     2
272
     2
274
     3
278
    44
283
     0
284
     8
340
11
  0
ENDTAB
  0
TABLE
  2
BLOCK_RECORD
  5
1
330
0
100
AcDbSymbolTable
 70
     5
  0
BLOCK_RECORD
  5
1F
330
1
100
AcDbSymbolTableRecord
100
AcDbBlockTableRecord
  2
*Model_Space
340
22
 70
     0
280
     1
281
     0
  0
BLOCK_RECORD
  5
1B
330
1
100
AcDbSymbolTableRecord
100
AcDbBlockTableRecord
  2
*Paper_Space
340
1E
 70
     0
280
     1
281
     0
  0
BLOCK_RECORD
  5
23
330
1
100
AcDbSymbolTableRecord
100
AcDbBlockTableRecord
  2
*Paper_Space0
340
26
 70
     0
280
     1
281
     0
  0
BLOCK_RECORD
  5
6E
330
1
100
AcDbSymbolTableRecord
100
AcDbBlockTableRecord
  2
1_056862_4
340
0
102
{BLKREFS
331
6F
102
}
 70
     0
280
     1
281
     0
  0
BLOCK_RECORD
  5
88
330
1
100
AcDbSymbolTableRecord
100
AcDbBlockTableRecord
  2
2_405015E_Metric_0_in_056862_4
340
0
102
{BLKREFS
331
89
102
}
 70
     0
280
     1
281
     0
  0
BLOCK_RECORD
  5
EC
330
1
100
AcDbSymbolTableRecord
100
AcDbBlockTableRecord
  2
3_125633_0_in_056862_4
340
0
102
{BLKREFS
331
ED
102
}
 70
     0
280
     1
281
     0
  0
BLOCK_RECORD
  5
14C
330
1
100
AcDbSymbolTableRecord
100
AcDbBlockTableRecord
  2
4_056862H_0_in_056862_4
340
0
102
{BLKREFS
331
14D
102
}
 70
     0
280
     1
281
     0
  0
ENDTAB
  0
ENDSEC
  0
SECTION
  2
BLOCKS
  0
BLOCK
  5
20
330
1F
100
AcDbEntity
  8
0
100
AcDbBlockBegin
  2
*Model_Space
 70
     0
 10
0.0
 20
0.0
 30
0.0
  3
*Model_Space
  1

  0
ENDBLK
  5
21
330
1F
100
AcDbEntity
  8
0
100
AcDbBlockEnd
  0
BLOCK
  5
1C
330
1B
100
AcDbEntity
 67
     1
  8
0
100
AcDbBlockBegin
  2
*Paper_Space
 70
     0
 10
0.0
 20
0.0
 30
0.0
  3
*Paper_Space
  1

  0
ENDBLK
  5
1D
330
1B
100
AcDbEntity
 67
     1
  8
0
100
AcDbBlockEnd
  0
BLOCK
  5
24
330
23
100
AcDbEntity
  8
0
100
AcDbBlockBegin
  2
*Paper_Space0
 70
     0
 10
0.0
 20
0.0
 30
0.0
  3
*Paper_Space0
  1

  0
ENDBLK
  5
25
330
23
100
AcDbEntity
  8
0
100
AcDbBlockEnd
  0
BLOCK
  5
70
330
6E
100
AcDbEntity
  8
0
100
AcDbBlockBegin
  2
1_056862_4
 70
     2
 10
0.0
 20
0.0
 30
0.0
  3
1_056862_4
  1

  0
ATTDEF
  5
73
330
6E
100
AcDbEntity
  8
AM_6
100
AcDbText
 10
71.7
 20
2.19824977118
 30
0.0
 40
0.5
  1
Eccentric Collar Two-Bolt Flange Metric Bore
100
AcDbAttributeDefinition
  3

  2
NN
 70
     8
280
     0
  0
ATTDEF
  5
74
330
6E
100
AcDbEntity
  8
AM_6
100
AcDbText
 10
71.7
 20
1.69824977118
 30
0.0
 40
0.5
  1
Eccentric Collar 2 Bolt Flange Bearings -(Normal Duty)
100
AcDbAttributeDefinition
  3

  2
NT
 70
     8
280
     0
  0
ATTDEF
  5
75
330
6E
100
AcDbEntity
  8
AM_6
100
AcDbText
 10
71.7
 20
1.19824977118
 30
0.0
 40
0.5
  1
056862
100
AcDbAttributeDefinition
  3

  2
NB
 70
     8
280
     0
  0
ATTDEF
  5
76
330
6E
100
AcDbEntity
  8
AM_6
100
AcDbText
 10
71.7
 20
0.69824977118
 30
0.0
 40
0.5
  1
$PN.
100
AcDbAttributeDefinition
  3

  2
NBSYN
 70
     8
280
     0
  0
ATTDEF
  5
77
330
6E
100
AcDbEntity
  8
AM_6
100
AcDbText
 10
71.7
 20
0.19824977118
 30
0.0
 40
0.5
  1
056862
100
AcDbAttributeDefinition
  3

  2
LINA
 70
     8
280
     0
  0
ATTDEF
  5
78
330
6E
100
AcDbEntity
  8
AM_6
100
AcDbText
 10
71.7
 20
-0.30175022882
 30
0.0
 40
0.5
  1
211
100
AcDbAttributeDefinition
  3

  2
SERIES
 70
     8
280
     0
  0
ATTDEF
  5
79
330
6E
100
AcDbEntity
  8
AM_6
100
AcDbText
 10
71.7
 20
-0.80175022882
 30
0.0
 40
0.5
  1
55
100
AcDbAttributeDefinition
  3

  2
SS
 70
     8
280
     0
  0
ATTDEF
  5
7A
330
6E
100
AcDbEntity
  8
AM_6
100
AcDbText
 10
71.7
 20
-1.30175022882
 30
0.0
 40
0.5
  1
056862
100
AcDbAttributeDefinition
  3

  2
PN
 70
     8
280
     0
  0
ATTDEF
  5
7B
330
6E
100
AcDbEntity
  8
AM_6
100
AcDbText
 10
71.7
 20
-1.80175022882
 30
0.0
 40
0.5
  1
F2B-SXR-55M
100
AcDbAttributeDefinition
  3

  2
DESCRIPTION
 70
     8
280
     0
  0
ATTDEF
  5
7C
330
6E
100
AcDbEntity
  8
AM_6
100
AcDbText
 10
71.7
 20
-2.30175022882
 30
0.0
 40
0.5
  1
3.5
100
AcDbAttributeDefinition
  3

  2
W
 70
     8
280
     0
  0
ATTDEF
  5
7D
330
6E
100
AcDbEntity
  8
AM_6
100
AcDbText
 10
71.7
 20
-2.80175022882
 30
0.0
 40
0.5
  1
65.8
100
AcDbAttributeDefinition
  3

  2
A
 70
     8
280
     0
  0
ATTDEF
  5
7E
330
6E
100
AcDbEntity
  8
AM_6
100
AcDbText
 10
71.7
 20
-3.30175022882
 30
0.0
 40
0.5
  1
219.2
100
AcDbAttributeDefinition
  3

  2
B
 70
     8
280
     0
  0
ATTDEF
  5
7F
330
6E
100
AcDbEntity
  8
AM_6
100
AcDbText
 10
71.7
 20
-3.80175022882
 30
0.0
 40
0.5
  1
67.3
100
AcDbAttributeDefinition
  3

  2
C
 70
     8
280
     0
  0
ATTDEF
  5
80
330
6E
100
AcDbEntity
  8
AM_6
100
AcDbText
 10
71.7
 20
-4.30175022882
 30
0.0
 40
0.5
  1
184.2
100
AcDbAttributeDefinition
  3

  2
D
 70
     8
280
     0
  0
ATTDEF
  5
81
330
6E
100
AcDbEntity
  8
AM_6
100
AcDbText
 10
71.7
 20
-4.80175022882
 30
0.0
 40
0.5
  1
M16
100
AcDbAttributeDefinition
  3

  2
F
 70
     8
280
     0
  0
ATTDEF
  5
82
330
6E
100
AcDbEntity
  8
AM_6
100
AcDbText
 10
71.7
 20
-5.30175022882
 30
0.0
 40
0.5
  1
17.0
100
AcDbAttributeDefinition
  3

  2
H
 70
     8
280
     0
  0
ATTDEF
  5
83
330
6E
100
AcDbEntity
  8
AM_6
100
AcDbText
 10
71.7
 20
-5.80175022882
 30
0.0
 40
0.5
  1
26.7
100
AcDbAttributeDefinition
  3

  2
J
 70
     8
280
     0
  0
ATTDEF
  5
84
330
6E
100
AcDbEntity
  8
AM_6
100
AcDbText
 10
71.7
 20
-6.30175022882
 30
0.0
 40
0.5
  1
76.2
100
AcDbAttributeDefinition
  3

  2
L
 70
     8
280
     0
  0
ATTDEF
  5
85
330
6E
100
AcDbEntity
  8
AM_6
100
AcDbText
 10
71.7
 20
-6.80175022882
 30
0.0
 40
0.5
  1
133.4
100
AcDbAttributeDefinition
  3

  2
M
 70
     8
280
     0
  0
ATTDEF
  5
86
330
6E
100
AcDbEntity
  8
AM_6
100
AcDbText
 10
71.7
 20
-7.30175022882
 30
0.0
 40
0.5
  1
57.7
100
AcDbAttributeDefinition
  3

  2
N
 70
     8
280
     0
  0
ATTDEF
  5
87
330
6E
100
AcDbEntity
  8
AM_6
100
AcDbText
 10
71.7
 20
-7.80175022882
 30
0.0
 40
0.5
  1
baldor
100
AcDbAttributeDefinition
  3

  2
COMPANY
 70
     8
280
     0
  0
INSERT
  5
89
330
6E
100
AcDbEntity
  8
0
100
AcDbBlockReference
  2
2_405015E_Metric_0_in_056862_4
 10
0.0
 20
0.0
 30
0.0
  0
INSERT
  5
ED
330
6E
100
AcDbEntity
  8
0
100
AcDbBlockReference
  2
3_125633_0_in_056862_4
 10
0.0
 20
0.0
 30
0.0
  0
INSERT
  5
14D
330
6E
100
AcDbEntity
  8
0
100
AcDbBlockReference
  2
4_056862H_0_in_056862_4
 10
0.0
 20
0.0
 30
0.0
  0
ENDBLK
  5
71
330
6E
100
AcDbEntity
  8
0
100
AcDbBlockEnd
  0
BLOCK
  5
8A
330
88
100
AcDbEntity
  8
0
100
AcDbBlockBegin
  2
2_405015E_Metric_0_in_056862_4
 70
     2
 10
0.0
 20
0.0
 30
0.0
  3
2_405015E_Metric_0_in_056862_4
  1

  0
ATTDEF
  5
8C
330
88
100
AcDbEntity
  8
AM_6
100
AcDbText
 10
64.37368466213678
 20
-23.02649730810374
 30
0.0
 40
0.5
  1
405015E -Metric
100
AcDbAttributeDefinition
  3

  2
NN
 70
     8
280
     0
  0
ATTDEF
  5
8D
330
88
100
AcDbEntity
  8
AM_6
100
AcDbText
 10
64.37368466213678
 20
-23.52649730810374
 30
0.0
 40
0.5
  1
Grease Fitting
100
AcDbAttributeDefinition
  3

  2
NT
 70
     8
280
     0
  0
ATTDEF
  5
8E
330
88
100
AcDbEntity
  8
AM_6
100
AcDbText
 10
64.37368466213678
 20
-24.02649730810374
 30
0.0
 40
0.5
  1
405015E-Metric
100
AcDbAttributeDefinition
  3

  2
NB
 70
     8
280
     0
  0
ATTDEF
  5
8F
330
88
100
AcDbEntity
  8
AM_6
100
AcDbText
 10
64.37368466213678
 20
-24.52649730810374
 30
0.0
 40
0.5
  1
$MN.-Metric
100
AcDbAttributeDefinition
  3

  2
NBSYN
 70
     8
280
     0
  0
ATTDEF
  5
90
330
88
100
AcDbEntity
  8
AM_6
100
AcDbText
 10
64.37368466213678
 20
-25.02649730810374
 30
0.0
 40
0.5
  1
405015E
100
AcDbAttributeDefinition
  3

  2
LINA
 70
     8
280
     0
  0
ATTDEF
  5
91
330
88
100
AcDbEntity
  8
AM_6
100
AcDbText
 10
64.37368466213678
 20
-25.52649730810374
 30
0.0
 40
0.5
  1
405015E
100
AcDbAttributeDefinition
  3

  2
MN
 70
     8
280
     0
  0
ATTDEF
  5
92
330
88
100
AcDbEntity
  8
AM_6
100
AcDbText
 10
64.37368466213678
 20
-26.02649730810374
 30
0.0
 40
0.5
  1
1/8 x 27PTF
100
AcDbAttributeDefinition
  3

  2
T
 70
     8
280
     0
  0
ATTDEF
  5
93
330
88
100
AcDbEntity
  8
AM_6
100
AcDbText
 10
64.37368466213678
 20
-26.52649730810374
 30
0.0
 40
0.5
  1
baldor
100
AcDbAttributeDefinition
  3

  2
COMPANY
 70
     8
280
     0
  0
ELLIPSE
  5
96
330
88
100
AcDbEntity
  8
AM_9
100
AcDbEllipse
 10
46.2052721650315
 20
-28.8
 30
0.0
 11
2.546036870355443E-16
 21
4.157993753183518
 31
0.0
210
0.0
220
0.0
230
1.0
 40
0.7071067811865479
 41
0.0
 42
6.283185307179586
  0
LINE
  5
97
330
88
100
AcDbEntity
  8
AM_9
100
AcDbLine
 10
53.18526754194719
 20
-32.76855307875027
 30
0.0
 11
52.73257486216452
 21
-33.1301270189222
 31
0.0
  0
LWPOLYLINE
  5
98
330
88
100
AcDbEntity
  8
AM_9
100
AcDbPolyline
 90
        3
 70
     0
 43
0.0
 10
54.64689635763514
 20
-31.68675134594812
 10
53.65945713311155
 20
-32.40519427959148
 10
53.18526754194719
 20
-32.76855307875027
  0
LWPOLYLINE
  5
99
330
88
100
AcDbEntity
  8
AM_9
100
AcDbPolyline
 90
        4
 70
     0
 43
0.0
 10
54.50749916167511
 20
-29.41578065708387
 10
54.52363928545226
 20
-29.91567952239156
 10
54.59039720264055
 20
-31.03135904478312
 10
54.64689635763514
 20
-31.68675134594812
  0
LINE
  5
9A
330
88
100
AcDbEntity
  8
AM_9
100
AcDbLine
 10
54.50278196492857
 20
-29.15910297134755
 30
0.0
 11
54.50749916167511
 21
-29.41578065708387
 31
0.0
  0
LINE
  5
9B
330
88
100
AcDbEntity
  8
AM_9
100
AcDbLine
 10
54.50114975402905
 20
-28.59345575030957
 30
0.0
 11
54.50278196492857
 21
-29.15910297134755
 31
0.0
  0
LWPOLYLINE
  5
9C
330
88
100
AcDbEntity
  8
AM_9
100
AcDbPolyline
 90
        3
 70
     0
 43
0.0
 10
53.13830784102213
 20
-24.79465264302664
 10
53.65514121368906
 20
-25.19156081756483
 10
54.64689635763514
 20
-25.91324865405187
  0
LINE
  5
9D
330
88
100
AcDbEntity
  8
AM_9
100
AcDbLine
 10
52.98777459852241
 20
-24.67562742236484
 30
0.0
 11
53.13830784102213
 21
-24.79465264302664
 31
0.0
  0
LINE
  5
9E
330
88
100
AcDbEntity
  8
AM_9
100
AcDbLine
 10
52.43663715033606
 20
-24.22452485415499
 30
0.0
 11
52.98777459852241
 21
-24.67562742236484
 31
0.0
  0
LINE
  5
9F
330
88
100
AcDbEntity
  8
AM_9
100
AcDbLine
 10
54.50878235970535
 20
-28.13106839363204
 30
0.0
 11
54.50114975402905
 21
-28.59345575030957
 31
0.0
  0
LWPOLYLINE
  5
A0
330
88
100
AcDbEntity
  8
AM_9
100
AcDbPolyline
 90
        3
 70
     0
 43
0.0
 10
54.64689635763514
 20
-25.91324865405187
 10
54.53936643147878
 20
-27.35013452133859
 10
54.50878235970535
 20
-28.13106839363204
  0
LINE
  5
A1
330
88
100
AcDbEntity
  8
AM_9
100
AcDbLine
 10
56.47510761618627
 20
-31.68675134594812
 30
0.0
 11
54.64689635763514
 21
-31.68675134594812
 31
0.0
  0
LINE
  5
A2
330
88
100
AcDbEntity
  8
AM_9
100
AcDbLine
 10
56.47510761618627
 20
-25.91324865405187
 30
0.0
 11
54.64689635763514
 21
-25.91324865405187
 31
0.0
  0
LINE
  5
A3
330
88
100
AcDbEntity
  8
AM_9
100
AcDbLine
 10
56.47510761618627
 20
-25.91324865405187
 30
0.0
 11
56.19282506921199
 21
-25.6441886231536
 31
0.0
  0
LWPOLYLINE
  5
A4
330
88
100
AcDbEntity
  8
AM_9
100
AcDbPolyline
 90
        3
 70
     0
 43
0.0
 10
56.62166215869053
 20
-28.8
 10
56.58297928364917
 20
-27.35662432702593
 10
56.47510761618627
 20
-25.91324865405187
  0
LINE
  5
A5
330
88
100
AcDbEntity
  8
AM_9
100
AcDbLine
 10
56.18923038224256
 20
-31.95919039294205
 30
0.0
 11
56.47510761618627
 21
-31.68675134594812
 31
0.0
  0
LWPOLYLINE
  5
A6
330
88
100
AcDbEntity
  8
AM_9
100
AcDbPolyline
 90
        4
 70
     0
 43
0.0
 10
56.47510761618627
 20
-31.68675134594812
 10
56.53160677118088
 20
-31.03135904478312
 10
56.59822690279599
 20
-29.91901401901461
 10
56.62166215869053
 20
-28.8
  0
LINE
  5
A7
330
88
100
AcDbEntity
  8
AM_9
100
AcDbLine
 10
52.25981973005738
 20
-24.07424430693611
 30
0.0
 11
52.43663715033606
 21
-24.22452485415499
 31
0.0
  0
LWPOLYLINE
  5
A8
330
88
100
AcDbEntity
  8
AM_9
100
AcDbPolyline
 90
        3
 70
     0
 43
0.0
 10
51.1113624517024
 20
-23.02649730810374
 10
51.88374182391328
 20
-23.7449402417471
 10
52.25981973005738
 20
-24.07424430693611
  0
LWPOLYLINE
  5
A9
330
88
100
AcDbEntity
  8
AM_9
100
AcDbPolyline
 90
        3
 70
     0
 43
0.0
 10
52.33484675650573
 20
-33.46164178243649
 10
51.88737426072269
 20
-33.85181485540922
 10
51.1113624517024
 20
-34.57350269189625
  0
LINE
  5
AA
330
88
100
AcDbEntity
  8
AM_9
100
AcDbLine
 10
52.73257486216452
 20
-33.1301270189222
 30
0.0
 11
52.33484675650573
 21
-33.46164178243649
 31
0.0
  0
LINE
  5
AB
330
88
100
AcDbEntity
  8
AM_9
100
AcDbLine
 10
46.52441763512634
 20
-33.55570540013618
 30
0.0
 11
50.8554300022655
 21
-33.74721402118571
 31
0.0
  0
LINE
  5
AC
330
88
100
AcDbEntity
  8
AM_9
100
AcDbLine
 10
50.8554300022655
 20
-23.85278597881429
 30
0.0
 11
46.52441763512633
 21
-24.04429459986381
 31
0.0
  0
ELLIPSE
  5
AD
330
88
100
AcDbEntity
  8
AM_9
100
AcDbEllipse
 10
53.08612825275781
 20
-28.80000000000002
 30
0.0
 11
-9.184850993605057E-16
 21
-4.99999999999995
 31
0.0
210
0.0
220
0.0
230
1.0
 40
0.7071067811865531
 41
0.8982051386224388
 42
2.24338751496566
  0
LINE
  5
AE
330
88
100
AcDbEntity
  8
AM_9
100
AcDbLine
 10
55.86581728316774
 20
-26.81007116726749
 30
0.0
 11
55.60199781128086
 21
-26.39341358254605
 31
0.0
  0
LINE
  5
AF
330
88
100
AcDbEntity
  8
AM_9
100
AcDbLine
 10
55.60199781128086
 20
-31.20658641745394
 30
0.0
 11
55.86581728316774
 21
-30.78992883273251
 31
0.0
  0
ELLIPSE
  5
B0
330
88
100
AcDbEntity
  8
AM_9
100
AcDbEllipse
 10
54.29444172228916
 20
-28.8
 30
0.0
 11
-5.479672885901654E-16
 21
-2.982994982562492
 31
0.0
210
0.0
220
0.0
230
1.0
 40
0.7071067811865513
 41
0.386942238188384
 42
2.754650415401413
  0
LINE
  5
B1
330
88
100
AcDbEntity
  8
AM_9
100
AcDbLine
 10
55.58535047513081
 20
-26.32277008014442
 30
0.0
 11
55.11378882426582
 21
-26.05102288328506
 31
0.0
  0
LINE
  5
B2
330
88
100
AcDbEntity
  8
AM_9
100
AcDbLine
 10
55.11378882426582
 20
-31.54897711671493
 30
0.0
 11
55.58535047513081
 21
-31.27722991985558
 31
0.0
  0
ELLIPSE
  5
B3
330
88
100
AcDbEntity
  8
AM_9
100
AcDbEllipse
 10
54.87157287525383
 20
-28.8
 30
0.0
 11
-4.913895281578736E-16
 21
-2.67499999999999
 31
0.0
210
0.0
220
0.0
230
1.0
 40
0.7071067811865485
 41
0.0
 42
3.141592653589793
  0
ELLIPSE
  5
B4
330
88
100
AcDbEntity
  8
AM_9
100
AcDbEllipse
 10
53.70160267185509
 20
-28.79999999999993
 30
0.0
 11
-6.627024103768317E-16
 21
-3.607583894601181
 31
0.0
210
0.0
220
0.0
230
1.0
 40
0.7071067811864185
 41
0.6633833151887831
 42
2.478209338400986
  0
ELLIPSE
  5
B5
330
88
100
AcDbEntity
  8
AM_9
100
AcDbEllipse
 10
53.0861282527578
 20
-28.79999999999999
 30
0.0
 11
-8.725608443924871E-16
 21
-4.749999999999989
 31
0.0
210
0.0
220
0.0
230
1.0
 40
0.7071067811865503
 41
0.8736482899478295
 42
2.267944363641691
  0
LINE
  5
B6
330
88
100
AcDbEntity
  8
AM_9
100
AcDbLine
 10
54.9882454941496
 20
-31.47499999999999
 30
0.0
 11
55.3665476220844
 21
-31.47499999999999
 31
0.0
  0
LINE
  5
B7
330
88
100
AcDbEntity
  8
AM_9
100
AcDbLine
 10
55.3665476220844
 20
-26.125
 30
0.0
 11
54.9882454941496
 21
-26.125
 31
0.0
  0
ELLIPSE
  5
B8
330
88
100
AcDbEntity
  8
AM_9
100
AcDbEllipse
 10
55.3665476220844
 20
-28.8
 30
0.0
 11
-4.913895281578750E-16
 21
-2.674999999999997
 31
0.0
210
0.0
220
0.0
230
1.0
 40
0.7071067811865492
 41
5.888394187479824
 42
9.81956908046914
  0
ELLIPSE
  5
B9
330
88
100
AcDbEntity
  8
AM_9
100
AcDbEllipse
 10
56.28578643762691
 20
-28.8
 30
0.0
 11
-5.832380380939277E-16
 21
-3.175000000000004
 31
0.0
210
0.0
220
0.0
230
1.0
 40
0.707106781186546
 41
0.4159140521025488
 42
2.725678601487245
  0
ELLIPSE
  5
BA
330
88
100
AcDbEntity
  8
AM_9
100
AcDbEllipse
 10
50.96480790919819
 20
-28.79999999999999
 30
0.0
 11
-9.184850993605207E-16
 21
-5.000000000000032
 31
0.0
210
0.0
220
0.0
230
1.0
 40
0.7071067811865501
 41
0.0
 42
6.283185307179586
  0
ELLIPSE
  5
BB
330
88
100
AcDbEntity
  8
AM_9
100
AcDbEllipse
 10
50.96480790918385
 20
-28.80000000001344
 30
0.0
 11
-9.092325864258362E-16
 21
-4.949631665548409
 31
0.0
210
0.0
220
0.0
230
1.0
 40
0.7071067811865258
 41
0.0
 42
6.283185307179586
  0
ELLIPSE
  5
BC
330
88
100
AcDbEntity
  8
AM_9
100
AcDbEllipse
 10
46.62956147980914
 20
-28.80000000001575
 30
0.0
 11
-8.740358316277885E-16
 21
-4.758029456527527
 31
0.0
210
0.0
220
0.0
230
1.0
 40
0.7071067811865478
 41
0.0
 42
6.283185307179586
  0
LWPOLYLINE
  5
BE
330
88
100
AcDbEntity
  8
AM_4
100
AcDbPolyline
 90
        3
 70
     0
 43
0.0
 10
56.19282506921199
 20
-25.6441886231536
 10
55.7027282439754
 20
-25.19480572040851
 10
54.85389520572416
 20
-24.4698729810778
  0
LWPOLYLINE
  5
BF
330
88
100
AcDbEntity
  8
AM_4
100
AcDbPolyline
 90
        3
 70
     0
 43
0.0
 10
54.85389520572416
 20
-33.1301270189222
 10
55.69909580716598
 20
-32.40843918243515
 10
56.18923038224256
 20
-31.95919039294205
  0
LWPOLYLINE
  5
C0
330
88
100
AcDbEntity
  8
AM_4
100
AcDbPolyline
 90
        3
 70
     0
 43
0.0
 10
52.93957371025353
 20
-34.57350269189625
 10
53.92701293477712
 20
-33.8550597582529
 10
54.85389520572416
 20
-33.1301270189222
  0
LWPOLYLINE
  5
C1
330
88
100
AcDbEntity
  8
AM_4
100
AcDbPolyline
 90
        3
 70
     0
 43
0.0
 10
54.85389520572416
 20
-24.4698729810778
 10
53.93132885419961
 20
-23.74818514459077
 10
52.93957371025353
 20
-23.02649730810374
  0
ELLIPSE
  5
C2
330
88
100
AcDbEntity
  8
AM_4
100
AcDbEllipse
 10
53.08612825275762
 20
-28.7999999999999
 30
0.0
 11
-9.184850993605402E-16
 21
-5.000000000000139
 31
0.0
210
0.0
220
0.0
230
1.0
 40
0.707106781186562
 41
2.243387514965614
 42
7.181390445802034
  0
LWPOLYLINE
  5
C3
330
88
100
AcDbEntity
  8
AM_4
100
AcDbPolyline
 90
        3
 70
     0
 43
0.0
 10
51.31836129979142
 20
-24.4698729810778
 10
50.39579494826687
 20
-25.19156081756483
 10
49.4040398043208
 20
-25.91324865405187
  0
LWPOLYLINE
  5
C4
330
88
100
AcDbEntity
  8
AM_4
100
AcDbPolyline
 90
        3
 70
     0
 43
0.0
 10
52.93957371025353
 20
-23.02649730810374
 10
52.16719433804266
 20
-23.7449402417471
 10
51.31836129979142
 20
-24.4698729810778
  0
LINE
  5
C5
330
88
100
AcDbEntity
  8
AM_4
100
AcDbLine
 10
52.93957371025353
 20
-23.02649730810374
 30
0.0
 11
51.1113624517024
 21
-23.02649730810374
 31
0.0
  0
LWPOLYLINE
  5
C6
330
88
100
AcDbEntity
  8
AM_4
100
AcDbPolyline
 90
        3
 70
     0
 43
0.0
 10
49.81061893534003
 20
-23.98339709020885
 10
50.11960730775633
 20
-23.74818514459077
 10
51.1113624517024
 20
-23.02649730810374
  0
LINE
  5
C7
330
88
100
AcDbEntity
  8
AM_4
100
AcDbLine
 10
49.19704095623178
 20
-24.4698729810778
 30
0.0
 11
49.81061893534003
 21
-23.98339709020885
 31
0.0
  0
LINE
  5
C8
330
88
100
AcDbEntity
  8
AM_4
100
AcDbLine
 10
48.65769690298949
 20
-24.92283953245734
 30
0.0
 11
49.19704095623178
 21
-24.4698729810778
 31
0.0
  0
LINE
  5
C9
330
88
100
AcDbEntity
  8
AM_4
100
AcDbLine
 10
48.52598767354204
 20
-25.03747099550343
 30
0.0
 11
48.65769690298949
 21
-24.92283953245734
 31
0.0
  0
LWPOLYLINE
  5
CA
330
88
100
AcDbEntity
  8
AM_4
100
AcDbPolyline
 90
        3
 70
     0
 43
0.0
 10
47.57582854576966
 20
-25.91324865405187
 10
48.34820791798054
 20
-25.19480572040851
 10
48.52598767354204
 20
-25.03747099550343
  0
LWPOLYLINE
  5
CB
330
88
100
AcDbEntity
  8
AM_4
100
AcDbPolyline
 90
        4
 70
     0
 43
0.0
 10
49.55059434682504
 20
-28.8
 10
49.52729687650367
 20
-29.91567952239156
 10
49.46053895931539
 20
-31.03135904478312
 10
49.4040398043208
 20
-31.68675134594812
  0
LWPOLYLINE
  5
CC
330
88
100
AcDbEntity
  8
AM_4
100
AcDbPolyline
 90
        3
 70
     0
 43
0.0
 10
49.4040398043208
 20
-25.91324865405187
 10
49.51156973047715
 20
-27.35013452133859
 10
49.55059434682504
 20
-28.8
  0
LINE
  5
CD
330
88
100
AcDbEntity
  8
AM_4
100
AcDbLine
 10
49.4040398043208
 20
-25.91324865405187
 30
0.0
 11
47.57582854576966
 21
-25.91324865405187
 31
0.0
  0
LWPOLYLINE
  5
CE
330
88
100
AcDbEntity
  8
AM_4
100
AcDbPolyline
 90
        3
 70
     0
 43
0.0
 10
47.4622527216905
 20
-27.46925364736781
 10
47.46795687830677
 20
-27.35662432702593
 10
47.57582854576966
 20
-25.91324865405187
  0
LINE
  5
CF
330
88
100
AcDbEntity
  8
AM_4
100
AcDbLine
 10
47.44443548052985
 20
-27.90188334332186
 30
0.0
 11
47.4622527216905
 21
-27.46925364736781
 31
0.0
  0
LINE
  5
D0
330
88
100
AcDbEntity
  8
AM_4
100
AcDbLine
 10
47.42927400326541
 20
-28.8
 30
0.0
 11
47.44443548052985
 21
-27.90188334332186
 31
0.0
  0
LINE
  5
D1
330
88
100
AcDbEntity
  8
AM_4
100
AcDbLine
 10
47.44443455755053
 20
-29.69808910210241
 30
0.0
 11
47.42927400326541
 21
-28.8
 31
0.0
  0
LINE
  5
D2
330
88
100
AcDbEntity
  8
AM_4
100
AcDbLine
 10
47.45621123222737
 20
-30.00080704446091
 30
0.0
 11
47.44443455755053
 21
-29.69808910210241
 31
0.0
  0
LWPOLYLINE
  5
D3
330
88
100
AcDbEntity
  8
AM_4
100
AcDbPolyline
 90
        3
 70
     0
 43
0.0
 10
47.57582854576966
 20
-31.68675134594812
 10
47.51932939077506
 20
-31.03135904478312
 10
47.45621123222737
 20
-30.00080704446091
  0
LINE
  5
D4
330
88
100
AcDbEntity
  8
AM_4
100
AcDbLine
 10
52.93957371025353
 20
-34.57350269189625
 30
0.0
 11
51.1113624517024
 21
-34.57350269189625
 31
0.0
  0
LWPOLYLINE
  5
D5
330
88
100
AcDbEntity
  8
AM_4
100
AcDbPolyline
 90
        3
 70
     0
 43
0.0
 10
51.31836129979142
 20
-33.13012701892219
 10
52.16356190123324
 20
-33.85181485540922
 10
52.93957371025353
 20
-34.57350269189625
  0
LWPOLYLINE
  5
D6
330
88
100
AcDbEntity
  8
AM_4
100
AcDbPolyline
 90
        3
 70
     0
 43
0.0
 10
49.4040398043208
 20
-31.68675134594812
 10
50.39147902884438
 20
-32.40519427959148
 10
51.31836129979142
 20
-33.13012701892219
  0
LINE
  5
D7
330
88
100
AcDbEntity
  8
AM_4
100
AcDbLine
 10
49.4040398043208
 20
-31.68675134594812
 30
0.0
 11
47.57582854576966
 21
-31.68675134594812
 31
0.0
  0
LWPOLYLINE
  5
D8
330
88
100
AcDbEntity
  8
AM_4
100
AcDbPolyline
 90
        3
 70
     0
 43
0.0
 10
48.5540989931411
 20
-32.58713239120548
 10
48.35184035478996
 20
-32.40843918243515
 10
47.57582854576966
 20
-31.68675134594812
  0
LINE
  5
D9
330
88
100
AcDbEntity
  8
AM_4
100
AcDbLine
 10
48.65067648507114
 20
-32.67109137101946
 30
0.0
 11
48.5540989931411
 21
-32.58713239120548
 31
0.0
  0
LINE
  5
DA
330
88
100
AcDbEntity
  8
AM_4
100
AcDbLine
 10
49.19704095623178
 20
-33.1301270189222
 30
0.0
 11
48.65067648507114
 21
-32.67109137101946
 31
0.0
  0
LINE
  5
DB
330
88
100
AcDbEntity
  8
AM_4
100
AcDbLine
 10
49.78158779589698
 20
-33.59419396897279
 30
0.0
 11
49.19704095623178
 21
-33.1301270189222
 31
0.0
  0
LWPOLYLINE
  5
DC
330
88
100
AcDbEntity
  8
AM_4
100
AcDbPolyline
 90
        3
 70
     0
 43
0.0
 10
51.1113624517024
 20
-34.57350269189625
 10
50.12392322717881
 20
-33.8550597582529
 10
49.78158779589698
 20
-33.59419396897279
  0
ELLIPSE
  5
DD
330
88
100
AcDbEntity
  8
AM_4
100
AcDbEllipse
 10
53.70160267185446
 20
-28.79999999999991
 30
0.0
 11
-6.627024103768030E-16
 21
-3.607583894601024
 31
0.0
210
0.0
220
0.0
230
1.0
 40
0.7071067811865417
 41
2.478209338400871
 42
6.946568622368478
  0
ELLIPSE
  5
DE
330
88
100
AcDbEntity
  8
AM_4
100
AcDbEllipse
 10
54.29444172228916
 20
-28.8
 30
0.0
 11
-5.479672885901687E-16
 21
-2.982994982562509
 31
0.0
210
0.0
220
0.0
230
1.0
 40
0.7071067811865471
 41
2.75465041540141
 42
6.67012754536797
  0
LINE
  5
DF
330
88
100
AcDbEntity
  8
AM_4
100
AcDbLine
 10
55.11378882426582
 20
-26.05102288328506
 30
0.0
 11
55.09040246961573
 21
-26.0375460106232
 31
0.0
  0
LINE
  5
E0
330
88
100
AcDbEntity
  8
AM_4
100
AcDbLine
 10
55.09040246961573
 20
-31.56245398937679
 30
0.0
 11
55.11378882426582
 21
-31.54897711671493
 31
0.0
  0
ELLIPSE
  5
E1
330
88
100
AcDbEntity
  8
AM_4
100
AcDbEllipse
 10
53.08612825275779
 20
-28.79999999999995
 30
0.0
 11
-8.725608443924799E-16
 21
-4.74999999999995
 31
0.0
210
0.0
220
0.0
230
1.0
 40
0.7071067811865501
 41
2.267944363641682
 42
7.15683359712741
  0
ELLIPSE
  5
E2
330
88
100
AcDbEntity
  8
AM_4
100
AcDbEllipse
 10
54.87157287525382
 20
-28.8
 30
0.0
 11
-4.913895281578750E-16
 21
-2.674999999999997
 31
0.0
210
0.0
220
0.0
230
1.0
 40
0.7071067811865466
 41
3.141592653589793
 42
6.283185307179586
  0
LINE
  5
E3
330
88
100
AcDbEntity
  8
AM_4
100
AcDbLine
 10
54.87157287525382
 20
-31.47499999999999
 30
0.0
 11
54.9882454941496
 21
-31.47499999999999
 31
0.0
  0
LINE
  5
E4
330
88
100
AcDbEntity
  8
AM_4
100
AcDbLine
 10
54.9882454941496
 20
-26.125
 30
0.0
 11
54.87157287525382
 21
-26.125
 31
0.0
  0
LINE
  5
E5
330
88
100
AcDbEntity
  8
AM_4
100
AcDbLine
 10
54.63904352990208
 20
-31.26923076923076
 30
0.0
 11
55.42230027213949
 21
-31.73076923076922
 31
0.0
  0
LINE
  5
E6
330
88
100
AcDbEntity
  8
AM_4
100
AcDbLine
 10
55.42230027213949
 20
-25.86923076923076
 30
0.0
 11
54.63904352990208
 21
-26.33076923076923
 31
0.0
  0
ELLIPSE
  5
E7
330
88
100
AcDbEntity
  8
AM_4
100
AcDbEllipse
 10
55.36654762208439
 20
-28.79999999999999
 30
0.0
 11
-4.913895281578750E-16
 21
-2.674999999999997
 31
0.0
210
0.0
220
0.0
230
1.0
 40
0.7071067811865466
 41
3.536383773289552
 42
5.888394187479827
  0
LINE
  5
E8
330
88
100
AcDbEntity
  8
AM_4
100
AcDbLine
 10
58.37621249728132
 20
-26.63484088030809
 30
0.0
 11
57.19285118453407
 21
-25.89567699974047
 31
0.0
  0
LINE
  5
E9
330
88
100
AcDbEntity
  8
AM_4
100
AcDbLine
 10
57.19285118453407
 20
-31.70432300025952
 30
0.0
 11
58.37621249728132
 21
-30.9651591196919
 31
0.0
  0
ELLIPSE
  5
EA
330
88
100
AcDbEntity
  8
AM_4
100
AcDbEllipse
 10
56.2857864376269
 20
-28.80000000000007
 30
0.0
 11
-5.832380380939407E-16
 21
-3.175000000000075
 31
0.0
210
0.0
220
0.0
230
1.0
 40
0.7071067811865481
 41
2.725678601487253
 42
6.699099359282148
  0
ELLIPSE
  5
EB
330
88
100
AcDbEntity
  8
AM_4
100
AcDbEllipse
 10
57.7
 20
-28.79999999999999
 30
0.0
 11
-4.348012108217426E-16
 21
-2.36694754832968
 31
0.0
210
0.0
220
0.0
230
1.0
 40
0.7071067811865458
 41
0.0
 42
6.283185307179586
  0
ENDBLK
  5
8B
330
88
100
AcDbEntity
  8
0
100
AcDbBlockEnd
  0
BLOCK
  5
EE
330
EC
100
AcDbEntity
  8
0
100
AcDbBlockBegin
  2
3_125633_0_in_056862_4
 70
     2
 10
0.0
 20
0.0
 30
0.0
  3
3_125633_0_in_056862_4
  1

  0
ATTDEF
  5
F0
330
EC
100
AcDbEntity
  8
AM_6
100
AcDbText
 10
54.99999911854285
 20
-1.499999999999998
 30
0.0
 40
0.5
  1
Eccentric Collar Insert Metric Bore
100
AcDbAttributeDefinition
  3

  2
NN
 70
     8
280
     0
  0
ATTDEF
  5
F1
330
EC
100
AcDbEntity
  8
AM_6
100
AcDbText
 10
54.99999911854285
 20
-1.999999999999998
 30
0.0
 40
0.5
  1
SXR Normal Duty Bearing Inserts
100
AcDbAttributeDefinition
  3

  2
NT
 70
     8
280
     0
  0
ATTDEF
  5
F2
330
EC
100
AcDbEntity
  8
AM_6
100
AcDbText
 10
54.99999911854285
 20
-2.499999999999998
 30
0.0
 40
0.5
  1
125633
100
AcDbAttributeDefinition
  3

  2
NB
 70
     8
280
     0
  0
ATTDEF
  5
F3
330
EC
100
AcDbEntity
  8
AM_6
100
AcDbText
 10
54.99999911854285
 20
-2.999999999999998
 30
0.0
 40
0.5
  1
$PN.
100
AcDbAttributeDefinition
  3

  2
NBSYN
 70
     8
280
     0
  0
ATTDEF
  5
F4
330
EC
100
AcDbEntity
  8
AM_6
100
AcDbText
 10
54.99999911854285
 20
-3.499999999999998
 30
0.0
 40
0.5
  1
125633
100
AcDbAttributeDefinition
  3

  2
LINA
 70
     8
280
     0
  0
ATTDEF
  5
F5
330
EC
100
AcDbEntity
  8
AM_6
100
AcDbText
 10
54.99999911854285
 20
-3.999999999999998
 30
0.0
 40
0.5
  1
211
100
AcDbAttributeDefinition
  3

  2
SERIES
 70
     8
280
     0
  0
ATTDEF
  5
F6
330
EC
100
AcDbEntity
  8
AM_6
100
AcDbText
 10
54.99999911854285
 20
-4.499999999999998
 30
0.0
 40
0.5
  1
55
100
AcDbAttributeDefinition
  3

  2
SS
 70
     8
280
     0
  0
ATTDEF
  5
F7
330
EC
100
AcDbEntity
  8
AM_6
100
AcDbText
 10
54.99999911854285
 20
-4.999999999999998
 30
0.0
 40
0.5
  1
125633
100
AcDbAttributeDefinition
  3

  2
PN
 70
     8
280
     0
  0
ATTDEF
  5
F8
330
EC
100
AcDbEntity
  8
AM_6
100
AcDbText
 10
54.99999911854285
 20
-5.499999999999998
 30
0.0
 40
0.5
  1
INS-SXR-55M
100
AcDbAttributeDefinition
  3

  2
DESCRIPTION
 70
     8
280
     0
  0
ATTDEF
  5
F9
330
EC
100
AcDbEntity
  8
AM_6
100
AcDbText
 10
54.99999911854285
 20
-5.999999999999998
 30
0.0
 40
0.5
  1
1.3
100
AcDbAttributeDefinition
  3

  2
WEIGHT
 70
     8
280
     0
  0
ATTDEF
  5
FA
330
EC
100
AcDbEntity
  8
AM_6
100
AcDbText
 10
54.99999911854285
 20
-6.499999999999998
 30
0.0
 40
0.5
  1
65.8
100
AcDbAttributeDefinition
  3

  2
A
 70
     8
280
     0
  0
ATTDEF
  5
FB
330
EC
100
AcDbEntity
  8
AM_6
100
AcDbText
 10
54.99999911854285
 20
-6.999999999999998
 30
0.0
 40
0.5
  1
23.9
100
AcDbAttributeDefinition
  3

  2
C
 70
     8
280
     0
  0
ATTDEF
  5
FC
330
EC
100
AcDbEntity
  8
AM_6
100
AcDbText
 10
54.99999911854285
 20
-7.499999999999998
 30
0.0
 40
0.5
  1
100.000
100
AcDbAttributeDefinition
  3

  2
D
 70
     8
280
     0
  0
ATTDEF
  5
FD
330
EC
100
AcDbEntity
  8
AM_6
100
AcDbText
 10
54.99999911854285
 20
-7.999999999999998
 30
0.0
 40
0.5
  1
6.4
100
AcDbAttributeDefinition
  3

  2
J
 70
     8
280
     0
  0
ATTDEF
  5
FE
330
EC
100
AcDbEntity
  8
AM_6
100
AcDbText
 10
54.99999911854285
 20
-8.499999999999998
 30
0.0
 40
0.5
  1
76.2
100
AcDbAttributeDefinition
  3

  2
L
 70
     8
280
     0
  0
ATTDEF
  5
FF
330
EC
100
AcDbEntity
  8
AM_6
100
AcDbText
 10
54.99999911854285
 20
-8.999999999999998
 30
0.0
 40
0.5
  1
M12 x 1.75
100
AcDbAttributeDefinition
  3

  2
N
 70
     8
280
     0
  0
ATTDEF
  5
100
330
EC
100
AcDbEntity
  8
AM_6
100
AcDbText
 10
54.99999911854285
 20
-9.499999999999998
 30
0.0
 40
0.5
  1
22.4
100
AcDbAttributeDefinition
  3

  2
W
 70
     8
280
     0
  0
ATTDEF
  5
101
330
EC
100
AcDbEntity
  8
AM_6
100
AcDbText
 10
54.99999911854285
 20
-9.999999999999998
 30
0.0
 40
0.5
  1
43.4
100
AcDbAttributeDefinition
  3

  2
Y
 70
     8
280
     0
  0
ATTDEF
  5
102
330
EC
100
AcDbEntity
  8
AM_6
100
AcDbText
 10
54.99999911854285
 20
-10.5
 30
0.0
 40
0.5
  1
68.8
100
AcDbAttributeDefinition
  3

  2
Z
 70
     8
280
     0
  0
ATTDEF
  5
103
330
EC
100
AcDbEntity
  8
AM_6
100
AcDbText
 10
54.99999911854285
 20
-11.0
 30
0.0
 40
0.5
  1
baldor
100
AcDbAttributeDefinition
  3

  2
COMPANY
 70
     8
280
     0
  0
ARC
  5
104
330
EC
100
AcDbEntity
  8
AM_9
100
AcDbCircle
 10
12.61742844874811
 20
-19.41999999999991
 30
0.0
 40
3.99999999999975
100
AcDbArc
 50
344.1998988239336
 51
54.89638218367102
  0
LINE
  5
105
330
EC
100
AcDbEntity
  8
AM_9
100
AcDbLine
 10
26.56296022294937
 20
-63.35299971199999
 30
0.0
 11
36.46475571967775
 21
-63.35299971199999
 31
0.0
  0
LINE
  5
106
330
EC
100
AcDbEntity
  8
AM_9
100
AcDbLine
 10
36.46475571967775
 20
-53.24699971199999
 30
0.0
 11
26.56061625667892
 21
-53.24699971199999
 31
0.0
  0
LWPOLYLINE
  5
107
330
EC
100
AcDbEntity
  8
AM_9
100
AcDbPolyline
 90
       21
 70
     0
 43
0.0
 10
26.56282512005902
 20
-53.24699973896042
 10
26.50573670794561
 20
-53.25169899881299
 10
26.26675190154988
 20
-53.36097290090473
 10
26.02177556352183
 20
-53.60050936384317
 10
25.76541514114319
 20
-53.97690640562404
 10
25.52070671161695
 20
-54.46470970722309
 10
25.28927898822969
 20
-55.0743119950335
 10
25.09391688611695
 20
-55.76506379686804
 10
24.93841884981357
 20
-56.55037545149038
 10
24.84150609643062
 20
-57.35984799030145
 10
24.80315195191467
 20
-58.2213330504098
 10
24.82727512794478
 20
-59.04783579417102
 10
24.9125464434586
 20
-59.87661683504313
 10
25.04862213913016
 20
-60.63728756276535
 10
25.23468999829685
 20
-61.35334233133602
 10
25.45338449777614
 20
-61.97521266553274
 10
25.70217017523367
 20
-62.509907387889
 10
25.95662780225322
 20
-62.915997166568
 10
26.21684523684083
 20
-63.20002534468447
 10
26.39386046105747
 20
-63.31398605966934
 10
26.56296022294938
 20
-63.35299971199999
  0
LINE
  5
108
330
EC
100
AcDbEntity
  8
AM_9
100
AcDbLine
 10
36.11432838030426
 20
-63.16822688334353
 30
0.0
 11
36.39448180558766
 21
-63.46927133045044
 31
0.0
  0
LINE
  5
109
330
EC
100
AcDbEntity
  8
AM_9
100
AcDbLine
 10
36.39502641922071
 20
-53.13014286811502
 30
0.0
 11
36.11432838030426
 21
-53.43177254065645
 31
0.0
  0
ELLIPSE
  5
10A
330
EC
100
AcDbEntity
  8
AM_9
100
AcDbEllipse
 10
36.4647557196706
 20
-58.29999971199928
 30
0.0
 11
-9.282210414138742E-16
 21
-5.05300000000075
 31
0.0
210
0.0
220
0.0
230
1.0
 40
0.2588190451022123
 41
3.2964440780293
 42
6.100831898503144
  0
LINE
  5
10B
330
EC
100
AcDbEntity
  8
AM_9
100
AcDbLine
 10
27.5
 20
-48.96200238259282
 30
0.0
 11
27.5
 21
-1.978000000000004
 31
0.0
  0
LINE
  5
10C
330
EC
100
AcDbEntity
  8
AM_9
100
AcDbLine
 10
-27.5
 20
-1.978000000000004
 30
0.0
 11
-27.5
 21
-48.96200238259282
 31
0.0
  0
LWPOLYLINE
  5
10D
330
EC
100
AcDbEntity
  8
AM_9
100
AcDbPolyline
 90
       20
 70
     0
 43
0.0
 10
26.56296022294938
 20
-63.35299971199999
 10
26.765308940139
 20
-63.2846339210972
 10
26.9435157388547
 20
-63.07366557735008
 10
27.085434935054
 20
-62.7383702111413
 10
27.19993403951396
 20
-62.26957915562713
 10
27.2839408067193
 20
-61.69958290510819
 10
27.34497946664072
 20
-61.0161304119069
 10
27.38427807868274
 20
-60.26975580992822
 10
27.40794280846393
 20
-59.44292398744508
 10
27.41773281831922
 20
-58.61589690359224
 10
27.41618620135379
 20
-57.75511375973949
 10
27.40337917305586
 20
-56.94444334348967
 10
27.37664712677817
 20
-56.1493713086565
 10
27.33392410208686
 20
-55.43118531205111
 10
27.2686404820995
 20
-54.7738522050919
 10
27.17862291346653
 20
-54.22308860035707
 10
27.05557847319093
 20
-53.77374419398801
 10
26.9040513836716
 20
-53.46350723700248
 10
26.71512774335001
 20
-53.28437781745099
 10
26.56282512005902
 20
-53.24699973896042
  0
LINE
  5
10E
330
EC
100
AcDbEntity
  8
AM_9
100
AcDbLine
 10
27.5
 20
-66.82199999999999
 30
0.0
 11
27.5
 21
-49.63799646540718
 31
0.0
  0
LINE
  5
10F
330
EC
100
AcDbEntity
  8
AM_9
100
AcDbLine
 10
-27.5
 20
-49.63799646540718
 30
0.0
 11
-27.5
 21
-66.82199999999999
 31
0.0
  0
LINE
  5
110
330
EC
100
AcDbEntity
  8
AM_9
100
AcDbLine
 10
-27.5
 20
-48.96200238259282
 30
0.0
 11
27.5
 21
-48.96200238259282
 31
0.0
  0
LINE
  5
111
330
EC
100
AcDbEntity
  8
AM_9
100
AcDbLine
 10
-27.5
 20
-48.96200238259282
 30
0.0
 11
-27.83799704140717
 21
-49.299999424
 31
0.0
  0
LINE
  5
112
330
EC
100
AcDbEntity
  8
AM_9
100
AcDbLine
 10
27.83799704140717
 20
-49.299999424
 30
0.0
 11
27.5
 21
-48.96200238259282
 31
0.0
  0
LINE
  5
113
330
EC
100
AcDbEntity
  8
AM_9
100
AcDbLine
 10
-27.83799704140717
 20
-49.299999424
 30
0.0
 11
27.83799704140717
 21
-49.299999424
 31
0.0
  0
LINE
  5
114
330
EC
100
AcDbEntity
  8
AM_9
100
AcDbLine
 10
-27.5
 20
-49.63799646540718
 30
0.0
 11
27.5
 21
-49.63799646540718
 31
0.0
  0
LINE
  5
115
330
EC
100
AcDbEntity
  8
AM_9
100
AcDbLine
 10
27.5
 20
-49.63799646540718
 30
0.0
 11
27.83799704140717
 21
-49.299999424
 31
0.0
  0
LINE
  5
116
330
EC
100
AcDbEntity
  8
AM_9
100
AcDbLine
 10
-27.83799704140717
 20
-49.299999424
 30
0.0
 11
-27.5
 21
-49.63799646540718
 31
0.0
  0
LINE
  5
117
330
EC
100
AcDbEntity
  8
AM_9
100
AcDbLine
 10
-27.5
 20
-66.82199999999999
 30
0.0
 11
27.5
 21
-66.82199999999999
 31
0.0
  0
LINE
  5
118
330
EC
100
AcDbEntity
  8
AM_9
100
AcDbLine
 10
-27.5
 20
-66.82199999999999
 30
0.0
 11
-27.978
 21
-67.3
 31
0.0
  0
LINE
  5
119
330
EC
100
AcDbEntity
  8
AM_9
100
AcDbLine
 10
27.978
 20
-67.3
 30
0.0
 11
27.5
 21
-66.82199999999999
 31
0.0
  0
LINE
  5
11A
330
EC
100
AcDbEntity
  8
AM_9
100
AcDbLine
 10
27.5
 20
-1.978000000000004
 30
0.0
 11
27.978
 21
-1.499999999999998
 31
0.0
  0
LINE
  5
11B
330
EC
100
AcDbEntity
  8
AM_9
100
AcDbLine
 10
-27.978
 20
-1.499999999999998
 30
0.0
 11
-27.5
 21
-1.978000000000004
 31
0.0
  0
LINE
  5
11C
330
EC
100
AcDbEntity
  8
AM_9
100
AcDbLine
 10
34.39999999999998
 20
-40.59999999999999
 30
0.0
 11
34.39999999999998
 21
-35.84999999999999
 31
0.0
  0
LINE
  5
11D
330
EC
100
AcDbEntity
  8
AM_9
100
AcDbLine
 10
-34.39999999999998
 20
-35.84999999999999
 30
0.0
 11
-34.39999999999998
 21
-40.59999999999999
 31
0.0
  0
LINE
  5
11E
330
EC
100
AcDbEntity
  8
AM_9
100
AcDbLine
 10
-33.922
 20
-1.499999999999998
 30
0.0
 11
-34.4
 21
-1.978000000000001
 31
0.0
  0
LINE
  5
11F
330
EC
100
AcDbEntity
  8
AM_9
100
AcDbLine
 10
34.39999999999999
 20
-1.978000000000001
 30
0.0
 11
33.922
 21
-1.499999999999998
 31
0.0
  0
LINE
  5
120
330
EC
100
AcDbEntity
  8
AM_9
100
AcDbLine
 10
-33.922
 20
-1.499999999999998
 30
0.0
 11
33.922
 21
-1.499999999999998
 31
0.0
  0
LINE
  5
121
330
EC
100
AcDbEntity
  8
AM_9
100
AcDbLine
 10
34.39999999999998
 20
-11.95
 30
0.0
 11
34.39999999999998
 21
-1.978000000000001
 31
0.0
  0
LINE
  5
122
330
EC
100
AcDbEntity
  8
AM_9
100
AcDbLine
 10
-34.39999999999998
 20
-1.978000000000001
 30
0.0
 11
-34.39999999999998
 21
-11.95
 31
0.0
  0
LINE
  5
123
330
EC
100
AcDbEntity
  8
AM_9
100
AcDbLine
 10
-34.39999999999998
 20
-1.978000000000001
 30
0.0
 11
34.39999999999998
 21
-1.978000000000001
 31
0.0
  0
LINE
  5
124
330
EC
100
AcDbEntity
  8
AM_9
100
AcDbLine
 10
47.61904800000001
 20
-31.58
 30
0.0
 11
47.61904800000001
 21
-29.02
 31
0.0
  0
LINE
  5
125
330
EC
100
AcDbEntity
  8
AM_9
100
AcDbLine
 10
-47.61904800000001
 20
-29.02
 30
0.0
 11
-47.61904800000001
 21
-31.58
 31
0.0
  0
LINE
  5
126
330
EC
100
AcDbEntity
  8
AM_9
100
AcDbLine
 10
-47.79587743728533
 20
-35.84999999999999
 30
0.0
 11
47.79587743728533
 21
-35.84999999999999
 31
0.0
  0
ARC
  5
127
330
EC
100
AcDbEntity
  8
AM_9
100
AcDbCircle
 10
47.79587743728535
 20
-34.89400000000003
 30
0.0
 40
0.9559999999999675
100
AcDbArc
 50
270.0
 51
347.0461559477336
  0
ARC
  5
128
330
EC
100
AcDbEntity
  8
AM_9
100
AcDbCircle
 10
-47.79587743728535
 20
-34.89400000000003
 30
0.0
 40
0.955999999999966
100
AcDbArc
 50
192.9538440522664
 51
270.0
  0
LINE
  5
129
330
EC
100
AcDbEntity
  8
AM_9
100
AcDbLine
 10
-47.79587743728533
 20
-11.95
 30
0.0
 11
47.79587743728533
 21
-11.95
 31
0.0
  0
ARC
  5
12A
330
EC
100
AcDbEntity
  8
AM_9
100
AcDbCircle
 10
47.79587743728532
 20
-12.906
 30
0.0
 40
0.9559999999999996
100
AcDbArc
 50
12.95384405226759
 51
90.0
  0
ARC
  5
12B
330
EC
100
AcDbEntity
  8
AM_9
100
AcDbCircle
 10
-47.79587743728532
 20
-12.906
 30
0.0
 40
0.9560000000000013
100
AcDbArc
 50
90.0
 51
167.0461559477324
  0
LINE
  5
12C
330
EC
100
AcDbEntity
  8
AM_9
100
AcDbLine
 10
-48.72754815806695
 20
-35.10830274855233
 30
0.0
 11
48.72754815806756
 21
-35.10830274855233
 31
0.0
  0
ARC
  5
12D
330
EC
100
AcDbEntity
  8
AM_9
100
AcDbCircle
 10
0.0000000009200605
 20
-23.89999999982289
 30
0.0
 40
50.00000000093575
100
AcDbArc
 50
188.835609869895
 51
192.9538440522288
  0
ARC
  5
12E
330
EC
100
AcDbEntity
  8
AM_9
100
AcDbCircle
 10
-0.0000000000290896
 20
-23.89999999999425
 30
0.0
 40
50.00000000002963
100
AcDbArc
 50
347.0461559477338
 51
351.1643901301422
  0
LINE
  5
12F
330
EC
100
AcDbEntity
  8
AM_9
100
AcDbLine
 10
-49.40665542211838
 20
-31.58
 30
0.0
 11
49.40665542211899
 21
-31.58
 31
0.0
  0
LINE
  5
130
330
EC
100
AcDbEntity
  8
AM_9
100
AcDbLine
 10
-48.72754815806773
 20
-12.69169725144767
 30
0.0
 11
48.72754815806758
 21
-12.69169725144767
 31
0.0
  0
ARC
  5
131
330
EC
100
AcDbEntity
  8
AM_9
100
AcDbCircle
 10
-0.0000000000019043
 20
-23.9000000000002
 30
0.0
 40
50.00000000000191
100
AcDbArc
 50
0.0564550787525421
 51
12.95384405226694
  0
ARC
  5
132
330
EC
100
AcDbEntity
  8
AM_9
100
AcDbCircle
 10
0.000000000002423
 20
-23.9000000000002
 30
0.0
 40
49.99999999999758
100
AcDbArc
 50
354.122610012593
 51
0.0107585373757471
  0
ARC
  5
133
330
EC
100
AcDbEntity
  8
AM_9
100
AcDbCircle
 10
0.0000000001209983
 20
-23.90000000000752
 30
0.0
 40
50.00000000011975
100
AcDbArc
 50
167.0461559477555
 51
185.8773899873841
  0
LINE
  5
134
330
EC
100
AcDbEntity
  8
AM_9
100
AcDbLine
 10
-49.73716517856658
 20
-29.01999999999999
 30
0.0
 11
49.73716517856644
 21
-29.01999999999999
 31
0.0
  0
ELLIPSE
  5
135
330
EC
100
AcDbEntity
  8
AM_9
100
AcDbEllipse
 10
12.84740696006346
 20
-19.33834281170058
 30
0.0
 11
1.304668211075317
 21
-3.674454866651584
 31
0.0
210
0.0
220
0.0
230
1.0
 40
0.9618727908331617
 41
0.0
 42
6.283185307179586
  0
ELLIPSE
  5
136
330
EC
100
AcDbEntity
  8
AM_4
100
AcDbEllipse
 10
36.46475571967643
 20
-58.29999971200071
 30
0.0
 11
-9.282210414138676E-16
 21
-5.053000000000715
 31
0.0
210
0.0
220
0.0
230
1.0
 40
0.2588190451025038
 41
6.100831898498909
 42
9.579629385213071
  0
LWPOLYLINE
  5
137
330
EC
100
AcDbEntity
  8
AM_4
100
AcDbPolyline
 90
       24
 70
     0
 43
0.0
 10
36.40248815887296
 20
-53.122124783102
 10
36.58289186409866
 20
-52.96844915390177
 10
36.80171962159834
 20
-52.89870075159187
 10
37.0040136225382
 20
-52.9685433367294
 10
37.17894952299803
 20
-53.16909078324947
 10
37.33057819638638
 20
-53.49084347171444
 10
37.4603420987758
 20
-53.93584648962813
 10
37.56537203730413
 20
-54.48178380225079
 10
37.65133598577943
 20
-55.15397773779574
 10
37.71405826643853
 20
-55.90227816344399
 10
37.75800830930385
 20
-56.75856797088984
 10
37.78118381180665
 20
-57.65497381493456
 10
37.78487937015861
 20
-58.60316183625245
 10
37.76803508927862
 20
-59.54294625608112
 10
37.72895358371591
 20
-60.45657074890583
 10
37.66515194112976
 20
-61.30768673023994
 10
37.57481772362577
 20
-62.05582891228249
 10
37.45388106116932
 20
-62.69196799758556
 10
37.30753935521569
 20
-63.16853434439466
 10
37.13050441410813
 20
-63.50256020624914
 10
36.93880489782107
 20
-63.66983170853271
 10
36.72599989013864
 20
-63.69309194359646
 10
36.50864329044941
 20
-63.57773160069733
 10
36.40255745733715
 20
-63.4779491432631
  0
LWPOLYLINE
  5
138
330
EC
100
AcDbEntity
  8
AM_4
100
AcDbPolyline
 90
       14
 70
     0
 43
0.0
 10
36.40255745733715
 20
-63.4779491432631
 10
36.2849151151383
 20
-63.33471511136082
 10
36.06127248027417
 20
-62.96849388366702
 10
35.84769089651701
 20
-62.49446430770883
 10
35.64298245415457
 20
-61.89437738991874
 10
35.46668268936708
 20
-61.20906984276666
 10
35.31878342587234
 20
-60.40572201709985
 10
35.21784711510739
 20
-59.54889427178041
 10
35.16832195590234
 20
-58.61802137563662
 10
35.17772901792288
 20
-57.67849416645544
 10
35.24849784807478
 20
-56.73874299983728
 10
35.37631907911604
 20
-55.84365068747471
 10
35.52024772422121
 20
-55.16075070135739
 10
35.69337336213108
 20
-54.541468881011
  0
LINE
  5
139
330
EC
100
AcDbEntity
  8
AM_4
100
AcDbLine
 10
32.761905024
 20
-46.9
 30
0.0
 11
32.761905024
 21
-45.69999999999999
 31
0.0
  0
LINE
  5
13A
330
EC
100
AcDbEntity
  8
AM_4
100
AcDbLine
 10
-32.761905024
 20
-45.69999999999999
 30
0.0
 11
-32.761905024
 21
-46.9
 31
0.0
  0
LINE
  5
13B
330
EC
100
AcDbEntity
  8
AM_4
100
AcDbLine
 10
34.39999999999998
 20
-45.22199999999999
 30
0.0
 11
34.39999999999998
 21
-40.59999999999999
 31
0.0
  0
LINE
  5
13C
330
EC
100
AcDbEntity
  8
AM_4
100
AcDbLine
 10
-34.39999999999998
 20
-40.59999999999999
 30
0.0
 11
-34.39999999999998
 21
-45.22199999999999
 31
0.0
  0
LINE
  5
13D
330
EC
100
AcDbEntity
  8
AM_4
100
AcDbLine
 10
-33.92200000000001
 20
-45.69999999999999
 30
0.0
 11
33.92200000000001
 21
-45.69999999999999
 31
0.0
  0
LINE
  5
13E
330
EC
100
AcDbEntity
  8
AM_4
100
AcDbLine
 10
-34.4
 20
-45.22199999999999
 30
0.0
 11
34.4
 21
-45.22199999999999
 31
0.0
  0
LINE
  5
13F
330
EC
100
AcDbEntity
  8
AM_4
100
AcDbLine
 10
33.92200000000001
 20
-45.69999999999999
 30
0.0
 11
34.4
 21
-45.22199999999999
 31
0.0
  0
LINE
  5
140
330
EC
100
AcDbEntity
  8
AM_4
100
AcDbLine
 10
-34.4
 20
-45.22199999999999
 30
0.0
 11
-33.92200000000001
 21
-45.69999999999999
 31
0.0
  0
LWPOLYLINE
  5
141
330
EC
100
AcDbEntity
  8
AM_4
100
AcDbPolyline
 90
        5
 70
     0
 43
0.0
 10
35.69337336213108
 20
-54.541468881011
 10
35.88695333427902
 20
-54.0084316253247
 10
36.0961581495667
 20
-53.56573679193567
 10
36.33973422868644
 20
-53.19495120730039
 10
36.40248815887296
 20
-53.122124783102
  0
LINE
  5
142
330
EC
100
AcDbEntity
  8
AM_4
100
AcDbLine
 10
38.1
 20
-65.8
 30
0.0
 11
38.1
 21
-48.4
 31
0.0
  0
LINE
  5
143
330
EC
100
AcDbEntity
  8
AM_4
100
AcDbLine
 10
-38.1
 20
-48.4
 30
0.0
 11
-38.1
 21
-65.8
 31
0.0
  0
LINE
  5
144
330
EC
100
AcDbEntity
  8
AM_4
100
AcDbLine
 10
-36.6
 20
-67.3
 30
0.0
 11
36.6
 21
-67.3
 31
0.0
  0
LINE
  5
145
330
EC
100
AcDbEntity
  8
AM_4
100
AcDbLine
 10
-38.10000000000001
 20
-65.8
 30
0.0
 11
38.10000000000001
 21
-65.8
 31
0.0
  0
ARC
  5
146
330
EC
100
AcDbEntity
  8
AM_4
100
AcDbCircle
 10
36.59999999999999
 20
-65.79999999999997
 30
0.0
 40
1.500000000000028
100
AcDbArc
 50
270.0
 51
0.0
  0
ARC
  5
147
330
EC
100
AcDbEntity
  8
AM_4
100
AcDbCircle
 10
-36.59999999999999
 20
-65.79999999999997
 30
0.0
 40
1.500000000000021
100
AcDbArc
 50
180.0
 51
270.0
  0
LINE
  5
148
330
EC
100
AcDbEntity
  8
AM_4
100
AcDbLine
 10
-38.10000000000001
 20
-48.4
 30
0.0
 11
38.10000000000001
 21
-48.4
 31
0.0
  0
LINE
  5
149
330
EC
100
AcDbEntity
  8
AM_4
100
AcDbLine
 10
-36.6
 20
-46.9
 30
0.0
 11
36.6
 21
-46.9
 31
0.0
  0
ARC
  5
14A
330
EC
100
AcDbEntity
  8
AM_4
100
AcDbCircle
 10
36.59999999999999
 20
-48.40000000000001
 30
0.0
 40
1.500000000000014
100
AcDbArc
 50
0.0000008537736463
 51
90.0
  0
ARC
  5
14B
330
EC
100
AcDbEntity
  8
AM_4
100
AcDbCircle
 10
-36.59999999999999
 20
-48.40000000000001
 30
0.0
 40
1.500000000000014
100
AcDbArc
 50
90.0
 51
179.9999991462263
  0
ENDBLK
  5
EF
330
EC
100
AcDbEntity
  8
0
100
AcDbBlockEnd
  0
BLOCK
  5
14E
330
14C
100
AcDbEntity
  8
0
100
AcDbBlockBegin
  2
4_056862H_0_in_056862_4
 70
     2
 10
0.0
 20
0.0
 30
0.0
  3
4_056862H_0_in_056862_4
  1

  0
ATTDEF
  5
150
330
14C
100
AcDbEntity
  8
AM_6
100
AcDbText
 10
71.7
 20
2.19824977118
 30
0.0
 40
0.5
  1
F2B-SXR housing -Metric
100
AcDbAttributeDefinition
  3

  2
NN
 70
     8
280
     0
  0
ATTDEF
  5
151
330
14C
100
AcDbEntity
  8
AM_6
100
AcDbText
 10
71.7
 20
1.69824977118
 30
0.0
 40
0.5
  1
Eccentric Collar 2 Bolt Flange Bearings -(Normal Duty)
100
AcDbAttributeDefinition
  3

  2
NT
 70
     8
280
     0
  0
ATTDEF
  5
152
330
14C
100
AcDbEntity
  8
AM_6
100
AcDbText
 10
71.7
 20
1.19824977118
 30
0.0
 40
0.5
  1
056862H
100
AcDbAttributeDefinition
  3

  2
NB
 70
     8
280
     0
  0
ATTDEF
  5
153
330
14C
100
AcDbEntity
  8
AM_6
100
AcDbText
 10
71.7
 20
0.69824977118
 30
0.0
 40
0.5
  1
$PN.H
100
AcDbAttributeDefinition
  3

  2
NBSYN
 70
     8
280
     0
  0
ATTDEF
  5
154
330
14C
100
AcDbEntity
  8
AM_6
100
AcDbText
 10
71.7
 20
0.19824977118
 30
0.0
 40
0.5
  1
056862
100
AcDbAttributeDefinition
  3

  2
LINA
 70
     8
280
     0
  0
ATTDEF
  5
155
330
14C
100
AcDbEntity
  8
AM_6
100
AcDbText
 10
71.7
 20
-0.30175022882
 30
0.0
 40
0.5
  1
211
100
AcDbAttributeDefinition
  3

  2
SERIES
 70
     8
280
     0
  0
ATTDEF
  5
156
330
14C
100
AcDbEntity
  8
AM_6
100
AcDbText
 10
71.7
 20
-0.80175022882
 30
0.0
 40
0.5
  1
55
100
AcDbAttributeDefinition
  3

  2
SS
 70
     8
280
     0
  0
ATTDEF
  5
157
330
14C
100
AcDbEntity
  8
AM_6
100
AcDbText
 10
71.7
 20
-1.30175022882
 30
0.0
 40
0.5
  1
056862
100
AcDbAttributeDefinition
  3

  2
PN
 70
     8
280
     0
  0
ATTDEF
  5
158
330
14C
100
AcDbEntity
  8
AM_6
100
AcDbText
 10
71.7
 20
-1.80175022882
 30
0.0
 40
0.5
  1
F2B-SXR-55M
100
AcDbAttributeDefinition
  3

  2
DESCRIPTION
 70
     8
280
     0
  0
ATTDEF
  5
159
330
14C
100
AcDbEntity
  8
AM_6
100
AcDbText
 10
71.7
 20
-2.30175022882
 30
0.0
 40
0.5
  1
3.5
100
AcDbAttributeDefinition
  3

  2
W
 70
     8
280
     0
  0
ATTDEF
  5
15A
330
14C
100
AcDbEntity
  8
AM_6
100
AcDbText
 10
71.7
 20
-2.80175022882
 30
0.0
 40
0.5
  1
65.8
100
AcDbAttributeDefinition
  3

  2
A
 70
     8
280
     0
  0
ATTDEF
  5
15B
330
14C
100
AcDbEntity
  8
AM_6
100
AcDbText
 10
71.7
 20
-3.30175022882
 30
0.0
 40
0.5
  1
219.2
100
AcDbAttributeDefinition
  3

  2
B
 70
     8
280
     0
  0
ATTDEF
  5
15C
330
14C
100
AcDbEntity
  8
AM_6
100
AcDbText
 10
71.7
 20
-3.80175022882
 30
0.0
 40
0.5
  1
67.3
100
AcDbAttributeDefinition
  3

  2
C
 70
     8
280
     0
  0
ATTDEF
  5
15D
330
14C
100
AcDbEntity
  8
AM_6
100
AcDbText
 10
71.7
 20
-4.30175022882
 30
0.0
 40
0.5
  1
184.2
100
AcDbAttributeDefinition
  3

  2
D
 70
     8
280
     0
  0
ATTDEF
  5
15E
330
14C
100
AcDbEntity
  8
AM_6
100
AcDbText
 10
71.7
 20
-4.80175022882
 30
0.0
 40
0.5
  1
M16
100
AcDbAttributeDefinition
  3

  2
F
 70
     8
280
     0
  0
ATTDEF
  5
15F
330
14C
100
AcDbEntity
  8
AM_6
100
AcDbText
 10
71.7
 20
-5.30175022882
 30
0.0
 40
0.5
  1
17.0
100
AcDbAttributeDefinition
  3

  2
H
 70
     8
280
     0
  0
ATTDEF
  5
160
330
14C
100
AcDbEntity
  8
AM_6
100
AcDbText
 10
71.7
 20
-5.80175022882
 30
0.0
 40
0.5
  1
26.7
100
AcDbAttributeDefinition
  3

  2
J
 70
     8
280
     0
  0
ATTDEF
  5
161
330
14C
100
AcDbEntity
  8
AM_6
100
AcDbText
 10
71.7
 20
-6.30175022882
 30
0.0
 40
0.5
  1
76.2
100
AcDbAttributeDefinition
  3

  2
L
 70
     8
280
     0
  0
ATTDEF
  5
162
330
14C
100
AcDbEntity
  8
AM_6
100
AcDbText
 10
71.7
 20
-6.80175022882
 30
0.0
 40
0.5
  1
133.4
100
AcDbAttributeDefinition
  3

  2
M
 70
     8
280
     0
  0
ATTDEF
  5
163
330
14C
100
AcDbEntity
  8
AM_6
100
AcDbText
 10
71.7
 20
-7.30175022882
 30
0.0
 40
0.5
  1
57.7
100
AcDbAttributeDefinition
  3

  2
N
 70
     8
280
     0
  0
ATTDEF
  5
164
330
14C
100
AcDbEntity
  8
AM_6
100
AcDbText
 10
71.7
 20
-7.80175022882
 30
0.0
 40
0.5
  1
5630
100
AcDbAttributeDefinition
  3

  2
CAPS
 70
     8
280
     0
  0
ATTDEF
  5
165
330
14C
100
AcDbEntity
  8
AM_6
100
AcDbText
 10
71.7
 20
-8.30175022882
 30
0.0
 40
0.5
  1
9975
100
AcDbAttributeDefinition
  3

  2
CAPD
 70
     8
280
     0
  0
ATTDEF
  5
166
330
14C
100
AcDbEntity
  8
AM_6
100
AcDbText
 10
71.7
 20
-8.80175022882
 30
0.0
 40
0.5
  1
baldor
100
AcDbAttributeDefinition
  3

  2
COMPANY
 70
     8
280
     0
  0
LINE
  5
167
330
14C
100
AcDbEntity
  8
AM_9
100
AcDbLine
 10
30.51024803241131
 20
-26.39000000000001
 30
0.0
 11
30.51024803241131
 21
-0.0000000000000026
 31
0.0
  0
LINE
  5
168
330
14C
100
AcDbEntity
  8
AM_9
100
AcDbLine
 10
-4.907031910681751
 20
-26.39000000000001
 30
0.0
 11
-4.907031910681751
 21
-0.0000000000000032
 31
0.0
  0
LINE
  5
169
330
14C
100
AcDbEntity
  8
AM_9
100
AcDbLine
 10
56.38530458065551
 20
-15.3
 30
0.0
 11
42.31183436309097
 21
-15.3
 31
0.0
  0
LINE
  5
16A
330
14C
100
AcDbEntity
  8
AM_9
100
AcDbLine
 10
56.03541966255244
 20
-40.6
 30
0.0
 11
56.03541966255244
 21
0.0000000000000024
 31
0.0
  0
LINE
  5
16B
330
14C
100
AcDbEntity
  8
AM_9
100
AcDbLine
 10
55.56231074876793
 20
0.0000000000000023
 30
0.0
 11
55.56231074876794
 21
-15.3
 31
0.0
  0
LINE
  5
16C
330
14C
100
AcDbEntity
  8
AM_9
100
AcDbLine
 10
55.29147088676601
 20
0.0000000000000023
 30
0.0
 11
55.29147088676601
 21
-40.6
 31
0.0
  0
LINE
  5
16D
330
14C
100
AcDbEntity
  8
AM_9
100
AcDbLine
 10
-30.51024803241127
 20
-26.39
 30
0.0
 11
-30.51024803241127
 21
0.0000000000000026
 31
0.0
  0
LINE
  5
16E
330
14C
100
AcDbEntity
  8
AM_9
100
AcDbLine
 10
57.95901494524846
 20
-31.22575354525075
 30
0.0
 11
57.95901494524846
 21
-26.37424645474925
 31
0.0
  0
LINE
  5
16F
330
14C
100
AcDbEntity
  8
AM_9
100
AcDbLine
 10
5.668994190942432
 20
-26.39
 30
0.0
 11
5.668994190942432
 21
0.000000000000003
 31
0.0
  0
LINE
  5
170
330
14C
100
AcDbEntity
  8
AM_9
100
AcDbLine
 10
-29.7482857521506
 20
0.0000000000000025
 30
0.0
 11
-29.7482857521506
 21
-26.39
 31
0.0
  0
LINE
  5
171
330
14C
100
AcDbEntity
  8
AM_9
100
AcDbLine
 10
29.7482857521506
 20
-0.0000000000000025
 30
0.0
 11
29.7482857521506
 21
-26.39000000000001
 31
0.0
  0
LINE
  5
172
330
14C
100
AcDbEntity
  8
AM_9
100
AcDbLine
 10
-5.668994190942423
 20
-26.39000000000001
 30
0.0
 11
-5.668994190942423
 21
-0.000000000000003
 31
0.0
  0
LINE
  5
173
330
14C
100
AcDbEntity
  8
AM_9
100
AcDbLine
 10
50.0
 20
-40.6
 30
0.0
 11
50.0
 21
0.0
 31
0.0
  0
LINE
  5
174
330
14C
100
AcDbEntity
  8
AM_9
100
AcDbLine
 10
-50.0
 20
0.0
 30
0.0
 11
-50.0
 21
-40.6
 31
0.0
  0
LINE
  5
175
330
14C
100
AcDbEntity
  8
AM_9
100
AcDbLine
 10
4.907031910681758
 20
-26.39
 30
0.0
 11
4.907031910681758
 21
0.0000000000000032
 31
0.0
  0
LINE
  5
176
330
14C
100
AcDbEntity
  8
AM_9
100
AcDbLine
 10
30.51024803241131
 20
-26.39000000000001
 30
0.0
 11
-30.51024803241127
 21
-26.39
 31
0.0
  0
LINE
  5
177
330
14C
100
AcDbEntity
  8
AM_9
100
AcDbLine
 10
50.92888688471387
 20
-33.88000000000001
 30
0.0
 11
50.96480790919815
 21
-33.88000000000001
 31
0.0
  0
LINE
  5
178
330
14C
100
AcDbEntity
  8
AM_9
100
AcDbLine
 10
50.96480790919815
 20
-23.71999999999998
 30
0.0
 11
50.92888688471387
 21
-23.71999999999998
 31
0.0
  0
ELLIPSE
  5
179
330
14C
100
AcDbEntity
  8
AM_9
100
AcDbEllipse
 10
50.96480790919819
 20
-28.80000000000019
 30
0.0
 11
-9.331808609502496E-16
 21
-5.079999999999817
 31
0.0
210
0.0
220
0.0
230
1.0
 40
0.7071067811865475
 41
5.953691112531913
 42
9.781959286391926
  0
ELLIPSE
  5
17A
330
14C
100
AcDbEntity
  8
AM_9
100
AcDbEllipse
 10
50.96480790919821
 20
-28.80000000000007
 30
0.0
 11
-9.331808609503076E-16
 21
-5.080000000000133
 31
0.0
210
0.0
220
0.0
230
1.0
 40
0.7071067811865427
 41
3.839252546222525
 42
4.52350752252274
  0
ELLIPSE
  5
17B
330
14C
100
AcDbEntity
  8
AM_9
100
AcDbEllipse
 10
50.92888688471381
 20
-28.80000000000003
 30
0.0
 11
-9.331808609502697E-16
 21
-5.079999999999927
 31
0.0
210
0.0
220
0.0
230
1.0
 40
0.7071067811865476
 41
4.952320902178961
 42
5.559374169789925
  0
ELLIPSE
  5
17C
330
14C
100
AcDbEntity
  8
AM_9
100
AcDbEllipse
 10
50.92888688471401
 20
-28.80000000000014
 30
0.0
 11
-9.331808609503285E-16
 21
-5.080000000000247
 31
0.0
210
0.0
220
0.0
230
1.0
 40
0.7071067811865478
 41
3.874859331316085
 42
4.447143260287811
  0
ELLIPSE
  5
17D
330
14C
100
AcDbEntity
  8
AM_9
100
AcDbEllipse
 10
50.92888688471349
 20
-28.79999999999965
 30
0.0
 11
-9.331808609503578E-16
 21
-5.080000000000407
 31
0.0
210
0.0
220
0.0
230
1.0
 40
0.7071067811865703
 41
5.959179432587163
 42
9.740074525693121
  0
ELLIPSE
  5
17E
330
14C
100
AcDbEntity
  8
AM_9
100
AcDbEllipse
 10
50.96480790919819
 20
-28.79999999999994
 30
0.0
 11
-9.331808609503044E-16
 21
-5.080000000000116
 31
0.0
210
0.0
220
0.0
230
1.0
 40
0.7071067811865409
 41
4.920792701373994
 42
5.583483206335332
  0
LINE
  5
17F
330
14C
100
AcDbEntity
  8
AM_9
100
AcDbLine
 10
57.21506616946228
 20
-31.69044683725723
 30
0.0
 11
57.21506616946228
 21
-25.90955316274276
 31
0.0
  0
LINE
  5
180
330
14C
100
AcDbEntity
  8
AM_9
100
AcDbLine
 10
56.38530458065551
 20
-15.3
 30
0.0
 11
56.38530458065549
 21
0.0000000000000022
 31
0.0
  0
LINE
  5
181
330
14C
100
AcDbEntity
  8
AM_9
100
AcDbLine
 10
55.70998208403964
 20
-40.6
 30
0.0
 11
55.70998208403964
 21
-15.3
 31
0.0
  0
LINE
  5
182
330
14C
100
AcDbEntity
  8
AM_9
100
AcDbLine
 10
8.0
 20
-16.99999999999999
 30
0.0
 11
8.0
 21
0.0000000000000056
 31
0.0
  0
LINE
  5
183
330
14C
100
AcDbEntity
  8
AM_9
100
AcDbLine
 10
-8.0
 20
0.0000000000000056
 30
0.0
 11
-8.0
 21
-16.99999999999999
 31
0.0
  0
LINE
  5
186
330
14C
100
AcDbEntity
  8
AM_7
100
AcDbLine
 10
0.0
 20
2.19824977118
 30
0.0
 11
0.0
 21
-70.59
 31
0.0
  0
LINE
  5
187
330
14C
100
AcDbEntity
  8
AM_4
100
AcDbLine
 10
57.95901494524846
 20
-26.37424645474925
 30
0.0
 11
57.95901494524846
 21
0.0000000000000026
 31
0.0
  0
LINE
  5
188
330
14C
100
AcDbEntity
  8
AM_4
100
AcDbLine
 10
57.95901494524846
 20
-40.6
 30
0.0
 11
57.95901494524846
 21
-31.22575354525075
 31
0.0
  0
ELLIPSE
  5
189
330
14C
100
AcDbEntity
  8
AM_4
100
AcDbEllipse
 10
50.96480790919824
 20
-28.79999999999993
 30
0.0
 11
-9.331808609502711E-16
 21
-5.079999999999934
 31
0.0
210
0.0
220
0.0
230
1.0
 40
0.7071067811865578
 41
3.498773979212368
 42
3.839252546222541
  0
ELLIPSE
  5
18A
330
14C
100
AcDbEntity
  8
AM_4
100
AcDbEllipse
 10
50.92888688471402
 20
-28.79999999999988
 30
0.0
 11
-9.331808609503101E-16
 21
-5.080000000000148
 31
0.0
210
0.0
220
0.0
230
1.0
 40
0.7071067811865575
 41
5.559374169789907
 42
5.959179432587006
  0
ELLIPSE
  5
18B
330
14C
100
AcDbEntity
  8
AM_4
100
AcDbEllipse
 10
50.9288868847138
 20
-28.79999999999998
 30
0.0
 11
-9.331808609502827E-16
 21
-5.079999999999998
 31
0.0
210
0.0
220
0.0
230
1.0
 40
0.7071067811865362
 41
4.447143260287831
 42
4.952320902178968
  0
ELLIPSE
  5
18C
330
14C
100
AcDbEntity
  8
AM_4
100
AcDbEllipse
 10
50.9288868847139
 20
-28.80000000000007
 30
0.0
 11
-9.331808609503010E-16
 21
-5.080000000000098
 31
0.0
210
0.0
220
0.0
230
1.0
 40
0.7071067811865476
 41
3.456889218513627
 42
3.874859331316073
  0
ELLIPSE
  5
18D
330
14C
100
AcDbEntity
  8
AM_4
100
AcDbEllipse
 10
50.96480790919802
 20
-28.8
 30
0.0
 11
-9.331808609502821E-16
 21
-5.079999999999995
 31
0.0
210
0.0
220
0.0
230
1.0
 40
0.7071067811865396
 41
5.583483206335358
 42
5.953691112531965
  0
ELLIPSE
  5
18E
330
14C
100
AcDbEntity
  8
AM_4
100
AcDbEllipse
 10
50.96480790924988
 20
-28.7999999999941
 30
0.0
 11
-9.331808609559958E-16
 21
-5.080000000031099
 31
0.0
210
0.0
220
0.0
230
1.0
 40
0.7071067811923745
 41
4.523507522525076
 42
4.920792701373813
  0
LINE
  5
18F
330
14C
100
AcDbEntity
  8
AM_4
100
AcDbLine
 10
57.21506616946228
 20
-25.90955316274276
 30
0.0
 11
57.21506616946228
 21
0.0000000000000027
 31
0.0
  0
LINE
  5
190
330
14C
100
AcDbEntity
  8
AM_4
100
AcDbLine
 10
57.21506616946228
 20
-40.6
 30
0.0
 11
57.21506616946228
 21
-31.69044683725723
 31
0.0
  0
LINE
  5
191
330
14C
100
AcDbEntity
  8
AM_4
100
AcDbLine
 10
66.7
 20
-40.6
 30
0.0
 11
-66.6999999999999
 21
-40.6
 31
0.0
  0
LINE
  5
192
330
14C
100
AcDbEntity
  8
AM_4
100
AcDbLine
 10
39.87095864462797
 20
-40.6
 30
0.0
 11
39.87095864462797
 21
-15.3
 31
0.0
  0
LINE
  5
193
330
14C
100
AcDbEntity
  8
AM_4
100
AcDbLine
 10
41.0506051515378
 20
-40.59999999999999
 30
0.0
 11
41.0506051515378
 21
-15.3
 31
0.0
  0
LINE
  5
194
330
14C
100
AcDbEntity
  8
AM_4
100
AcDbLine
 10
44.64270759996546
 20
-40.59999999999999
 30
0.0
 11
44.64270759996546
 21
0.0000000000000035
 31
0.0
  0
LINE
  5
195
330
14C
100
AcDbEntity
  8
AM_4
100
AcDbLine
 10
36.67816760458727
 20
-40.6
 30
0.0
 11
36.67816760458727
 21
-15.3
 31
0.0
  0
LINE
  5
196
330
14C
100
AcDbEntity
  8
AM_4
100
AcDbLine
 10
66.7
 20
-40.6
 30
0.0
 11
66.7
 21
0.0
 31
0.0
  0
LINE
  5
197
330
14C
100
AcDbEntity
  8
AM_4
100
AcDbLine
 10
-66.6999999999999
 20
0.0
 30
0.0
 11
-66.6999999999999
 21
-40.6
 31
0.0
  0
LINE
  5
198
330
14C
100
AcDbEntity
  8
AM_4
100
AcDbLine
 10
-30.82407510830676
 20
-15.3
 30
0.0
 11
-30.82407510830674
 21
-17.0
 31
0.0
  0
LINE
  5
199
330
14C
100
AcDbEntity
  8
AM_4
100
AcDbLine
 10
30.82407510830674
 20
-17.0
 30
0.0
 11
-30.82407510830674
 21
-17.0
 31
0.0
  0
LINE
  5
19A
330
14C
100
AcDbEntity
  8
AM_4
100
AcDbLine
 10
30.82407510830674
 20
-17.0
 30
0.0
 11
30.82407510830674
 21
-15.3
 31
0.0
  0
LINE
  5
19B
330
14C
100
AcDbEntity
  8
AM_4
100
AcDbLine
 10
-14.79374557963225
 20
-15.29999999999999
 30
0.0
 11
-56.3853045806555
 21
-15.3
 31
0.0
  0
LINE
  5
19C
330
14C
100
AcDbEntity
  8
AM_4
100
AcDbLine
 10
-56.3853045806555
 20
-15.3
 30
0.0
 11
-56.38530458065551
 21
0.0000000000000022
 31
0.0
  0
LINE
  5
19D
330
14C
100
AcDbEntity
  8
AM_4
100
AcDbLine
 10
66.7
 20
0.0
 30
0.0
 11
-66.6999999999999
 21
0.0
 31
0.0
  0
LINE
  5
19E
330
14C
100
AcDbEntity
  8
AM_4
100
AcDbLine
 10
42.31183436309097
 20
0.0000000000000035
 30
0.0
 11
42.31183436309097
 21
-15.3
 31
0.0
  0
LINE
  5
19F
330
14C
100
AcDbEntity
  8
AM_4
100
AcDbLine
 10
42.31183436309097
 20
-15.3
 30
0.0
 11
14.79374557963224
 21
-15.29999999999999
 31
0.0
  0
LINE
  5
1A0
330
14C
100
AcDbEntity
  8
AM_4
100
AcDbLine
 10
16.41624243694136
 20
-15.3
 30
0.0
 11
16.41624243694136
 21
-16.99999999999999
 31
0.0
  0
LINE
  5
1A1
330
14C
100
AcDbEntity
  8
AM_4
100
AcDbLine
 10
14.79374557963224
 20
-15.29999999999999
 30
0.0
 11
14.79374557963226
 21
0.0000000000000062
 31
0.0
  0
LINE
  5
1A2
330
14C
100
AcDbEntity
  8
AM_4
100
AcDbLine
 10
-14.79374557963225
 20
-15.29999999999999
 30
0.0
 11
-14.79374557963225
 21
0.0000000000000062
 31
0.0
  0
LINE
  5
1A3
330
14C
100
AcDbEntity
  8
AM_4
100
AcDbLine
 10
-16.41624243694137
 20
-15.3
 30
0.0
 11
-16.41624243694137
 21
-16.99999999999999
 31
0.0
  0
ENDBLK
  5
14F
330
14C
100
AcDbEntity
  8
0
100
AcDbBlockEnd
  0
ENDSEC
  0
SECTION
  2
ENTITIES
  0
INSERT
  5
6F
330
1F
100
AcDbEntity
  8
0
100
AcDbBlockReference
  2
1_056862_4
 10
0.0
 20
0.0
 30
0.0
  0
POINT
  5
1A5
330
1F
100
AcDbEntity
  8
ConnectionPoints
100
AcDbPoint
 10
0.0
 20
-23.9
 30
0.0000000000000015
  0
POINT
  5
1A6
330
1F
100
AcDbEntity
  8
ConnectionPoints
100
AcDbPoint
 10
0.0
 20
-67.3
 30
0.0000000000000041
  0
POINT
  5
1A7
330
1F
100
AcDbEntity
  8
ConnectionPoints
100
AcDbPoint
 10
50.96480790919815
 20
-28.79999999999999
 30
50.96480790919814
  0
POINT
  5
1A8
330
1F
100
AcDbEntity
  8
ConnectionPoints
100
AcDbPoint
 10
47.16402230514272
 20
-28.79999999999999
 30
47.16402230514272
  0
POINT
  5
1A9
330
1F
100
AcDbEntity
  8
ConnectionPoints
100
AcDbPoint
 10
0.0
 20
-67.3
 30
0.0000000000000041
  0
POINT
  5
1AA
330
1F
100
AcDbEntity
  8
ConnectionPoints
100
AcDbPoint
 10
0.0
 20
0.0
 30
0.0
  0
ENDSEC
  0
SECTION
  2
OBJECTS
  0
DICTIONARY
  5
C
330
0
100
AcDbDictionary
281
     1
  3
ACAD_DETAILVIEWSTYLE
350
1B2
  3
ACAD_GROUP
350
D
  3
ACAD_LAYOUT
350
1A
  3
ACAD_MATERIAL
350
43
  3
ACAD_MLEADERSTYLE
350
6B
  3
ACAD_MLINESTYLE
350
17
  3
ACAD_PLOTSETTINGS
350
19
  3
ACAD_PLOTSTYLENAME
350
E
  3
ACAD_SCALELIST
350
47
  3
ACAD_SECTIONVIEWSTYLE
350
1B3
  3
ACAD_TABLESTYLE
350
69
  3
ACAD_VISUALSTYLE
350
2A
  3
ACDB_RECOMPOSE_DATA
350
1AF
  3
AcDbVariableDictionary
350
1AB
  0
SUN
  5
6D
330
29
100
AcDbSun
 90
        1
290
     0
 63
     7
421
 16777215
 40
1.0
291
     1
 91
  2455826
 92
 54000000
292
     0
 70
     2
 71
   256
280
     1
  0
DICTIONARY
  5
1B2
102
{ACAD_REACTORS
330
C
102
}
330
C
100
AcDbDictionary
281
     1
  0
DICTIONARY
  5
D
102
{ACAD_REACTORS
330
C
102
}
330
C
100
AcDbDictionary
281
     1
  0
DICTIONARY
  5
1A
102
{ACAD_REACTORS
330
C
102
}
330
C
100
AcDbDictionary
281
     1
  3
Layout1
350
1E
  3
Layout2
350
26
  3
Model
350
22
  0
DICTIONARY
  5
43
102
{ACAD_REACTORS
330
C
102
}
330
C
100
AcDbDictionary
281
     1
  3
ByBlock
350
45
  3
ByLayer
350
44
  3
Global
350
46
  0
DICTIONARY
  5
6B
102
{ACAD_REACTORS
330
C
102
}
330
C
100
AcDbDictionary
281
     1
  3
Standard
350
6C
  0
DICTIONARY
  5
17
102
{ACAD_REACTORS
330
C
102
}
330
C
100
AcDbDictionary
281
     1
  3
Standard
350
18
  0
DICTIONARY
  5
19
102
{ACAD_REACTORS
330
C
102
}
330
C
100
AcDbDictionary
281
     1
  0
ACDBDICTIONARYWDFLT
  5
E
102
{ACAD_REACTORS
330
C
102
}
330
C
100
AcDbDictionary
281
     1
  3
Normal
350
F
100
AcDbDictionaryWithDefault
340
F
  0
DICTIONARY
  5
47
102
{ACAD_REACTORS
330
C
102
}
330
C
100
AcDbDictionary
281
     1
  3
A0
350
48
  3
A1
350
49
  3
A2
350
4A
  3
A3
350
4B
  3
A4
350
4C
  3
A5
350
4D
  3
A6
350
4E
  3
A7
350
4F
  3
A8
350
50
  3
A9
350
51
  3
B0
350
52
  3
B1
350
53
  3
B2
350
54
  3
B3
350
55
  3
B4
350
56
  3
B5
350
57
  3
B6
350
58
  3
B7
350
59
  3
B8
350
5A
  3
B9
350
5B
  3
C0
350
5C
  3
C1
350
5D
  3
C2
350
5E
  3
C3
350
5F
  3
C4
350
60
  3
C5
350
61
  3
C6
350
62
  3
C7
350
63
  3
C8
350
64
  3
C9
350
65
  3
D0
350
66
  3
D1
350
67
  3
D2
350
68
  0
DICTIONARY
  5
1B3
102
{ACAD_REACTORS
330
C
102
}
330
C
100
AcDbDictionary
281
     1
  0
DICTIONARY
  5
69
102
{ACAD_REACTORS
330
C
102
}
330
C
100
AcDbDictionary
281
     1
  3
Standard
350
6A
  0
DICTIONARY
  5
2A
102
{ACAD_REACTORS
330
C
102
}
330
C
100
AcDbDictionary
281
     1
  3
2dWireframe
350
2F
  3
Basic
350
32
  3
Brighten
350
36
  3
ColorChange
350
3A
  3
Conceptual
350
34
  3
Dim
350
35
  3
EdgeColorOff
350
3D
  3
Facepattern
350
39
  3
Flat
350
2B
  3
FlatWithEdges
350
2C
  3
Gouraud
350
2D
  3
GouraudWithEdges
350
2E
  3
Hidden
350
31
  3
JitterOff
350
3B
  3
Linepattern
350
38
  3
OverhangOff
350
3C
  3
Realistic
350
33
  3
Shaded
350
42
  3
Shaded with edges
350
41
  3
Shades of Gray
350
3E
  3
Sketchy
350
3F
  3
Thicken
350
37
  3
Wireframe
350
30
  3
X-Ray
350
40
  0
XRECORD
  5
1AF
102
{ACAD_REACTORS
330
C
102
}
330
C
100
AcDbXrecord
280
     1
 90
        1
330
6A
  0
DICTIONARY
  5
1AB
102
{ACAD_REACTORS
330
C
102
}
330
C
100
AcDbDictionary
281
     1
  3
CANNOSCALE
350
1AC
  3
CMLEADERSTYLE
350
1B1
  3
CTABLESTYLE
350
1B0
  0
LAYOUT
  5
1E
102
{ACAD_REACTORS
330
1A
102
}
330
1A
100
AcDbPlotSettings
  1

  2
none_device
  4

  6

 40
0.0
 41
0.0
 42
0.0
 43
0.0
 44
0.0
 45
0.0
 46
0.0
 47
0.0
 48
0.0
 49
0.0
140
0.0
141
0.0
142
1.0
143
1.0
 70
   688
 72
     1
 73
     0
 74
     5
  7

 75
    16
 76
     0
 77
     2
 78
   300
147
1.0
148
0.0
149
0.0
100
AcDbLayout
  1
Layout1
 70
     1
 71
     1
 10
0.0
 20
0.0
 11
420.0
 21
297.0
 12
0.0
 22
0.0
 32
0.0
 14
1.000000000000000E+20
 24
1.000000000000000E+20
 34
1.000000000000000E+20
 15
-1.000000000000000E+20
 25
-1.000000000000000E+20
 35
-1.000000000000000E+20
146
0.0
 13
0.0
 23
0.0
 33
0.0
 16
1.0
 26
0.0
 36
0.0
 17
0.0
 27
1.0
 37
0.0
 76
     0
330
1B
  0
LAYOUT
  5
26
102
{ACAD_REACTORS
330
1A
102
}
330
1A
100
AcDbPlotSettings
  1

  2
none_device
  4

  6

 40
0.0
 41
0.0
 42
0.0
 43
0.0
 44
0.0
 45
0.0
 46
0.0
 47
0.0
 48
0.0
 49
0.0
140
0.0
141
0.0
142
1.0
143
1.0
 70
   688
 72
     1
 73
     0
 74
     5
  7

 75
    16
 76
     0
 77
     2
 78
   300
147
1.0
148
0.0
149
0.0
100
AcDbLayout
  1
Layout2
 70
     1
 71
     2
 10
0.0
 20
0.0
 11
0.0
 21
0.0
 12
0.0
 22
0.0
 32
0.0
 14
0.0
 24
0.0
 34
0.0
 15
0.0
 25
0.0
 35
0.0
146
0.0
 13
0.0
 23
0.0
 33
0.0
 16
1.0
 26
0.0
 36
0.0
 17
0.0
 27
1.0
 37
0.0
 76
     0
330
23
  0
LAYOUT
  5
22
102
{ACAD_REACTORS
330
1A
102
}
330
1A
100
AcDbPlotSettings
  1

  2
none_device
  4
Letter_(8.50_x_11.00_Inches)
  6

 40
6.35
 41
6.35
 42
6.35000508
 43
6.35000508
 44
215.9
 45
279.4
 46
0.0
 47
0.0
 48
0.0
 49
0.0
140
0.0
141
0.0
142
1.0
143
1.0
 70
  1712
 72
     1
 73
     0
 74
     0
  7

 75
     0
 76
     0
 77
     2
 78
   300
147
1.0
148
0.0
149
0.0
100
AcDbLayout
  1
Model
 70
     1
 71
     0
 10
0.0
 20
0.0
 11
420.0
 21
297.0
 12
0.0
 22
0.0
 32
0.0
 14
1.000000000000000E+20
 24
1.000000000000000E+20
 34
1.000000000000000E+20
 15
-1.000000000000000E+20
 25
-1.000000000000000E+20
 35
-1.000000000000000E+20
146
0.0
 13
0.0
 23
0.0
 33
0.0
 16
1.0
 26
0.0
 36
0.0
 17
0.0
 27
1.0
 37
0.0
 76
     0
330
1F
331
29
  0
MATERIAL
  5
45
102
{ACAD_REACTORS
330
43
102
}
330
43
100
AcDbMaterial
  1
ByBlock
 72
     1
 94
      127
  0
MATERIAL
  5
44
102
{ACAD_REACTORS
330
43
102
}
330
43
100
AcDbMaterial
  1
ByLayer
 72
     1
 94
      127
  0
MATERIAL
  5
46
102
{ACAD_REACTORS
330
43
102
}
330
43
100
AcDbMaterial
  1
Global
 72
     1
 94
      127
  0
MLEADERSTYLE
  5
6C
102
{ACAD_REACTORS
330
6B
102
}
330
6B
100
AcDbMLeaderStyle
179
     2
170
     2
171
     1
172
     0
 90
        2
 40
0.0
 41
0.0
173
     1
 91
-1056964608
340
14
 92
       -2
290
     1
 42
2.0
291
     1
 43
8.0
  3
Standard
341
0
 44
4.0
300

342
11
174
     1
178
     6
175
     1
176
     0
 93
-1056964608
 45
4.0
292
     0
297
     0
 46
4.0
343
0
 94
-1056964608
 47
1.0
 49
1.0
140
1.0
293
     1
141
0.0
294
     1
177
     0
142
1.0
295
     0
296
     0
143
3.75
271
     0
272
     9
273
     9
298
     0
  0
MLINESTYLE
  5
18
102
{ACAD_REACTORS
330
17
102
}
330
17
100
AcDbMlineStyle
  2
Standard
 70
     0
  3

 62
   256
 51
90.0
 52
90.0
 71
     2
 49
0.5
 62
   256
  6
BYLAYER
 49
-0.5
 62
   256
  6
BYLAYER
  0
ACDBPLACEHOLDER
  5
F
102
{ACAD_REACTORS
330
E
102
}
330
E
  0
SCALE
  5
48
102
{ACAD_REACTORS
330
47
102
}
330
47
100
AcDbScale
 70
     0
300
1:1
140
1.0
141
1.0
290
     1
  0
SCALE
  5
49
102
{ACAD_REACTORS
330
47
102
}
330
47
100
AcDbScale
 70
     0
300
1:2
140
1.0
141
2.0
290
     0
  0
SCALE
  5
4A
102
{ACAD_REACTORS
330
47
102
}
330
47
100
AcDbScale
 70
     0
300
1:4
140
1.0
141
4.0
290
     0
  0
SCALE
  5
4B
102
{ACAD_REACTORS
330
47
102
}
330
47
100
AcDbScale
 70
     0
300
1:5
140
1.0
141
5.0
290
     0
  0
SCALE
  5
4C
102
{ACAD_REACTORS
330
47
102
}
330
47
100
AcDbScale
 70
     0
300
1:8
140
1.0
141
8.0
290
     0
  0
SCALE
  5
4D
102
{ACAD_REACTORS
330
47
102
}
330
47
100
AcDbScale
 70
     0
300
1:10
140
1.0
141
10.0
290
     0
  0
SCALE
  5
4E
102
{ACAD_REACTORS
330
47
102
}
330
47
100
AcDbScale
 70
     0
300
1:16
140
1.0
141
16.0
290
     0
  0
SCALE
  5
4F
102
{ACAD_REACTORS
330
47
102
}
330
47
100
AcDbScale
 70
     0
300
1:20
140
1.0
141
20.0
290
     0
  0
SCALE
  5
50
102
{ACAD_REACTORS
330
47
102
}
330
47
100
AcDbScale
 70
     0
300
1:30
140
1.0
141
30.0
290
     0
  0
SCALE
  5
51
102
{ACAD_REACTORS
330
47
102
}
330
47
100
AcDbScale
 70
     0
300
1:40
140
1.0
141
40.0
290
     0
  0
SCALE
  5
52
102
{ACAD_REACTORS
330
47
102
}
330
47
100
AcDbScale
 70
     0
300
1:50
140
1.0
141
50.0
290
     0
  0
SCALE
  5
53
102
{ACAD_REACTORS
330
47
102
}
330
47
100
AcDbScale
 70
     0
300
1:100
140
1.0
141
100.0
290
     0
  0
SCALE
  5
54
102
{ACAD_REACTORS
330
47
102
}
330
47
100
AcDbScale
 70
     0
300
2:1
140
2.0
141
1.0
290
     0
  0
SCALE
  5
55
102
{ACAD_REACTORS
330
47
102
}
330
47
100
AcDbScale
 70
     0
300
4:1
140
4.0
141
1.0
290
     0
  0
SCALE
  5
56
102
{ACAD_REACTORS
330
47
102
}
330
47
100
AcDbScale
 70
     0
300
8:1
140
8.0
141
1.0
290
     0
  0
SCALE
  5
57
102
{ACAD_REACTORS
330
47
102
}
330
47
100
AcDbScale
 70
     0
300
10:1
140
10.0
141
1.0
290
     0
  0
SCALE
  5
58
102
{ACAD_REACTORS
330
47
102
}
330
47
100
AcDbScale
 70
     0
300
100:1
140
100.0
141
1.0
290
     0
  0
SCALE
  5
59
102
{ACAD_REACTORS
330
47
102
}
330
47
100
AcDbScale
 70
     0
300
1/128" = 1'-0"
140
0.0078125
141
12.0
290
     0
  0
SCALE
  5
5A
102
{ACAD_REACTORS
330
47
102
}
330
47
100
AcDbScale
 70
     0
300
1/64" = 1'-0"
140
0.015625
141
12.0
290
     0
  0
SCALE
  5
5B
102
{ACAD_REACTORS
330
47
102
}
330
47
100
AcDbScale
 70
     0
300
1/32" = 1'-0"
140
0.03125
141
12.0
290
     0
  0
SCALE
  5
5C
102
{ACAD_REACTORS
330
47
102
}
330
47
100
AcDbScale
 70
     0
300
1/16" = 1'-0"
140
0.0625
141
12.0
290
     0
  0
SCALE
  5
5D
102
{ACAD_REACTORS
330
47
102
}
330
47
100
AcDbScale
 70
     0
300
3/32" = 1'-0"
140
0.09375
141
12.0
290
     0
  0
SCALE
  5
5E
102
{ACAD_REACTORS
330
47
102
}
330
47
100
AcDbScale
 70
     0
300
1/8" = 1'-0"
140
0.125
141
12.0
290
     0
  0
SCALE
  5
5F
102
{ACAD_REACTORS
330
47
102
}
330
47
100
AcDbScale
 70
     0
300
3/16" = 1'-0"
140
0.1875
141
12.0
290
     0
  0
SCALE
  5
60
102
{ACAD_REACTORS
330
47
102
}
330
47
100
AcDbScale
 70
     0
300
1/4" = 1'-0"
140
0.25
141
12.0
290
     0
  0
SCALE
  5
61
102
{ACAD_REACTORS
330
47
102
}
330
47
100
AcDbScale
 70
     0
300
3/8" = 1'-0"
140
0.375
141
12.0
290
     0
  0
SCALE
  5
62
102
{ACAD_REACTORS
330
47
102
}
330
47
100
AcDbScale
 70
     0
300
1/2" = 1'-0"
140
0.5
141
12.0
290
     0
  0
SCALE
  5
63
102
{ACAD_REACTORS
330
47
102
}
330
47
100
AcDbScale
 70
     0
300
3/4" = 1'-0"
140
0.75
141
12.0
290
     0
  0
SCALE
  5
64
102
{ACAD_REACTORS
330
47
102
}
330
47
100
AcDbScale
 70
     0
300
1" = 1'-0"
140
1.0
141
12.0
290
     0
  0
SCALE
  5
65
102
{ACAD_REACTORS
330
47
102
}
330
47
100
AcDbScale
 70
     0
300
1-1/2" = 1'-0"
140
1.5
141
12.0
290
     0
  0
SCALE
  5
66
102
{ACAD_REACTORS
330
47
102
}
330
47
100
AcDbScale
 70
     0
300
3" = 1'-0"
140
3.0
141
12.0
290
     0
  0
SCALE
  5
67
102
{ACAD_REACTORS
330
47
102
}
330
47
100
AcDbScale
 70
     0
300
6" = 1'-0"
140
6.0
141
12.0
290
     0
  0
SCALE
  5
68
102
{ACAD_REACTORS
330
47
102
}
330
47
100
AcDbScale
 70
     0
300
1'-0" = 1'-0"
140
12.0
141
12.0
290
     0
  0
TABLESTYLE
  5
6A
102
{ACAD_REACTORS
330
69
102
}
102
{ACAD_XDICTIONARY
360
1AD
102
}
330
69
100
AcDbTableStyle
  3
Standard
 70
     0
 71
     0
 40
0.06
 41
0.06
280
     0
281
     0
  7
Standard
140
4.5
170
     2
 62
     0
 63
   257
283
     0
 90
        4
 91
        0
  1

274
    -2
284
     1
 64
     0
275
    -2
285
     1
 65
     0
276
    -2
286
     1
 66
     0
277
    -2
287
     1
 67
     0
278
    -2
288
     1
 68
     0
279
    -2
289
     1
 69
     0
  7
Standard
140
6.0
170
     5
 62
     0
 63
   257
283
     0
 90
        4
 91
        0
  1

274
    -2
284
     1
 64
     0
275
    -2
285
     1
 65
     0
276
    -2
286
     1
 66
     0
277
    -2
287
     1
 67
     0
278
    -2
288
     1
 68
     0
279
    -2
289
     1
 69
     0
  7
Standard
140
4.5
170
     5
 62
     0
 63
   257
283
     0
 90
        4
 91
        0
  1

274
    -2
284
     1
 64
     0
275
    -2
285
     1
 65
     0
276
    -2
286
     1
 66
     0
277
    -2
287
     1
 67
     0
278
    -2
288
     1
 68
     0
279
    -2
289
     1
 69
     0
  0
VISUALSTYLE
  5
2F
102
{ACAD_REACTORS
330
2A
102
}
330
2A
100
AcDbVisualStyle
  2
2dWireframe
 70
     4
177
     3
291
     0
 70
    58
 90
        0
176
     1
 90
        2
176
     1
 90
        0
176
     1
 90
        0
176
     1
 40
0.6
176
     1
 40
30.0
176
     1
 62
     7
420
 16777215
176
     1
 90
        1
176
     1
 90
        4
176
     1
 62
     7
176
     1
 62
   257
176
     1
 90
        1
176
     1
 90
        1
176
     1
 40
1.0
176
     1
 90
        0
176
     1
 62
   257
176
     1
 40
1.0
176
     1
 90
        1
176
     1
 90
        6
176
     1
 90
        2
176
     1
 62
     7
176
     1
 90
        5
176
     1
 90
        0
176
     1
 90
        0
176
     1
290
     0
176
     1
 90
        1
176
     1
 40
0.0
176
     1
 90
        0
176
     1
290
     1
176
     1
290
     1
176
     1
290
     0
176
     1
290
     0
176
     1
290
     0
176
     1
290
     0
176
     1
290
     0
176
     1
290
     0
176
     1
290
     0
176
     1
 90
       50
176
     1
 40
0.0
176
     1
 40
1.0
176
     1
 90
        0
176
     1
 62
    18
420
        0
176
     1
 90
       50
176
     1
 90
        3
176
     1
 62
     5
420
      255
176
     1
290
     0
176
     1
 90
       50
176
     1
 90
       50
176
     1
 90
       50
176
     1
290
     0
176
     1
 90
       50
176
     1
 62
   256
176
     0
 40
1.0
176
     0
 90
        2
176
     1
  1
strokes_ogs.tif
176
     1
290
     0
176
     1
 40
1.0
176
     1
 40
1.0
176
     1
  0
VISUALSTYLE
  5
32
102
{ACAD_REACTORS
330
2A
102
}
330
2A
100
AcDbVisualStyle
  2
Basic
 70
     7
177
     3
291
     1
 70
    58
 90
        1
176
     1
 90
        0
176
     1
 90
        1
176
     1
 90
        0
176
     1
 40
0.6
176
     1
 40
30.0
176
     1
 62
     7
420
 16777215
176
     1
 90
        0
176
     1
 90
        4
176
     1
 62
     7
176
     1
 62
   257
176
     1
 90
        1
176
     1
 90
        1
176
     1
 40
1.0
176
     1
 90
        8
176
     1
 62
     7
176
     1
 40
1.0
176
     1
 90
        1
176
     1
 90
        6
176
     1
 90
        2
176
     1
 62
     7
176
     1
 90
        5
176
     1
 90
        0
176
     1
 90
        0
176
     1
290
     0
176
     1
 90
        1
176
     1
 40
0.0
176
     1
 90
        0
176
     1
290
     0
176
     1
290
     1
176
     1
290
     1
176
     1
290
     0
176
     1
290
     0
176
     1
290
     0
176
     1
290
     0
176
     1
290
     0
176
     1
290
     0
176
     1
 90
       50
176
     1
 40
0.0
176
     1
 40
1.0
176
     1
 90
        0
176
     1
 62
    18
420
        0
176
     1
 90
       50
176
     1
 90
        3
176
     1
 62
     5
420
      255
176
     1
290
     0
176
     1
 90
       50
176
     1
 90
       50
176
     1
 90
       50
176
     1
290
     0
176
     1
 90
       50
176
     1
 62
   256
176
     0
 40
1.0
176
     0
 90
        2
176
     1
  1
strokes_ogs.tif
176
     1
290
     0
176
     1
 40
1.0
176
     1
 40
1.0
176
     1
  0
VISUALSTYLE
  5
36
102
{ACAD_REACTORS
330
2A
102
}
330
2A
100
AcDbVisualStyle
  2
Brighten
 70
    12
177
     3
291
     1
 70
    58
 90
        2
176
     1
 90
        2
176
     1
 90
        0
176
     1
 90
        0
176
     1
 40
0.6
176
     1
 40
30.0
176
     1
 62
     7
420
 16777215
176
     1
 90
        1
176
     1
 90
        4
176
     1
 62
     7
176
     1
 62
   257
176
     1
 90
        1
176
     1
 90
        1
176
     1
 40
1.0
176
     1
 90
        8
176
     1
 62
     7
176
     1
 40
1.0
176
     1
 90
        1
176
     1
 90
        6
176
     1
 90
        2
176
     1
 62
     7
176
     1
 90
        5
176
     1
 90
        0
176
     1
 90
        0
176
     1
290
     0
176
     1
 90
        1
176
     1
 40
50.0
176
     1
 90
        0
176
     1
290
     0
176
     1
290
     1
176
     1
290
     1
176
     1
290
     0
176
     1
290
     0
176
     1
290
     0
176
     1
290
     0
176
     1
290
     0
176
     1
290
     0
176
     1
 90
       50
176
     1
 40
0.0
176
     1
 40
1.0
176
     1
 90
        0
176
     1
 62
    18
420
        0
176
     1
 90
       50
176
     1
 90
        3
176
     1
 62
     5
420
      255
176
     1
290
     0
176
     1
 90
       50
176
     1
 90
       50
176
     1
 90
       50
176
     1
290
     0
176
     1
 90
       50
176
     1
 62
   256
176
     0
 40
1.0
176
     0
 90
        2
176
     1
  1
strokes_ogs.tif
176
     1
290
     0
176
     1
 40
1.0
176
     1
 40
1.0
176
     1
  0
VISUALSTYLE
  5
3A
102
{ACAD_REACTORS
330
2A
102
}
330
2A
100
AcDbVisualStyle
  2
ColorChange
 70
    16
177
     3
291
     1
 70
    58
 90
        2
176
     1
 90
        2
176
     1
 90
        3
176
     1
 90
        0
176
     1
 40
0.6
176
     1
 40
30.0
176
     1
 62
     8
420
  8421504
176
     1
 90
        1
176
     1
 90
        4
176
     1
 62
     7
176
     1
 62
   257
176
     1
 90
        1
176
     1
 90
        1
176
     1
 40
1.0
176
     1
 90
        8
176
     1
 62
     8
420
  8421504
176
     1
 40
1.0
176
     1
 90
        1
176
     1
 90
        6
176
     1
 90
        2
176
     1
 62
     7
176
     1
 90
        5
176
     1
 90
        0
176
     1
 90
        0
176
     1
290
     0
176
     1
 90
        1
176
     1
 40
0.0
176
     1
 90
        0
176
     1
290
     0
176
     1
290
     1
176
     1
290
     1
176
     1
290
     0
176
     1
290
     0
176
     1
290
     0
176
     1
290
     0
176
     1
290
     0
176
     1
290
     0
176
     1
 90
       50
176
     1
 40
0.0
176
     1
 40
1.0
176
     1
 90
        0
176
     1
 62
    18
420
        0
176
     1
 90
       50
176
     1
 90
        3
176
     1
 62
     5
420
      255
176
     1
290
     0
176
     1
 90
       50
176
     1
 90
       50
176
     1
 90
       50
176
     1
290
     0
176
     1
 90
       50
176
     1
 62
   256
176
     0
 40
1.0
176
     0
 90
        2
176
     1
  1
strokes_ogs.tif
176
     1
290
     0
176
     1
 40
1.0
176
     1
 40
1.0
176
     1
  0
VISUALSTYLE
  5
34
102
{ACAD_REACTORS
330
2A
102
}
330
2A
100
AcDbVisualStyle
  2
Conceptual
 70
     9
177
     3
291
     0
 70
    58
 90
        3
176
     1
 90
        2
176
     1
 90
        0
176
     1
 90
        0
176
     1
 40
0.6
176
     1
 40
30.0
176
     1
 62
     7
420
 16777215
176
     1
 90
        2
176
     1
 90
        2
176
     1
 62
     7
176
     1
 62
   257
176
     1
 90
        1
176
     1
 90
        1
176
     1
 40
179.0
176
     1
 90
        8
176
     1
 62
     7
176
     1
 40
1.0
176
     1
 90
        1
176
     1
 90
        6
176
     1
 90
        2
176
     1
 62
     7
176
     1
 90
        3
176
     1
 90
        0
176
     1
 90
        0
176
     1
290
     0
176
     1
 90
        1
176
     1
 40
0.0
176
     1
 90
        0
176
     1
290
     0
176
     1
290
     1
176
     1
290
     1
176
     1
290
     0
176
     1
290
     0
176
     1
290
     0
176
     1
290
     0
176
     1
290
     0
176
     1
290
     0
176
     1
 90
       50
176
     1
 40
0.0
176
     1
 40
1.0
176
     1
 90
        0
176
     1
 62
    18
420
        0
176
     1
 90
       50
176
     1
 90
        3
176
     1
 62
     5
420
      255
176
     1
290
     0
176
     1
 90
       50
176
     1
 90
       50
176
     1
 90
       50
176
     1
290
     0
176
     1
 90
       50
176
     1
 62
   256
176
     0
 40
1.0
176
     0
 90
        2
176
     1
  1
strokes_ogs.tif
176
     1
290
     0
176
     1
 40
1.0
176
     1
 40
1.0
176
     1
  0
VISUALSTYLE
  5
35
102
{ACAD_REACTORS
330
2A
102
}
330
2A
100
AcDbVisualStyle
  2
Dim
 70
    11
177
     3
291
     1
 70
    58
 90
        2
176
     1
 90
        2
176
     1
 90
        0
176
     1
 90
        0
176
     1
 40
0.6
176
     1
 40
30.0
176
     1
 62
     7
420
 16777215
176
     1
 90
        1
176
     1
 90
        4
176
     1
 62
     7
176
     1
 62
   257
176
     1
 90
        1
176
     1
 90
        1
176
     1
 40
1.0
176
     1
 90
        8
176
     1
 62
     7
176
     1
 40
1.0
176
     1
 90
        1
176
     1
 90
        6
176
     1
 90
        2
176
     1
 62
     7
176
     1
 90
        5
176
     1
 90
        0
176
     1
 90
        0
176
     1
290
     0
176
     1
 90
        1
176
     1
 40
-50.0
176
     1
 90
        0
176
     1
290
     0
176
     1
290
     1
176
     1
290
     1
176
     1
290
     0
176
     1
290
     0
176
     1
290
     0
176
     1
290
     0
176
     1
290
     0
176
     1
290
     0
176
     1
 90
       50
176
     1
 40
0.0
176
     1
 40
1.0
176
     1
 90
        0
176
     1
 62
    18
420
        0
176
     1
 90
       50
176
     1
 90
        3
176
     1
 62
     5
420
      255
176
     1
290
     0
176
     1
 90
       50
176
     1
 90
       50
176
     1
 90
       50
176
     1
290
     0
176
     1
 90
       50
176
     1
 62
   256
176
     0
 40
1.0
176
     0
 90
        2
176
     1
  1
strokes_ogs.tif
176
     1
290
     0
176
     1
 40
1.0
176
     1
 40
1.0
176
     1
  0
VISUALSTYLE
  5
3D
102
{ACAD_REACTORS
330
2A
102
}
330
2A
100
AcDbVisualStyle
  2
EdgeColorOff
 70
    22
177
     3
291
     1
 70
    58
 90
        2
176
     0
 90
        2
176
     0
 90
        0
176
     0
 90
        0
176
     0
 40
0.6
176
     0
 40
30.0
176
     0
 62
     7
420
 16777215
176
     0
 90
        1
176
     0
 90
        4
176
     0
 62
     7
176
     0
 62
   257
176
     0
 90
        1
176
     0
 90
        1
176
     0
 40
1.0
176
     0
 90
        8
176
     2
 62
     7
176
     0
 40
1.0
176
     0
 90
        1
176
     0
 90
        6
176
     0
 90
        2
176
     0
 62
     7
176
     0
 90
        5
176
     0
 90
        0
176
     0
 90
        0
176
     0
290
     0
176
     0
 90
        1
176
     0
 40
0.0
176
     0
 90
        0
176
     0
290
     0
176
     0
290
     1
176
     0
290
     1
176
     0
290
     0
176
     0
290
     0
176
     0
290
     0
176
     0
290
     0
176
     0
290
     0
176
     0
290
     0
176
     0
 90
       50
176
     0
 40
0.0
176
     0
 40
1.0
176
     0
 90
        0
176
     0
 62
    18
420
        0
176
     0
 90
       50
176
     0
 90
        3
176
     0
 62
     5
420
      255
176
     0
290
     0
176
     0
 90
       50
176
     0
 90
       50
176
     0
 90
       50
176
     0
290
     0
176
     0
 90
       50
176
     0
 62
   256
176
     0
 40
1.0
176
     0
 90
        2
176
     0
  1
strokes_ogs.tif
176
     0
290
     0
176
     0
 40
1.0
176
     0
 40
1.0
176
     0
  0
VISUALSTYLE
  5
39
102
{ACAD_REACTORS
330
2A
102
}
330
2A
100
AcDbVisualStyle
  2
Facepattern
 70
    15
177
     3
291
     1
 70
    58
 90
        2
176
     1
 90
        2
176
     1
 90
        0
176
     1
 90
        0
176
     1
 40
0.6
176
     1
 40
30.0
176
     1
 62
     7
420
 16777215
176
     1
 90
        1
176
     1
 90
        4
176
     1
 62
     7
176
     1
 62
   257
176
     1
 90
        1
176
     1
 90
        1
176
     1
 40
1.0
176
     1
 90
        8
176
     1
 62
     7
176
     1
 40
1.0
176
     1
 90
        1
176
     1
 90
        6
176
     1
 90
        2
176
     1
 62
     7
176
     1
 90
        5
176
     1
 90
        0
176
     1
 90
        0
176
     1
290
     0
176
     1
 90
        1
176
     1
 40
0.0
176
     1
 90
        0
176
     1
290
     0
176
     1
290
     1
176
     1
290
     1
176
     1
290
     0
176
     1
290
     0
176
     1
290
     0
176
     1
290
     0
176
     1
290
     0
176
     1
290
     0
176
     1
 90
       50
176
     1
 40
0.0
176
     1
 40
1.0
176
     1
 90
        0
176
     1
 62
    18
420
        0
176
     1
 90
       50
176
     1
 90
        3
176
     1
 62
     5
420
      255
176
     1
290
     0
176
     1
 90
       50
176
     1
 90
       50
176
     1
 90
       50
176
     1
290
     0
176
     1
 90
       50
176
     1
 62
   256
176
     0
 40
1.0
176
     0
 90
        2
176
     1
  1
strokes_ogs.tif
176
     1
290
     0
176
     1
 40
1.0
176
     1
 40
1.0
176
     1
  0
VISUALSTYLE
  5
2B
102
{ACAD_REACTORS
330
2A
102
}
330
2A
100
AcDbVisualStyle
  2
Flat
 70
     0
177
     3
291
     1
 70
    58
 90
        2
176
     1
 90
        1
176
     1
 90
        1
176
     1
 90
        2
176
     1
 40
0.6
176
     1
 40
30.0
176
     1
 62
     7
420
 16777215
176
     1
 90
        0
176
     1
 90
        0
176
     1
 62
     7
176
     1
 62
   257
176
     1
 90
        1
176
     1
 90
        1
176
     1
 40
1.0
176
     1
 90
        8
176
     1
 62
     7
176
     1
 40
1.0
176
     1
 90
        1
176
     1
 90
        6
176
     1
 90
        2
176
     1
 62
     7
176
     1
 90
        5
176
     1
 90
        0
176
     1
 90
        0
176
     1
290
     0
176
     1
 90
       13
176
     1
 40
0.0
176
     1
 90
        0
176
     1
290
     0
176
     1
290
     1
176
     1
290
     1
176
     1
290
     0
176
     1
290
     0
176
     1
290
     0
176
     1
290
     0
176
     1
290
     0
176
     1
290
     0
176
     1
 90
       50
176
     1
 40
0.0
176
     1
 40
1.0
176
     1
 90
        0
176
     1
 62
    18
420
        0
176
     1
 90
       50
176
     1
 90
        3
176
     1
 62
     5
420
      255
176
     1
290
     0
176
     1
 90
       50
176
     1
 90
       50
176
     1
 90
       50
176
     1
290
     0
176
     1
 90
       50
176
     1
 62
   256
176
     0
 40
1.0
176
     0
 90
        2
176
     1
  1
strokes_ogs.tif
176
     1
290
     0
176
     1
 40
1.0
176
     1
 40
1.0
176
     1
  0
VISUALSTYLE
  5
2C
102
{ACAD_REACTORS
330
2A
102
}
330
2A
100
AcDbVisualStyle
  2
FlatWithEdges
 70
     1
177
     3
291
     1
 70
    58
 90
        2
176
     1
 90
        1
176
     1
 90
        1
176
     1
 90
        2
176
     1
 40
0.6
176
     1
 40
30.0
176
     1
 62
     7
420
 16777215
176
     1
 90
        1
176
     1
 90
        0
176
     1
 62
     7
176
     1
 62
   257
176
     1
 90
        1
176
     1
 90
        1
176
     1
 40
1.0
176
     1
 90
        0
176
     1
 62
   257
176
     1
 40
1.0
176
     1
 90
        1
176
     1
 90
        6
176
     1
 90
        2
176
     1
 62
     7
176
     1
 90
        5
176
     1
 90
        0
176
     1
 90
        0
176
     1
290
     0
176
     1
 90
       13
176
     1
 40
0.0
176
     1
 90
        0
176
     1
290
     0
176
     1
290
     1
176
     1
290
     1
176
     1
290
     0
176
     1
290
     0
176
     1
290
     0
176
     1
290
     0
176
     1
290
     0
176
     1
290
     0
176
     1
 90
       50
176
     1
 40
0.0
176
     1
 40
1.0
176
     1
 90
        0
176
     1
 62
    18
420
        0
176
     1
 90
       50
176
     1
 90
        3
176
     1
 62
     5
420
      255
176
     1
290
     0
176
     1
 90
       50
176
     1
 90
       50
176
     1
 90
       50
176
     1
290
     0
176
     1
 90
       50
176
     1
 62
   256
176
     0
 40
1.0
176
     0
 90
        2
176
     1
  1
strokes_ogs.tif
176
     1
290
     0
176
     1
 40
1.0
176
     1
 40
1.0
176
     1
  0
VISUALSTYLE
  5
2D
102
{ACAD_REACTORS
330
2A
102
}
330
2A
100
AcDbVisualStyle
  2
Gouraud
 70
     2
177
     3
291
     1
 70
    58
 90
        2
176
     1
 90
        2
176
     1
 90
        1
176
     1
 90
        2
176
     1
 40
0.6
176
     1
 40
30.0
176
     1
 62
     7
420
 16777215
176
     1
 90
        0
176
     1
 90
        0
176
     1
 62
     7
176
     1
 62
   257
176
     1
 90
        1
176
     1
 90
        1
176
     1
 40
1.0
176
     1
 90
        0
176
     1
 62
     7
176
     1
 40
1.0
176
     1
 90
        1
176
     1
 90
        6
176
     1
 90
        2
176
     1
 62
     7
176
     1
 90
        5
176
     1
 90
        0
176
     1
 90
        0
176
     1
290
     0
176
     1
 90
       13
176
     1
 40
0.0
176
     1
 90
        0
176
     1
290
     0
176
     1
290
     1
176
     1
290
     1
176
     1
290
     0
176
     1
290
     0
176
     1
290
     0
176
     1
290
     0
176
     1
290
     0
176
     1
290
     0
176
     1
 90
       50
176
     1
 40
0.0
176
     1
 40
1.0
176
     1
 90
        0
176
     1
 62
    18
420
        0
176
     1
 90
       50
176
     1
 90
        3
176
     1
 62
     5
420
      255
176
     1
290
     0
176
     1
 90
       50
176
     1
 90
       50
176
     1
 90
       50
176
     1
290
     0
176
     1
 90
       50
176
     1
 62
   256
176
     0
 40
1.0
176
     0
 90
        2
176
     1
  1
strokes_ogs.tif
176
     1
290
     0
176
     1
 40
1.0
176
     1
 40
1.0
176
     1
  0
VISUALSTYLE
  5
2E
102
{ACAD_REACTORS
330
2A
102
}
330
2A
100
AcDbVisualStyle
  2
GouraudWithEdges
 70
     3
177
     3
291
     1
 70
    58
 90
        2
176
     1
 90
        2
176
     1
 90
        1
176
     1
 90
        2
176
     1
 40
0.6
176
     1
 40
30.0
176
     1
 62
     7
420
 16777215
176
     1
 90
        1
176
     1
 90
        0
176
     1
 62
     7
176
     1
 62
   257
176
     1
 90
        1
176
     1
 90
        1
176
     1
 40
1.0
176
     1
 90
        0
176
     1
 62
   257
176
     1
 40
1.0
176
     1
 90
        1
176
     1
 90
        6
176
     1
 90
        2
176
     1
 62
     7
176
     1
 90
        5
176
     1
 90
        0
176
     1
 90
        0
176
     1
290
     0
176
     1
 90
       13
176
     1
 40
0.0
176
     1
 90
        0
176
     1
290
     0
176
     1
290
     1
176
     1
290
     1
176
     1
290
     0
176
     1
290
     0
176
     1
290
     0
176
     1
290
     0
176
     1
290
     0
176
     1
290
     0
176
     1
 90
       50
176
     1
 40
0.0
176
     1
 40
1.0
176
     1
 90
        0
176
     1
 62
    18
420
        0
176
     1
 90
       50
176
     1
 90
        3
176
     1
 62
     5
420
      255
176
     1
290
     0
176
     1
 90
       50
176
     1
 90
       50
176
     1
 90
       50
176
     1
290
     0
176
     1
 90
       50
176
     1
 62
   256
176
     0
 40
1.0
176
     0
 90
        2
176
     1
  1
strokes_ogs.tif
176
     1
290
     0
176
     1
 40
1.0
176
     1
 40
1.0
176
     1
  0
VISUALSTYLE
  5
31
102
{ACAD_REACTORS
330
2A
102
}
330
2A
100
AcDbVisualStyle
  2
Hidden
 70
     6
177
     3
291
     0
 70
    58
 90
        1
176
     1
 90
        2
176
     1
 90
        2
176
     1
 90
        0
176
     1
 40
0.6
176
     1
 40
30.0
176
     1
 62
     7
420
 16777215
176
     1
 90
        2
176
     1
 90
        2
176
     1
 62
     7
176
     1
 62
   257
176
     1
 90
        2
176
     1
 90
        1
176
     1
 40
40.0
176
     1
 90
        0
176
     1
 62
   257
176
     1
 40
1.0
176
     1
 90
        1
176
     1
 90
        6
176
     1
 90
        2
176
     1
 62
     7
176
     1
 90
        3
176
     1
 90
        0
176
     1
 90
        0
176
     1
290
     0
176
     1
 90
        1
176
     1
 40
0.0
176
     1
 90
        0
176
     1
290
     0
176
     1
290
     1
176
     1
290
     1
176
     1
290
     0
176
     1
290
     0
176
     1
290
     0
176
     1
290
     0
176
     1
290
     0
176
     1
290
     0
176
     1
 90
       50
176
     1
 40
0.0
176
     1
 40
1.0
176
     1
 90
        0
176
     1
 62
    18
420
        0
176
     1
 90
       50
176
     1
 90
        3
176
     1
 62
     5
420
      255
176
     1
290
     0
176
     1
 90
       50
176
     1
 90
       50
176
     1
 90
       50
176
     1
290
     0
176
     1
 90
       50
176
     1
 62
   256
176
     0
 40
1.0
176
     0
 90
        2
176
     1
  1
strokes_ogs.tif
176
     1
290
     0
176
     1
 40
1.0
176
     1
 40
1.0
176
     1
  0
VISUALSTYLE
  5
3B
102
{ACAD_REACTORS
330
2A
102
}
330
2A
100
AcDbVisualStyle
  2
JitterOff
 70
    20
177
     3
291
     1
 70
    58
 90
        2
176
     0
 90
        2
176
     0
 90
        0
176
     0
 90
        0
176
     0
 40
0.6
176
     0
 40
30.0
176
     0
 62
     7
420
 16777215
176
     0
 90
        1
176
     0
 90
        4
176
     0
 62
     7
176
     0
 62
   257
176
     0
 90
        1
176
     0
 90
        1
176
     0
 40
1.0
176
     0
 90
       10
176
     2
 62
     7
176
     0
 40
1.0
176
     0
 90
        1
176
     0
 90
        6
176
     0
 90
        2
176
     0
 62
     7
176
     0
 90
        5
176
     0
 90
        0
176
     0
 90
        0
176
     0
290
     0
176
     0
 90
        1
176
     0
 40
0.0
176
     0
 90
        0
176
     0
290
     0
176
     0
290
     1
176
     0
290
     1
176
     0
290
     0
176
     0
290
     0
176
     0
290
     0
176
     0
290
     0
176
     0
290
     0
176
     0
290
     0
176
     0
 90
       50
176
     0
 40
0.0
176
     0
 40
1.0
176
     0
 90
        0
176
     0
 62
    18
420
        0
176
     0
 90
       50
176
     0
 90
        3
176
     0
 62
     5
420
      255
176
     0
290
     0
176
     0
 90
       50
176
     0
 90
       50
176
     0
 90
       50
176
     0
290
     0
176
     0
 90
       50
176
     0
 62
   256
176
     0
 40
1.0
176
     0
 90
        2
176
     0
  1
strokes_ogs.tif
176
     0
290
     0
176
     0
 40
1.0
176
     0
 40
1.0
176
     0
  0
VISUALSTYLE
  5
38
102
{ACAD_REACTORS
330
2A
102
}
330
2A
100
AcDbVisualStyle
  2
Linepattern
 70
    14
177
     3
291
     1
 70
    58
 90
        2
176
     1
 90
        2
176
     1
 90
        0
176
     1
 90
        0
176
     1
 40
0.6
176
     1
 40
30.0
176
     1
 62
     7
420
 16777215
176
     1
 90
        1
176
     1
 90
        4
176
     1
 62
     7
176
     1
 62
   257
176
     1
 90
        7
176
     1
 90
        7
176
     1
 40
1.0
176
     1
 90
        8
176
     1
 62
     7
176
     1
 40
1.0
176
     1
 90
        1
176
     1
 90
        6
176
     1
 90
        2
176
     1
 62
     7
176
     1
 90
        5
176
     1
 90
        0
176
     1
 90
        0
176
     1
290
     0
176
     1
 90
        1
176
     1
 40
0.0
176
     1
 90
        0
176
     1
290
     0
176
     1
290
     1
176
     1
290
     1
176
     1
290
     0
176
     1
290
     0
176
     1
290
     0
176
     1
290
     0
176
     1
290
     0
176
     1
290
     0
176
     1
 90
       50
176
     1
 40
0.0
176
     1
 40
1.0
176
     1
 90
        0
176
     1
 62
    18
420
        0
176
     1
 90
       50
176
     1
 90
        3
176
     1
 62
     5
420
      255
176
     1
290
     0
176
     1
 90
       50
176
     1
 90
       50
176
     1
 90
       50
176
     1
290
     0
176
     1
 90
       50
176
     1
 62
   256
176
     0
 40
1.0
176
     0
 90
        2
176
     1
  1
strokes_ogs.tif
176
     1
290
     0
176
     1
 40
1.0
176
     1
 40
1.0
176
     1
  0
VISUALSTYLE
  5
3C
102
{ACAD_REACTORS
330
2A
102
}
330
2A
100
AcDbVisualStyle
  2
OverhangOff
 70
    21
177
     3
291
     1
 70
    58
 90
        2
176
     0
 90
        2
176
     0
 90
        0
176
     0
 90
        0
176
     0
 40
0.6
176
     0
 40
30.0
176
     0
 62
     7
420
 16777215
176
     0
 90
        1
176
     0
 90
        4
176
     0
 62
     7
176
     0
 62
   257
176
     0
 90
        1
176
     0
 90
        1
176
     0
 40
1.0
176
     0
 90
        9
176
     2
 62
     7
176
     0
 40
1.0
176
     0
 90
        1
176
     0
 90
        6
176
     0
 90
        2
176
     0
 62
     7
176
     0
 90
        5
176
     0
 90
        0
176
     0
 90
        0
176
     0
290
     0
176
     0
 90
        1
176
     0
 40
0.0
176
     0
 90
        0
176
     0
290
     0
176
     0
290
     1
176
     0
290
     1
176
     0
290
     0
176
     0
290
     0
176
     0
290
     0
176
     0
290
     0
176
     0
290
     0
176
     0
290
     0
176
     0
 90
       50
176
     0
 40
0.0
176
     0
 40
1.0
176
     0
 90
        0
176
     0
 62
    18
420
        0
176
     0
 90
       50
176
     0
 90
        3
176
     0
 62
     5
420
      255
176
     0
290
     0
176
     0
 90
       50
176
     0
 90
       50
176
     0
 90
       50
176
     0
290
     0
176
     0
 90
       50
176
     0
 62
   256
176
     0
 40
1.0
176
     0
 90
        2
176
     0
  1
strokes_ogs.tif
176
     0
290
     0
176
     0
 40
1.0
176
     0
 40
1.0
176
     0
  0
VISUALSTYLE
  5
33
102
{ACAD_REACTORS
330
2A
102
}
330
2A
100
AcDbVisualStyle
  2
Realistic
 70
     8
177
     3
291
     0
 70
    58
 90
        2
176
     1
 90
        3
176
     1
 90
        0
176
     1
 90
        2
176
     1
 40
0.6
176
     1
 40
30.0
176
     1
 62
     7
420
 16777215
176
     1
 90
        0
176
     1
 90
        0
176
     1
 62
     7
176
     1
 62
   257
176
     1
 90
        1
176
     1
 90
        1
176
     1
 40
1.0
176
     1
 90
        8
176
     1
 62
   257
176
     1
 40
1.0
176
     1
 90
        1
176
     1
 90
        6
176
     1
 90
        2
176
     1
 62
     7
176
     1
 90
        3
176
     1
 90
        0
176
     1
 90
        0
176
     1
290
     0
176
     1
 90
       13
176
     1
 40
0.0
176
     1
 90
        0
176
     1
290
     0
176
     1
290
     1
176
     1
290
     1
176
     1
290
     0
176
     1
290
     0
176
     1
290
     0
176
     1
290
     0
176
     1
290
     0
176
     1
290
     0
176
     1
 90
       50
176
     1
 40
0.0
176
     1
 40
1.0
176
     1
 90
        0
176
     1
 62
    18
420
        0
176
     1
 90
       50
176
     1
 90
        3
176
     1
 62
     5
420
      255
176
     1
290
     0
176
     1
 90
       50
176
     1
 90
       50
176
     1
 90
       50
176
     1
290
     0
176
     1
 90
       50
176
     1
 62
   256
176
     0
 40
1.0
176
     0
 90
        2
176
     1
  1
strokes_ogs.tif
176
     1
290
     0
176
     1
 40
1.0
176
     1
 40
1.0
176
     1
  0
VISUALSTYLE
  5
42
102
{ACAD_REACTORS
330
2A
102
}
330
2A
100
AcDbVisualStyle
  2
Shaded
 70
    27
177
     3
291
     0
 70
    58
 90
        2
176
     1
 90
        2
176
     1
 90
        1
176
     1
 90
        2
176
     1
 40
0.6
176
     1
 40
30.0
176
     1
 62
     7
420
 16777215
176
     1
 90
        0
176
     1
 90
        4
176
     1
 62
     7
176
     1
 62
   257
176
     1
 90
        1
176
     1
 90
        1
176
     1
 40
1.0
176
     1
 90
        8
176
     1
 62
   257
176
     1
 40
1.0
176
     1
 90
        1
176
     1
 90
        6
176
     1
 90
        2
176
     1
 62
     8
420
  7895160
176
     1
 90
        3
176
     1
 90
        0
176
     1
 90
        0
176
     1
290
     0
176
     1
 90
        5
176
     1
 40
0.0
176
     1
 90
        0
176
     1
290
     0
176
     1
290
     1
176
     1
290
     1
176
     1
290
     0
176
     1
290
     0
176
     1
290
     0
176
     1
290
     0
176
     1
290
     0
176
     1
290
     0
176
     1
 90
       50
176
     1
 40
0.0
176
     1
 40
1.0
176
     1
 90
        0
176
     1
 62
    18
420
        0
176
     1
 90
       50
176
     1
 90
        3
176
     1
 62
     5
420
      255
176
     1
290
     0
176
     1
 90
       50
176
     1
 90
       50
176
     1
 90
       50
176
     1
290
     0
176
     1
 90
       50
176
     1
 62
   256
176
     0
 40
1.0
176
     0
 90
        2
176
     1
  1
strokes_ogs.tif
176
     1
290
     0
176
     1
 40
1.0
176
     1
 40
1.0
176
     1
  0
VISUALSTYLE
  5
41
102
{ACAD_REACTORS
330
2A
102
}
330
2A
100
AcDbVisualStyle
  2
Shaded with edges
 70
    26
177
     3
291
     0
 70
    58
 90
        2
176
     1
 90
        2
176
     1
 90
        1
176
     1
 90
        2
176
     1
 40
0.6
176
     1
 40
30.0
176
     1
 62
     7
420
 16777215
176
     1
 90
        1
176
     1
 90
       10
176
     1
 62
     7
176
     1
 62
   257
176
     1
 90
        2
176
     1
 90
        1
176
     1
 40
1.0
176
     1
 90
        8
176
     1
 62
   257
176
     1
 40
1.0
176
     1
 90
        1
176
     1
 90
        6
176
     1
 90
        2
176
     1
 62
     7
176
     1
 90
        3
176
     1
 90
        0
176
     1
 90
        0
176
     1
290
     0
176
     1
 90
        5
176
     1
 40
0.0
176
     1
 90
        0
176
     1
290
     0
176
     1
290
     1
176
     1
290
     1
176
     1
290
     0
176
     1
290
     0
176
     1
290
     0
176
     1
290
     0
176
     1
290
     0
176
     1
290
     0
176
     1
 90
       50
176
     1
 40
0.0
176
     1
 40
1.0
176
     1
 90
        0
176
     1
 62
    18
420
        0
176
     1
 90
       50
176
     1
 90
        3
176
     1
 62
     5
420
      255
176
     1
290
     0
176
     1
 90
       50
176
     1
 90
       50
176
     1
 90
       50
176
     1
290
     0
176
     1
 90
       50
176
     1
 62
   256
176
     0
 40
1.0
176
     0
 90
        2
176
     1
  1
strokes_ogs.tif
176
     1
290
     0
176
     1
 40
1.0
176
     1
 40
1.0
176
     1
  0
VISUALSTYLE
  5
3E
102
{ACAD_REACTORS
330
2A
102
}
330
2A
100
AcDbVisualStyle
  2
Shades of Gray
 70
    23
177
     3
291
     0
 70
    58
 90
        2
176
     1
 90
        2
176
     1
 90
        3
176
     1
 90
        0
176
     1
 40
0.6
176
     1
 40
30.0
176
     1
 62
     7
420
 16777215
176
     1
 90
        2
176
     1
 90
        2
176
     1
 62
     7
176
     1
 62
     7
176
     1
 90
        1
176
     1
 90
        1
176
     1
 40
40.0
176
     1
 90
        8
176
     1
 62
     7
176
     1
 40
1.0
176
     1
 90
        1
176
     1
 90
        6
176
     1
 90
        2
176
     1
 62
     7
176
     1
 90
        3
176
     1
 90
        0
176
     1
 90
        0
176
     1
290
     0
176
     1
 90
        1
176
     1
 40
0.0
176
     1
 90
        0
176
     1
290
     0
176
     1
290
     1
176
     1
290
     1
176
     1
290
     0
176
     1
290
     0
176
     1
290
     0
176
     1
290
     0
176
     1
290
     0
176
     1
290
     0
176
     1
 90
       50
176
     1
 40
0.0
176
     1
 40
1.0
176
     1
 90
        0
176
     1
 62
    18
420
        0
176
     1
 90
       50
176
     1
 90
        3
176
     1
 62
     5
420
      255
176
     1
290
     0
176
     1
 90
       50
176
     1
 90
       50
176
     1
 90
       50
176
     1
290
     0
176
     1
 90
       50
176
     1
 62
   256
176
     0
 40
1.0
176
     0
 90
        2
176
     1
  1
strokes_ogs.tif
176
     1
290
     0
176
     1
 40
1.0
176
     1
 40
1.0
176
     1
  0
VISUALSTYLE
  5
3F
102
{ACAD_REACTORS
330
2A
102
}
330
2A
100
AcDbVisualStyle
  2
Sketchy
 70
    24
177
     3
291
     0
 70
    58
 90
        1
176
     1
 90
        2
176
     1
 90
        2
176
     1
 90
        0
176
     1
 40
0.6
176
     1
 40
30.0
176
     1
 62
     7
420
 16777215
176
     1
 90
        2
176
     1
 90
        2
176
     1
 62
     7
176
     1
 62
     7
176
     1
 90
        1
176
     1
 90
        1
176
     1
 40
40.0
176
     1
 90
       11
176
     1
 62
     7
176
     1
 40
1.0
176
     1
 90
        1
176
     1
 90
        6
176
     1
 90
        2
176
     1
 62
     7
176
     1
 90
        6
176
     1
 90
        0
176
     1
 90
        0
176
     1
290
     0
176
     1
 90
        1
176
     1
 40
0.0
176
     1
 90
        0
176
     1
290
     0
176
     1
290
     1
176
     1
290
     1
176
     1
290
     0
176
     1
290
     0
176
     1
290
     0
176
     1
290
     0
176
     1
290
     0
176
     1
290
     0
176
     1
 90
       50
176
     1
 40
0.0
176
     1
 40
1.0
176
     1
 90
        0
176
     1
 62
    18
420
        0
176
     1
 90
       50
176
     1
 90
        3
176
     1
 62
     5
420
      255
176
     1
290
     0
176
     1
 90
       50
176
     1
 90
       50
176
     1
 90
       50
176
     1
290
     0
176
     1
 90
       50
176
     1
 62
   256
176
     0
 40
1.0
176
     0
 90
        2
176
     1
  1
strokes_ogs.tif
176
     1
290
     0
176
     1
 40
1.0
176
     1
 40
1.0
176
     1
  0
VISUALSTYLE
  5
37
102
{ACAD_REACTORS
330
2A
102
}
330
2A
100
AcDbVisualStyle
  2
Thicken
 70
    13
177
     3
291
     1
 70
    58
 90
        2
176
     1
 90
        2
176
     1
 90
        0
176
     1
 90
        0
176
     1
 40
0.6
176
     1
 40
30.0
176
     1
 62
     7
420
 16777215
176
     1
 90
        1
176
     1
 90
        4
176
     1
 62
     7
176
     1
 62
   257
176
     1
 90
        1
176
     1
 90
        1
176
     1
 40
1.0
176
     1
 90
       12
176
     1
 62
     7
176
     1
 40
1.0
176
     1
 90
        1
176
     1
 90
        6
176
     1
 90
        2
176
     1
 62
     7
176
     1
 90
        5
176
     1
 90
        0
176
     1
 90
        0
176
     1
290
     0
176
     1
 90
        1
176
     1
 40
0.0
176
     1
 90
        0
176
     1
290
     0
176
     1
290
     1
176
     1
290
     1
176
     1
290
     0
176
     1
290
     0
176
     1
290
     0
176
     1
290
     0
176
     1
290
     0
176
     1
290
     0
176
     1
 90
       50
176
     1
 40
0.0
176
     1
 40
1.0
176
     1
 90
        0
176
     1
 62
    18
420
        0
176
     1
 90
       50
176
     1
 90
        3
176
     1
 62
     5
420
      255
176
     1
290
     0
176
     1
 90
       50
176
     1
 90
       50
176
     1
 90
       50
176
     1
290
     0
176
     1
 90
       50
176
     1
 62
   256
176
     0
 40
1.0
176
     0
 90
        2
176
     1
  1
strokes_ogs.tif
176
     1
290
     0
176
     1
 40
1.0
176
     1
 40
1.0
176
     1
  0
VISUALSTYLE
  5
30
102
{ACAD_REACTORS
330
2A
102
}
330
2A
100
AcDbVisualStyle
  2
Wireframe
 70
     5
177
     3
291
     0
 70
    58
 90
        0
176
     1
 90
        2
176
     1
 90
        0
176
     1
 90
        0
176
     1
 40
0.6
176
     1
 40
30.0
176
     1
 62
     7
420
 16777215
176
     1
 90
        1
176
     1
 90
        4
176
     1
 62
     7
176
     1
 62
   257
176
     1
 90
        1
176
     1
 90
        1
176
     1
 40
1.0
176
     1
 90
        0
176
     1
 62
   257
176
     1
 40
1.0
176
     1
 90
        1
176
     1
 90
        6
176
     1
 90
        2
176
     1
 62
     7
176
     1
 90
        3
176
     1
 90
        0
176
     1
 90
        0
176
     1
290
     0
176
     1
 90
        1
176
     1
 40
0.0
176
     1
 90
        0
176
     1
290
     0
176
     1
290
     1
176
     1
290
     1
176
     1
290
     0
176
     1
290
     0
176
     1
290
     0
176
     1
290
     0
176
     1
290
     0
176
     1
290
     0
176
     1
 90
       50
176
     1
 40
0.0
176
     1
 40
1.0
176
     1
 90
        0
176
     1
 62
    18
420
        0
176
     1
 90
       50
176
     1
 90
        3
176
     1
 62
     5
420
      255
176
     1
290
     0
176
     1
 90
       50
176
     1
 90
       50
176
     1
 90
       50
176
     1
290
     0
176
     1
 90
       50
176
     1
 62
   256
176
     0
 40
1.0
176
     0
 90
        2
176
     1
  1
strokes_ogs.tif
176
     1
290
     0
176
     1
 40
1.0
176
     1
 40
1.0
176
     1
  0
VISUALSTYLE
  5
40
102
{ACAD_REACTORS
330
2A
102
}
330
2A
100
AcDbVisualStyle
  2
X-Ray
 70
    25
177
     3
291
     0
 70
    58
 90
        2
176
     1
 90
        2
176
     1
 90
        1
176
     1
 90
        1
176
     1
 40
0.5
176
     1
 40
30.0
176
     1
 62
     7
420
 16777215
176
     1
 90
        1
176
     1
 90
        0
176
     1
 62
     7
176
     1
 62
   257
176
     1
 90
        1
176
     1
 90
        1
176
     1
 40
1.0
176
     1
 90
        8
176
     1
 62
     7
176
     1
 40
1.0
176
     1
 90
        1
176
     1
 90
        6
176
     1
 90
        2
176
     1
 62
     7
176
     1
 90
        3
176
     1
 90
        0
176
     1
 90
        0
176
     1
290
     0
176
     1
 90
       13
176
     1
 40
0.0
176
     1
 90
        0
176
     1
290
     0
176
     1
290
     1
176
     1
290
     1
176
     1
290
     0
176
     1
290
     0
176
     1
290
     0
176
     1
290
     0
176
     1
290
     0
176
     1
290
     0
176
     1
 90
       50
176
     1
 40
0.0
176
     1
 40
1.0
176
     1
 90
        0
176
     1
 62
    18
420
        0
176
     1
 90
       50
176
     1
 90
        3
176
     1
 62
     5
420
      255
176
     1
290
     0
176
     1
 90
       50
176
     1
 90
       50
176
     1
 90
       50
176
     1
290
     0
176
     1
 90
       50
176
     1
 62
   256
176
     0
 40
1.0
176
     0
 90
        2
176
     1
  1
strokes_ogs.tif
176
     1
290
     0
176
     1
 40
1.0
176
     1
 40
1.0
176
     1
  0
DICTIONARYVAR
  5
1AC
102
{ACAD_REACTORS
330
1AB
102
}
330
1AB
100
DictionaryVariables
280
     0
  1
1:1
  0
DICTIONARYVAR
  5
1B1
102
{ACAD_REACTORS
330
1AB
102
}
330
1AB
100
DictionaryVariables
280
     0
  1
Standard
  0
DICTIONARYVAR
  5
1B0
102
{ACAD_REACTORS
330
1AB
102
}
330
1AB
100
DictionaryVariables
280
     0
  1
Standard
  0
DICTIONARY
  5
1AD
330
6A
100
AcDbDictionary
280
     1
281
     1
  3
ACAD_ROUNDTRIP_2008_TABLESTYLE_CELLSTYLEMAP
360
1AE
  0
CELLSTYLEMAP
  5
1AE
102
{ACAD_REACTORS
330
1AD
102
}
330
1AD
100
AcDbCellStyleMap
 90
        3
300
CELLSTYLE
  1
TABLEFORMAT_BEGIN
 90
        5
170
     1
 91
        0
 92
    32768
 62
   257
 93
        1
300
CONTENTFORMAT
  1
CONTENTFORMAT_BEGIN
 90
        0
 91
        0
 92
        4
 93
        0
300

 40
0.0
140
1.0
 94
        5
 62
     0
340
11
144
6.0
309
CONTENTFORMAT_END
171
     1
301
MARGIN
  1
CELLMARGIN_BEGIN
 40
1.5
 40
1.5
 40
1.5
 40
1.5
 40
1.5
 40
1.5
309
CELLMARGIN_END
 94
        6
 95
        1
302
GRIDFORMAT
  1
GRIDFORMAT_BEGIN
 90
        0
 91
        1
 62
     0
 92
       -2
340
14
 93
        0
 40
0.045
309
GRIDFORMAT_END
 95
        2
302
GRIDFORMAT
  1
GRIDFORMAT_BEGIN
 90
        0
 91
        1
 62
     0
 92
       -2
340
14
 93
        0
 40
0.045
309
GRIDFORMAT_END
 95
        4
302
GRIDFORMAT
  1
GRIDFORMAT_BEGIN
 90
        0
 91
        1
 62
     0
 92
       -2
340
14
 93
        0
 40
0.045
309
GRIDFORMAT_END
 95
        8
302
GRIDFORMAT
  1
GRIDFORMAT_BEGIN
 90
        0
 91
        1
 62
     0
 92
       -2
340
14
 93
        0
 40
0.045
309
GRIDFORMAT_END
 95
       16
302
GRIDFORMAT
  1
GRIDFORMAT_BEGIN
 90
        0
 91
        1
 62
     0
 92
       -2
340
14
 93
        0
 40
0.045
309
GRIDFORMAT_END
 95
       32
302
GRIDFORMAT
  1
GRIDFORMAT_BEGIN
 90
        0
 91
        1
 62
     0
 92
       -2
340
14
 93
        0
 40
0.045
309
GRIDFORMAT_END
309
TABLEFORMAT_END
  1
CELLSTYLE_BEGIN
 90
        1
 91
        1
300
_TITLE
309
CELLSTYLE_END
300
CELLSTYLE
  1
TABLEFORMAT_BEGIN
 90
        5
170
     1
 91
        0
 92
        0
 62
   257
 93
        1
300
CONTENTFORMAT
  1
CONTENTFORMAT_BEGIN
 90
        0
 91
        0
 92
        4
 93
        0
300

 40
0.0
140
1.0
 94
        5
 62
     0
340
11
144
4.5
309
CONTENTFORMAT_END
171
     1
301
MARGIN
  1
CELLMARGIN_BEGIN
 40
1.5
 40
1.5
 40
1.5
 40
1.5
 40
1.5
 40
1.5
309
CELLMARGIN_END
 94
        6
 95
        1
302
GRIDFORMAT
  1
GRIDFORMAT_BEGIN
 90
        0
 91
        1
 62
     0
 92
       -2
340
14
 93
        0
 40
0.045
309
GRIDFORMAT_END
 95
        2
302
GRIDFORMAT
  1
GRIDFORMAT_BEGIN
 90
        0
 91
        1
 62
     0
 92
       -2
340
14
 93
        0
 40
0.045
309
GRIDFORMAT_END
 95
        4
302
GRIDFORMAT
  1
GRIDFORMAT_BEGIN
 90
        0
 91
        1
 62
     0
 92
       -2
340
14
 93
        0
 40
0.045
309
GRIDFORMAT_END
 95
        8
302
GRIDFORMAT
  1
GRIDFORMAT_BEGIN
 90
        0
 91
        1
 62
     0
 92
       -2
340
14
 93
        0
 40
0.045
309
GRIDFORMAT_END
 95
       16
302
GRIDFORMAT
  1
GRIDFORMAT_BEGIN
 90
        0
 91
        1
 62
     0
 92
       -2
340
14
 93
        0
 40
0.045
309
GRIDFORMAT_END
 95
       32
302
GRIDFORMAT
  1
GRIDFORMAT_BEGIN
 90
        0
 91
        1
 62
     0
 92
       -2
340
14
 93
        0
 40
0.045
309
GRIDFORMAT_END
309
TABLEFORMAT_END
  1
CELLSTYLE_BEGIN
 90
        2
 91
        1
300
_HEADER
309
CELLSTYLE_END
300
CELLSTYLE
  1
TABLEFORMAT_BEGIN
 90
        5
170
     1
 91
        0
 92
        0
 62
   257
 93
        1
300
CONTENTFORMAT
  1
CONTENTFORMAT_BEGIN
 90
        0
 91
        0
 92
        4
 93
        0
300

 40
0.0
140
1.0
 94
        2
 62
     0
340
11
144
4.5
309
CONTENTFORMAT_END
171
     1
301
MARGIN
  1
CELLMARGIN_BEGIN
 40
1.5
 40
1.5
 40
1.5
 40
1.5
 40
1.5
 40
1.5
309
CELLMARGIN_END
 94
        6
 95
        1
302
GRIDFORMAT
  1
GRIDFORMAT_BEGIN
 90
        0
 91
        1
 62
     0
 92
       -2
340
14
 93
        0
 40
0.045
309
GRIDFORMAT_END
 95
        2
302
GRIDFORMAT
  1
GRIDFORMAT_BEGIN
 90
        0
 91
        1
 62
     0
 92
       -2
340
14
 93
        0
 40
0.045
309
GRIDFORMAT_END
 95
        4
302
GRIDFORMAT
  1
GRIDFORMAT_BEGIN
 90
        0
 91
        1
 62
     0
 92
       -2
340
14
 93
        0
 40
0.045
309
GRIDFORMAT_END
 95
        8
302
GRIDFORMAT
  1
GRIDFORMAT_BEGIN
 90
        0
 91
        1
 62
     0
 92
       -2
340
14
 93
        0
 40
0.045
309
GRIDFORMAT_END
 95
       16
302
GRIDFORMAT
  1
GRIDFORMAT_BEGIN
 90
        0
 91
        1
 62
     0
 92
       -2
340
14
 93
        0
 40
0.045
309
GRIDFORMAT_END
 95
       32
302
GRIDFORMAT
  1
GRIDFORMAT_BEGIN
 90
        0
 91
        1
 62
     0
 92
       -2
340
14
 93
        0
 40
0.045
309
GRIDFORMAT_END
309
TABLEFORMAT_END
  1
CELLSTYLE_BEGIN
 90
        3
 91
        2
300
_DATA
309
CELLSTYLE_END
  0
ENDSEC
  0
EOF