0
SECTION
  2
HEADER
  9
$ACADVER
  1
AC1027
  9
$ACADMAINTVER
 70
     8
  9
$DWGCODEPAGE
  3
ANSI_1252
  9
$REQUIREDVERSIONS
160
                 0
  9
$COMMENTS
  1
File was created by Cadenas
  9
$CUSTOMPROPERTYTAG
  1
NN
  9
$CUSTOMPROPERTY
  1
Eccentric Collar Low Backing Height Intermediate Duty Two-Bolt Pillow Block Metric Bore
  9
$CUSTOMPROPERTYTAG
  1
NT
  9
$CUSTOMPROPERTY
  1
Eccentric Collar Pillow Block Bearings -(Intermediate Duty) -Low Backing Height
  9
$CUSTOMPROPERTYTAG
  1
NB
  9
$CUSTOMPROPERTY
  1
056830
  9
$CUSTOMPROPERTYTAG
  1
NBSYN
  9
$CUSTOMPROPERTY
  1
$PN.
  9
$CUSTOMPROPERTYTAG
  1
LINA
  9
$CUSTOMPROPERTY
  1
056830
  9
$CUSTOMPROPERTYTAG
  1
SERIES
  9
$CUSTOMPROPERTY
  1
206
  9
$CUSTOMPROPERTYTAG
  1
SS
  9
$CUSTOMPROPERTY
  1
30
  9
$CUSTOMPROPERTYTAG
  1
PN
  9
$CUSTOMPROPERTY
  1
056830
  9
$CUSTOMPROPERTYTAG
  1
DESCRIPTION
  9
$CUSTOMPROPERTY
  1
P2B-SXVB-30M
  9
$CUSTOMPROPERTYTAG
  1
WEIGHT
  9
$CUSTOMPROPERTY
  1
1.2
  9
$CUSTOMPROPERTYTAG
  1
A
  9
$CUSTOMPROPERTY
  1
35.8
  9
$CUSTOMPROPERTYTAG
  1
B
  9
$CUSTOMPROPERTY
  1
158.8
  9
$CUSTOMPROPERTYTAG
  1
C
  9
$CUSTOMPROPERTY
  1
44.5
  9
$CUSTOMPROPERTYTAG
  1
DMIN
  9
$CUSTOMPROPERTY
  1
108.0
  9
$CUSTOMPROPERTYTAG
  1
DMAX
  9
$CUSTOMPROPERTY
  1
127.0
  9
$CUSTOMPROPERTYTAG
  1
F
  9
$CUSTOMPROPERTY
  1
M12
  9
$CUSTOMPROPERTYTAG
  1
G
  9
$CUSTOMPROPERTY
  1
23.9
  9
$CUSTOMPROPERTYTAG
  1
H
  9
$CUSTOMPROPERTY
  1
15.8
  9
$CUSTOMPROPERTYTAG
  1
J
  9
$CUSTOMPROPERTY
  1
81.0
  9
$CUSTOMPROPERTYTAG
  1
L
  9
$CUSTOMPROPERTY
  1
44.5
  9
$CUSTOMPROPERTYTAG
  1
M
  9
$CUSTOMPROPERTY
  1
39.6
  9
$CUSTOMPROPERTYTAG
  1
R
  9
$CUSTOMPROPERTY
  1
8.9
  9
$CUSTOMPROPERTYTAG
  1
S
  9
$CUSTOMPROPERTY
  1
26.7
  9
$CUSTOMPROPERTYTAG
  1
U
  9
$CUSTOMPROPERTY
  1
73.2
  9
$CUSTOMPROPERTYTAG
  1
V
  9
$CUSTOMPROPERTY
  1
146.3
  9
$CUSTOMPROPERTYTAG
  1
W
  9
$CUSTOMPROPERTY
  1
14.2
  9
$CUSTOMPROPERTYTAG
  1
X
  9
$CUSTOMPROPERTY
  1
3.0
  9
$CUSTOMPROPERTYTAG
  1
COMPANY
  9
$CUSTOMPROPERTY
  1
baldor
  9
$INSBASE
 10
0.0
 20
0.0
 30
0.0
  9
$EXTMIN
 10
1.000000000000000E+20
 20
1.000000000000000E+20
 30
1.000000000000000E+20
  9
$EXTMAX
 10
-1.000000000000000E+20
 20
-1.000000000000000E+20
 30
-1.000000000000000E+20
  9
$LIMMIN
 10
0.0
 20
0.0
  9
$LIMMAX
 10
420.0
 20
297.0
  9
$ORTHOMODE
 70
     0
  9
$REGENMODE
 70
     1
  9
$FILLMODE
 70
     1
  9
$QTEXTMODE
 70
     0
  9
$MIRRTEXT
 70
     1
  9
$LTSCALE
 40
1.0
  9
$ATTMODE
 70
     1
  9
$TEXTSIZE
 40
2.5
  9
$TRACEWID
 40
1.0
  9
$TEXTSTYLE
  7
Standard
  9
$CLAYER
  8
0
  9
$CELTYPE
  6
ByLayer
  9
$CECOLOR
 62
   256
  9
$CELTSCALE
 40
1.0
  9
$DISPSILH
 70
     0
  9
$DIMSCALE
 40
1.0
  9
$DIMASZ
 40
2.5
  9
$DIMEXO
 40
0.625
  9
$DIMDLI
 40
3.75
  9
$DIMRND
 40
0.0
  9
$DIMDLE
 40
0.0
  9
$DIMEXE
 40
1.25
  9
$DIMTP
 40
0.0
  9
$DIMTM
 40
0.0
  9
$DIMTXT
 40
2.5
  9
$DIMCEN
 40
2.5
  9
$DIMTSZ
 40
0.0
  9
$DIMTOL
 70
     0
  9
$DIMLIM
 70
     0
  9
$DIMTIH
 70
     0
  9
$DIMTOH
 70
     0
  9
$DIMSE1
 70
     0
  9
$DIMSE2
 70
     0
  9
$DIMTAD
 70
     1
  9
$DIMZIN
 70
     8
  9
$DIMBLK
  1

  9
$DIMASO
 70
     1
  9
$DIMSHO
 70
     1
  9
$DIMPOST
  1

  9
$DIMAPOST
  1

  9
$DIMALT
 70
     0
  9
$DIMALTD
 70
     3
  9
$DIMALTF
 40
0.03937007874016
  9
$DIMLFAC
 40
1.0
  9
$DIMTOFL
 70
     1
  9
$DIMTVP
 40
0.0
  9
$DIMTIX
 70
     0
  9
$DIMSOXD
 70
     0
  9
$DIMSAH
 70
     0
  9
$DIMBLK1
  1

  9
$DIMBLK2
  1

  9
$DIMSTYLE
  2
ISO-25
  9
$DIMCLRD
 70
     0
  9
$DIMCLRE
 70
     0
  9
$DIMCLRT
 70
     0
  9
$DIMTFAC
 40
1.0
  9
$DIMGAP
 40
0.625
  9
$DIMJUST
 70
     0
  9
$DIMSD1
 70
     0
  9
$DIMSD2
 70
     0
  9
$DIMTOLJ
 70
     0
  9
$DIMTZIN
 70
     8
  9
$DIMALTZ
 70
     0
  9
$DIMALTTZ
 70
     0
  9
$DIMUPT
 70
     0
  9
$DIMDEC
 70
     2
  9
$DIMTDEC
 70
     2
  9
$DIMALTU
 70
     2
  9
$DIMALTTD
 70
     3
  9
$DIMTXSTY
  7
Standard
  9
$DIMAUNIT
 70
     0
  9
$DIMADEC
 70
     0
  9
$DIMALTRND
 40
0.0
  9
$DIMAZIN
 70
     0
  9
$DIMDSEP
 70
    44
  9
$DIMATFIT
 70
     3
  9
$DIMFRAC
 70
     0
  9
$DIMLDRBLK
  1

  9
$DIMLUNIT
 70
     2
  9
$DIMLWD
 70
    -2
  9
$DIMLWE
 70
    -2
  9
$DIMTMOVE
 70
     0
  9
$DIMFXL
 40
1.0
  9
$DIMFXLON
 70
     0
  9
$DIMJOGANG
 40
0.7853981633974483
  9
$DIMTFILL
 70
     0
  9
$DIMTFILLCLR
 70
     0
  9
$DIMARCSYM
 70
     0
  9
$DIMLTYPE
  6

  9
$DIMLTEX1
  6

  9
$DIMLTEX2
  6

  9
$DIMTXTDIRECTION
 70
     0
  9
$LUNITS
 70
     2
  9
$LUPREC
 70
     4
  9
$SKETCHINC
 40
1.0
  9
$FILLETRAD
 40
10.0
  9
$AUNITS
 70
     0
  9
$AUPREC
 70
     0
  9
$MENU
  1
.
  9
$ELEVATION
 40
0.0
  9
$PELEVATION
 40
0.0
  9
$THICKNESS
 40
0.0
  9
$LIMCHECK
 70
     0
  9
$CHAMFERA
 40
0.0
  9
$CHAMFERB
 40
0.0
  9
$CHAMFERC
 40
0.0
  9
$CHAMFERD
 40
0.0
  9
$SKPOLY
 70
     0
  9
$TDCREATE
 40
2458168.986272268
  9
$TDUCREATE
 40
2458168.944605602
  9
$TDUPDATE
 40
2458168.986272268
  9
$TDUUPDATE
 40
2458168.944605602
  9
$TDINDWG
 40
0.0000000116
  9
$TDUSRTIMER
 40
0.0000000116
  9
$USRTIMER
 70
     1
  9
$ANGBASE
 50
0.0
  9
$ANGDIR
 70
     0
  9
$PDMODE
 70
     0
  9
$PDSIZE
 40
0.0
  9
$PLINEWID
 40
0.0
  9
$SPLFRAME
 70
     0
  9
$SPLINETYPE
 70
     6
  9
$SPLINESEGS
 70
     8
  9
$HANDSEED
  5
185
  9
$SURFTAB1
 70
     6
  9
$SURFTAB2
 70
     6
  9
$SURFTYPE
 70
     6
  9
$SURFU
 70
     6
  9
$SURFV
 70
     6
  9
$UCSBASE
  2

  9
$UCSNAME
  2

  9
$UCSORG
 10
0.0
 20
0.0
 30
0.0
  9
$UCSXDIR
 10
1.0
 20
0.0
 30
0.0
  9
$UCSYDIR
 10
0.0
 20
1.0
 30
0.0
  9
$UCSORTHOREF
  2

  9
$UCSORTHOVIEW
 70
     0
  9
$UCSORGTOP
 10
0.0
 20
0.0
 30
0.0
  9
$UCSORGBOTTOM
 10
0.0
 20
0.0
 30
0.0
  9
$UCSORGLEFT
 10
0.0
 20
0.0
 30
0.0
  9
$UCSORGRIGHT
 10
0.0
 20
0.0
 30
0.0
  9
$UCSORGFRONT
 10
0.0
 20
0.0
 30
0.0
  9
$UCSORGBACK
 10
0.0
 20
0.0
 30
0.0
  9
$PUCSBASE
  2

  9
$PUCSNAME
  2

  9
$PUCSORG
 10
0.0
 20
0.0
 30
0.0
  9
$PUCSXDIR
 10
1.0
 20
0.0
 30
0.0
  9
$PUCSYDIR
 10
0.0
 20
1.0
 30
0.0
  9
$PUCSORTHOREF
  2

  9
$PUCSORTHOVIEW
 70
     0
  9
$PUCSORGTOP
 10
0.0
 20
0.0
 30
0.0
  9
$PUCSORGBOTTOM
 10
0.0
 20
0.0
 30
0.0
  9
$PUCSORGLEFT
 10
0.0
 20
0.0
 30
0.0
  9
$PUCSORGRIGHT
 10
0.0
 20
0.0
 30
0.0
  9
$PUCSORGFRONT
 10
0.0
 20
0.0
 30
0.0
  9
$PUCSORGBACK
 10
0.0
 20
0.0
 30
0.0
  9
$USERI1
 70
     0
  9
$USERI2
 70
     0
  9
$USERI3
 70
     0
  9
$USERI4
 70
     0
  9
$USERI5
 70
     0
  9
$USERR1
 40
0.0
  9
$USERR2
 40
0.0
  9
$USERR3
 40
0.0
  9
$USERR4
 40
0.0
  9
$USERR5
 40
0.0
  9
$WORLDVIEW
 70
     1
  9
$SHADEDGE
 70
     3
  9
$SHADEDIF
 70
    70
  9
$TILEMODE
 70
     1
  9
$MAXACTVP
 70
    64
  9
$PINSBASE
 10
0.0
 20
0.0
 30
0.0
  9
$PLIMCHECK
 70
     0
  9
$PEXTMIN
 10
1.000000000000000E+20
 20
1.000000000000000E+20
 30
1.000000000000000E+20
  9
$PEXTMAX
 10
-1.000000000000000E+20
 20
-1.000000000000000E+20
 30
-1.000000000000000E+20
  9
$PLIMMIN
 10
0.0
 20
0.0
  9
$PLIMMAX
 10
420.0
 20
297.0
  9
$UNITMODE
 70
     0
  9
$VISRETAIN
 70
     1
  9
$PLINEGEN
 70
     0
  9
$PSLTSCALE
 70
     1
  9
$TREEDEPTH
 70
  3020
  9
$CMLSTYLE
  2
Standard
  9
$CMLJUST
 70
     0
  9
$CMLSCALE
 40
20.0
  9
$PROXYGRAPHICS
 70
     1
  9
$MEASUREMENT
 70
     1
  9
$CELWEIGHT
370
    -1
  9
$ENDCAPS
280
     0
  9
$JOINSTYLE
280
     0
  9
$LWDISPLAY
290
     0
  9
$INSUNITS
 70
     4
  9
$HYPERLINKBASE
  1

  9
$STYLESHEET
  1

  9
$XEDIT
290
     1
  9
$CEPSNTYPE
380
     0
  9
$PSTYLEMODE
290
     1
  9
$FINGERPRINTGUID
  2
{FEEA9ACF-0174-4BD9-8DAB-4A657661ECF8}
  9
$VERSIONGUID
  2
{FAEB1C32-E019-11D5-929B-00C0DF256EC4}
  9
$EXTNAMES
290
     1
  9
$PSVPSCALE
 40
0.0
  9
$OLESTARTUP
290
     0
  9
$SORTENTS
280
   127
  9
$INDEXCTL
280
     0
  9
$HIDETEXT
280
     1
  9
$XCLIPFRAME
280
     2
  9
$HALOGAP
280
     0
  9
$OBSCOLOR
 70
   257
  9
$OBSLTYPE
280
     0
  9
$INTERSECTIONDISPLAY
280
     0
  9
$INTERSECTIONCOLOR
 70
   257
  9
$DIMASSOC
280
     2
  9
$PROJECTNAME
  1

  9
$CAMERADISPLAY
290
     0
  9
$LENSLENGTH
 40
50.0
  9
$CAMERAHEIGHT
 40
0.0
  9
$STEPSPERSEC
 40
2.0
  9
$STEPSIZE
 40
6.0
  9
$3DDWFPREC
 40
2.0
  9
$PSOLWIDTH
 40
5.0
  9
$PSOLHEIGHT
 40
80.0
  9
$LOFTANG1
 40
1.570796326794897
  9
$LOFTANG2
 40
1.570796326794897
  9
$LOFTMAG1
 40
0.0
  9
$LOFTMAG2
 40
0.0
  9
$LOFTPARAM
 70
     7
  9
$LOFTNORMALS
280
     1
  9
$LATITUDE
 40
37.795
  9
$LONGITUDE
 40
-122.394
  9
$NORTHDIRECTION
 40
0.0
  9
$TIMEZONE
 70
 -8000
  9
$LIGHTGLYPHDISPLAY
280
     1
  9
$TILEMODELIGHTSYNCH
280
     1
  9
$CMATERIAL
347
44
  9
$SOLIDHIST
280
     0
  9
$SHOWHIST
280
     1
  9
$DWFFRAME
280
     2
  9
$DGNFRAME
280
     2
  9
$REALWORLDSCALE
290
     1
  9
$INTERFERECOLOR
 62
   256
  9
$CSHADOW
280
     0
  9
$SHADOWPLANELOCATION
 40
0.0
  0
ENDSEC
  0
SECTION
  2
CLASSES
  0
CLASS
  1
ACDBDICTIONARYWDFLT
  2
AcDbDictionaryWithDefault
  3
ObjectDBX Classes
 90
        0
 91
        4
280
     0
281
     0
  0
CLASS
  1
VISUALSTYLE
  2
AcDbVisualStyle
  3
ObjectDBX Classes
 90
     4095
 91
        4
280
     0
281
     0
  0
CLASS
  1
MATERIAL
  2
AcDbMaterial
  3
ObjectDBX Classes
 90
     1153
 91
        4
280
     0
281
     0
  0
CLASS
  1
SCALE
  2
AcDbScale
  3
ObjectDBX Classes
 90
     1153
 91
        4
280
     0
281
     0
  0
CLASS
  1
TABLESTYLE
  2
AcDbTableStyle
  3
ObjectDBX Classes
 90
     4095
 91
        4
280
     0
281
     0
  0
CLASS
  1
MLEADERSTYLE
  2
AcDbMLeaderStyle
  3
ACDB_MLEADERSTYLE_CLASS
 90
     4095
 91
        4
280
     0
281
     0
  0
CLASS
  1
SUN
  2
AcDbSun
  3
SCENEOE
 90
     1153
 91
        4
280
     0
281
     0
  0
CLASS
  1
DICTIONARYVAR
  2
AcDbDictionaryVar
  3
ObjectDBX Classes
 90
        0
 91
        4
280
     0
281
     0
  0
CLASS
  1
CELLSTYLEMAP
  2
AcDbCellStyleMap
  3
ObjectDBX Classes
 90
     1152
 91
        4
280
     0
281
     0
  0
ENDSEC
  0
SECTION
  2
TABLES
  0
TABLE
  2
VPORT
  5
8
330
0
100
AcDbSymbolTable
 70
     1
  0
VPORT
  5
29
330
8
100
AcDbSymbolTableRecord
100
AcDbViewportTableRecord
  2
*Active
 70
     0
 10
0.0
 20
0.0
 11
1.0
 21
1.0
 12
0.0
 22
0.89127633419929
 13
0.0
 23
0.0
 14
10.0
 24
10.0
 15
10.0
 25
10.0
 16
0.0
 26
0.0
 36
1.0
 17
0.0
 27
0.0
 37
0.0
 40
82.60220372176659
 41
1.9609162068556
 42
50.0
 43
0.0
 44
0.0
 50
0.0
 51
0.0
 71
     0
 72
   100
 73
     1
 74
     3
 75
     0
 76
     0
 77
     0
 78
     0
281
     0
 65
     1
110
0.0
120
0.0
130
0.0
111
1.0
121
0.0
131
0.0
112
0.0
122
1.0
132
0.0
 79
     0
146
0.0
348
2F
 60
     3
 61
     5
292
     1
282
     1
141
0.0
142
0.0
 63
   250
361
6D
  0
ENDTAB
  0
TABLE
  2
LTYPE
  5
5
330
0
100
AcDbSymbolTable
 70
     3
  0
LTYPE
  5
14
330
5
100
AcDbSymbolTableRecord
100
AcDbLinetypeTableRecord
  2
ByBlock
 70
     0
  3

 72
    65
 73
     0
 40
0.0
  0
LTYPE
  5
15
330
5
100
AcDbSymbolTableRecord
100
AcDbLinetypeTableRecord
  2
ByLayer
 70
     0
  3

 72
    65
 73
     0
 40
0.0
  0
LTYPE
  5
16
330
5
100
AcDbSymbolTableRecord
100
AcDbLinetypeTableRecord
  2
Continuous
 70
     0
  3
Solid line
 72
    65
 73
     0
 40
0.0
  0
LTYPE
  5
9B
330
5
100
AcDbSymbolTableRecord
100
AcDbLinetypeTableRecord
  2
Dashed
 70
     0
  3

 72
    65
 73
     2
 40
2.0
 49
1.0
 74
     0
 49
-1.0
 74
     0
  0
LTYPE
  5
A9
330
5
100
AcDbSymbolTableRecord
100
AcDbLinetypeTableRecord
  2
Center
 70
     0
  3

 72
    65
 73
     4
 40
1.5
 49
0.45
 74
     0
 49
-0.5
 74
     0
 49
0.05
 74
     0
 49
-0.5
 74
     0
  0
ENDTAB
  0
TABLE
  2
LAYER
  5
2
330
0
100
AcDbSymbolTable
 70
     7
  0
LAYER
  5
10
330
2
100
AcDbSymbolTableRecord
100
AcDbLayerTableRecord
  2
0
 70
     0
 62
     7
  6
Continuous
370
    -3
390
F
347
46
348
0
  0
LAYER
  5
72
330
2
100
AcDbSymbolTableRecord
100
AcDbLayerTableRecord
  2
AM_6
 70
     0
 62
    -2
  6
Continuous
370
    35
390
F
347
46
348
0
  0
LAYER
  5
9C
330
2
100
AcDbSymbolTableRecord
100
AcDbLayerTableRecord
  2
AM_9
 70
     0
 62
     6
  6
Dashed
370
    25
390
F
347
46
348
0
  0
LAYER
  5
A3
330
2
100
AcDbSymbolTableRecord
100
AcDbLayerTableRecord
  2
AM_5
 70
     0
 62
     3
  6
Continuous
370
    25
390
F
347
46
348
0
  0
LAYER
  5
AA
330
2
100
AcDbSymbolTableRecord
100
AcDbLayerTableRecord
  2
AM_7
 70
     0
 62
     7
  6
Center
370
    25
390
F
347
46
348
0
  0
LAYER
  5
AC
330
2
100
AcDbSymbolTableRecord
100
AcDbLayerTableRecord
  2
AM_4
 70
     0
 62
     7
  6
Continuous
370
    50
390
F
347
46
348
0
  0
LAYER
  5
177
330
2
100
AcDbSymbolTableRecord
100
AcDbLayerTableRecord
  2
ConnectionPoints
 70
     0
 62
     7
  6
Continuous
370
    50
390
F
347
46
348
0
  0
ENDTAB
  0
TABLE
  2
STYLE
  5
3
330
0
100
AcDbSymbolTable
 70
     1
  0
STYLE
  5
11
330
3
100
AcDbSymbolTableRecord
100
AcDbTextStyleTableRecord
  2
Standard
 70
     0
 40
0.0
 41
1.0
 50
0.0
 71
     0
 42
2.5
  3
txt
  4

  0
ENDTAB
  0
TABLE
  2
VIEW
  5
6
330
0
100
AcDbSymbolTable
 70
     0
  0
ENDTAB
  0
TABLE
  2
UCS
  5
7
330
0
100
AcDbSymbolTable
 70
     0
  0
ENDTAB
  0
TABLE
  2
APPID
  5
9
330
0
100
AcDbSymbolTable
 70
     1
  0
APPID
  5
12
330
9
100
AcDbSymbolTableRecord
100
AcDbRegAppTableRecord
  2
ACAD
 70
     0
  0
ENDTAB
  0
TABLE
  2
DIMSTYLE
  5
A
330
0
100
AcDbSymbolTable
 70
     1
100
AcDbDimStyleTable
  0
DIMSTYLE
105
27
330
A
100
AcDbSymbolTableRecord
100
AcDbDimStyleTableRecord
  2
ISO-25
 70
     0
 41
2.5
 42
0.625
 43
3.75
 44
1.25
 73
     0
 74
     0
 77
     1
 78
     8
140
2.5
141
2.5
143
0.03937007874016
147
0.625
171
     3
172
     1
178
     0
271
     2
272
     2
274
     3
278
    44
283
     0
284
     8
340
11
  0
ENDTAB
  0
TABLE
  2
BLOCK_RECORD
  5
1
330
0
100
AcDbSymbolTable
 70
     5
  0
BLOCK_RECORD
  5
1F
330
1
100
AcDbSymbolTableRecord
100
AcDbBlockTableRecord
  2
*Model_Space
340
22
 70
     0
280
     1
281
     0
  0
BLOCK_RECORD
  5
1B
330
1
100
AcDbSymbolTableRecord
100
AcDbBlockTableRecord
  2
*Paper_Space
340
1E
 70
     0
280
     1
281
     0
  0
BLOCK_RECORD
  5
23
330
1
100
AcDbSymbolTableRecord
100
AcDbBlockTableRecord
  2
*Paper_Space0
340
26
 70
     0
280
     1
281
     0
  0
BLOCK_RECORD
  5
6E
330
1
100
AcDbSymbolTableRecord
100
AcDbBlockTableRecord
  2
1_056830_0
340
0
102
{BLKREFS
331
6F
102
}
 70
     0
280
     1
281
     0
  0
BLOCK_RECORD
  5
8F
330
1
100
AcDbSymbolTableRecord
100
AcDbBlockTableRecord
  2
2_405015E_Metric_0_in_056830_0
340
0
102
{BLKREFS
331
90
102
}
 70
     0
280
     1
281
     0
  0
BLOCK_RECORD
  5
D7
330
1
100
AcDbSymbolTableRecord
100
AcDbBlockTableRecord
  2
3_125647_0_in_056830_0
340
0
102
{BLKREFS
331
D8
102
}
 70
     0
280
     1
281
     0
  0
BLOCK_RECORD
  5
10C
330
1
100
AcDbSymbolTableRecord
100
AcDbBlockTableRecord
  2
4_056830H_0_in_056830_0
340
0
102
{BLKREFS
331
10D
102
}
 70
     0
280
     1
281
     0
  0
ENDTAB
  0
ENDSEC
  0
SECTION
  2
BLOCKS
  0
BLOCK
  5
20
330
1F
100
AcDbEntity
  8
0
100
AcDbBlockBegin
  2
*Model_Space
 70
     0
 10
0.0
 20
0.0
 30
0.0
  3
*Model_Space
  1

  0
ENDBLK
  5
21
330
1F
100
AcDbEntity
  8
0
100
AcDbBlockEnd
  0
BLOCK
  5
1C
330
1B
100
AcDbEntity
 67
     1
  8
0
100
AcDbBlockBegin
  2
*Paper_Space
 70
     0
 10
0.0
 20
0.0
 30
0.0
  3
*Paper_Space
  1

  0
ENDBLK
  5
1D
330
1B
100
AcDbEntity
 67
     1
  8
0
100
AcDbBlockEnd
  0
BLOCK
  5
24
330
23
100
AcDbEntity
  8
0
100
AcDbBlockBegin
  2
*Paper_Space0
 70
     0
 10
0.0
 20
0.0
 30
0.0
  3
*Paper_Space0
  1

  0
ENDBLK
  5
25
330
23
100
AcDbEntity
  8
0
100
AcDbBlockEnd
  0
BLOCK
  5
70
330
6E
100
AcDbEntity
  8
0
100
AcDbBlockBegin
  2
1_056830_0
 70
     2
 10
0.0
 20
0.0
 30
0.0
  3
1_056830_0
  1

  0
ATTDEF
  5
73
330
6E
100
AcDbEntity
  8
AM_6
100
AcDbText
 10
84.4
 20
41.38255266839859
 30
0.0
 40
0.5
  1
Eccentric Collar Low Backing Height Intermediate Duty Two-Bolt Pillow Block Metric Bore
100
AcDbAttributeDefinition
  3

  2
NN
 70
     8
280
     0
  0
ATTDEF
  5
74
330
6E
100
AcDbEntity
  8
AM_6
100
AcDbText
 10
84.4
 20
40.88255266839859
 30
0.0
 40
0.5
  1
Eccentric Collar Pillow Block Bearings -(Intermediate Duty) -Low Backing Height
100
AcDbAttributeDefinition
  3

  2
NT
 70
     8
280
     0
  0
ATTDEF
  5
75
330
6E
100
AcDbEntity
  8
AM_6
100
AcDbText
 10
84.4
 20
40.38255266839859
 30
0.0
 40
0.5
  1
056830
100
AcDbAttributeDefinition
  3

  2
NB
 70
     8
280
     0
  0
ATTDEF
  5
76
330
6E
100
AcDbEntity
  8
AM_6
100
AcDbText
 10
84.4
 20
39.88255266839859
 30
0.0
 40
0.5
  1
$PN.
100
AcDbAttributeDefinition
  3

  2
NBSYN
 70
     8
280
     0
  0
ATTDEF
  5
77
330
6E
100
AcDbEntity
  8
AM_6
100
AcDbText
 10
84.4
 20
39.38255266839859
 30
0.0
 40
0.5
  1
056830
100
AcDbAttributeDefinition
  3

  2
LINA
 70
     8
280
     0
  0
ATTDEF
  5
78
330
6E
100
AcDbEntity
  8
AM_6
100
AcDbText
 10
84.4
 20
38.88255266839859
 30
0.0
 40
0.5
  1
206
100
AcDbAttributeDefinition
  3

  2
SERIES
 70
     8
280
     0
  0
ATTDEF
  5
79
330
6E
100
AcDbEntity
  8
AM_6
100
AcDbText
 10
84.4
 20
38.38255266839859
 30
0.0
 40
0.5
  1
30
100
AcDbAttributeDefinition
  3

  2
SS
 70
     8
280
     0
  0
ATTDEF
  5
7A
330
6E
100
AcDbEntity
  8
AM_6
100
AcDbText
 10
84.4
 20
37.88255266839859
 30
0.0
 40
0.5
  1
056830
100
AcDbAttributeDefinition
  3

  2
PN
 70
     8
280
     0
  0
ATTDEF
  5
7B
330
6E
100
AcDbEntity
  8
AM_6
100
AcDbText
 10
84.4
 20
37.38255266839859
 30
0.0
 40
0.5
  1
P2B-SXVB-30M
100
AcDbAttributeDefinition
  3

  2
DESCRIPTION
 70
     8
280
     0
  0
ATTDEF
  5
7C
330
6E
100
AcDbEntity
  8
AM_6
100
AcDbText
 10
84.4
 20
36.88255266839859
 30
0.0
 40
0.5
  1
1.2
100
AcDbAttributeDefinition
  3

  2
WEIGHT
 70
     8
280
     0
  0
ATTDEF
  5
7D
330
6E
100
AcDbEntity
  8
AM_6
100
AcDbText
 10
84.4
 20
36.38255266839859
 30
0.0
 40
0.5
  1
35.8
100
AcDbAttributeDefinition
  3

  2
A
 70
     8
280
     0
  0
ATTDEF
  5
7E
330
6E
100
AcDbEntity
  8
AM_6
100
AcDbText
 10
84.4
 20
35.88255266839859
 30
0.0
 40
0.5
  1
158.8
100
AcDbAttributeDefinition
  3

  2
B
 70
     8
280
     0
  0
ATTDEF
  5
7F
330
6E
100
AcDbEntity
  8
AM_6
100
AcDbText
 10
84.4
 20
35.38255266839859
 30
0.0
 40
0.5
  1
44.5
100
AcDbAttributeDefinition
  3

  2
C
 70
     8
280
     0
  0
ATTDEF
  5
80
330
6E
100
AcDbEntity
  8
AM_6
100
AcDbText
 10
84.4
 20
34.88255266839859
 30
0.0
 40
0.5
  1
108.0
100
AcDbAttributeDefinition
  3

  2
DMIN
 70
     8
280
     0
  0
ATTDEF
  5
81
330
6E
100
AcDbEntity
  8
AM_6
100
AcDbText
 10
84.4
 20
34.38255266839859
 30
0.0
 40
0.5
  1
127.0
100
AcDbAttributeDefinition
  3

  2
DMAX
 70
     8
280
     0
  0
ATTDEF
  5
82
330
6E
100
AcDbEntity
  8
AM_6
100
AcDbText
 10
84.4
 20
33.88255266839859
 30
0.0
 40
0.5
  1
M12
100
AcDbAttributeDefinition
  3

  2
F
 70
     8
280
     0
  0
ATTDEF
  5
83
330
6E
100
AcDbEntity
  8
AM_6
100
AcDbText
 10
84.4
 20
33.38255266839859
 30
0.0
 40
0.5
  1
23.9
100
AcDbAttributeDefinition
  3

  2
G
 70
     8
280
     0
  0
ATTDEF
  5
84
330
6E
100
AcDbEntity
  8
AM_6
100
AcDbText
 10
84.4
 20
32.88255266839859
 30
0.0
 40
0.5
  1
15.8
100
AcDbAttributeDefinition
  3

  2
H
 70
     8
280
     0
  0
ATTDEF
  5
85
330
6E
100
AcDbEntity
  8
AM_6
100
AcDbText
 10
84.4
 20
32.38255266839859
 30
0.0
 40
0.5
  1
81.0
100
AcDbAttributeDefinition
  3

  2
J
 70
     8
280
     0
  0
ATTDEF
  5
86
330
6E
100
AcDbEntity
  8
AM_6
100
AcDbText
 10
84.4
 20
31.88255266839859
 30
0.0
 40
0.5
  1
44.5
100
AcDbAttributeDefinition
  3

  2
L
 70
     8
280
     0
  0
ATTDEF
  5
87
330
6E
100
AcDbEntity
  8
AM_6
100
AcDbText
 10
84.4
 20
31.38255266839859
 30
0.0
 40
0.5
  1
39.6
100
AcDbAttributeDefinition
  3

  2
M
 70
     8
280
     0
  0
ATTDEF
  5
88
330
6E
100
AcDbEntity
  8
AM_6
100
AcDbText
 10
84.4
 20
30.88255266839859
 30
0.0
 40
0.5
  1
8.9
100
AcDbAttributeDefinition
  3

  2
R
 70
     8
280
     0
  0
ATTDEF
  5
89
330
6E
100
AcDbEntity
  8
AM_6
100
AcDbText
 10
84.4
 20
30.38255266839859
 30
0.0
 40
0.5
  1
26.7
100
AcDbAttributeDefinition
  3

  2
S
 70
     8
280
     0
  0
ATTDEF
  5
8A
330
6E
100
AcDbEntity
  8
AM_6
100
AcDbText
 10
84.4
 20
29.88255266839859
 30
0.0
 40
0.5
  1
73.2
100
AcDbAttributeDefinition
  3

  2
U
 70
     8
280
     0
  0
ATTDEF
  5
8B
330
6E
100
AcDbEntity
  8
AM_6
100
AcDbText
 10
84.4
 20
29.38255266839859
 30
0.0
 40
0.5
  1
146.3
100
AcDbAttributeDefinition
  3

  2
V
 70
     8
280
     0
  0
ATTDEF
  5
8C
330
6E
100
AcDbEntity
  8
AM_6
100
AcDbText
 10
84.4
 20
28.88255266839859
 30
0.0
 40
0.5
  1
14.2
100
AcDbAttributeDefinition
  3

  2
W
 70
     8
280
     0
  0
ATTDEF
  5
8D
330
6E
100
AcDbEntity
  8
AM_6
100
AcDbText
 10
84.4
 20
28.38255266839859
 30
0.0
 40
0.5
  1
3.0
100
AcDbAttributeDefinition
  3

  2
X
 70
     8
280
     0
  0
ATTDEF
  5
8E
330
6E
100
AcDbEntity
  8
AM_6
100
AcDbText
 10
84.4
 20
27.88255266839859
 30
0.0
 40
0.5
  1
baldor
100
AcDbAttributeDefinition
  3

  2
COMPANY
 70
     8
280
     0
  0
INSERT
  5
90
330
6E
100
AcDbEntity
  8
0
100
AcDbBlockReference
  2
2_405015E_Metric_0_in_056830_0
 10
0.0
 20
0.0
 30
0.0
  0
INSERT
  5
D8
330
6E
100
AcDbEntity
  8
0
100
AcDbBlockReference
  2
3_125647_0_in_056830_0
 10
0.0
 20
0.0
 30
0.0
  0
INSERT
  5
10D
330
6E
100
AcDbEntity
  8
0
100
AcDbBlockReference
  2
4_056830H_0_in_056830_0
 10
0.0
 20
0.0
 30
0.0
  0
ENDBLK
  5
71
330
6E
100
AcDbEntity
  8
0
100
AcDbBlockEnd
  0
BLOCK
  5
91
330
8F
100
AcDbEntity
  8
0
100
AcDbBlockBegin
  2
2_405015E_Metric_0_in_056830_0
 70
     2
 10
0.0
 20
0.0
 30
0.0
  3
2_405015E_Metric_0_in_056830_0
  1

  0
ATTDEF
  5
93
330
8F
100
AcDbEntity
  8
AM_6
100
AcDbText
 10
42.68309749406172
 20
37.68309749406173
 30
0.0
 40
0.5
  1
405015E -Metric
100
AcDbAttributeDefinition
  3

  2
NN
 70
     8
280
     0
  0
ATTDEF
  5
94
330
8F
100
AcDbEntity
  8
AM_6
100
AcDbText
 10
42.68309749406172
 20
37.18309749406173
 30
0.0
 40
0.5
  1
Grease Fitting
100
AcDbAttributeDefinition
  3

  2
NT
 70
     8
280
     0
  0
ATTDEF
  5
95
330
8F
100
AcDbEntity
  8
AM_6
100
AcDbText
 10
42.68309749406172
 20
36.68309749406173
 30
0.0
 40
0.5
  1
405015E-Metric
100
AcDbAttributeDefinition
  3

  2
NB
 70
     8
280
     0
  0
ATTDEF
  5
96
330
8F
100
AcDbEntity
  8
AM_6
100
AcDbText
 10
42.68309749406172
 20
36.18309749406173
 30
0.0
 40
0.5
  1
$MN.-Metric
100
AcDbAttributeDefinition
  3

  2
NBSYN
 70
     8
280
     0
  0
ATTDEF
  5
97
330
8F
100
AcDbEntity
  8
AM_6
100
AcDbText
 10
42.68309749406172
 20
35.68309749406173
 30
0.0
 40
0.5
  1
405015E
100
AcDbAttributeDefinition
  3

  2
LINA
 70
     8
280
     0
  0
ATTDEF
  5
98
330
8F
100
AcDbEntity
  8
AM_6
100
AcDbText
 10
42.68309749406172
 20
35.18309749406173
 30
0.0
 40
0.5
  1
405015E
100
AcDbAttributeDefinition
  3

  2
MN
 70
     8
280
     0
  0
ATTDEF
  5
99
330
8F
100
AcDbEntity
  8
AM_6
100
AcDbText
 10
42.68309749406172
 20
34.68309749406173
 30
0.0
 40
0.5
  1
1/8 x 27PTF
100
AcDbAttributeDefinition
  3

  2
T
 70
     8
280
     0
  0
ATTDEF
  5
9A
330
8F
100
AcDbEntity
  8
AM_6
100
AcDbText
 10
42.68309749406172
 20
34.18309749406173
 30
0.0
 40
0.5
  1
baldor
100
AcDbAttributeDefinition
  3

  2
COMPANY
 70
     8
280
     0
  0
LINE
  5
9D
330
8F
100
AcDbEntity
  8
AM_9
100
AcDbLine
 10
27.45483057596378
 20
21.57453941794905
 30
0.0
 11
28.30340920551867
 21
21.57453941794905
 31
0.0
  0
LINE
  5
9E
330
8F
100
AcDbEntity
  8
AM_9
100
AcDbLine
 10
21.57453941794903
 20
28.30340920551868
 30
0.0
 11
21.57453941794904
 21
27.45483057596379
 31
0.0
  0
LINE
  5
9F
330
8F
100
AcDbEntity
  8
AM_9
100
AcDbLine
 10
21.57453941794904
 20
27.45483057596379
 30
0.0
 11
27.45483057596378
 21
21.57453941794905
 31
0.0
  0
LINE
  5
A0
330
8F
100
AcDbEntity
  8
AM_9
100
AcDbLine
 10
28.30340920551867
 20
21.57453941794905
 30
0.0
 11
32.5584162906445
 21
25.57165478894736
 31
0.0
  0
LINE
  5
A1
330
8F
100
AcDbEntity
  8
AM_9
100
AcDbLine
 10
25.57165478894735
 20
32.55841629064452
 30
0.0
 11
21.57453941794903
 21
28.30340920551868
 31
0.0
  0
LINE
  5
A2
330
8F
100
AcDbEntity
  8
AM_9
100
AcDbLine
 10
21.57453941794903
 20
28.30340920551868
 30
0.0
 11
28.30340920551867
 21
21.57453941794905
 31
0.0
  0
LINE
  5
A4
330
8F
100
AcDbEntity
  8
AM_5
100
AcDbLine
 10
31.5869218589979
 20
25.45618879040724
 30
0.0
 11
27.45483057596378
 21
21.57453941794905
 31
0.0
  0
LINE
  5
A5
330
8F
100
AcDbEntity
  8
AM_5
100
AcDbLine
 10
32.46413833536967
 20
25.69123823683832
 30
0.0
 11
31.5869218589979
 21
25.45618879040723
 31
0.0
  0
LINE
  5
A6
330
8F
100
AcDbEntity
  8
AM_5
100
AcDbLine
 10
31.99795147007418
 20
25.04515917933094
 30
0.0
 11
25.04515917933094
 21
31.99795147007418
 31
0.0
  0
LINE
  5
A7
330
8F
100
AcDbEntity
  8
AM_5
100
AcDbLine
 10
25.45618879040722
 20
31.58692185899791
 30
0.0
 11
21.57453941794905
 21
27.4548305759638
 31
0.0
  0
LINE
  5
A8
330
8F
100
AcDbEntity
  8
AM_5
100
AcDbLine
 10
25.69123823683831
 20
32.46413833536968
 30
0.0
 11
25.45618879040721
 21
31.58692185899791
 31
0.0
  0
LINE
  5
AB
330
8F
100
AcDbEntity
  8
AM_7
100
AcDbLine
 10
36.58414922367334
 20
36.58414922367336
 30
0.0
 11
23.93994860520798
 21
23.939948605208
 31
0.0
  0
LINE
  5
AD
330
8F
100
AcDbEntity
  8
AM_4
100
AcDbLine
 10
27.86000717874996
 20
34.93107499061545
 30
0.0
 11
34.93107499061544
 21
27.86000717874998
 31
0.0
  0
LINE
  5
AE
330
8F
100
AcDbEntity
  8
AM_4
100
AcDbLine
 10
35.33146944681707
 20
27.16650363753983
 30
0.0
 11
34.93107499061544
 21
27.86000717874998
 31
0.0
  0
LINE
  5
AF
330
8F
100
AcDbEntity
  8
AM_4
100
AcDbLine
 10
27.86000717874996
 20
34.93107499061545
 30
0.0
 11
27.16650363753982
 21
35.33146944681709
 31
0.0
  0
LINE
  5
B0
330
8F
100
AcDbEntity
  8
AM_4
100
AcDbLine
 10
25.33829237898868
 20
33.50325818826595
 30
0.0
 11
25.73868683519032
 21
32.80975464705581
 31
0.0
  0
LINE
  5
B1
330
8F
100
AcDbEntity
  8
AM_4
100
AcDbLine
 10
25.73868683519032
 20
32.80975464705581
 30
0.0
 11
32.8097546470558
 21
25.73868683519033
 31
0.0
  0
LINE
  5
B2
330
8F
100
AcDbEntity
  8
AM_4
100
AcDbLine
 10
32.8097546470558
 20
25.73868683519033
 30
0.0
 11
33.50325818826595
 21
25.3382923789887
 31
0.0
  0
LINE
  5
B3
330
8F
100
AcDbEntity
  8
AM_4
100
AcDbLine
 10
35.07249634685275
 20
31.28947506750474
 30
0.0
 11
35.56747109368333
 21
31.78444981433531
 31
0.0
  0
LINE
  5
B4
330
8F
100
AcDbEntity
  8
AM_4
100
AcDbLine
 10
31.7844498143353
 20
35.56747109368334
 30
0.0
 11
31.28947506750472
 21
35.07249634685277
 31
0.0
  0
LINE
  5
B5
330
8F
100
AcDbEntity
  8
AM_4
100
AcDbLine
 10
31.28947506750472
 20
35.07249634685277
 30
0.0
 11
30.49455857379867
 21
34.71315053462948
 31
0.0
  0
LINE
  5
B6
330
8F
100
AcDbEntity
  8
AM_4
100
AcDbLine
 10
34.71315053462946
 20
30.49455857379868
 30
0.0
 11
35.07249634685275
 21
31.28947506750474
 31
0.0
  0
LINE
  5
B7
330
8F
100
AcDbEntity
  8
AM_4
100
AcDbLine
 10
31.28947506750472
 20
35.07249634685277
 30
0.0
 11
35.07249634685275
 21
31.28947506750474
 31
0.0
  0
LINE
  5
B8
330
8F
100
AcDbEntity
  8
AM_4
100
AcDbLine
 10
35.56747109368333
 20
31.78444981433531
 30
0.0
 11
36.84026329981912
 21
32.35013523928456
 31
0.0
  0
LINE
  5
B9
330
8F
100
AcDbEntity
  8
AM_4
100
AcDbLine
 10
32.35013523928454
 20
36.84026329981914
 30
0.0
 11
31.7844498143353
 21
35.56747109368334
 31
0.0
  0
LINE
  5
BA
330
8F
100
AcDbEntity
  8
AM_4
100
AcDbLine
 10
31.7844498143353
 20
35.56747109368334
 30
0.0
 11
35.56747109368333
 21
31.78444981433531
 31
0.0
  0
LINE
  5
BB
330
8F
100
AcDbEntity
  8
AM_4
100
AcDbLine
 10
34.33572816978813
 20
37.68309749406173
 30
0.0
 11
32.35013523928454
 21
36.84026329981914
 31
0.0
  0
LINE
  5
BC
330
8F
100
AcDbEntity
  8
AM_4
100
AcDbLine
 10
36.84026329981912
 20
32.35013523928456
 30
0.0
 11
37.68309749406172
 21
34.33572816978815
 31
0.0
  0
LINE
  5
BD
330
8F
100
AcDbEntity
  8
AM_4
100
AcDbLine
 10
34.33572816978813
 20
37.68309749406173
 30
0.0
 11
37.68309749406172
 21
34.33572816978815
 31
0.0
  0
LINE
  5
BE
330
8F
100
AcDbEntity
  8
AM_4
100
AcDbLine
 10
32.35013523928454
 20
36.84026329981914
 30
0.0
 11
36.84026329981912
 21
32.35013523928456
 31
0.0
  0
LINE
  5
BF
330
8F
100
AcDbEntity
  8
AM_4
100
AcDbLine
 10
30.49455857379867
 20
34.71315053462948
 30
0.0
 11
29.46006846820747
 21
34.56196253935114
 31
0.0
  0
LINE
  5
C0
330
8F
100
AcDbEntity
  8
AM_4
100
AcDbLine
 10
34.56196253935112
 20
29.46006846820749
 30
0.0
 11
34.71315053462946
 21
30.49455857379868
 31
0.0
  0
LINE
  5
C1
330
8F
100
AcDbEntity
  8
AM_4
100
AcDbLine
 10
30.49455857379867
 20
34.71315053462948
 30
0.0
 11
34.71315053462946
 21
30.49455857379868
 31
0.0
  0
LINE
  5
C2
330
8F
100
AcDbEntity
  8
AM_4
100
AcDbLine
 10
29.46006846820747
 20
34.56196253935114
 30
0.0
 11
28.0367838740466
 21
34.75429829531881
 31
0.0
  0
LINE
  5
C3
330
8F
100
AcDbEntity
  8
AM_4
100
AcDbLine
 10
34.7542982953188
 20
28.03678387404662
 30
0.0
 11
34.56196253935112
 21
29.46006846820749
 31
0.0
  0
LINE
  5
C4
330
8F
100
AcDbEntity
  8
AM_4
100
AcDbLine
 10
29.46006846820747
 20
34.56196253935114
 30
0.0
 11
34.56196253935112
 21
29.46006846820749
 31
0.0
  0
LINE
  5
C5
330
8F
100
AcDbEntity
  8
AM_4
100
AcDbLine
 10
32.5584162906445
 20
25.57165478894736
 30
0.0
 11
32.7741388561985
 21
25.77430262604763
 31
0.0
  0
LINE
  5
C6
330
8F
100
AcDbEntity
  8
AM_4
100
AcDbLine
 10
25.77430262604762
 20
32.77413885619851
 30
0.0
 11
25.57165478894735
 21
32.55841629064452
 31
0.0
  0
LWPOLYLINE
  5
C7
330
8F
100
AcDbEntity
  8
AM_4
100
AcDbPolyline
 90
        3
 70
     0
 43
0.0
 10
31.46201673594663
 20
27.37953383130801
 10
30.33845506924072
 20
28.2880356457012
 10
29.27422074112306
 20
29.27422074112307
  0
LINE
  5
C8
330
8F
100
AcDbEntity
  8
AM_4
100
AcDbLine
 10
35.33146944681707
 20
27.16650363753983
 30
0.0
 11
33.50325818826595
 21
25.3382923789887
 31
0.0
  0
LWPOLYLINE
  5
C9
330
8F
100
AcDbEntity
  8
AM_4
100
AcDbPolyline
 90
        3
 70
     0
 43
0.0
 10
34.45740326316168
 20
28.33367890620374
 10
34.92903075120014
 20
27.78468566808255
 10
35.33146944681707
 20
27.16650363753983
  0
LINE
  5
CA
330
8F
100
AcDbEntity
  8
AM_4
100
AcDbLine
 10
33.29022799449776
 20
29.20774508985915
 30
0.0
 11
31.46201673594663
 21
27.37953383130801
 31
0.0
  0
LWPOLYLINE
  5
CB
330
8F
100
AcDbEntity
  8
AM_4
100
AcDbPolyline
 90
        3
 70
     0
 43
0.0
 10
32.33608291960203
 20
26.2123585626441
 10
31.86445543156356
 20
26.76135180076529
 10
31.46201673594663
 20
27.37953383130801
  0
LWPOLYLINE
  5
CC
330
8F
100
AcDbEntity
  8
AM_4
100
AcDbPolyline
 90
        3
 70
     0
 43
0.0
 10
33.50325818826595
 20
25.3382923789887
 10
32.88771239183481
 20
25.73877832310711
 10
32.33608291960203
 20
26.2123585626441
  0
LWPOLYLINE
  5
CD
330
8F
100
AcDbEntity
  8
AM_4
100
AcDbPolyline
 90
        4
 70
     0
 43
0.0
 10
29.27422074112306
 20
29.27422074112307
 10
28.50861365553039
 20
30.08642276735849
 10
27.78646701680463
 20
30.94208524046081
 10
27.379533831308
 20
31.46201673594664
  0
LWPOLYLINE
  5
CE
330
8F
100
AcDbEntity
  8
AM_4
100
AcDbPolyline
 90
        3
 70
     0
 43
0.0
 10
31.3955410846827
 20
31.39554108468272
 10
32.37747893580099
 20
30.3362374834817
 10
33.29022799449776
 20
29.20774508985915
  0
LWPOLYLINE
  5
CF
330
8F
100
AcDbEntity
  8
AM_4
100
AcDbPolyline
 90
        3
 70
     0
 43
0.0
 10
33.29022799449776
 20
29.20774508985915
 10
33.9057737909289
 20
28.80725914574073
 10
34.45740326316168
 20
28.33367890620374
  0
LINE
  5
D0
330
8F
100
AcDbEntity
  8
AM_4
100
AcDbLine
 10
29.20774508985913
 20
33.29022799449778
 30
0.0
 11
27.379533831308
 21
31.46201673594664
 31
0.0
  0
LWPOLYLINE
  5
D1
330
8F
100
AcDbEntity
  8
AM_4
100
AcDbPolyline
 90
        3
 70
     0
 43
0.0
 10
27.16650363753982
 20
35.33146944681709
 10
27.78204943397095
 20
34.93098350269867
 10
28.33367890620373
 20
34.45740326316169
  0
LINE
  5
D2
330
8F
100
AcDbEntity
  8
AM_4
100
AcDbLine
 10
27.16650363753982
 20
35.33146944681709
 30
0.0
 11
25.33829237898868
 21
33.50325818826595
 31
0.0
  0
LWPOLYLINE
  5
D3
330
8F
100
AcDbEntity
  8
AM_4
100
AcDbPolyline
 90
        3
 70
     0
 43
0.0
 10
26.21235856264408
 20
32.33608291960204
 10
25.74073107460562
 20
32.88507615772323
 10
25.33829237898868
 20
33.50325818826595
  0
LWPOLYLINE
  5
D4
330
8F
100
AcDbEntity
  8
AM_4
100
AcDbPolyline
 90
        3
 70
     0
 43
0.0
 10
27.379533831308
 20
31.46201673594664
 10
26.76398803487686
 20
31.86250268006506
 10
26.21235856264408
 20
32.33608291960204
  0
LWPOLYLINE
  5
D5
330
8F
100
AcDbEntity
  8
AM_4
100
AcDbPolyline
 90
        3
 70
     0
 43
0.0
 10
28.33367890620373
 20
34.45740326316169
 10
28.80530639424219
 20
33.9084100250405
 10
29.20774508985913
 20
33.29022799449778
  0
LWPOLYLINE
  5
D6
330
8F
100
AcDbEntity
  8
AM_4
100
AcDbPolyline
 90
        4
 70
     0
 43
0.0
 10
29.20774508985913
 20
33.29022799449778
 10
29.72767658534496
 20
32.88329480900114
 10
30.58084342770012
 20
32.16336822987622
 10
31.3955410846827
 20
31.39554108468272
  0
ENDBLK
  5
92
330
8F
100
AcDbEntity
  8
0
100
AcDbBlockEnd
  0
BLOCK
  5
D9
330
D7
100
AcDbEntity
  8
0
100
AcDbBlockBegin
  2
3_125647_0_in_056830_0
 70
     2
 10
0.0
 20
0.0
 30
0.0
  3
3_125647_0_in_056830_0
  1

  0
ATTDEF
  5
DB
330
D7
100
AcDbEntity
  8
AM_6
100
AcDbText
 10
38.1275
 20
32.33130298540991
 30
0.0
 40
0.5
  1
Eccentric Collar Intermediate Duty Insert Metric Bore
100
AcDbAttributeDefinition
  3

  2
NN
 70
     8
280
     0
  0
ATTDEF
  5
DC
330
D7
100
AcDbEntity
  8
AM_6
100
AcDbText
 10
38.1275
 20
31.83130298540991
 30
0.0
 40
0.5
  1
Eccentric Collar Bearing Inserts -(Intermediate Duty)
100
AcDbAttributeDefinition
  3

  2
NT
 70
     8
280
     0
  0
ATTDEF
  5
DD
330
D7
100
AcDbEntity
  8
AM_6
100
AcDbText
 10
38.1275
 20
31.33130298540991
 30
0.0
 40
0.5
  1
125647
100
AcDbAttributeDefinition
  3

  2
NB
 70
     8
280
     0
  0
ATTDEF
  5
DE
330
D7
100
AcDbEntity
  8
AM_6
100
AcDbText
 10
38.1275
 20
30.83130298540991
 30
0.0
 40
0.5
  1
$PN.
100
AcDbAttributeDefinition
  3

  2
NBSYN
 70
     8
280
     0
  0
ATTDEF
  5
DF
330
D7
100
AcDbEntity
  8
AM_6
100
AcDbText
 10
38.1275
 20
30.33130298540991
 30
0.0
 40
0.5
  1
125647
100
AcDbAttributeDefinition
  3

  2
LINA
 70
     8
280
     0
  0
ATTDEF
  5
E0
330
D7
100
AcDbEntity
  8
AM_6
100
AcDbText
 10
38.1275
 20
29.83130298540991
 30
0.0
 40
0.5
  1
206
100
AcDbAttributeDefinition
  3

  2
SERIES
 70
     8
280
     0
  0
ATTDEF
  5
E1
330
D7
100
AcDbEntity
  8
AM_6
100
AcDbText
 10
38.1275
 20
29.33130298540991
 30
0.0
 40
0.5
  1
30
100
AcDbAttributeDefinition
  3

  2
SS
 70
     8
280
     0
  0
ATTDEF
  5
E2
330
D7
100
AcDbEntity
  8
AM_6
100
AcDbText
 10
38.1275
 20
28.83130298540991
 30
0.0
 40
0.5
  1
125647
100
AcDbAttributeDefinition
  3

  2
PN
 70
     8
280
     0
  0
ATTDEF
  5
E3
330
D7
100
AcDbEntity
  8
AM_6
100
AcDbText
 10
38.1275
 20
28.33130298540991
 30
0.0
 40
0.5
  1
INS-SXV-30M
100
AcDbAttributeDefinition
  3

  2
DESCRIPTION
 70
     8
280
     0
  0
ATTDEF
  5
E4
330
D7
100
AcDbEntity
  8
AM_6
100
AcDbText
 10
38.1275
 20
27.83130298540991
 30
0.0
 40
0.5
  1
0.3
100
AcDbAttributeDefinition
  3

  2
WEIGHT
 70
     8
280
     0
  0
ATTDEF
  5
E5
330
D7
100
AcDbEntity
  8
AM_6
100
AcDbText
 10
38.1275
 20
27.33130298540991
 30
0.0
 40
0.5
  1
35.8
100
AcDbAttributeDefinition
  3

  2
A
 70
     8
280
     0
  0
ATTDEF
  5
E6
330
D7
100
AcDbEntity
  8
AM_6
100
AcDbText
 10
38.1275
 20
26.83130298540991
 30
0.0
 40
0.5
  1
17.5
100
AcDbAttributeDefinition
  3

  2
C
 70
     8
280
     0
  0
ATTDEF
  5
E7
330
D7
100
AcDbEntity
  8
AM_6
100
AcDbText
 10
38.1275
 20
26.33130298540991
 30
0.0
 40
0.5
  1
62.0
100
AcDbAttributeDefinition
  3

  2
D
 70
     8
280
     0
  0
ATTDEF
  5
E8
330
D7
100
AcDbEntity
  8
AM_6
100
AcDbText
 10
38.1275
 20
25.83130298540991
 30
0.0
 40
0.5
  1
4.1
100
AcDbAttributeDefinition
  3

  2
J
 70
     8
280
     0
  0
ATTDEF
  5
E9
330
D7
100
AcDbEntity
  8
AM_6
100
AcDbText
 10
38.1275
 20
25.33130298540991
 30
0.0
 40
0.5
  1
44.5
100
AcDbAttributeDefinition
  3

  2
L
 70
     8
280
     0
  0
ATTDEF
  5
EA
330
D7
100
AcDbEntity
  8
AM_6
100
AcDbText
 10
38.1275
 20
24.83130298540991
 30
0.0
 40
0.5
  1
M8 x 1.25
100
AcDbAttributeDefinition
  3

  2
N
 70
     8
280
     0
  0
ATTDEF
  5
EB
330
D7
100
AcDbEntity
  8
AM_6
100
AcDbText
 10
38.1275
 20
24.33130298540991
 30
0.0
 40
0.5
  1
8.9
100
AcDbAttributeDefinition
  3

  2
W
 70
     8
280
     0
  0
ATTDEF
  5
EC
330
D7
100
AcDbEntity
  8
AM_6
100
AcDbText
 10
38.1275
 20
23.83130298540991
 30
0.0
 40
0.5
  1
26.7
100
AcDbAttributeDefinition
  3

  2
Y
 70
     8
280
     0
  0
ATTDEF
  5
ED
330
D7
100
AcDbEntity
  8
AM_6
100
AcDbText
 10
38.1275
 20
23.33130298540991
 30
0.0
 40
0.5
  1
39.9
100
AcDbAttributeDefinition
  3

  2
Z
 70
     8
280
     0
  0
ATTDEF
  5
EE
330
D7
100
AcDbEntity
  8
AM_6
100
AcDbText
 10
38.1275
 20
22.83130298540991
 30
0.0
 40
0.5
  1
baldor
100
AcDbAttributeDefinition
  3

  2
COMPANY
 70
     8
280
     0
  0
LINE
  5
EF
330
D7
100
AcDbEntity
  8
AM_9
100
AcDbLine
 10
30.5
 20
-1.590780621681426
 30
0.0
 11
30.5
 21
1.590780621681442
 31
0.0
  0
ARC
  5
F0
330
D7
100
AcDbEntity
  8
AM_9
100
AcDbCircle
 10
30.49999999999915
 20
-0.0000000000000018
 30
0.0
 40
2.000000000000062
100
AcDbArc
 50
274.6733773778985
 51
85.32662262210167
  0
ELLIPSE
  5
F1
330
D7
100
AcDbEntity
  8
AM_9
100
AcDbEllipse
 10
30.66005849682177
 20
0.0
 30
0.0
 11
-3.661942998918946E-16
 21
-1.993468920436779
 31
0.0
210
0.0
220
0.0
230
1.0
 40
0.1332278776822242
 41
5.636351926859263
 42
10.0716113410897
  0
LWPOLYLINE
  5
F2
330
D7
100
AcDbEntity
  8
AM_9
100
AcDbPolyline
 90
        7
 70
     0
 43
0.0
 10
30.5
 20
1.590780621681442
 10
30.43861956347189
 20
1.10300537771241
 10
30.40208286324803
 20
0.4884632417494036
 10
30.39498613838191
 20
-0.1781378168843707
 10
30.41773213842928
 20
-0.821796576994274
 10
30.46758174633004
 20
-1.374092750035382
 10
30.5
 20
-1.590780621681426
  0
ARC
  5
F3
330
D7
100
AcDbEntity
  8
AM_9
100
AcDbCircle
 10
0.0000000001655813
 20
-0.0000000000300053
 30
0.0
 40
30.99999999983176
100
AcDbArc
 50
348.5305069596339
 51
350.195524792883
  0
ARC
  5
F4
330
D7
100
AcDbEntity
  8
AM_9
100
AcDbCircle
 10
-0.0000000001074341
 20
-0.0000000000189369
 30
0.0
 40
30.99999999989095
100
AcDbArc
 50
189.4054912654618
 51
191.4694930403649
  0
ARC
  5
F5
330
D7
100
AcDbEntity
  8
AM_9
100
AcDbCircle
 10
-0.0000000005175274
 20
0.0000000000248161
 30
0.0
 40
30.99999999948191
100
AcDbArc
 50
176.6148261942897
 51
177.5828466572038
  0
ARC
  5
F6
330
D7
100
AcDbEntity
  8
AM_9
100
AcDbCircle
 10
0.0000000000299956
 20
0.0000000000004672
 30
0.0
 40
30.99999999997003
100
AcDbArc
 50
0.2064130690304155
 51
3.385173805701947
  0
CIRCLE
  5
F7
330
D7
100
AcDbEntity
  8
AM_9
100
AcDbCircle
 10
0.0
 20
0.0
 30
0.0
 40
29.52380952380952
  0
CIRCLE
  5
F8
330
D7
100
AcDbEntity
  8
AM_9
100
AcDbCircle
 10
0.0
 20
0.0
 30
0.0
 40
19.95
  0
CIRCLE
  5
F9
330
D7
100
AcDbEntity
  8
AM_9
100
AcDbCircle
 10
0.0
 20
0.0
 30
0.0
 40
19.0
  0
CIRCLE
  5
FA
330
D7
100
AcDbEntity
  8
AM_9
100
AcDbCircle
 10
0.0
 20
0.0
 30
0.0
 40
15.29999999999999
  0
LINE
  5
FB
330
D7
100
AcDbEntity
  8
AM_9
100
AcDbLine
 10
3.3235
 20
14.62977122449664
 30
0.0
 11
3.3235
 21
21.88749643061078
 31
0.0
  0
LINE
  5
FC
330
D7
100
AcDbEntity
  8
AM_9
100
AcDbLine
 10
-3.3235
 20
21.88749643061078
 30
0.0
 11
-3.3235
 21
14.62861963884894
 31
0.0
  0
LINE
  5
FD
330
D7
100
AcDbEntity
  8
AM_9
100
AcDbLine
 10
-3.3235
 20
21.88749643061078
 30
0.0
 11
3.3235
 21
21.88749643061078
 31
0.0
  0
LINE
  5
FE
330
D7
100
AcDbEntity
  8
AM_9
100
AcDbLine
 10
3.3235
 20
21.88749643061078
 30
0.0
 11
3.41732244290696
 21
21.98131887351775
 31
0.0
  0
LINE
  5
FF
330
D7
100
AcDbEntity
  8
AM_9
100
AcDbLine
 10
-3.415862324217374
 20
21.97985875482816
 30
0.0
 11
-3.3235
 21
21.88749643061078
 31
0.0
  0
LINE
  5
100
330
D7
100
AcDbEntity
  8
AM_5
100
AcDbLine
 10
-4.0
 20
14.45683229480096
 30
0.0
 11
-4.0
 21
21.88749643061078
 31
0.0
  0
LINE
  5
101
330
D7
100
AcDbEntity
  8
AM_5
100
AcDbLine
 10
4.0
 20
14.45683229480096
 30
0.0
 11
4.0
 21
21.88749643061078
 31
0.0
  0
LINE
  5
102
330
D7
100
AcDbEntity
  8
AM_7
100
AcDbLine
 10
-32.33130298540991
 20
0.0
 30
0.0
 11
33.1275
 21
0.0
 31
0.0
  0
LINE
  5
103
330
D7
100
AcDbEntity
  8
AM_7
100
AcDbLine
 10
0.0
 20
-32.33130298540991
 30
0.0
 11
0.0
 21
32.33130298540991
 31
0.0
  0
CIRCLE
  5
104
330
D7
100
AcDbEntity
  8
AM_4
100
AcDbCircle
 10
0.0
 20
0.0
 30
0.0
 40
30.79171712896181
  0
CIRCLE
  5
105
330
D7
100
AcDbEntity
  8
AM_4
100
AcDbCircle
 10
0.0
 20
0.0
 30
0.0
 40
30.65493180142471
  0
CIRCLE
  5
106
330
D7
100
AcDbEntity
  8
AM_4
100
AcDbCircle
 10
0.0
 20
0.0
 30
0.0
 40
29.86519185933419
  0
CIRCLE
  5
107
330
D7
100
AcDbEntity
  8
AM_4
100
AcDbCircle
 10
0.0
 20
0.0
 30
0.0
 40
29.2871558878632
  0
CIRCLE
  5
108
330
D7
100
AcDbEntity
  8
AM_4
100
AcDbCircle
 10
0.0
 20
0.0
 30
0.0
 40
15.0
  0
CIRCLE
  5
109
330
D7
100
AcDbEntity
  8
AM_4
100
AcDbCircle
 10
0.0
 20
0.0
 30
0.0
 40
15.42426406871193
  0
CIRCLE
  5
10A
330
D7
100
AcDbEntity
  8
AM_4
100
AcDbCircle
 10
0.0
 20
0.0
 30
0.0
 40
21.05
  0
CIRCLE
  5
10B
330
D7
100
AcDbEntity
  8
AM_4
100
AcDbCircle
 10
-0.0000000000000266
 20
-0.0000000000000266
 30
0.0
 40
22.25000000000003
  0
ENDBLK
  5
DA
330
D7
100
AcDbEntity
  8
0
100
AcDbBlockEnd
  0
BLOCK
  5
10E
330
10C
100
AcDbEntity
  8
0
100
AcDbBlockBegin
  2
4_056830H_0_in_056830_0
 70
     2
 10
0.0
 20
0.0
 30
0.0
  3
4_056830H_0_in_056830_0
  1

  0
ATTDEF
  5
110
330
10C
100
AcDbEntity
  8
AM_6
100
AcDbText
 10
84.4
 20
41.38255266839859
 30
0.0
 40
0.5
  1
P2B-SXVB -M-Housing
100
AcDbAttributeDefinition
  3

  2
NN
 70
     8
280
     0
  0
ATTDEF
  5
111
330
10C
100
AcDbEntity
  8
AM_6
100
AcDbText
 10
84.4
 20
40.88255266839859
 30
0.0
 40
0.5
  1
Eccentric Collar Pillow Block Bearings -(Intermediate Duty) -Low Backing Height
100
AcDbAttributeDefinition
  3

  2
NT
 70
     8
280
     0
  0
ATTDEF
  5
112
330
10C
100
AcDbEntity
  8
AM_6
100
AcDbText
 10
84.4
 20
40.38255266839859
 30
0.0
 40
0.5
  1
056830H
100
AcDbAttributeDefinition
  3

  2
NB
 70
     8
280
     0
  0
ATTDEF
  5
113
330
10C
100
AcDbEntity
  8
AM_6
100
AcDbText
 10
84.4
 20
39.88255266839859
 30
0.0
 40
0.5
  1
$PN.H
100
AcDbAttributeDefinition
  3

  2
NBSYN
 70
     8
280
     0
  0
ATTDEF
  5
114
330
10C
100
AcDbEntity
  8
AM_6
100
AcDbText
 10
84.4
 20
39.38255266839859
 30
0.0
 40
0.5
  1
056830
100
AcDbAttributeDefinition
  3

  2
LINA
 70
     8
280
     0
  0
ATTDEF
  5
115
330
10C
100
AcDbEntity
  8
AM_6
100
AcDbText
 10
84.4
 20
38.88255266839859
 30
0.0
 40
0.5
  1
206
100
AcDbAttributeDefinition
  3

  2
SERIES
 70
     8
280
     0
  0
ATTDEF
  5
116
330
10C
100
AcDbEntity
  8
AM_6
100
AcDbText
 10
84.4
 20
38.38255266839859
 30
0.0
 40
0.5
  1
30
100
AcDbAttributeDefinition
  3

  2
SS
 70
     8
280
     0
  0
ATTDEF
  5
117
330
10C
100
AcDbEntity
  8
AM_6
100
AcDbText
 10
84.4
 20
37.88255266839859
 30
0.0
 40
0.5
  1
056830
100
AcDbAttributeDefinition
  3

  2
PN
 70
     8
280
     0
  0
ATTDEF
  5
118
330
10C
100
AcDbEntity
  8
AM_6
100
AcDbText
 10
84.4
 20
37.38255266839859
 30
0.0
 40
0.5
  1
P2B-SXVB-30M
100
AcDbAttributeDefinition
  3

  2
DESCRIPTION
 70
     8
280
     0
  0
ATTDEF
  5
119
330
10C
100
AcDbEntity
  8
AM_6
100
AcDbText
 10
84.4
 20
36.88255266839859
 30
0.0
 40
0.5
  1
1.2
100
AcDbAttributeDefinition
  3

  2
WEIGHT
 70
     8
280
     0
  0
ATTDEF
  5
11A
330
10C
100
AcDbEntity
  8
AM_6
100
AcDbText
 10
84.4
 20
36.38255266839859
 30
0.0
 40
0.5
  1
35.8
100
AcDbAttributeDefinition
  3

  2
A
 70
     8
280
     0
  0
ATTDEF
  5
11B
330
10C
100
AcDbEntity
  8
AM_6
100
AcDbText
 10
84.4
 20
35.88255266839859
 30
0.0
 40
0.5
  1
158.8
100
AcDbAttributeDefinition
  3

  2
B
 70
     8
280
     0
  0
ATTDEF
  5
11C
330
10C
100
AcDbEntity
  8
AM_6
100
AcDbText
 10
84.4
 20
35.38255266839859
 30
0.0
 40
0.5
  1
44.5
100
AcDbAttributeDefinition
  3

  2
C
 70
     8
280
     0
  0
ATTDEF
  5
11D
330
10C
100
AcDbEntity
  8
AM_6
100
AcDbText
 10
84.4
 20
34.88255266839859
 30
0.0
 40
0.5
  1
108.0
100
AcDbAttributeDefinition
  3

  2
DMIN
 70
     8
280
     0
  0
ATTDEF
  5
11E
330
10C
100
AcDbEntity
  8
AM_6
100
AcDbText
 10
84.4
 20
34.38255266839859
 30
0.0
 40
0.5
  1
127.0
100
AcDbAttributeDefinition
  3

  2
DMAX
 70
     8
280
     0
  0
ATTDEF
  5
11F
330
10C
100
AcDbEntity
  8
AM_6
100
AcDbText
 10
84.4
 20
33.88255266839859
 30
0.0
 40
0.5
  1
M12
100
AcDbAttributeDefinition
  3

  2
F
 70
     8
280
     0
  0
ATTDEF
  5
120
330
10C
100
AcDbEntity
  8
AM_6
100
AcDbText
 10
84.4
 20
33.38255266839859
 30
0.0
 40
0.5
  1
23.9
100
AcDbAttributeDefinition
  3

  2
G
 70
     8
280
     0
  0
ATTDEF
  5
121
330
10C
100
AcDbEntity
  8
AM_6
100
AcDbText
 10
84.4
 20
32.88255266839859
 30
0.0
 40
0.5
  1
15.8
100
AcDbAttributeDefinition
  3

  2
H
 70
     8
280
     0
  0
ATTDEF
  5
122
330
10C
100
AcDbEntity
  8
AM_6
100
AcDbText
 10
84.4
 20
32.38255266839859
 30
0.0
 40
0.5
  1
81.0
100
AcDbAttributeDefinition
  3

  2
J
 70
     8
280
     0
  0
ATTDEF
  5
123
330
10C
100
AcDbEntity
  8
AM_6
100
AcDbText
 10
84.4
 20
31.88255266839859
 30
0.0
 40
0.5
  1
44.5
100
AcDbAttributeDefinition
  3

  2
L
 70
     8
280
     0
  0
ATTDEF
  5
124
330
10C
100
AcDbEntity
  8
AM_6
100
AcDbText
 10
84.4
 20
31.38255266839859
 30
0.0
 40
0.5
  1
39.6
100
AcDbAttributeDefinition
  3

  2
M
 70
     8
280
     0
  0
ATTDEF
  5
125
330
10C
100
AcDbEntity
  8
AM_6
100
AcDbText
 10
84.4
 20
30.88255266839859
 30
0.0
 40
0.5
  1
8.9
100
AcDbAttributeDefinition
  3

  2
R
 70
     8
280
     0
  0
ATTDEF
  5
126
330
10C
100
AcDbEntity
  8
AM_6
100
AcDbText
 10
84.4
 20
30.38255266839859
 30
0.0
 40
0.5
  1
26.7
100
AcDbAttributeDefinition
  3

  2
S
 70
     8
280
     0
  0
ATTDEF
  5
127
330
10C
100
AcDbEntity
  8
AM_6
100
AcDbText
 10
84.4
 20
29.88255266839859
 30
0.0
 40
0.5
  1
73.2
100
AcDbAttributeDefinition
  3

  2
U
 70
     8
280
     0
  0
ATTDEF
  5
128
330
10C
100
AcDbEntity
  8
AM_6
100
AcDbText
 10
84.4
 20
29.38255266839859
 30
0.0
 40
0.5
  1
146.3
100
AcDbAttributeDefinition
  3

  2
V
 70
     8
280
     0
  0
ATTDEF
  5
129
330
10C
100
AcDbEntity
  8
AM_6
100
AcDbText
 10
84.4
 20
28.88255266839859
 30
0.0
 40
0.5
  1
14.2
100
AcDbAttributeDefinition
  3

  2
W
 70
     8
280
     0
  0
ATTDEF
  5
12A
330
10C
100
AcDbEntity
  8
AM_6
100
AcDbText
 10
84.4
 20
28.38255266839859
 30
0.0
 40
0.5
  1
3.0
100
AcDbAttributeDefinition
  3

  2
X
 70
     8
280
     0
  0
ATTDEF
  5
12B
330
10C
100
AcDbEntity
  8
AM_6
100
AcDbText
 10
84.4
 20
27.88255266839859
 30
0.0
 40
0.5
  1
2250
100
AcDbAttributeDefinition
  3

  2
CAPS
 70
     8
280
     0
  0
ATTDEF
  5
12C
330
10C
100
AcDbEntity
  8
AM_6
100
AcDbText
 10
84.4
 20
27.38255266839859
 30
0.0
 40
0.5
  1
4368
100
AcDbAttributeDefinition
  3

  2
CAPD
 70
     8
280
     0
  0
ATTDEF
  5
12D
330
10C
100
AcDbEntity
  8
AM_6
100
AcDbText
 10
84.4
 20
26.88255266839859
 30
0.0
 40
0.5
  1
baldor
100
AcDbAttributeDefinition
  3

  2
COMPANY
 70
     8
280
     0
  0
LWPOLYLINE
  5
12E
330
10C
100
AcDbEntity
  8
AM_9
100
AcDbPolyline
 90
        7
 70
     0
 43
0.0
 10
-32.5
 20
-10.13904823999998
 10
-32.49193638364837
 20
-9.056656866423781
 10
-32.46780690358288
 20
-7.982503144766281
 10
-32.42779519971659
 20
-6.924762033441039
 10
-32.37220578527567
 20
-5.891483580986787
 10
-32.3014617292698
 20
-4.890531660337289
 10
-32.23589128460183
 20
-4.134889730976081
  0
LWPOLYLINE
  5
12F
330
10C
100
AcDbEntity
  8
AM_9
100
AcDbPolyline
 90
        7
 70
     0
 43
0.0
 10
32.23589128460183
 20
-4.134889730976082
 10
32.31812222076728
 20
-5.10522427746871
 10
32.38561012395025
 20
-6.113869263822212
 10
32.4378413704572
 20
-7.153148292653946
 10
32.47441844896414
 20
-8.215151823020664
 10
32.49506298581776
 20
-9.291797366801013
 10
32.5
 20
-10.13904823999937
  0
LINE
  5
130
330
10C
100
AcDbEntity
  8
AM_9
100
AcDbLine
 10
28.83140648667698
 20
15.00000000000002
 30
0.0
 11
27.12931993250107
 21
15.0
 31
0.0
  0
LINE
  5
131
330
10C
100
AcDbEntity
  8
AM_9
100
AcDbLine
 10
27.12931993250107
 20
-15.0
 30
0.0
 11
28.83140648667699
 21
-15.0
 31
0.0
  0
ARC
  5
132
330
10C
100
AcDbEntity
  8
AM_9
100
AcDbCircle
 10
0.0
 20
0.0
 30
0.0
 40
32.5
100
AcDbArc
 50
332.5135737496187
 51
27.48642625038132
  0
LINE
  5
133
330
10C
100
AcDbEntity
  8
AM_9
100
AcDbLine
 10
-27.12931993250107
 20
15.0
 30
0.0
 11
-28.83140648667699
 21
14.99999999999999
 31
0.0
  0
LINE
  5
134
330
10C
100
AcDbEntity
  8
AM_9
100
AcDbLine
 10
-28.83140648667699
 20
-15.0
 30
0.0
 11
-27.12931993250107
 21
-15.0
 31
0.0
  0
ARC
  5
135
330
10C
100
AcDbEntity
  8
AM_9
100
AcDbCircle
 10
0.0000000000000178
 20
-0.0000000000000053
 30
0.0
 40
32.50000000000001
100
AcDbArc
 50
152.5135737496188
 51
207.4864262503812
  0
LINE
  5
136
330
10C
100
AcDbEntity
  8
AM_9
100
AcDbLine
 10
-63.49999999999999
 20
-23.8
 30
0.0
 11
-63.49999999999999
 21
-34.33333338600001
 31
0.0
  0
LINE
  5
137
330
10C
100
AcDbEntity
  8
AM_9
100
AcDbLine
 10
-54.00000000000001
 20
-23.8
 30
0.0
 11
-54.0
 21
-34.33333338600001
 31
0.0
  0
LINE
  5
138
330
10C
100
AcDbEntity
  8
AM_9
100
AcDbLine
 10
-46.8
 20
-34.33333338600001
 30
0.0
 11
-46.8
 21
-23.8
 31
0.0
  0
LINE
  5
139
330
10C
100
AcDbEntity
  8
AM_9
100
AcDbLine
 10
54.00000000000001
 20
-23.8
 30
0.0
 11
54.00000000000001
 21
-34.33333338600001
 31
0.0
  0
LINE
  5
13A
330
10C
100
AcDbEntity
  8
AM_9
100
AcDbLine
 10
46.8
 20
-23.8
 30
0.0
 11
46.8
 21
-34.33333338600001
 31
0.0
  0
LINE
  5
13B
330
10C
100
AcDbEntity
  8
AM_9
100
AcDbLine
 10
63.49999999999999
 20
-23.8
 30
0.0
 11
63.5
 21
-34.33333338600001
 31
0.0
  0
ARC
  5
13C
330
10C
100
AcDbEntity
  8
AM_9
100
AcDbCircle
 10
-44.10010946188105
 20
-18.53333338599877
 30
0.0
 40
15.80000000000123
100
AcDbArc
 50
270.0
 51
284.9999999999994
  0
LINE
  5
13D
330
10C
100
AcDbEntity
  8
AM_9
100
AcDbLine
 10
70.7
 20
-39.6
 30
0.0
 11
70.69999999999999
 21
-23.8
 31
0.0
  0
LINE
  5
13E
330
10C
100
AcDbEntity
  8
AM_9
100
AcDbLine
 10
40.01076854926105
 20
-33.79496144136729
 30
0.0
 11
27.11419959835243
 21
-30.33933620583903
 31
0.0
  0
LINE
  5
13F
330
10C
100
AcDbEntity
  8
AM_9
100
AcDbLine
 10
-44.10010946188092
 20
-34.33333338600001
 30
0.0
 11
-67.54
 21
-34.33333338600001
 31
0.0
  0
ARC
  5
140
330
10C
100
AcDbEntity
  8
AM_9
100
AcDbCircle
 10
67.53999999999999
 20
-37.493333386
 30
0.0
 40
3.160000000000011
100
AcDbArc
 50
0.0
 51
90.0
  0
ARC
  5
141
330
10C
100
AcDbEntity
  8
AM_9
100
AcDbCircle
 10
0.0000000000000071
 20
-0.0000000000000284
 30
0.0
 40
37.59959999999998
100
AcDbArc
 50
236.5654892256428
 51
303.4345115450579
  0
ARC
  5
142
330
10C
100
AcDbEntity
  8
AM_9
100
AcDbCircle
 10
25.06952914204252
 20
-37.97015023352269
 30
0.0
 40
7.900000000000021
100
AcDbArc
 50
75.0000000000001
 51
123.4345130246602
  0
ARC
  5
143
330
10C
100
AcDbEntity
  8
AM_9
100
AcDbCircle
 10
-25.06952914204248
 20
-37.97015023352267
 30
0.0
 40
7.900000000000015
100
AcDbArc
 50
56.565483307234
 51
105.0000000000002
  0
ARC
  5
144
330
10C
100
AcDbEntity
  8
AM_9
100
AcDbCircle
 10
-67.53999999999999
 20
-37.493333386
 30
0.0
 40
3.159999999999997
100
AcDbArc
 50
90.0
 51
180.0
  0
LINE
  5
145
330
10C
100
AcDbEntity
  8
AM_9
100
AcDbLine
 10
-27.11419959835242
 20
-30.33933620583902
 30
0.0
 11
-40.01076854926105
 21
-33.79496144136728
 31
0.0
  0
LINE
  5
146
330
10C
100
AcDbEntity
  8
AM_9
100
AcDbLine
 10
-70.69999999999999
 20
-23.8
 30
0.0
 11
-70.7
 21
-39.6
 31
0.0
  0
LINE
  5
147
330
10C
100
AcDbEntity
  8
AM_9
100
AcDbLine
 10
67.54
 20
-34.33333338600001
 30
0.0
 11
44.10010946188088
 21
-34.33333338600001
 31
0.0
  0
ARC
  5
148
330
10C
100
AcDbEntity
  8
AM_9
100
AcDbCircle
 10
44.10010946188105
 20
-18.53333338599856
 30
0.0
 40
15.80000000000145
100
AcDbArc
 50
255.0000000000008
 51
270.0
  0
LINE
  5
149
330
10C
100
AcDbEntity
  8
AM_9
100
AcDbLine
 10
-38.40000072
 20
-23.8
 30
0.0
 11
-38.40000072
 21
15.45238094472556
 31
0.0
  0
LINE
  5
14A
330
10C
100
AcDbEntity
  8
AM_9
100
AcDbLine
 10
38.40000072
 20
15.45238094472558
 30
0.0
 11
38.40000072
 21
-23.8
 31
0.0
  0
LINE
  5
14B
330
10C
100
AcDbEntity
  8
AM_9
100
AcDbLine
 10
-71.7
 20
-25.3875
 30
0.0
 11
-71.7
 21
-23.8
 31
0.0
  0
LINE
  5
14C
330
10C
100
AcDbEntity
  8
AM_9
100
AcDbLine
 10
-74.7
 20
-23.8
 30
0.0
 11
-74.7
 21
-25.3875
 31
0.0
  0
LINE
  5
14D
330
10C
100
AcDbEntity
  8
AM_9
100
AcDbLine
 10
-74.7
 20
-25.3875
 30
0.0
 11
-71.7
 21
-25.3875
 31
0.0
  0
LINE
  5
14E
330
10C
100
AcDbEntity
  8
AM_9
100
AcDbLine
 10
74.7
 20
-25.3875
 30
0.0
 11
74.7
 21
-23.8
 31
0.0
  0
LINE
  5
14F
330
10C
100
AcDbEntity
  8
AM_9
100
AcDbLine
 10
71.7
 20
-23.8
 30
0.0
 11
71.7
 21
-25.3875
 31
0.0
  0
LINE
  5
150
330
10C
100
AcDbEntity
  8
AM_9
100
AcDbLine
 10
71.7
 20
-25.3875
 30
0.0
 11
74.7
 21
-25.3875
 31
0.0
  0
LINE
  5
151
330
10C
100
AcDbEntity
  8
AM_7
100
AcDbLine
 10
-73.2
 20
1.269375
 30
0.0
 11
-73.2
 21
-26.656875
 31
0.0
  0
LINE
  5
152
330
10C
100
AcDbEntity
  8
AM_7
100
AcDbLine
 10
73.2
 20
1.269375
 30
0.0
 11
73.2
 21
-26.656875
 31
0.0
  0
ARC
  5
153
330
10C
100
AcDbEntity
  8
AM_4
100
AcDbCircle
 10
0.0
 20
0.0
 30
0.0
 40
31.0
100
AcDbArc
 50
191.4694930403597
 51
348.5305069596403
  0
LINE
  5
154
330
10C
100
AcDbEntity
  8
AM_4
100
AcDbLine
 10
79.39999999999999
 20
-23.8
 30
0.0
 11
79.4
 21
-39.60000000000001
 31
0.0
  0
LINE
  5
155
330
10C
100
AcDbEntity
  8
AM_4
100
AcDbLine
 10
34.61904772499999
 20
-23.79999999999997
 30
0.0
 11
79.39999999999999
 21
-23.8
 31
0.0
  0
LINE
  5
156
330
10C
100
AcDbEntity
  8
AM_4
100
AcDbLine
 10
67.4
 20
-23.8
 30
0.0
 11
67.4
 21
-28.54
 31
0.0
  0
LINE
  5
157
330
10C
100
AcDbEntity
  8
AM_4
100
AcDbLine
 10
-79.4
 20
-23.8
 30
0.0
 11
-34.61904772500001
 21
-23.79999999999997
 31
0.0
  0
LINE
  5
158
330
10C
100
AcDbEntity
  8
AM_4
100
AcDbLine
 10
-79.4
 20
-23.8
 30
0.0
 11
-79.4
 21
-39.60000000000001
 31
0.0
  0
LINE
  5
159
330
10C
100
AcDbEntity
  8
AM_4
100
AcDbLine
 10
-67.39999999999999
 20
-23.8
 30
0.0
 11
-67.39999999999999
 21
-28.54
 31
0.0
  0
LWPOLYLINE
  5
15A
330
10C
100
AcDbEntity
  8
AM_4
100
AcDbPolyline
 90
        9
 70
     0
 43
0.0
 10
-32.5
 20
-39.205
 10
-32.49998854270372
 20
-39.19898294714886
 10
-32.48628629609517
 20
-38.997280865916
 10
-32.39662999488844
 20
-38.64285948491626
 10
-32.21982898105642
 20
-38.3067546994238
 10
-32.03030196822593
 20
-38.080917268065
 10
-31.78670773287487
 20
-37.88393311835664
 10
-31.39523875348919
 20
-37.69816619125331
 10
-30.92
 20
-37.625
  0
LINE
  5
15B
330
10C
100
AcDbEntity
  8
AM_4
100
AcDbLine
 10
-30.92
 20
-37.62500000000001
 30
0.0
 11
30.92
 21
-37.62500000000001
 31
0.0
  0
LINE
  5
15C
330
10C
100
AcDbEntity
  8
AM_4
100
AcDbLine
 10
-30.38095227499999
 20
-6.164230597906981
 30
0.0
 11
-30.38095227499999
 21
-37.62500000000001
 31
0.0
  0
LWPOLYLINE
  5
15D
330
10C
100
AcDbEntity
  8
AM_4
100
AcDbPolyline
 90
        5
 70
     0
 43
0.0
 10
-30.94590937007379
 20
1.830489895951163
 10
-30.99950870873917
 20
-0.1605265080438698
 10
-30.92529493665784
 20
-2.150844736545364
 10
-30.7186830076473
 20
-4.166342921156204
 10
-30.38095227499999
 20
-6.16423059790698
  0
LWPOLYLINE
  5
15E
330
10C
100
AcDbEntity
  8
AM_4
100
AcDbPolyline
 90
        9
 70
     0
 43
0.0
 10
30.92
 20
-37.62500000000001
 10
31.39523875348919
 20
-37.69816619125332
 10
31.78670773287488
 20
-37.88393311835666
 10
32.03030196822594
 20
-38.08091726806503
 10
32.21982898105643
 20
-38.30675469942383
 10
32.39662999488844
 20
-38.64285948491627
 10
32.48628629609517
 20
-38.99728086591603
 10
32.49998854270371
 20
-39.19898294714934
 10
32.5
 20
-39.20500000000001
  0
LWPOLYLINE
  5
15F
330
10C
100
AcDbEntity
  8
AM_4
100
AcDbPolyline
 90
        5
 70
     0
 43
0.0
 10
30.38095227499999
 20
-6.164230597906981
 10
30.73125471059473
 20
-4.073080396033137
 10
30.9384263264419
 20
-1.952889255264254
 10
30.99993157335685
 20
-0.065134070909532
 10
30.94590937007379
 20
1.83048989595112
  0
LINE
  5
160
330
10C
100
AcDbEntity
  8
AM_4
100
AcDbLine
 10
30.38095227499999
 20
-6.164230597906981
 30
0.0
 11
30.38095227499999
 21
-37.62500000000001
 31
0.0
  0
LINE
  5
161
330
10C
100
AcDbEntity
  8
AM_4
100
AcDbLine
 10
-76.24000000000001
 20
-28.54
 30
0.0
 11
-58.02775191540237
 21
-28.54
 31
0.0
  0
LWPOLYLINE
  5
162
330
10C
100
AcDbEntity
  8
AM_4
100
AcDbPolyline
 90
       19
 70
     0
 43
0.0
 10
-79.4
 20
-31.69999999999999
 10
-79.38797524596993
 20
-31.42458785291739
 10
-79.35199249951859
 20
-31.15127175857249
 10
-79.29232561107347
 20
-30.88213181747603
 10
-79.20942868168349
 20
-30.61921634709088
 10
-79.10393260703583
 20
-30.36452629289938
 10
-78.97664027595884
 20
-30.12
 10
-78.82852045995322
 20
-29.88749846113069
 10
-78.66070044025598
 20
-29.66879115339053
 10
-78.4744574285495
 20
-29.46554257145051
 10
-78.27120884660947
 20
-29.27929955974403
 10
-78.05250153886932
 20
-29.11147954004678
 10
-77.82000000000001
 20
-28.96335972404117
 10
-77.57547370710061
 20
-28.83606739296419
 10
-77.32078365290913
 20
-28.73057131831653
 10
-77.05786818252399
 20
-28.64767438892654
 10
-76.78872824142752
 20
-28.58800750048142
 10
-76.51541214708261
 20
-28.55202475403008
 10
-76.24000000000001
 20
-28.54
  0
LINE
  5
163
330
10C
100
AcDbEntity
  8
AM_4
100
AcDbLine
 10
-32.49999999999999
 20
-39.60000000000001
 30
0.0
 11
-79.4
 21
-39.60000000000001
 31
0.0
  0
LINE
  5
164
330
10C
100
AcDbEntity
  8
AM_4
100
AcDbLine
 10
-32.5
 20
-10.13904823999991
 30
0.0
 11
-32.49999999999999
 21
-39.60000000000001
 31
0.0
  0
LINE
  5
165
330
10C
100
AcDbEntity
  8
AM_4
100
AcDbLine
 10
55.09094882623607
 20
-26.5465280174361
 30
0.0
 11
38.47583794034304
 21
15.28299364615647
 31
0.0
  0
LINE
  5
166
330
10C
100
AcDbEntity
  8
AM_4
100
AcDbLine
 10
76.24
 20
-28.54
 30
0.0
 11
58.02775191540236
 21
-28.54
 31
0.0
  0
ARC
  5
167
330
10C
100
AcDbEntity
  8
AM_4
100
AcDbCircle
 10
58.02775191540236
 20
-25.37999999999998
 30
0.0
 40
3.160000000000025
100
AcDbArc
 50
201.663478609433
 51
270.0
  0
LINE
  5
168
330
10C
100
AcDbEntity
  8
AM_4
100
AcDbLine
 10
-34.61904772500001
 20
-39.60000000000001
 30
0.0
 11
-34.61904772500001
 21
-23.79999999999997
 31
0.0
  0
LINE
  5
169
330
10C
100
AcDbEntity
  8
AM_4
100
AcDbLine
 10
-38.47583794034303
 20
15.28299364615648
 30
0.0
 11
-55.09094882623607
 21
-26.5465280174361
 31
0.0
  0
ARC
  5
16A
330
10C
100
AcDbEntity
  8
AM_4
100
AcDbCircle
 10
-58.02775191540236
 20
-25.37999999999999
 30
0.0
 40
3.160000000000011
100
AcDbArc
 50
270.0
 51
338.3365213905671
  0
LINE
  5
16B
330
10C
100
AcDbEntity
  8
AM_4
100
AcDbLine
 10
-74.94999999999999
 20
-39.6
 30
0.0
 11
-74.95
 21
-28.54
 31
0.0
  0
LINE
  5
16C
330
10C
100
AcDbEntity
  8
AM_4
100
AcDbLine
 10
32.5
 20
-10.13904824000003
 30
0.0
 11
32.5
 21
-39.60000000000001
 31
0.0
  0
LWPOLYLINE
  5
16D
330
10C
100
AcDbEntity
  8
AM_4
100
AcDbPolyline
 90
       29
 70
     0
 43
0.0
 10
-38.47583794034303
 20
15.28299364615647
 10
-36.99742509816845
 20
18.57822747480003
 10
-35.23743951134075
 20
21.73206977451991
 10
-33.20927573288403
 20
24.72051790107319
 10
-30.92836931379113
 20
27.52082795974248
 10
-28.4120793291603
 20
30.11168790010787
 10
-25.679556265152
 20
32.47337971361917
 10
-22.75159627222588
 20
34.58792949954707
 10
-19.65048289387869
 20
36.43924425722057
 10
-16.3998174754231
 20
38.01323436347937
 10
-13.02433954349901
 20
39.29792080321361
 10
-9.549738523337654
 20
40.28352633690207
 10
-6.002458226723925
 20
40.96254991130844
 10
-2.409495598621455
 20
41.3298237470259
 10
1.201804745879745
 20
41.38255266839859
 10
4.803958630595254
 20
41.12033537649627
 10
8.369551489422403
 20
40.54516750324148
 10
11.87144700774169
 20
39.66142642344552
 10
15.28299364615637
 20
38.4758379403431
 10
18.57822747479993
 20
36.99742509816853
 10
21.73206977451981
 20
35.23743951134082
 10
24.72051790107309
 20
33.20927573288411
 10
27.52082795974239
 20
30.92836931379122
 10
30.11168790010779
 20
28.41207932916039
 10
32.47337971361909
 20
25.6795562651521
 10
34.58792949954699
 20
22.75159627222598
 10
36.43924425722049
 20
19.6504828938788
 10
38.01323436347929
 20
16.39981747542321
 10
38.47583794034303
 20
15.28299364615649
  0
LWPOLYLINE
  5
16E
330
10C
100
AcDbEntity
  8
AM_4
100
AcDbPolyline
 90
       19
 70
     0
 43
0.0
 10
-34.61904772499998
 20
-23.79999999999996
 10
-34.43436054660987
 20
-23.75274177203358
 10
-34.25107894916448
 20
-23.61132675178458
 10
-34.07059781628882
 20
-23.37683119294577
 10
-33.89429071838155
 20
-23.05103974831219
 10
-33.7234994589149
 20
-22.63643188749577
 10
-33.55952386249999
 20
-22.1361630266644
 10
-33.4036118824367
 20
-21.55404051391958
 10
-33.25695010303554
 20
-20.89449465307851
 10
-33.12065470899456
 20
-20.16254498638684
 10
-32.99576299055983
 20
-19.36376209277142
 10
-32.8832254491203
 20
-18.50422519237093
 10
-32.78389856331837
 20
-17.59047588
 10
-32.6985382707302
 20
-16.6294683396627
 10
-32.62779421472433
 20
-15.62851641901321
 10
-32.5722048002834
 20
-14.59523796655897
 10
-32.53219309641711
 20
-13.53749685523373
 10
-32.50806361635162
 20
-12.46334313357624
 10
-32.49999999999999
 20
-11.38095176000005
  0
LWPOLYLINE
  5
16F
330
10C
100
AcDbEntity
  8
AM_4
100
AcDbPolyline
 90
       16
 70
     0
 43
0.0
 10
-30.9459093700738
 20
1.83048989595117
 10
-31.12176192427657
 20
1.496366958921516
 10
-31.29197646973525
 20
1.073691486572286
 10
-31.45525757098054
 20
0.5656802944664832
 10
-31.61036256024016
 20
-0.0238003454784246
 10
-31.75611099489086
 20
-0.690264129654311
 10
-31.89139364133966
 20
-1.428638866241762
 10
-32.01518091696118
 20
-2.233305077652497
 10
-32.12653072584315
 20
-3.098138768146928
 10
-32.2245956287051
 20
-4.01655803113954
 10
-32.30862929242308
 20
-4.981573141482242
 10
-32.37799217007525
 20
-5.985839751493273
 10
-32.43215636828025
 20
-7.021714785877691
 10
-32.47070966478448
 20
-8.081314610145384
 10
-32.49335864572245
 20
-9.156575029829806
 10
-32.5
 20
-10.1390482399999
  0
LWPOLYLINE
  5
170
330
10C
100
AcDbEntity
  8
AM_4
100
AcDbPolyline
 90
       36
 70
     0
 43
0.0
 10
30.94590937007379
 20
1.830489895951122
 10
30.66861313562147
 20
4.520638045407512
 10
30.15791023699216
 20
7.176381409702468
 10
29.41768743161526
 20
9.777508178252019
 10
28.45357826199845
 20
12.30422220574422
 10
27.27292018106753
 20
14.73729367275821
 10
25.88469870971925
 20
17.05820543630129
 10
24.29947905158158
 20
19.24929395644806
 10
22.52932568543477
 20
21.29388372654479
 10
20.58771054724302
 20
23.17641418388398
 10
18.48941050058724
 20
24.88255813498231
 10
16.25039487581069
 20
26.39933079417404
 10
13.88770393377252
 20
27.71518860567035
 10
11.41931917917343
 20
28.82011709698907
 10
8.864026510447399
 20
29.70570709513722
 10
6.241273247731316
 20
30.36521872549502
 10
3.571020127016173
 20
30.79363270633145
 10
0.8735893868935308
 20
30.98768854856889
 10
-1.830489895951065
 20
30.9459093700738
 10
-4.520638045407455
 20
30.66861313562149
 10
-7.176381409702411
 20
30.15791023699218
 10
-9.777508178251962
 20
29.41768743161529
 10
-12.30422220574416
 20
28.45357826199848
 10
-14.73729367275815
 20
27.27292018106757
 10
-17.05820543630123
 20
25.88469870971928
 10
-19.24929395644801
 20
24.29947905158162
 10
-21.29388372654474
 20
22.52932568543482
 10
-23.17641418388394
 20
20.58771054724307
 10
-24.88255813498227
 20
18.48941050058729
 10
-26.399330794174
 20
16.25039487581074
 10
-27.71518860567031
 20
13.88770393377258
 10
-28.82011709698904
 20
11.41931917917349
 10
-29.7057070951372
 20
8.864026510447458
 10
-30.36521872549501
 20
6.241273247731373
 10
-30.79363270633143
 20
3.57102012701623
 10
-30.94590937007379
 20
1.830489895951165
  0
LWPOLYLINE
  5
171
330
10C
100
AcDbEntity
  8
AM_4
100
AcDbPolyline
 90
       16
 70
     0
 43
0.0
 10
32.5
 20
-10.13904824000003
 10
32.49193638364837
 20
-9.056656866423834
 10
32.46780690358288
 20
-7.982503144766329
 10
32.42779519971659
 20
-6.924762033441084
 10
32.37220578527567
 20
-5.891483580986829
 10
32.3014617292698
 20
-4.890531660337328
 10
32.21610143668162
 20
-3.929524120000019
 10
32.11677455087968
 20
-3.015774807629085
 10
32.00423700944016
 20
-2.156237907228589
 10
31.87934529100542
 20
-1.357455013613153
 10
31.74304989696444
 20
-0.6255053469214847
 10
31.59638811756329
 20
0.0340405139195987
 10
31.4404761375
 20
0.6161630266644184
 10
31.27650054108508
 20
1.1164318874958
 10
31.10570928161843
 20
1.531039748312224
 10
30.9459093700738
 20
1.830489895951125
  0
LINE
  5
172
330
10C
100
AcDbEntity
  8
AM_4
100
AcDbLine
 10
34.61904772499999
 20
-39.60000000000001
 30
0.0
 11
34.61904772499999
 21
-23.79999999999997
 31
0.0
  0
LWPOLYLINE
  5
173
330
10C
100
AcDbEntity
  8
AM_4
100
AcDbPolyline
 90
       19
 70
     0
 43
0.0
 10
32.5
 20
-11.38095175999997
 10
32.50806361635163
 20
-12.46334313357616
 10
32.53219309641712
 20
-13.53749685523365
 10
32.5722048002834
 20
-14.59523796655889
 10
32.62779421472433
 20
-15.62851641901314
 10
32.6985382707302
 20
-16.62946833966264
 10
32.78389856331837
 20
-17.59047587999994
 10
32.8832254491203
 20
-18.50422519237087
 10
32.99576299055983
 20
-19.36376209277136
 10
33.12065470899456
 20
-20.16254498638679
 10
33.25695010303554
 20
-20.89449465307846
 10
33.40361188243669
 20
-21.55404051391954
 10
33.55952386249998
 20
-22.13616302666437
 10
33.72349945891489
 20
-22.63643188749575
 10
33.89429071838155
 20
-23.05103974831217
 10
34.07059781628881
 20
-23.37683119294575
 10
34.25107894916447
 20
-23.61132675178458
 10
34.43436054660987
 20
-23.75274177203359
 10
34.61904772499998
 20
-23.79999999999997
  0
LINE
  5
174
330
10C
100
AcDbEntity
  8
AM_4
100
AcDbLine
 10
74.95000000000003
 20
-28.54
 30
0.0
 11
74.95
 21
-39.60000000000001
 31
0.0
  0
LINE
  5
175
330
10C
100
AcDbEntity
  8
AM_4
100
AcDbLine
 10
79.4
 20
-39.60000000000001
 30
0.0
 11
32.5
 21
-39.60000000000001
 31
0.0
  0
LWPOLYLINE
  5
176
330
10C
100
AcDbEntity
  8
AM_4
100
AcDbPolyline
 90
       19
 70
     0
 43
0.0
 10
76.24
 20
-28.53999999999998
 10
76.51541214708259
 20
-28.55202475403007
 10
76.78872824142749
 20
-28.5880075004814
 10
77.05786818252396
 20
-28.64767438892653
 10
77.3207836529091
 20
-28.73057131831651
 10
77.5754737071006
 20
-28.83606739296417
 10
77.82
 20
-28.96335972404116
 10
78.05250153886931
 20
-29.11147954004677
 10
78.27120884660945
 20
-29.27929955974401
 10
78.47445742854948
 20
-29.4655425714505
 10
78.66070044025597
 20
-29.66879115339052
 10
78.82852045995321
 20
-29.88749846113068
 10
78.97664027595883
 20
-30.11999999999999
 10
79.10393260703583
 20
-30.36452629289938
 10
79.20942868168349
 20
-30.61921634709088
 10
79.29232561107347
 20
-30.88213181747603
 10
79.35199249951859
 20
-31.15127175857249
 10
79.38797524596993
 20
-31.42458785291739
 10
79.4
 20
-31.7
  0
ENDBLK
  5
10F
330
10C
100
AcDbEntity
  8
0
100
AcDbBlockEnd
  0
ENDSEC
  0
SECTION
  2
ENTITIES
  0
INSERT
  5
6F
330
1F
100
AcDbEntity
  8
0
100
AcDbBlockReference
  2
1_056830_0
 10
0.0
 20
0.0
 30
0.0
  0
POINT
  5
178
330
1F
100
AcDbEntity
  8
ConnectionPoints
100
AcDbPoint
 10
0.0
 20
0.0
 30
26.7
  0
POINT
  5
179
330
1F
100
AcDbEntity
  8
ConnectionPoints
100
AcDbPoint
 10
29.27422074112306
 20
29.27422074112307
 30
0.0
  0
POINT
  5
17A
330
1F
100
AcDbEntity
  8
ConnectionPoints
100
AcDbPoint
 10
29.27422074112306
 20
29.27422074112307
 30
0.0
  0
POINT
  5
17B
330
1F
100
AcDbEntity
  8
ConnectionPoints
100
AcDbPoint
 10
0.0
 20
0.0
 30
26.7
  0
ENDSEC
  0
SECTION
  2
OBJECTS
  0
DICTIONARY
  5
C
330
0
100
AcDbDictionary
281
     1
  3
ACAD_DETAILVIEWSTYLE
350
183
  3
ACAD_GROUP
350
D
  3
ACAD_LAYOUT
350
1A
  3
ACAD_MATERIAL
350
43
  3
ACAD_MLEADERSTYLE
350
6B
  3
ACAD_MLINESTYLE
350
17
  3
ACAD_PLOTSETTINGS
350
19
  3
ACAD_PLOTSTYLENAME
350
E
  3
ACAD_SCALELIST
350
47
  3
ACAD_SECTIONVIEWSTYLE
350
184
  3
ACAD_TABLESTYLE
350
69
  3
ACAD_VISUALSTYLE
350
2A
  3
ACDB_RECOMPOSE_DATA
350
180
  3
AcDbVariableDictionary
350
17C
  0
SUN
  5
6D
330
29
100
AcDbSun
 90
        1
290
     0
 63
     7
421
 16777215
 40
1.0
291
     1
 91
  2455826
 92
 54000000
292
     0
 70
     2
 71
   256
280
     1
  0
DICTIONARY
  5
183
102
{ACAD_REACTORS
330
C
102
}
330
C
100
AcDbDictionary
281
     1
  0
DICTIONARY
  5
D
102
{ACAD_REACTORS
330
C
102
}
330
C
100
AcDbDictionary
281
     1
  0
DICTIONARY
  5
1A
102
{ACAD_REACTORS
330
C
102
}
330
C
100
AcDbDictionary
281
     1
  3
Layout1
350
1E
  3
Layout2
350
26
  3
Model
350
22
  0
DICTIONARY
  5
43
102
{ACAD_REACTORS
330
C
102
}
330
C
100
AcDbDictionary
281
     1
  3
ByBlock
350
45
  3
ByLayer
350
44
  3
Global
350
46
  0
DICTIONARY
  5
6B
102
{ACAD_REACTORS
330
C
102
}
330
C
100
AcDbDictionary
281
     1
  3
Standard
350
6C
  0
DICTIONARY
  5
17
102
{ACAD_REACTORS
330
C
102
}
330
C
100
AcDbDictionary
281
     1
  3
Standard
350
18
  0
DICTIONARY
  5
19
102
{ACAD_REACTORS
330
C
102
}
330
C
100
AcDbDictionary
281
     1
  0
ACDBDICTIONARYWDFLT
  5
E
102
{ACAD_REACTORS
330
C
102
}
330
C
100
AcDbDictionary
281
     1
  3
Normal
350
F
100
AcDbDictionaryWithDefault
340
F
  0
DICTIONARY
  5
47
102
{ACAD_REACTORS
330
C
102
}
330
C
100
AcDbDictionary
281
     1
  3
A0
350
48
  3
A1
350
49
  3
A2
350
4A
  3
A3
350
4B
  3
A4
350
4C
  3
A5
350
4D
  3
A6
350
4E
  3
A7
350
4F
  3
A8
350
50
  3
A9
350
51
  3
B0
350
52
  3
B1
350
53
  3
B2
350
54
  3
B3
350
55
  3
B4
350
56
  3
B5
350
57
  3
B6
350
58
  3
B7
350
59
  3
B8
350
5A
  3
B9
350
5B
  3
C0
350
5C
  3
C1
350
5D
  3
C2
350
5E
  3
C3
350
5F
  3
C4
350
60
  3
C5
350
61
  3
C6
350
62
  3
C7
350
63
  3
C8
350
64
  3
C9
350
65
  3
D0
350
66
  3
D1
350
67
  3
D2
350
68
  0
DICTIONARY
  5
184
102
{ACAD_REACTORS
330
C
102
}
330
C
100
AcDbDictionary
281
     1
  0
DICTIONARY
  5
69
102
{ACAD_REACTORS
330
C
102
}
330
C
100
AcDbDictionary
281
     1
  3
Standard
350
6A
  0
DICTIONARY
  5
2A
102
{ACAD_REACTORS
330
C
102
}
330
C
100
AcDbDictionary
281
     1
  3
2dWireframe
350
2F
  3
Basic
350
32
  3
Brighten
350
36
  3
ColorChange
350
3A
  3
Conceptual
350
34
  3
Dim
350
35
  3
EdgeColorOff
350
3D
  3
Facepattern
350
39
  3
Flat
350
2B
  3
FlatWithEdges
350
2C
  3
Gouraud
350
2D
  3
GouraudWithEdges
350
2E
  3
Hidden
350
31
  3
JitterOff
350
3B
  3
Linepattern
350
38
  3
OverhangOff
350
3C
  3
Realistic
350
33
  3
Shaded
350
42
  3
Shaded with edges
350
41
  3
Shades of Gray
350
3E
  3
Sketchy
350
3F
  3
Thicken
350
37
  3
Wireframe
350
30
  3
X-Ray
350
40
  0
XRECORD
  5
180
102
{ACAD_REACTORS
330
C
102
}
330
C
100
AcDbXrecord
280
     1
 90
        1
330
6A
  0
DICTIONARY
  5
17C
102
{ACAD_REACTORS
330
C
102
}
330
C
100
AcDbDictionary
281
     1
  3
CANNOSCALE
350
17D
  3
CMLEADERSTYLE
350
182
  3
CTABLESTYLE
350
181
  0
LAYOUT
  5
1E
102
{ACAD_REACTORS
330
1A
102
}
330
1A
100
AcDbPlotSettings
  1

  2
none_device
  4

  6

 40
0.0
 41
0.0
 42
0.0
 43
0.0
 44
0.0
 45
0.0
 46
0.0
 47
0.0
 48
0.0
 49
0.0
140
0.0
141
0.0
142
1.0
143
1.0
 70
   688
 72
     1
 73
     0
 74
     5
  7

 75
    16
 76
     0
 77
     2
 78
   300
147
1.0
148
0.0
149
0.0
100
AcDbLayout
  1
Layout1
 70
     1
 71
     1
 10
0.0
 20
0.0
 11
420.0
 21
297.0
 12
0.0
 22
0.0
 32
0.0
 14
1.000000000000000E+20
 24
1.000000000000000E+20
 34
1.000000000000000E+20
 15
-1.000000000000000E+20
 25
-1.000000000000000E+20
 35
-1.000000000000000E+20
146
0.0
 13
0.0
 23
0.0
 33
0.0
 16
1.0
 26
0.0
 36
0.0
 17
0.0
 27
1.0
 37
0.0
 76
     0
330
1B
  0
LAYOUT
  5
26
102
{ACAD_REACTORS
330
1A
102
}
330
1A
100
AcDbPlotSettings
  1

  2
none_device
  4

  6

 40
0.0
 41
0.0
 42
0.0
 43
0.0
 44
0.0
 45
0.0
 46
0.0
 47
0.0
 48
0.0
 49
0.0
140
0.0
141
0.0
142
1.0
143
1.0
 70
   688
 72
     1
 73
     0
 74
     5
  7

 75
    16
 76
     0
 77
     2
 78
   300
147
1.0
148
0.0
149
0.0
100
AcDbLayout
  1
Layout2
 70
     1
 71
     2
 10
0.0
 20
0.0
 11
0.0
 21
0.0
 12
0.0
 22
0.0
 32
0.0
 14
0.0
 24
0.0
 34
0.0
 15
0.0
 25
0.0
 35
0.0
146
0.0
 13
0.0
 23
0.0
 33
0.0
 16
1.0
 26
0.0
 36
0.0
 17
0.0
 27
1.0
 37
0.0
 76
     0
330
23
  0
LAYOUT
  5
22
102
{ACAD_REACTORS
330
1A
102
}
330
1A
100
AcDbPlotSettings
  1

  2
none_device
  4
Letter_(8.50_x_11.00_Inches)
  6

 40
6.35
 41
6.35
 42
6.35000508
 43
6.35000508
 44
215.9
 45
279.4
 46
0.0
 47
0.0
 48
0.0
 49
0.0
140
0.0
141
0.0
142
1.0
143
1.0
 70
  1712
 72
     1
 73
     0
 74
     0
  7

 75
     0
 76
     0
 77
     2
 78
   300
147
1.0
148
0.0
149
0.0
100
AcDbLayout
  1
Model
 70
     1
 71
     0
 10
0.0
 20
0.0
 11
420.0
 21
297.0
 12
0.0
 22
0.0
 32
0.0
 14
1.000000000000000E+20
 24
1.000000000000000E+20
 34
1.000000000000000E+20
 15
-1.000000000000000E+20
 25
-1.000000000000000E+20
 35
-1.000000000000000E+20
146
0.0
 13
0.0
 23
0.0
 33
0.0
 16
1.0
 26
0.0
 36
0.0
 17
0.0
 27
1.0
 37
0.0
 76
     0
330
1F
331
29
  0
MATERIAL
  5
45
102
{ACAD_REACTORS
330
43
102
}
330
43
100
AcDbMaterial
  1
ByBlock
 72
     1
 94
      127
  0
MATERIAL
  5
44
102
{ACAD_REACTORS
330
43
102
}
330
43
100
AcDbMaterial
  1
ByLayer
 72
     1
 94
      127
  0
MATERIAL
  5
46
102
{ACAD_REACTORS
330
43
102
}
330
43
100
AcDbMaterial
  1
Global
 72
     1
 94
      127
  0
MLEADERSTYLE
  5
6C
102
{ACAD_REACTORS
330
6B
102
}
330
6B
100
AcDbMLeaderStyle
179
     2
170
     2
171
     1
172
     0
 90
        2
 40
0.0
 41
0.0
173
     1
 91
-1056964608
340
14
 92
       -2
290
     1
 42
2.0
291
     1
 43
8.0
  3
Standard
341
0
 44
4.0
300

342
11
174
     1
178
     6
175
     1
176
     0
 93
-1056964608
 45
4.0
292
     0
297
     0
 46
4.0
343
0
 94
-1056964608
 47
1.0
 49
1.0
140
1.0
293
     1
141
0.0
294
     1
177
     0
142
1.0
295
     0
296
     0
143
3.75
271
     0
272
     9
273
     9
298
     0
  0
MLINESTYLE
  5
18
102
{ACAD_REACTORS
330
17
102
}
330
17
100
AcDbMlineStyle
  2
Standard
 70
     0
  3

 62
   256
 51
90.0
 52
90.0
 71
     2
 49
0.5
 62
   256
  6
BYLAYER
 49
-0.5
 62
   256
  6
BYLAYER
  0
ACDBPLACEHOLDER
  5
F
102
{ACAD_REACTORS
330
E
102
}
330
E
  0
SCALE
  5
48
102
{ACAD_REACTORS
330
47
102
}
330
47
100
AcDbScale
 70
     0
300
1:1
140
1.0
141
1.0
290
     1
  0
SCALE
  5
49
102
{ACAD_REACTORS
330
47
102
}
330
47
100
AcDbScale
 70
     0
300
1:2
140
1.0
141
2.0
290
     0
  0
SCALE
  5
4A
102
{ACAD_REACTORS
330
47
102
}
330
47
100
AcDbScale
 70
     0
300
1:4
140
1.0
141
4.0
290
     0
  0
SCALE
  5
4B
102
{ACAD_REACTORS
330
47
102
}
330
47
100
AcDbScale
 70
     0
300
1:5
140
1.0
141
5.0
290
     0
  0
SCALE
  5
4C
102
{ACAD_REACTORS
330
47
102
}
330
47
100
AcDbScale
 70
     0
300
1:8
140
1.0
141
8.0
290
     0
  0
SCALE
  5
4D
102
{ACAD_REACTORS
330
47
102
}
330
47
100
AcDbScale
 70
     0
300
1:10
140
1.0
141
10.0
290
     0
  0
SCALE
  5
4E
102
{ACAD_REACTORS
330
47
102
}
330
47
100
AcDbScale
 70
     0
300
1:16
140
1.0
141
16.0
290
     0
  0
SCALE
  5
4F
102
{ACAD_REACTORS
330
47
102
}
330
47
100
AcDbScale
 70
     0
300
1:20
140
1.0
141
20.0
290
     0
  0
SCALE
  5
50
102
{ACAD_REACTORS
330
47
102
}
330
47
100
AcDbScale
 70
     0
300
1:30
140
1.0
141
30.0
290
     0
  0
SCALE
  5
51
102
{ACAD_REACTORS
330
47
102
}
330
47
100
AcDbScale
 70
     0
300
1:40
140
1.0
141
40.0
290
     0
  0
SCALE
  5
52
102
{ACAD_REACTORS
330
47
102
}
330
47
100
AcDbScale
 70
     0
300
1:50
140
1.0
141
50.0
290
     0
  0
SCALE
  5
53
102
{ACAD_REACTORS
330
47
102
}
330
47
100
AcDbScale
 70
     0
300
1:100
140
1.0
141
100.0
290
     0
  0
SCALE
  5
54
102
{ACAD_REACTORS
330
47
102
}
330
47
100
AcDbScale
 70
     0
300
2:1
140
2.0
141
1.0
290
     0
  0
SCALE
  5
55
102
{ACAD_REACTORS
330
47
102
}
330
47
100
AcDbScale
 70
     0
300
4:1
140
4.0
141
1.0
290
     0
  0
SCALE
  5
56
102
{ACAD_REACTORS
330
47
102
}
330
47
100
AcDbScale
 70
     0
300
8:1
140
8.0
141
1.0
290
     0
  0
SCALE
  5
57
102
{ACAD_REACTORS
330
47
102
}
330
47
100
AcDbScale
 70
     0
300
10:1
140
10.0
141
1.0
290
     0
  0
SCALE
  5
58
102
{ACAD_REACTORS
330
47
102
}
330
47
100
AcDbScale
 70
     0
300
100:1
140
100.0
141
1.0
290
     0
  0
SCALE
  5
59
102
{ACAD_REACTORS
330
47
102
}
330
47
100
AcDbScale
 70
     0
300
1/128" = 1'-0"
140
0.0078125
141
12.0
290
     0
  0
SCALE
  5
5A
102
{ACAD_REACTORS
330
47
102
}
330
47
100
AcDbScale
 70
     0
300
1/64" = 1'-0"
140
0.015625
141
12.0
290
     0
  0
SCALE
  5
5B
102
{ACAD_REACTORS
330
47
102
}
330
47
100
AcDbScale
 70
     0
300
1/32" = 1'-0"
140
0.03125
141
12.0
290
     0
  0
SCALE
  5
5C
102
{ACAD_REACTORS
330
47
102
}
330
47
100
AcDbScale
 70
     0
300
1/16" = 1'-0"
140
0.0625
141
12.0
290
     0
  0
SCALE
  5
5D
102
{ACAD_REACTORS
330
47
102
}
330
47
100
AcDbScale
 70
     0
300
3/32" = 1'-0"
140
0.09375
141
12.0
290
     0
  0
SCALE
  5
5E
102
{ACAD_REACTORS
330
47
102
}
330
47
100
AcDbScale
 70
     0
300
1/8" = 1'-0"
140
0.125
141
12.0
290
     0
  0
SCALE
  5
5F
102
{ACAD_REACTORS
330
47
102
}
330
47
100
AcDbScale
 70
     0
300
3/16" = 1'-0"
140
0.1875
141
12.0
290
     0
  0
SCALE
  5
60
102
{ACAD_REACTORS
330
47
102
}
330
47
100
AcDbScale
 70
     0
300
1/4" = 1'-0"
140
0.25
141
12.0
290
     0
  0
SCALE
  5
61
102
{ACAD_REACTORS
330
47
102
}
330
47
100
AcDbScale
 70
     0
300
3/8" = 1'-0"
140
0.375
141
12.0
290
     0
  0
SCALE
  5
62
102
{ACAD_REACTORS
330
47
102
}
330
47
100
AcDbScale
 70
     0
300
1/2" = 1'-0"
140
0.5
141
12.0
290
     0
  0
SCALE
  5
63
102
{ACAD_REACTORS
330
47
102
}
330
47
100
AcDbScale
 70
     0
300
3/4" = 1'-0"
140
0.75
141
12.0
290
     0
  0
SCALE
  5
64
102
{ACAD_REACTORS
330
47
102
}
330
47
100
AcDbScale
 70
     0
300
1" = 1'-0"
140
1.0
141
12.0
290
     0
  0
SCALE
  5
65
102
{ACAD_REACTORS
330
47
102
}
330
47
100
AcDbScale
 70
     0
300
1-1/2" = 1'-0"
140
1.5
141
12.0
290
     0
  0
SCALE
  5
66
102
{ACAD_REACTORS
330
47
102
}
330
47
100
AcDbScale
 70
     0
300
3" = 1'-0"
140
3.0
141
12.0
290
     0
  0
SCALE
  5
67
102
{ACAD_REACTORS
330
47
102
}
330
47
100
AcDbScale
 70
     0
300
6" = 1'-0"
140
6.0
141
12.0
290
     0
  0
SCALE
  5
68
102
{ACAD_REACTORS
330
47
102
}
330
47
100
AcDbScale
 70
     0
300
1'-0" = 1'-0"
140
12.0
141
12.0
290
     0
  0
TABLESTYLE
  5
6A
102
{ACAD_REACTORS
330
69
102
}
102
{ACAD_XDICTIONARY
360
17E
102
}
330
69
100
AcDbTableStyle
  3
Standard
 70
     0
 71
     0
 40
0.06
 41
0.06
280
     0
281
     0
  7
Standard
140
4.5
170
     2
 62
     0
 63
   257
283
     0
 90
        4
 91
        0
  1

274
    -2
284
     1
 64
     0
275
    -2
285
     1
 65
     0
276
    -2
286
     1
 66
     0
277
    -2
287
     1
 67
     0
278
    -2
288
     1
 68
     0
279
    -2
289
     1
 69
     0
  7
Standard
140
6.0
170
     5
 62
     0
 63
   257
283
     0
 90
        4
 91
        0
  1

274
    -2
284
     1
 64
     0
275
    -2
285
     1
 65
     0
276
    -2
286
     1
 66
     0
277
    -2
287
     1
 67
     0
278
    -2
288
     1
 68
     0
279
    -2
289
     1
 69
     0
  7
Standard
140
4.5
170
     5
 62
     0
 63
   257
283
     0
 90
        4
 91
        0
  1

274
    -2
284
     1
 64
     0
275
    -2
285
     1
 65
     0
276
    -2
286
     1
 66
     0
277
    -2
287
     1
 67
     0
278
    -2
288
     1
 68
     0
279
    -2
289
     1
 69
     0
  0
VISUALSTYLE
  5
2F
102
{ACAD_REACTORS
330
2A
102
}
330
2A
100
AcDbVisualStyle
  2
2dWireframe
 70
     4
177
     3
291
     0
 70
    58
 90
        0
176
     1
 90
        2
176
     1
 90
        0
176
     1
 90
        0
176
     1
 40
0.6
176
     1
 40
30.0
176
     1
 62
     7
420
 16777215
176
     1
 90
        1
176
     1
 90
        4
176
     1
 62
     7
176
     1
 62
   257
176
     1
 90
        1
176
     1
 90
        1
176
     1
 40
1.0
176
     1
 90
        0
176
     1
 62
   257
176
     1
 40
1.0
176
     1
 90
        1
176
     1
 90
        6
176
     1
 90
        2
176
     1
 62
     7
176
     1
 90
        5
176
     1
 90
        0
176
     1
 90
        0
176
     1
290
     0
176
     1
 90
        1
176
     1
 40
0.0
176
     1
 90
        0
176
     1
290
     1
176
     1
290
     1
176
     1
290
     0
176
     1
290
     0
176
     1
290
     0
176
     1
290
     0
176
     1
290
     0
176
     1
290
     0
176
     1
290
     0
176
     1
 90
       50
176
     1
 40
0.0
176
     1
 40
1.0
176
     1
 90
        0
176
     1
 62
    18
420
        0
176
     1
 90
       50
176
     1
 90
        3
176
     1
 62
     5
420
      255
176
     1
290
     0
176
     1
 90
       50
176
     1
 90
       50
176
     1
 90
       50
176
     1
290
     0
176
     1
 90
       50
176
     1
 62
   256
176
     0
 40
1.0
176
     0
 90
        2
176
     1
  1
strokes_ogs.tif
176
     1
290
     0
176
     1
 40
1.0
176
     1
 40
1.0
176
     1
  0
VISUALSTYLE
  5
32
102
{ACAD_REACTORS
330
2A
102
}
330
2A
100
AcDbVisualStyle
  2
Basic
 70
     7
177
     3
291
     1
 70
    58
 90
        1
176
     1
 90
        0
176
     1
 90
        1
176
     1
 90
        0
176
     1
 40
0.6
176
     1
 40
30.0
176
     1
 62
     7
420
 16777215
176
     1
 90
        0
176
     1
 90
        4
176
     1
 62
     7
176
     1
 62
   257
176
     1
 90
        1
176
     1
 90
        1
176
     1
 40
1.0
176
     1
 90
        8
176
     1
 62
     7
176
     1
 40
1.0
176
     1
 90
        1
176
     1
 90
        6
176
     1
 90
        2
176
     1
 62
     7
176
     1
 90
        5
176
     1
 90
        0
176
     1
 90
        0
176
     1
290
     0
176
     1
 90
        1
176
     1
 40
0.0
176
     1
 90
        0
176
     1
290
     0
176
     1
290
     1
176
     1
290
     1
176
     1
290
     0
176
     1
290
     0
176
     1
290
     0
176
     1
290
     0
176
     1
290
     0
176
     1
290
     0
176
     1
 90
       50
176
     1
 40
0.0
176
     1
 40
1.0
176
     1
 90
        0
176
     1
 62
    18
420
        0
176
     1
 90
       50
176
     1
 90
        3
176
     1
 62
     5
420
      255
176
     1
290
     0
176
     1
 90
       50
176
     1
 90
       50
176
     1
 90
       50
176
     1
290
     0
176
     1
 90
       50
176
     1
 62
   256
176
     0
 40
1.0
176
     0
 90
        2
176
     1
  1
strokes_ogs.tif
176
     1
290
     0
176
     1
 40
1.0
176
     1
 40
1.0
176
     1
  0
VISUALSTYLE
  5
36
102
{ACAD_REACTORS
330
2A
102
}
330
2A
100
AcDbVisualStyle
  2
Brighten
 70
    12
177
     3
291
     1
 70
    58
 90
        2
176
     1
 90
        2
176
     1
 90
        0
176
     1
 90
        0
176
     1
 40
0.6
176
     1
 40
30.0
176
     1
 62
     7
420
 16777215
176
     1
 90
        1
176
     1
 90
        4
176
     1
 62
     7
176
     1
 62
   257
176
     1
 90
        1
176
     1
 90
        1
176
     1
 40
1.0
176
     1
 90
        8
176
     1
 62
     7
176
     1
 40
1.0
176
     1
 90
        1
176
     1
 90
        6
176
     1
 90
        2
176
     1
 62
     7
176
     1
 90
        5
176
     1
 90
        0
176
     1
 90
        0
176
     1
290
     0
176
     1
 90
        1
176
     1
 40
50.0
176
     1
 90
        0
176
     1
290
     0
176
     1
290
     1
176
     1
290
     1
176
     1
290
     0
176
     1
290
     0
176
     1
290
     0
176
     1
290
     0
176
     1
290
     0
176
     1
290
     0
176
     1
 90
       50
176
     1
 40
0.0
176
     1
 40
1.0
176
     1
 90
        0
176
     1
 62
    18
420
        0
176
     1
 90
       50
176
     1
 90
        3
176
     1
 62
     5
420
      255
176
     1
290
     0
176
     1
 90
       50
176
     1
 90
       50
176
     1
 90
       50
176
     1
290
     0
176
     1
 90
       50
176
     1
 62
   256
176
     0
 40
1.0
176
     0
 90
        2
176
     1
  1
strokes_ogs.tif
176
     1
290
     0
176
     1
 40
1.0
176
     1
 40
1.0
176
     1
  0
VISUALSTYLE
  5
3A
102
{ACAD_REACTORS
330
2A
102
}
330
2A
100
AcDbVisualStyle
  2
ColorChange
 70
    16
177
     3
291
     1
 70
    58
 90
        2
176
     1
 90
        2
176
     1
 90
        3
176
     1
 90
        0
176
     1
 40
0.6
176
     1
 40
30.0
176
     1
 62
     8
420
  8421504
176
     1
 90
        1
176
     1
 90
        4
176
     1
 62
     7
176
     1
 62
   257
176
     1
 90
        1
176
     1
 90
        1
176
     1
 40
1.0
176
     1
 90
        8
176
     1
 62
     8
420
  8421504
176
     1
 40
1.0
176
     1
 90
        1
176
     1
 90
        6
176
     1
 90
        2
176
     1
 62
     7
176
     1
 90
        5
176
     1
 90
        0
176
     1
 90
        0
176
     1
290
     0
176
     1
 90
        1
176
     1
 40
0.0
176
     1
 90
        0
176
     1
290
     0
176
     1
290
     1
176
     1
290
     1
176
     1
290
     0
176
     1
290
     0
176
     1
290
     0
176
     1
290
     0
176
     1
290
     0
176
     1
290
     0
176
     1
 90
       50
176
     1
 40
0.0
176
     1
 40
1.0
176
     1
 90
        0
176
     1
 62
    18
420
        0
176
     1
 90
       50
176
     1
 90
        3
176
     1
 62
     5
420
      255
176
     1
290
     0
176
     1
 90
       50
176
     1
 90
       50
176
     1
 90
       50
176
     1
290
     0
176
     1
 90
       50
176
     1
 62
   256
176
     0
 40
1.0
176
     0
 90
        2
176
     1
  1
strokes_ogs.tif
176
     1
290
     0
176
     1
 40
1.0
176
     1
 40
1.0
176
     1
  0
VISUALSTYLE
  5
34
102
{ACAD_REACTORS
330
2A
102
}
330
2A
100
AcDbVisualStyle
  2
Conceptual
 70
     9
177
     3
291
     0
 70
    58
 90
        3
176
     1
 90
        2
176
     1
 90
        0
176
     1
 90
        0
176
     1
 40
0.6
176
     1
 40
30.0
176
     1
 62
     7
420
 16777215
176
     1
 90
        2
176
     1
 90
        2
176
     1
 62
     7
176
     1
 62
   257
176
     1
 90
        1
176
     1
 90
        1
176
     1
 40
179.0
176
     1
 90
        8
176
     1
 62
     7
176
     1
 40
1.0
176
     1
 90
        1
176
     1
 90
        6
176
     1
 90
        2
176
     1
 62
     7
176
     1
 90
        3
176
     1
 90
        0
176
     1
 90
        0
176
     1
290
     0
176
     1
 90
        1
176
     1
 40
0.0
176
     1
 90
        0
176
     1
290
     0
176
     1
290
     1
176
     1
290
     1
176
     1
290
     0
176
     1
290
     0
176
     1
290
     0
176
     1
290
     0
176
     1
290
     0
176
     1
290
     0
176
     1
 90
       50
176
     1
 40
0.0
176
     1
 40
1.0
176
     1
 90
        0
176
     1
 62
    18
420
        0
176
     1
 90
       50
176
     1
 90
        3
176
     1
 62
     5
420
      255
176
     1
290
     0
176
     1
 90
       50
176
     1
 90
       50
176
     1
 90
       50
176
     1
290
     0
176
     1
 90
       50
176
     1
 62
   256
176
     0
 40
1.0
176
     0
 90
        2
176
     1
  1
strokes_ogs.tif
176
     1
290
     0
176
     1
 40
1.0
176
     1
 40
1.0
176
     1
  0
VISUALSTYLE
  5
35
102
{ACAD_REACTORS
330
2A
102
}
330
2A
100
AcDbVisualStyle
  2
Dim
 70
    11
177
     3
291
     1
 70
    58
 90
        2
176
     1
 90
        2
176
     1
 90
        0
176
     1
 90
        0
176
     1
 40
0.6
176
     1
 40
30.0
176
     1
 62
     7
420
 16777215
176
     1
 90
        1
176
     1
 90
        4
176
     1
 62
     7
176
     1
 62
   257
176
     1
 90
        1
176
     1
 90
        1
176
     1
 40
1.0
176
     1
 90
        8
176
     1
 62
     7
176
     1
 40
1.0
176
     1
 90
        1
176
     1
 90
        6
176
     1
 90
        2
176
     1
 62
     7
176
     1
 90
        5
176
     1
 90
        0
176
     1
 90
        0
176
     1
290
     0
176
     1
 90
        1
176
     1
 40
-50.0
176
     1
 90
        0
176
     1
290
     0
176
     1
290
     1
176
     1
290
     1
176
     1
290
     0
176
     1
290
     0
176
     1
290
     0
176
     1
290
     0
176
     1
290
     0
176
     1
290
     0
176
     1
 90
       50
176
     1
 40
0.0
176
     1
 40
1.0
176
     1
 90
        0
176
     1
 62
    18
420
        0
176
     1
 90
       50
176
     1
 90
        3
176
     1
 62
     5
420
      255
176
     1
290
     0
176
     1
 90
       50
176
     1
 90
       50
176
     1
 90
       50
176
     1
290
     0
176
     1
 90
       50
176
     1
 62
   256
176
     0
 40
1.0
176
     0
 90
        2
176
     1
  1
strokes_ogs.tif
176
     1
290
     0
176
     1
 40
1.0
176
     1
 40
1.0
176
     1
  0
VISUALSTYLE
  5
3D
102
{ACAD_REACTORS
330
2A
102
}
330
2A
100
AcDbVisualStyle
  2
EdgeColorOff
 70
    22
177
     3
291
     1
 70
    58
 90
        2
176
     0
 90
        2
176
     0
 90
        0
176
     0
 90
        0
176
     0
 40
0.6
176
     0
 40
30.0
176
     0
 62
     7
420
 16777215
176
     0
 90
        1
176
     0
 90
        4
176
     0
 62
     7
176
     0
 62
   257
176
     0
 90
        1
176
     0
 90
        1
176
     0
 40
1.0
176
     0
 90
        8
176
     2
 62
     7
176
     0
 40
1.0
176
     0
 90
        1
176
     0
 90
        6
176
     0
 90
        2
176
     0
 62
     7
176
     0
 90
        5
176
     0
 90
        0
176
     0
 90
        0
176
     0
290
     0
176
     0
 90
        1
176
     0
 40
0.0
176
     0
 90
        0
176
     0
290
     0
176
     0
290
     1
176
     0
290
     1
176
     0
290
     0
176
     0
290
     0
176
     0
290
     0
176
     0
290
     0
176
     0
290
     0
176
     0
290
     0
176
     0
 90
       50
176
     0
 40
0.0
176
     0
 40
1.0
176
     0
 90
        0
176
     0
 62
    18
420
        0
176
     0
 90
       50
176
     0
 90
        3
176
     0
 62
     5
420
      255
176
     0
290
     0
176
     0
 90
       50
176
     0
 90
       50
176
     0
 90
       50
176
     0
290
     0
176
     0
 90
       50
176
     0
 62
   256
176
     0
 40
1.0
176
     0
 90
        2
176
     0
  1
strokes_ogs.tif
176
     0
290
     0
176
     0
 40
1.0
176
     0
 40
1.0
176
     0
  0
VISUALSTYLE
  5
39
102
{ACAD_REACTORS
330
2A
102
}
330
2A
100
AcDbVisualStyle
  2
Facepattern
 70
    15
177
     3
291
     1
 70
    58
 90
        2
176
     1
 90
        2
176
     1
 90
        0
176
     1
 90
        0
176
     1
 40
0.6
176
     1
 40
30.0
176
     1
 62
     7
420
 16777215
176
     1
 90
        1
176
     1
 90
        4
176
     1
 62
     7
176
     1
 62
   257
176
     1
 90
        1
176
     1
 90
        1
176
     1
 40
1.0
176
     1
 90
        8
176
     1
 62
     7
176
     1
 40
1.0
176
     1
 90
        1
176
     1
 90
        6
176
     1
 90
        2
176
     1
 62
     7
176
     1
 90
        5
176
     1
 90
        0
176
     1
 90
        0
176
     1
290
     0
176
     1
 90
        1
176
     1
 40
0.0
176
     1
 90
        0
176
     1
290
     0
176
     1
290
     1
176
     1
290
     1
176
     1
290
     0
176
     1
290
     0
176
     1
290
     0
176
     1
290
     0
176
     1
290
     0
176
     1
290
     0
176
     1
 90
       50
176
     1
 40
0.0
176
     1
 40
1.0
176
     1
 90
        0
176
     1
 62
    18
420
        0
176
     1
 90
       50
176
     1
 90
        3
176
     1
 62
     5
420
      255
176
     1
290
     0
176
     1
 90
       50
176
     1
 90
       50
176
     1
 90
       50
176
     1
290
     0
176
     1
 90
       50
176
     1
 62
   256
176
     0
 40
1.0
176
     0
 90
        2
176
     1
  1
strokes_ogs.tif
176
     1
290
     0
176
     1
 40
1.0
176
     1
 40
1.0
176
     1
  0
VISUALSTYLE
  5
2B
102
{ACAD_REACTORS
330
2A
102
}
330
2A
100
AcDbVisualStyle
  2
Flat
 70
     0
177
     3
291
     1
 70
    58
 90
        2
176
     1
 90
        1
176
     1
 90
        1
176
     1
 90
        2
176
     1
 40
0.6
176
     1
 40
30.0
176
     1
 62
     7
420
 16777215
176
     1
 90
        0
176
     1
 90
        0
176
     1
 62
     7
176
     1
 62
   257
176
     1
 90
        1
176
     1
 90
        1
176
     1
 40
1.0
176
     1
 90
        8
176
     1
 62
     7
176
     1
 40
1.0
176
     1
 90
        1
176
     1
 90
        6
176
     1
 90
        2
176
     1
 62
     7
176
     1
 90
        5
176
     1
 90
        0
176
     1
 90
        0
176
     1
290
     0
176
     1
 90
       13
176
     1
 40
0.0
176
     1
 90
        0
176
     1
290
     0
176
     1
290
     1
176
     1
290
     1
176
     1
290
     0
176
     1
290
     0
176
     1
290
     0
176
     1
290
     0
176
     1
290
     0
176
     1
290
     0
176
     1
 90
       50
176
     1
 40
0.0
176
     1
 40
1.0
176
     1
 90
        0
176
     1
 62
    18
420
        0
176
     1
 90
       50
176
     1
 90
        3
176
     1
 62
     5
420
      255
176
     1
290
     0
176
     1
 90
       50
176
     1
 90
       50
176
     1
 90
       50
176
     1
290
     0
176
     1
 90
       50
176
     1
 62
   256
176
     0
 40
1.0
176
     0
 90
        2
176
     1
  1
strokes_ogs.tif
176
     1
290
     0
176
     1
 40
1.0
176
     1
 40
1.0
176
     1
  0
VISUALSTYLE
  5
2C
102
{ACAD_REACTORS
330
2A
102
}
330
2A
100
AcDbVisualStyle
  2
FlatWithEdges
 70
     1
177
     3
291
     1
 70
    58
 90
        2
176
     1
 90
        1
176
     1
 90
        1
176
     1
 90
        2
176
     1
 40
0.6
176
     1
 40
30.0
176
     1
 62
     7
420
 16777215
176
     1
 90
        1
176
     1
 90
        0
176
     1
 62
     7
176
     1
 62
   257
176
     1
 90
        1
176
     1
 90
        1
176
     1
 40
1.0
176
     1
 90
        0
176
     1
 62
   257
176
     1
 40
1.0
176
     1
 90
        1
176
     1
 90
        6
176
     1
 90
        2
176
     1
 62
     7
176
     1
 90
        5
176
     1
 90
        0
176
     1
 90
        0
176
     1
290
     0
176
     1
 90
       13
176
     1
 40
0.0
176
     1
 90
        0
176
     1
290
     0
176
     1
290
     1
176
     1
290
     1
176
     1
290
     0
176
     1
290
     0
176
     1
290
     0
176
     1
290
     0
176
     1
290
     0
176
     1
290
     0
176
     1
 90
       50
176
     1
 40
0.0
176
     1
 40
1.0
176
     1
 90
        0
176
     1
 62
    18
420
        0
176
     1
 90
       50
176
     1
 90
        3
176
     1
 62
     5
420
      255
176
     1
290
     0
176
     1
 90
       50
176
     1
 90
       50
176
     1
 90
       50
176
     1
290
     0
176
     1
 90
       50
176
     1
 62
   256
176
     0
 40
1.0
176
     0
 90
        2
176
     1
  1
strokes_ogs.tif
176
     1
290
     0
176
     1
 40
1.0
176
     1
 40
1.0
176
     1
  0
VISUALSTYLE
  5
2D
102
{ACAD_REACTORS
330
2A
102
}
330
2A
100
AcDbVisualStyle
  2
Gouraud
 70
     2
177
     3
291
     1
 70
    58
 90
        2
176
     1
 90
        2
176
     1
 90
        1
176
     1
 90
        2
176
     1
 40
0.6
176
     1
 40
30.0
176
     1
 62
     7
420
 16777215
176
     1
 90
        0
176
     1
 90
        0
176
     1
 62
     7
176
     1
 62
   257
176
     1
 90
        1
176
     1
 90
        1
176
     1
 40
1.0
176
     1
 90
        0
176
     1
 62
     7
176
     1
 40
1.0
176
     1
 90
        1
176
     1
 90
        6
176
     1
 90
        2
176
     1
 62
     7
176
     1
 90
        5
176
     1
 90
        0
176
     1
 90
        0
176
     1
290
     0
176
     1
 90
       13
176
     1
 40
0.0
176
     1
 90
        0
176
     1
290
     0
176
     1
290
     1
176
     1
290
     1
176
     1
290
     0
176
     1
290
     0
176
     1
290
     0
176
     1
290
     0
176
     1
290
     0
176
     1
290
     0
176
     1
 90
       50
176
     1
 40
0.0
176
     1
 40
1.0
176
     1
 90
        0
176
     1
 62
    18
420
        0
176
     1
 90
       50
176
     1
 90
        3
176
     1
 62
     5
420
      255
176
     1
290
     0
176
     1
 90
       50
176
     1
 90
       50
176
     1
 90
       50
176
     1
290
     0
176
     1
 90
       50
176
     1
 62
   256
176
     0
 40
1.0
176
     0
 90
        2
176
     1
  1
strokes_ogs.tif
176
     1
290
     0
176
     1
 40
1.0
176
     1
 40
1.0
176
     1
  0
VISUALSTYLE
  5
2E
102
{ACAD_REACTORS
330
2A
102
}
330
2A
100
AcDbVisualStyle
  2
GouraudWithEdges
 70
     3
177
     3
291
     1
 70
    58
 90
        2
176
     1
 90
        2
176
     1
 90
        1
176
     1
 90
        2
176
     1
 40
0.6
176
     1
 40
30.0
176
     1
 62
     7
420
 16777215
176
     1
 90
        1
176
     1
 90
        0
176
     1
 62
     7
176
     1
 62
   257
176
     1
 90
        1
176
     1
 90
        1
176
     1
 40
1.0
176
     1
 90
        0
176
     1
 62
   257
176
     1
 40
1.0
176
     1
 90
        1
176
     1
 90
        6
176
     1
 90
        2
176
     1
 62
     7
176
     1
 90
        5
176
     1
 90
        0
176
     1
 90
        0
176
     1
290
     0
176
     1
 90
       13
176
     1
 40
0.0
176
     1
 90
        0
176
     1
290
     0
176
     1
290
     1
176
     1
290
     1
176
     1
290
     0
176
     1
290
     0
176
     1
290
     0
176
     1
290
     0
176
     1
290
     0
176
     1
290
     0
176
     1
 90
       50
176
     1
 40
0.0
176
     1
 40
1.0
176
     1
 90
        0
176
     1
 62
    18
420
        0
176
     1
 90
       50
176
     1
 90
        3
176
     1
 62
     5
420
      255
176
     1
290
     0
176
     1
 90
       50
176
     1
 90
       50
176
     1
 90
       50
176
     1
290
     0
176
     1
 90
       50
176
     1
 62
   256
176
     0
 40
1.0
176
     0
 90
        2
176
     1
  1
strokes_ogs.tif
176
     1
290
     0
176
     1
 40
1.0
176
     1
 40
1.0
176
     1
  0
VISUALSTYLE
  5
31
102
{ACAD_REACTORS
330
2A
102
}
330
2A
100
AcDbVisualStyle
  2
Hidden
 70
     6
177
     3
291
     0
 70
    58
 90
        1
176
     1
 90
        2
176
     1
 90
        2
176
     1
 90
        0
176
     1
 40
0.6
176
     1
 40
30.0
176
     1
 62
     7
420
 16777215
176
     1
 90
        2
176
     1
 90
        2
176
     1
 62
     7
176
     1
 62
   257
176
     1
 90
        2
176
     1
 90
        1
176
     1
 40
40.0
176
     1
 90
        0
176
     1
 62
   257
176
     1
 40
1.0
176
     1
 90
        1
176
     1
 90
        6
176
     1
 90
        2
176
     1
 62
     7
176
     1
 90
        3
176
     1
 90
        0
176
     1
 90
        0
176
     1
290
     0
176
     1
 90
        1
176
     1
 40
0.0
176
     1
 90
        0
176
     1
290
     0
176
     1
290
     1
176
     1
290
     1
176
     1
290
     0
176
     1
290
     0
176
     1
290
     0
176
     1
290
     0
176
     1
290
     0
176
     1
290
     0
176
     1
 90
       50
176
     1
 40
0.0
176
     1
 40
1.0
176
     1
 90
        0
176
     1
 62
    18
420
        0
176
     1
 90
       50
176
     1
 90
        3
176
     1
 62
     5
420
      255
176
     1
290
     0
176
     1
 90
       50
176
     1
 90
       50
176
     1
 90
       50
176
     1
290
     0
176
     1
 90
       50
176
     1
 62
   256
176
     0
 40
1.0
176
     0
 90
        2
176
     1
  1
strokes_ogs.tif
176
     1
290
     0
176
     1
 40
1.0
176
     1
 40
1.0
176
     1
  0
VISUALSTYLE
  5
3B
102
{ACAD_REACTORS
330
2A
102
}
330
2A
100
AcDbVisualStyle
  2
JitterOff
 70
    20
177
     3
291
     1
 70
    58
 90
        2
176
     0
 90
        2
176
     0
 90
        0
176
     0
 90
        0
176
     0
 40
0.6
176
     0
 40
30.0
176
     0
 62
     7
420
 16777215
176
     0
 90
        1
176
     0
 90
        4
176
     0
 62
     7
176
     0
 62
   257
176
     0
 90
        1
176
     0
 90
        1
176
     0
 40
1.0
176
     0
 90
       10
176
     2
 62
     7
176
     0
 40
1.0
176
     0
 90
        1
176
     0
 90
        6
176
     0
 90
        2
176
     0
 62
     7
176
     0
 90
        5
176
     0
 90
        0
176
     0
 90
        0
176
     0
290
     0
176
     0
 90
        1
176
     0
 40
0.0
176
     0
 90
        0
176
     0
290
     0
176
     0
290
     1
176
     0
290
     1
176
     0
290
     0
176
     0
290
     0
176
     0
290
     0
176
     0
290
     0
176
     0
290
     0
176
     0
290
     0
176
     0
 90
       50
176
     0
 40
0.0
176
     0
 40
1.0
176
     0
 90
        0
176
     0
 62
    18
420
        0
176
     0
 90
       50
176
     0
 90
        3
176
     0
 62
     5
420
      255
176
     0
290
     0
176
     0
 90
       50
176
     0
 90
       50
176
     0
 90
       50
176
     0
290
     0
176
     0
 90
       50
176
     0
 62
   256
176
     0
 40
1.0
176
     0
 90
        2
176
     0
  1
strokes_ogs.tif
176
     0
290
     0
176
     0
 40
1.0
176
     0
 40
1.0
176
     0
  0
VISUALSTYLE
  5
38
102
{ACAD_REACTORS
330
2A
102
}
330
2A
100
AcDbVisualStyle
  2
Linepattern
 70
    14
177
     3
291
     1
 70
    58
 90
        2
176
     1
 90
        2
176
     1
 90
        0
176
     1
 90
        0
176
     1
 40
0.6
176
     1
 40
30.0
176
     1
 62
     7
420
 16777215
176
     1
 90
        1
176
     1
 90
        4
176
     1
 62
     7
176
     1
 62
   257
176
     1
 90
        7
176
     1
 90
        7
176
     1
 40
1.0
176
     1
 90
        8
176
     1
 62
     7
176
     1
 40
1.0
176
     1
 90
        1
176
     1
 90
        6
176
     1
 90
        2
176
     1
 62
     7
176
     1
 90
        5
176
     1
 90
        0
176
     1
 90
        0
176
     1
290
     0
176
     1
 90
        1
176
     1
 40
0.0
176
     1
 90
        0
176
     1
290
     0
176
     1
290
     1
176
     1
290
     1
176
     1
290
     0
176
     1
290
     0
176
     1
290
     0
176
     1
290
     0
176
     1
290
     0
176
     1
290
     0
176
     1
 90
       50
176
     1
 40
0.0
176
     1
 40
1.0
176
     1
 90
        0
176
     1
 62
    18
420
        0
176
     1
 90
       50
176
     1
 90
        3
176
     1
 62
     5
420
      255
176
     1
290
     0
176
     1
 90
       50
176
     1
 90
       50
176
     1
 90
       50
176
     1
290
     0
176
     1
 90
       50
176
     1
 62
   256
176
     0
 40
1.0
176
     0
 90
        2
176
     1
  1
strokes_ogs.tif
176
     1
290
     0
176
     1
 40
1.0
176
     1
 40
1.0
176
     1
  0
VISUALSTYLE
  5
3C
102
{ACAD_REACTORS
330
2A
102
}
330
2A
100
AcDbVisualStyle
  2
OverhangOff
 70
    21
177
     3
291
     1
 70
    58
 90
        2
176
     0
 90
        2
176
     0
 90
        0
176
     0
 90
        0
176
     0
 40
0.6
176
     0
 40
30.0
176
     0
 62
     7
420
 16777215
176
     0
 90
        1
176
     0
 90
        4
176
     0
 62
     7
176
     0
 62
   257
176
     0
 90
        1
176
     0
 90
        1
176
     0
 40
1.0
176
     0
 90
        9
176
     2
 62
     7
176
     0
 40
1.0
176
     0
 90
        1
176
     0
 90
        6
176
     0
 90
        2
176
     0
 62
     7
176
     0
 90
        5
176
     0
 90
        0
176
     0
 90
        0
176
     0
290
     0
176
     0
 90
        1
176
     0
 40
0.0
176
     0
 90
        0
176
     0
290
     0
176
     0
290
     1
176
     0
290
     1
176
     0
290
     0
176
     0
290
     0
176
     0
290
     0
176
     0
290
     0
176
     0
290
     0
176
     0
290
     0
176
     0
 90
       50
176
     0
 40
0.0
176
     0
 40
1.0
176
     0
 90
        0
176
     0
 62
    18
420
        0
176
     0
 90
       50
176
     0
 90
        3
176
     0
 62
     5
420
      255
176
     0
290
     0
176
     0
 90
       50
176
     0
 90
       50
176
     0
 90
       50
176
     0
290
     0
176
     0
 90
       50
176
     0
 62
   256
176
     0
 40
1.0
176
     0
 90
        2
176
     0
  1
strokes_ogs.tif
176
     0
290
     0
176
     0
 40
1.0
176
     0
 40
1.0
176
     0
  0
VISUALSTYLE
  5
33
102
{ACAD_REACTORS
330
2A
102
}
330
2A
100
AcDbVisualStyle
  2
Realistic
 70
     8
177
     3
291
     0
 70
    58
 90
        2
176
     1
 90
        3
176
     1
 90
        0
176
     1
 90
        2
176
     1
 40
0.6
176
     1
 40
30.0
176
     1
 62
     7
420
 16777215
176
     1
 90
        0
176
     1
 90
        0
176
     1
 62
     7
176
     1
 62
   257
176
     1
 90
        1
176
     1
 90
        1
176
     1
 40
1.0
176
     1
 90
        8
176
     1
 62
   257
176
     1
 40
1.0
176
     1
 90
        1
176
     1
 90
        6
176
     1
 90
        2
176
     1
 62
     7
176
     1
 90
        3
176
     1
 90
        0
176
     1
 90
        0
176
     1
290
     0
176
     1
 90
       13
176
     1
 40
0.0
176
     1
 90
        0
176
     1
290
     0
176
     1
290
     1
176
     1
290
     1
176
     1
290
     0
176
     1
290
     0
176
     1
290
     0
176
     1
290
     0
176
     1
290
     0
176
     1
290
     0
176
     1
 90
       50
176
     1
 40
0.0
176
     1
 40
1.0
176
     1
 90
        0
176
     1
 62
    18
420
        0
176
     1
 90
       50
176
     1
 90
        3
176
     1
 62
     5
420
      255
176
     1
290
     0
176
     1
 90
       50
176
     1
 90
       50
176
     1
 90
       50
176
     1
290
     0
176
     1
 90
       50
176
     1
 62
   256
176
     0
 40
1.0
176
     0
 90
        2
176
     1
  1
strokes_ogs.tif
176
     1
290
     0
176
     1
 40
1.0
176
     1
 40
1.0
176
     1
  0
VISUALSTYLE
  5
42
102
{ACAD_REACTORS
330
2A
102
}
330
2A
100
AcDbVisualStyle
  2
Shaded
 70
    27
177
     3
291
     0
 70
    58
 90
        2
176
     1
 90
        2
176
     1
 90
        1
176
     1
 90
        2
176
     1
 40
0.6
176
     1
 40
30.0
176
     1
 62
     7
420
 16777215
176
     1
 90
        0
176
     1
 90
        4
176
     1
 62
     7
176
     1
 62
   257
176
     1
 90
        1
176
     1
 90
        1
176
     1
 40
1.0
176
     1
 90
        8
176
     1
 62
   257
176
     1
 40
1.0
176
     1
 90
        1
176
     1
 90
        6
176
     1
 90
        2
176
     1
 62
     8
420
  7895160
176
     1
 90
        3
176
     1
 90
        0
176
     1
 90
        0
176
     1
290
     0
176
     1
 90
        5
176
     1
 40
0.0
176
     1
 90
        0
176
     1
290
     0
176
     1
290
     1
176
     1
290
     1
176
     1
290
     0
176
     1
290
     0
176
     1
290
     0
176
     1
290
     0
176
     1
290
     0
176
     1
290
     0
176
     1
 90
       50
176
     1
 40
0.0
176
     1
 40
1.0
176
     1
 90
        0
176
     1
 62
    18
420
        0
176
     1
 90
       50
176
     1
 90
        3
176
     1
 62
     5
420
      255
176
     1
290
     0
176
     1
 90
       50
176
     1
 90
       50
176
     1
 90
       50
176
     1
290
     0
176
     1
 90
       50
176
     1
 62
   256
176
     0
 40
1.0
176
     0
 90
        2
176
     1
  1
strokes_ogs.tif
176
     1
290
     0
176
     1
 40
1.0
176
     1
 40
1.0
176
     1
  0
VISUALSTYLE
  5
41
102
{ACAD_REACTORS
330
2A
102
}
330
2A
100
AcDbVisualStyle
  2
Shaded with edges
 70
    26
177
     3
291
     0
 70
    58
 90
        2
176
     1
 90
        2
176
     1
 90
        1
176
     1
 90
        2
176
     1
 40
0.6
176
     1
 40
30.0
176
     1
 62
     7
420
 16777215
176
     1
 90
        1
176
     1
 90
       10
176
     1
 62
     7
176
     1
 62
   257
176
     1
 90
        2
176
     1
 90
        1
176
     1
 40
1.0
176
     1
 90
        8
176
     1
 62
   257
176
     1
 40
1.0
176
     1
 90
        1
176
     1
 90
        6
176
     1
 90
        2
176
     1
 62
     7
176
     1
 90
        3
176
     1
 90
        0
176
     1
 90
        0
176
     1
290
     0
176
     1
 90
        5
176
     1
 40
0.0
176
     1
 90
        0
176
     1
290
     0
176
     1
290
     1
176
     1
290
     1
176
     1
290
     0
176
     1
290
     0
176
     1
290
     0
176
     1
290
     0
176
     1
290
     0
176
     1
290
     0
176
     1
 90
       50
176
     1
 40
0.0
176
     1
 40
1.0
176
     1
 90
        0
176
     1
 62
    18
420
        0
176
     1
 90
       50
176
     1
 90
        3
176
     1
 62
     5
420
      255
176
     1
290
     0
176
     1
 90
       50
176
     1
 90
       50
176
     1
 90
       50
176
     1
290
     0
176
     1
 90
       50
176
     1
 62
   256
176
     0
 40
1.0
176
     0
 90
        2
176
     1
  1
strokes_ogs.tif
176
     1
290
     0
176
     1
 40
1.0
176
     1
 40
1.0
176
     1
  0
VISUALSTYLE
  5
3E
102
{ACAD_REACTORS
330
2A
102
}
330
2A
100
AcDbVisualStyle
  2
Shades of Gray
 70
    23
177
     3
291
     0
 70
    58
 90
        2
176
     1
 90
        2
176
     1
 90
        3
176
     1
 90
        0
176
     1
 40
0.6
176
     1
 40
30.0
176
     1
 62
     7
420
 16777215
176
     1
 90
        2
176
     1
 90
        2
176
     1
 62
     7
176
     1
 62
     7
176
     1
 90
        1
176
     1
 90
        1
176
     1
 40
40.0
176
     1
 90
        8
176
     1
 62
     7
176
     1
 40
1.0
176
     1
 90
        1
176
     1
 90
        6
176
     1
 90
        2
176
     1
 62
     7
176
     1
 90
        3
176
     1
 90
        0
176
     1
 90
        0
176
     1
290
     0
176
     1
 90
        1
176
     1
 40
0.0
176
     1
 90
        0
176
     1
290
     0
176
     1
290
     1
176
     1
290
     1
176
     1
290
     0
176
     1
290
     0
176
     1
290
     0
176
     1
290
     0
176
     1
290
     0
176
     1
290
     0
176
     1
 90
       50
176
     1
 40
0.0
176
     1
 40
1.0
176
     1
 90
        0
176
     1
 62
    18
420
        0
176
     1
 90
       50
176
     1
 90
        3
176
     1
 62
     5
420
      255
176
     1
290
     0
176
     1
 90
       50
176
     1
 90
       50
176
     1
 90
       50
176
     1
290
     0
176
     1
 90
       50
176
     1
 62
   256
176
     0
 40
1.0
176
     0
 90
        2
176
     1
  1
strokes_ogs.tif
176
     1
290
     0
176
     1
 40
1.0
176
     1
 40
1.0
176
     1
  0
VISUALSTYLE
  5
3F
102
{ACAD_REACTORS
330
2A
102
}
330
2A
100
AcDbVisualStyle
  2
Sketchy
 70
    24
177
     3
291
     0
 70
    58
 90
        1
176
     1
 90
        2
176
     1
 90
        2
176
     1
 90
        0
176
     1
 40
0.6
176
     1
 40
30.0
176
     1
 62
     7
420
 16777215
176
     1
 90
        2
176
     1
 90
        2
176
     1
 62
     7
176
     1
 62
     7
176
     1
 90
        1
176
     1
 90
        1
176
     1
 40
40.0
176
     1
 90
       11
176
     1
 62
     7
176
     1
 40
1.0
176
     1
 90
        1
176
     1
 90
        6
176
     1
 90
        2
176
     1
 62
     7
176
     1
 90
        6
176
     1
 90
        0
176
     1
 90
        0
176
     1
290
     0
176
     1
 90
        1
176
     1
 40
0.0
176
     1
 90
        0
176
     1
290
     0
176
     1
290
     1
176
     1
290
     1
176
     1
290
     0
176
     1
290
     0
176
     1
290
     0
176
     1
290
     0
176
     1
290
     0
176
     1
290
     0
176
     1
 90
       50
176
     1
 40
0.0
176
     1
 40
1.0
176
     1
 90
        0
176
     1
 62
    18
420
        0
176
     1
 90
       50
176
     1
 90
        3
176
     1
 62
     5
420
      255
176
     1
290
     0
176
     1
 90
       50
176
     1
 90
       50
176
     1
 90
       50
176
     1
290
     0
176
     1
 90
       50
176
     1
 62
   256
176
     0
 40
1.0
176
     0
 90
        2
176
     1
  1
strokes_ogs.tif
176
     1
290
     0
176
     1
 40
1.0
176
     1
 40
1.0
176
     1
  0
VISUALSTYLE
  5
37
102
{ACAD_REACTORS
330
2A
102
}
330
2A
100
AcDbVisualStyle
  2
Thicken
 70
    13
177
     3
291
     1
 70
    58
 90
        2
176
     1
 90
        2
176
     1
 90
        0
176
     1
 90
        0
176
     1
 40
0.6
176
     1
 40
30.0
176
     1
 62
     7
420
 16777215
176
     1
 90
        1
176
     1
 90
        4
176
     1
 62
     7
176
     1
 62
   257
176
     1
 90
        1
176
     1
 90
        1
176
     1
 40
1.0
176
     1
 90
       12
176
     1
 62
     7
176
     1
 40
1.0
176
     1
 90
        1
176
     1
 90
        6
176
     1
 90
        2
176
     1
 62
     7
176
     1
 90
        5
176
     1
 90
        0
176
     1
 90
        0
176
     1
290
     0
176
     1
 90
        1
176
     1
 40
0.0
176
     1
 90
        0
176
     1
290
     0
176
     1
290
     1
176
     1
290
     1
176
     1
290
     0
176
     1
290
     0
176
     1
290
     0
176
     1
290
     0
176
     1
290
     0
176
     1
290
     0
176
     1
 90
       50
176
     1
 40
0.0
176
     1
 40
1.0
176
     1
 90
        0
176
     1
 62
    18
420
        0
176
     1
 90
       50
176
     1
 90
        3
176
     1
 62
     5
420
      255
176
     1
290
     0
176
     1
 90
       50
176
     1
 90
       50
176
     1
 90
       50
176
     1
290
     0
176
     1
 90
       50
176
     1
 62
   256
176
     0
 40
1.0
176
     0
 90
        2
176
     1
  1
strokes_ogs.tif
176
     1
290
     0
176
     1
 40
1.0
176
     1
 40
1.0
176
     1
  0
VISUALSTYLE
  5
30
102
{ACAD_REACTORS
330
2A
102
}
330
2A
100
AcDbVisualStyle
  2
Wireframe
 70
     5
177
     3
291
     0
 70
    58
 90
        0
176
     1
 90
        2
176
     1
 90
        0
176
     1
 90
        0
176
     1
 40
0.6
176
     1
 40
30.0
176
     1
 62
     7
420
 16777215
176
     1
 90
        1
176
     1
 90
        4
176
     1
 62
     7
176
     1
 62
   257
176
     1
 90
        1
176
     1
 90
        1
176
     1
 40
1.0
176
     1
 90
        0
176
     1
 62
   257
176
     1
 40
1.0
176
     1
 90
        1
176
     1
 90
        6
176
     1
 90
        2
176
     1
 62
     7
176
     1
 90
        3
176
     1
 90
        0
176
     1
 90
        0
176
     1
290
     0
176
     1
 90
        1
176
     1
 40
0.0
176
     1
 90
        0
176
     1
290
     0
176
     1
290
     1
176
     1
290
     1
176
     1
290
     0
176
     1
290
     0
176
     1
290
     0
176
     1
290
     0
176
     1
290
     0
176
     1
290
     0
176
     1
 90
       50
176
     1
 40
0.0
176
     1
 40
1.0
176
     1
 90
        0
176
     1
 62
    18
420
        0
176
     1
 90
       50
176
     1
 90
        3
176
     1
 62
     5
420
      255
176
     1
290
     0
176
     1
 90
       50
176
     1
 90
       50
176
     1
 90
       50
176
     1
290
     0
176
     1
 90
       50
176
     1
 62
   256
176
     0
 40
1.0
176
     0
 90
        2
176
     1
  1
strokes_ogs.tif
176
     1
290
     0
176
     1
 40
1.0
176
     1
 40
1.0
176
     1
  0
VISUALSTYLE
  5
40
102
{ACAD_REACTORS
330
2A
102
}
330
2A
100
AcDbVisualStyle
  2
X-Ray
 70
    25
177
     3
291
     0
 70
    58
 90
        2
176
     1
 90
        2
176
     1
 90
        1
176
     1
 90
        1
176
     1
 40
0.5
176
     1
 40
30.0
176
     1
 62
     7
420
 16777215
176
     1
 90
        1
176
     1
 90
        0
176
     1
 62
     7
176
     1
 62
   257
176
     1
 90
        1
176
     1
 90
        1
176
     1
 40
1.0
176
     1
 90
        8
176
     1
 62
     7
176
     1
 40
1.0
176
     1
 90
        1
176
     1
 90
        6
176
     1
 90
        2
176
     1
 62
     7
176
     1
 90
        3
176
     1
 90
        0
176
     1
 90
        0
176
     1
290
     0
176
     1
 90
       13
176
     1
 40
0.0
176
     1
 90
        0
176
     1
290
     0
176
     1
290
     1
176
     1
290
     1
176
     1
290
     0
176
     1
290
     0
176
     1
290
     0
176
     1
290
     0
176
     1
290
     0
176
     1
290
     0
176
     1
 90
       50
176
     1
 40
0.0
176
     1
 40
1.0
176
     1
 90
        0
176
     1
 62
    18
420
        0
176
     1
 90
       50
176
     1
 90
        3
176
     1
 62
     5
420
      255
176
     1
290
     0
176
     1
 90
       50
176
     1
 90
       50
176
     1
 90
       50
176
     1
290
     0
176
     1
 90
       50
176
     1
 62
   256
176
     0
 40
1.0
176
     0
 90
        2
176
     1
  1
strokes_ogs.tif
176
     1
290
     0
176
     1
 40
1.0
176
     1
 40
1.0
176
     1
  0
DICTIONARYVAR
  5
17D
102
{ACAD_REACTORS
330
17C
102
}
330
17C
100
DictionaryVariables
280
     0
  1
1:1
  0
DICTIONARYVAR
  5
182
102
{ACAD_REACTORS
330
17C
102
}
330
17C
100
DictionaryVariables
280
     0
  1
Standard
  0
DICTIONARYVAR
  5
181
102
{ACAD_REACTORS
330
17C
102
}
330
17C
100
DictionaryVariables
280
     0
  1
Standard
  0
DICTIONARY
  5
17E
330
6A
100
AcDbDictionary
280
     1
281
     1
  3
ACAD_ROUNDTRIP_2008_TABLESTYLE_CELLSTYLEMAP
360
17F
  0
CELLSTYLEMAP
  5
17F
102
{ACAD_REACTORS
330
17E
102
}
330
17E
100
AcDbCellStyleMap
 90
        3
300
CELLSTYLE
  1
TABLEFORMAT_BEGIN
 90
        5
170
     1
 91
        0
 92
    32768
 62
   257
 93
        1
300
CONTENTFORMAT
  1
CONTENTFORMAT_BEGIN
 90
        0
 91
        0
 92
        4
 93
        0
300

 40
0.0
140
1.0
 94
        5
 62
     0
340
11
144
6.0
309
CONTENTFORMAT_END
171
     1
301
MARGIN
  1
CELLMARGIN_BEGIN
 40
1.5
 40
1.5
 40
1.5
 40
1.5
 40
1.5
 40
1.5
309
CELLMARGIN_END
 94
        6
 95
        1
302
GRIDFORMAT
  1
GRIDFORMAT_BEGIN
 90
        0
 91
        1
 62
     0
 92
       -2
340
14
 93
        0
 40
0.045
309
GRIDFORMAT_END
 95
        2
302
GRIDFORMAT
  1
GRIDFORMAT_BEGIN
 90
        0
 91
        1
 62
     0
 92
       -2
340
14
 93
        0
 40
0.045
309
GRIDFORMAT_END
 95
        4
302
GRIDFORMAT
  1
GRIDFORMAT_BEGIN
 90
        0
 91
        1
 62
     0
 92
       -2
340
14
 93
        0
 40
0.045
309
GRIDFORMAT_END
 95
        8
302
GRIDFORMAT
  1
GRIDFORMAT_BEGIN
 90
        0
 91
        1
 62
     0
 92
       -2
340
14
 93
        0
 40
0.045
309
GRIDFORMAT_END
 95
       16
302
GRIDFORMAT
  1
GRIDFORMAT_BEGIN
 90
        0
 91
        1
 62
     0
 92
       -2
340
14
 93
        0
 40
0.045
309
GRIDFORMAT_END
 95
       32
302
GRIDFORMAT
  1
GRIDFORMAT_BEGIN
 90
        0
 91
        1
 62
     0
 92
       -2
340
14
 93
        0
 40
0.045
309
GRIDFORMAT_END
309
TABLEFORMAT_END
  1
CELLSTYLE_BEGIN
 90
        1
 91
        1
300
_TITLE
309
CELLSTYLE_END
300
CELLSTYLE
  1
TABLEFORMAT_BEGIN
 90
        5
170
     1
 91
        0
 92
        0
 62
   257
 93
        1
300
CONTENTFORMAT
  1
CONTENTFORMAT_BEGIN
 90
        0
 91
        0
 92
        4
 93
        0
300

 40
0.0
140
1.0
 94
        5
 62
     0
340
11
144
4.5
309
CONTENTFORMAT_END
171
     1
301
MARGIN
  1
CELLMARGIN_BEGIN
 40
1.5
 40
1.5
 40
1.5
 40
1.5
 40
1.5
 40
1.5
309
CELLMARGIN_END
 94
        6
 95
        1
302
GRIDFORMAT
  1
GRIDFORMAT_BEGIN
 90
        0
 91
        1
 62
     0
 92
       -2
340
14
 93
        0
 40
0.045
309
GRIDFORMAT_END
 95
        2
302
GRIDFORMAT
  1
GRIDFORMAT_BEGIN
 90
        0
 91
        1
 62
     0
 92
       -2
340
14
 93
        0
 40
0.045
309
GRIDFORMAT_END
 95
        4
302
GRIDFORMAT
  1
GRIDFORMAT_BEGIN
 90
        0
 91
        1
 62
     0
 92
       -2
340
14
 93
        0
 40
0.045
309
GRIDFORMAT_END
 95
        8
302
GRIDFORMAT
  1
GRIDFORMAT_BEGIN
 90
        0
 91
        1
 62
     0
 92
       -2
340
14
 93
        0
 40
0.045
309
GRIDFORMAT_END
 95
       16
302
GRIDFORMAT
  1
GRIDFORMAT_BEGIN
 90
        0
 91
        1
 62
     0
 92
       -2
340
14
 93
        0
 40
0.045
309
GRIDFORMAT_END
 95
       32
302
GRIDFORMAT
  1
GRIDFORMAT_BEGIN
 90
        0
 91
        1
 62
     0
 92
       -2
340
14
 93
        0
 40
0.045
309
GRIDFORMAT_END
309
TABLEFORMAT_END
  1
CELLSTYLE_BEGIN
 90
        2
 91
        1
300
_HEADER
309
CELLSTYLE_END
300
CELLSTYLE
  1
TABLEFORMAT_BEGIN
 90
        5
170
     1
 91
        0
 92
        0
 62
   257
 93
        1
300
CONTENTFORMAT
  1
CONTENTFORMAT_BEGIN
 90
        0
 91
        0
 92
        4
 93
        0
300

 40
0.0
140
1.0
 94
        2
 62
     0
340
11
144
4.5
309
CONTENTFORMAT_END
171
     1
301
MARGIN
  1
CELLMARGIN_BEGIN
 40
1.5
 40
1.5
 40
1.5
 40
1.5
 40
1.5
 40
1.5
309
CELLMARGIN_END
 94
        6
 95
        1
302
GRIDFORMAT
  1
GRIDFORMAT_BEGIN
 90
        0
 91
        1
 62
     0
 92
       -2
340
14
 93
        0
 40
0.045
309
GRIDFORMAT_END
 95
        2
302
GRIDFORMAT
  1
GRIDFORMAT_BEGIN
 90
        0
 91
        1
 62
     0
 92
       -2
340
14
 93
        0
 40
0.045
309
GRIDFORMAT_END
 95
        4
302
GRIDFORMAT
  1
GRIDFORMAT_BEGIN
 90
        0
 91
        1
 62
     0
 92
       -2
340
14
 93
        0
 40
0.045
309
GRIDFORMAT_END
 95
        8
302
GRIDFORMAT
  1
GRIDFORMAT_BEGIN
 90
        0
 91
        1
 62
     0
 92
       -2
340
14
 93
        0
 40
0.045
309
GRIDFORMAT_END
 95
       16
302
GRIDFORMAT
  1
GRIDFORMAT_BEGIN
 90
        0
 91
        1
 62
     0
 92
       -2
340
14
 93
        0
 40
0.045
309
GRIDFORMAT_END
 95
       32
302
GRIDFORMAT
  1
GRIDFORMAT_BEGIN
 90
        0
 91
        1
 62
     0
 92
       -2
340
14
 93
        0
 40
0.045
309
GRIDFORMAT_END
309
TABLEFORMAT_END
  1
CELLSTYLE_BEGIN
 90
        3
 91
        2
300
_DATA
309
CELLSTYLE_END
  0
ENDSEC
  0
EOF