0
SECTION
  2
HEADER
  9
$ACADVER
  1
AC1027
  9
$ACADMAINTVER
 70
     8
  9
$DWGCODEPAGE
  3
ANSI_1252
  9
$REQUIREDVERSIONS
160
                 0
  9
$COMMENTS
  1
File was created by Cadenas
  9
$CUSTOMPROPERTYTAG
  1
NN
  9
$CUSTOMPROPERTY
  1
Set Screw Four-Bolt Flange Inch Bore - Stainless Housing
  9
$CUSTOMPROPERTYTAG
  1
NT
  9
$CUSTOMPROPERTY
  1
SC 4 Bolt Flange Bearings -(Normal Duty) -E-Z KLEEN
  9
$CUSTOMPROPERTYTAG
  1
NB
  9
$CUSTOMPROPERTY
  1
056809
  9
$CUSTOMPROPERTYTAG
  1
NBSYN
  9
$CUSTOMPROPERTY
  1
$PN.
  9
$CUSTOMPROPERTYTAG
  1
LINA
  9
$CUSTOMPROPERTY
  1
056809
  9
$CUSTOMPROPERTYTAG
  1
SERIES
  9
$CUSTOMPROPERTY
  1
208
  9
$CUSTOMPROPERTYTAG
  1
SS
  9
$CUSTOMPROPERTY
  1
1-1/2
  9
$CUSTOMPROPERTYTAG
  1
PN
  9
$CUSTOMPROPERTY
  1
056809
  9
$CUSTOMPROPERTYTAG
  1
DESCRIPTION
  9
$CUSTOMPROPERTY
  1
F4B-SCEZ-108-SH
  9
$CUSTOMPROPERTYTAG
  1
WEIGHT
  9
$CUSTOMPROPERTY
  1
3.70
  9
$CUSTOMPROPERTYTAG
  1
A
  9
$CUSTOMPROPERTY
  1
1.94
  9
$CUSTOMPROPERTYTAG
  1
B
  9
$CUSTOMPROPERTY
  1
5.06
  9
$CUSTOMPROPERTYTAG
  1
C
  9
$CUSTOMPROPERTY
  1
1.97
  9
$CUSTOMPROPERTYTAG
  1
D
  9
$CUSTOMPROPERTY
  1
4.00
  9
$CUSTOMPROPERTYTAG
  1
F
  9
$CUSTOMPROPERTY
  1
1/2
  9
$CUSTOMPROPERTYTAG
  1
H
  9
$CUSTOMPROPERTY
  1
0.43
  9
$CUSTOMPROPERTYTAG
  1
J
  9
$CUSTOMPROPERTY
  1
0.62
  9
$CUSTOMPROPERTYTAG
  1
L
  9
$CUSTOMPROPERTY
  1
2.05
  9
$CUSTOMPROPERTYTAG
  1
COMPANY
  9
$CUSTOMPROPERTY
  1
baldor
  9
$INSBASE
 10
0.0
 20
0.0
 30
0.0
  9
$EXTMIN
 10
1.000000000000000E+20
 20
1.000000000000000E+20
 30
1.000000000000000E+20
  9
$EXTMAX
 10
-1.000000000000000E+20
 20
-1.000000000000000E+20
 30
-1.000000000000000E+20
  9
$LIMMIN
 10
0.0
 20
0.0
  9
$LIMMAX
 10
12.0
 20
9.0
  9
$ORTHOMODE
 70
     0
  9
$REGENMODE
 70
     1
  9
$FILLMODE
 70
     1
  9
$QTEXTMODE
 70
     0
  9
$MIRRTEXT
 70
     1
  9
$LTSCALE
 40
1.0
  9
$ATTMODE
 70
     1
  9
$TEXTSIZE
 40
0.2
  9
$TRACEWID
 40
0.05
  9
$TEXTSTYLE
  7
Standard
  9
$CLAYER
  8
0
  9
$CELTYPE
  6
ByLayer
  9
$CECOLOR
 62
   256
  9
$CELTSCALE
 40
1.0
  9
$DISPSILH
 70
     0
  9
$DIMSCALE
 40
1.0
  9
$DIMASZ
 40
0.18
  9
$DIMEXO
 40
0.0625
  9
$DIMDLI
 40
0.38
  9
$DIMRND
 40
0.0
  9
$DIMDLE
 40
0.0
  9
$DIMEXE
 40
0.18
  9
$DIMTP
 40
0.0
  9
$DIMTM
 40
0.0
  9
$DIMTXT
 40
0.18
  9
$DIMCEN
 40
0.09
  9
$DIMTSZ
 40
0.0
  9
$DIMTOL
 70
     0
  9
$DIMLIM
 70
     0
  9
$DIMTIH
 70
     1
  9
$DIMTOH
 70
     1
  9
$DIMSE1
 70
     0
  9
$DIMSE2
 70
     0
  9
$DIMTAD
 70
     0
  9
$DIMZIN
 70
     0
  9
$DIMBLK
  1

  9
$DIMASO
 70
     1
  9
$DIMSHO
 70
     1
  9
$DIMPOST
  1

  9
$DIMAPOST
  1

  9
$DIMALT
 70
     0
  9
$DIMALTD
 70
     2
  9
$DIMALTF
 40
25.4
  9
$DIMLFAC
 40
1.0
  9
$DIMTOFL
 70
     0
  9
$DIMTVP
 40
0.0
  9
$DIMTIX
 70
     0
  9
$DIMSOXD
 70
     0
  9
$DIMSAH
 70
     0
  9
$DIMBLK1
  1

  9
$DIMBLK2
  1

  9
$DIMSTYLE
  2
Standard
  9
$DIMCLRD
 70
     0
  9
$DIMCLRE
 70
     0
  9
$DIMCLRT
 70
     0
  9
$DIMTFAC
 40
1.0
  9
$DIMGAP
 40
0.09
  9
$DIMJUST
 70
     0
  9
$DIMSD1
 70
     0
  9
$DIMSD2
 70
     0
  9
$DIMTOLJ
 70
     1
  9
$DIMTZIN
 70
     0
  9
$DIMALTZ
 70
     0
  9
$DIMALTTZ
 70
     0
  9
$DIMUPT
 70
     0
  9
$DIMDEC
 70
     4
  9
$DIMTDEC
 70
     4
  9
$DIMALTU
 70
     2
  9
$DIMALTTD
 70
     2
  9
$DIMTXSTY
  7
Standard
  9
$DIMAUNIT
 70
     0
  9
$DIMADEC
 70
     0
  9
$DIMALTRND
 40
0.0
  9
$DIMAZIN
 70
     0
  9
$DIMDSEP
 70
    46
  9
$DIMATFIT
 70
     3
  9
$DIMFRAC
 70
     0
  9
$DIMLDRBLK
  1

  9
$DIMLUNIT
 70
     2
  9
$DIMLWD
 70
    -2
  9
$DIMLWE
 70
    -2
  9
$DIMTMOVE
 70
     0
  9
$DIMFXL
 40
1.0
  9
$DIMFXLON
 70
     0
  9
$DIMJOGANG
 40
0.7853981633974483
  9
$DIMTFILL
 70
     0
  9
$DIMTFILLCLR
 70
     0
  9
$DIMARCSYM
 70
     0
  9
$DIMLTYPE
  6

  9
$DIMLTEX1
  6

  9
$DIMLTEX2
  6

  9
$DIMTXTDIRECTION
 70
     0
  9
$LUNITS
 70
     2
  9
$LUPREC
 70
     4
  9
$SKETCHINC
 40
0.1
  9
$FILLETRAD
 40
0.5
  9
$AUNITS
 70
     0
  9
$AUPREC
 70
     0
  9
$MENU
  1
.
  9
$ELEVATION
 40
0.0
  9
$PELEVATION
 40
0.0
  9
$THICKNESS
 40
0.0
  9
$LIMCHECK
 70
     0
  9
$CHAMFERA
 40
0.0
  9
$CHAMFERB
 40
0.0
  9
$CHAMFERC
 40
0.0
  9
$CHAMFERD
 40
0.0
  9
$SKPOLY
 70
     0
  9
$TDCREATE
 40
2458168.996120509
  9
$TDUCREATE
 40
2458168.954453843
  9
$TDUPDATE
 40
2458168.996120509
  9
$TDUUPDATE
 40
2458168.954453843
  9
$TDINDWG
 40
0.0000000116
  9
$TDUSRTIMER
 40
0.0000000116
  9
$USRTIMER
 70
     1
  9
$ANGBASE
 50
0.0
  9
$ANGDIR
 70
     0
  9
$PDMODE
 70
     0
  9
$PDSIZE
 40
0.0
  9
$PLINEWID
 40
0.0
  9
$SPLFRAME
 70
     0
  9
$SPLINETYPE
 70
     6
  9
$SPLINESEGS
 70
     8
  9
$HANDSEED
  5
18B
  9
$SURFTAB1
 70
     6
  9
$SURFTAB2
 70
     6
  9
$SURFTYPE
 70
     6
  9
$SURFU
 70
     6
  9
$SURFV
 70
     6
  9
$UCSBASE
  2

  9
$UCSNAME
  2

  9
$UCSORG
 10
0.0
 20
0.0
 30
0.0
  9
$UCSXDIR
 10
1.0
 20
0.0
 30
0.0
  9
$UCSYDIR
 10
0.0
 20
1.0
 30
0.0
  9
$UCSORTHOREF
  2

  9
$UCSORTHOVIEW
 70
     0
  9
$UCSORGTOP
 10
0.0
 20
0.0
 30
0.0
  9
$UCSORGBOTTOM
 10
0.0
 20
0.0
 30
0.0
  9
$UCSORGLEFT
 10
0.0
 20
0.0
 30
0.0
  9
$UCSORGRIGHT
 10
0.0
 20
0.0
 30
0.0
  9
$UCSORGFRONT
 10
0.0
 20
0.0
 30
0.0
  9
$UCSORGBACK
 10
0.0
 20
0.0
 30
0.0
  9
$PUCSBASE
  2

  9
$PUCSNAME
  2

  9
$PUCSORG
 10
0.0
 20
0.0
 30
0.0
  9
$PUCSXDIR
 10
1.0
 20
0.0
 30
0.0
  9
$PUCSYDIR
 10
0.0
 20
1.0
 30
0.0
  9
$PUCSORTHOREF
  2

  9
$PUCSORTHOVIEW
 70
     0
  9
$PUCSORGTOP
 10
0.0
 20
0.0
 30
0.0
  9
$PUCSORGBOTTOM
 10
0.0
 20
0.0
 30
0.0
  9
$PUCSORGLEFT
 10
0.0
 20
0.0
 30
0.0
  9
$PUCSORGRIGHT
 10
0.0
 20
0.0
 30
0.0
  9
$PUCSORGFRONT
 10
0.0
 20
0.0
 30
0.0
  9
$PUCSORGBACK
 10
0.0
 20
0.0
 30
0.0
  9
$USERI1
 70
     0
  9
$USERI2
 70
     0
  9
$USERI3
 70
     0
  9
$USERI4
 70
     0
  9
$USERI5
 70
     0
  9
$USERR1
 40
0.0
  9
$USERR2
 40
0.0
  9
$USERR3
 40
0.0
  9
$USERR4
 40
0.0
  9
$USERR5
 40
0.0
  9
$WORLDVIEW
 70
     1
  9
$SHADEDGE
 70
     3
  9
$SHADEDIF
 70
    70
  9
$TILEMODE
 70
     1
  9
$MAXACTVP
 70
    64
  9
$PINSBASE
 10
0.0
 20
0.0
 30
0.0
  9
$PLIMCHECK
 70
     0
  9
$PEXTMIN
 10
1.000000000000000E+20
 20
1.000000000000000E+20
 30
1.000000000000000E+20
  9
$PEXTMAX
 10
-1.000000000000000E+20
 20
-1.000000000000000E+20
 30
-1.000000000000000E+20
  9
$PLIMMIN
 10
0.0
 20
0.0
  9
$PLIMMAX
 10
12.0
 20
9.0
  9
$UNITMODE
 70
     0
  9
$VISRETAIN
 70
     1
  9
$PLINEGEN
 70
     0
  9
$PSLTSCALE
 70
     1
  9
$TREEDEPTH
 70
  3020
  9
$CMLSTYLE
  2
Standard
  9
$CMLJUST
 70
     0
  9
$CMLSCALE
 40
1.0
  9
$PROXYGRAPHICS
 70
     1
  9
$MEASUREMENT
 70
     0
  9
$CELWEIGHT
370
    -1
  9
$ENDCAPS
280
     0
  9
$JOINSTYLE
280
     0
  9
$LWDISPLAY
290
     0
  9
$INSUNITS
 70
     1
  9
$HYPERLINKBASE
  1

  9
$STYLESHEET
  1

  9
$XEDIT
290
     1
  9
$CEPSNTYPE
380
     0
  9
$PSTYLEMODE
290
     1
  9
$FINGERPRINTGUID
  2
{6D2CF202-5AA6-4CBB-9D13-0D10DEFA9ED8}
  9
$VERSIONGUID
  2
{FAEB1C32-E019-11D5-929B-00C0DF256EC4}
  9
$EXTNAMES
290
     1
  9
$PSVPSCALE
 40
0.0
  9
$OLESTARTUP
290
     0
  9
$SORTENTS
280
   127
  9
$INDEXCTL
280
     0
  9
$HIDETEXT
280
     1
  9
$XCLIPFRAME
280
     2
  9
$HALOGAP
280
     0
  9
$OBSCOLOR
 70
   257
  9
$OBSLTYPE
280
     0
  9
$INTERSECTIONDISPLAY
280
     0
  9
$INTERSECTIONCOLOR
 70
   257
  9
$DIMASSOC
280
     2
  9
$PROJECTNAME
  1

  9
$CAMERADISPLAY
290
     0
  9
$LENSLENGTH
 40
50.0
  9
$CAMERAHEIGHT
 40
0.0
  9
$STEPSPERSEC
 40
2.0
  9
$STEPSIZE
 40
6.0
  9
$3DDWFPREC
 40
2.0
  9
$PSOLWIDTH
 40
0.25
  9
$PSOLHEIGHT
 40
4.0
  9
$LOFTANG1
 40
1.570796326794897
  9
$LOFTANG2
 40
1.570796326794897
  9
$LOFTMAG1
 40
0.0
  9
$LOFTMAG2
 40
0.0
  9
$LOFTPARAM
 70
     7
  9
$LOFTNORMALS
280
     1
  9
$LATITUDE
 40
37.795
  9
$LONGITUDE
 40
-122.394
  9
$NORTHDIRECTION
 40
0.0
  9
$TIMEZONE
 70
 -8000
  9
$LIGHTGLYPHDISPLAY
280
     1
  9
$TILEMODELIGHTSYNCH
280
     1
  9
$CMATERIAL
347
44
  9
$SOLIDHIST
280
     0
  9
$SHOWHIST
280
     1
  9
$DWFFRAME
280
     2
  9
$DGNFRAME
280
     2
  9
$REALWORLDSCALE
290
     1
  9
$INTERFERECOLOR
 62
   256
  9
$CSHADOW
280
     0
  9
$SHADOWPLANELOCATION
 40
0.0
  0
ENDSEC
  0
SECTION
  2
CLASSES
  0
CLASS
  1
ACDBDICTIONARYWDFLT
  2
AcDbDictionaryWithDefault
  3
ObjectDBX Classes
 90
        0
 91
        4
280
     0
281
     0
  0
CLASS
  1
VISUALSTYLE
  2
AcDbVisualStyle
  3
ObjectDBX Classes
 90
     4095
 91
        4
280
     0
281
     0
  0
CLASS
  1
MATERIAL
  2
AcDbMaterial
  3
ObjectDBX Classes
 90
     1153
 91
        4
280
     0
281
     0
  0
CLASS
  1
SCALE
  2
AcDbScale
  3
ObjectDBX Classes
 90
     1153
 91
        4
280
     0
281
     0
  0
CLASS
  1
TABLESTYLE
  2
AcDbTableStyle
  3
ObjectDBX Classes
 90
     4095
 91
        4
280
     0
281
     0
  0
CLASS
  1
MLEADERSTYLE
  2
AcDbMLeaderStyle
  3
ACDB_MLEADERSTYLE_CLASS
 90
     4095
 91
        4
280
     0
281
     0
  0
CLASS
  1
SUN
  2
AcDbSun
  3
SCENEOE
 90
     1153
 91
        4
280
     0
281
     0
  0
CLASS
  1
DICTIONARYVAR
  2
AcDbDictionaryVar
  3
ObjectDBX Classes
 90
        0
 91
        4
280
     0
281
     0
  0
CLASS
  1
CELLSTYLEMAP
  2
AcDbCellStyleMap
  3
ObjectDBX Classes
 90
     1152
 91
        4
280
     0
281
     0
  0
ENDSEC
  0
SECTION
  2
TABLES
  0
TABLE
  2
VPORT
  5
8
330
0
100
AcDbSymbolTable
 70
     1
  0
VPORT
  5
29
330
8
100
AcDbSymbolTableRecord
100
AcDbViewportTableRecord
  2
*Active
 70
     0
 10
0.0
 20
0.0
 11
1.0
 21
1.0
 12
-1.0
 22
0.0
 13
0.0
 23
0.0
 14
0.5
 24
0.5
 15
0.5
 25
0.5
 16
0.0
 26
0.0
 36
1.0
 17
0.0
 27
0.0
 37
0.0
 40
5.161200000000003
 41
0.4217391304347824
 42
50.0
 43
0.0
 44
0.0
 50
0.0
 51
0.0
 71
     0
 72
   100
 73
     1
 74
     3
 75
     0
 76
     0
 77
     0
 78
     0
281
     0
 65
     1
110
0.0
120
0.0
130
0.0
111
1.0
121
0.0
131
0.0
112
0.0
122
1.0
132
0.0
 79
     0
146
0.0
348
2F
 60
     3
 61
     5
292
     1
282
     1
141
0.0
142
0.0
 63
   250
361
6D
  0
ENDTAB
  0
TABLE
  2
LTYPE
  5
5
330
0
100
AcDbSymbolTable
 70
     3
  0
LTYPE
  5
14
330
5
100
AcDbSymbolTableRecord
100
AcDbLinetypeTableRecord
  2
ByBlock
 70
     0
  3

 72
    65
 73
     0
 40
0.0
  0
LTYPE
  5
15
330
5
100
AcDbSymbolTableRecord
100
AcDbLinetypeTableRecord
  2
ByLayer
 70
     0
  3

 72
    65
 73
     0
 40
0.0
  0
LTYPE
  5
16
330
5
100
AcDbSymbolTableRecord
100
AcDbLinetypeTableRecord
  2
Continuous
 70
     0
  3
Solid line
 72
    65
 73
     0
 40
0.0
  0
LTYPE
  5
9C
330
5
100
AcDbSymbolTableRecord
100
AcDbLinetypeTableRecord
  2
Dashed
 70
     0
  3

 72
    65
 73
     2
 40
2.0
 49
1.0
 74
     0
 49
-1.0
 74
     0
  0
LTYPE
  5
E0
330
5
100
AcDbSymbolTableRecord
100
AcDbLinetypeTableRecord
  2
Center
 70
     0
  3

 72
    65
 73
     4
 40
1.5
 49
0.45
 74
     0
 49
-0.5
 74
     0
 49
0.05
 74
     0
 49
-0.5
 74
     0
  0
ENDTAB
  0
TABLE
  2
LAYER
  5
2
330
0
100
AcDbSymbolTable
 70
     7
  0
LAYER
  5
10
330
2
100
AcDbSymbolTableRecord
100
AcDbLayerTableRecord
  2
0
 70
     0
 62
     7
  6
Continuous
370
    -3
390
F
347
46
348
0
  0
LAYER
  5
72
330
2
100
AcDbSymbolTableRecord
100
AcDbLayerTableRecord
  2
AM_6
 70
     0
 62
    -2
  6
Continuous
370
    35
390
F
347
46
348
0
  0
LAYER
  5
9D
330
2
100
AcDbSymbolTableRecord
100
AcDbLayerTableRecord
  2
AM_9
 70
     0
 62
     6
  6
Dashed
370
    25
390
F
347
46
348
0
  0
LAYER
  5
E1
330
2
100
AcDbSymbolTableRecord
100
AcDbLayerTableRecord
  2
AM_7
 70
     0
 62
     7
  6
Center
370
    25
390
F
347
46
348
0
  0
LAYER
  5
E3
330
2
100
AcDbSymbolTableRecord
100
AcDbLayerTableRecord
  2
AM_4
 70
     0
 62
     7
  6
Continuous
370
    50
390
F
347
46
348
0
  0
LAYER
  5
104
330
2
100
AcDbSymbolTableRecord
100
AcDbLayerTableRecord
  2
AM_5
 70
     0
 62
     3
  6
Continuous
370
    25
390
F
347
46
348
0
  0
LAYER
  5
17E
330
2
100
AcDbSymbolTableRecord
100
AcDbLayerTableRecord
  2
ConnectionPoints
 70
     0
 62
     7
  6
Continuous
370
    50
390
F
347
46
348
0
  0
ENDTAB
  0
TABLE
  2
STYLE
  5
3
330
0
100
AcDbSymbolTable
 70
     1
  0
STYLE
  5
11
330
3
100
AcDbSymbolTableRecord
100
AcDbTextStyleTableRecord
  2
Standard
 70
     0
 40
0.0
 41
1.0
 50
0.0
 71
     0
 42
0.2
  3
txt
  4

  0
ENDTAB
  0
TABLE
  2
VIEW
  5
6
330
0
100
AcDbSymbolTable
 70
     0
  0
ENDTAB
  0
TABLE
  2
UCS
  5
7
330
0
100
AcDbSymbolTable
 70
     0
  0
ENDTAB
  0
TABLE
  2
APPID
  5
9
330
0
100
AcDbSymbolTable
 70
     1
  0
APPID
  5
12
330
9
100
AcDbSymbolTableRecord
100
AcDbRegAppTableRecord
  2
ACAD
 70
     0
  0
ENDTAB
  0
TABLE
  2
DIMSTYLE
  5
A
330
0
100
AcDbSymbolTable
 70
     1
100
AcDbDimStyleTable
  0
DIMSTYLE
105
27
330
A
100
AcDbSymbolTableRecord
100
AcDbDimStyleTableRecord
  2
Standard
 70
     0
178
     0
340
11
  0
ENDTAB
  0
TABLE
  2
BLOCK_RECORD
  5
1
330
0
100
AcDbSymbolTable
 70
     5
  0
BLOCK_RECORD
  5
1F
330
1
100
AcDbSymbolTableRecord
100
AcDbBlockTableRecord
  2
*Model_Space
340
22
 70
     0
280
     1
281
     0
  0
BLOCK_RECORD
  5
1B
330
1
100
AcDbSymbolTableRecord
100
AcDbBlockTableRecord
  2
*Paper_Space
340
1E
 70
     0
280
     1
281
     0
  0
BLOCK_RECORD
  5
23
330
1
100
AcDbSymbolTableRecord
100
AcDbBlockTableRecord
  2
*Paper_Space0
340
26
 70
     0
280
     1
281
     0
  0
BLOCK_RECORD
  5
6E
330
1
100
AcDbSymbolTableRecord
100
AcDbBlockTableRecord
  2
1_056809_2
340
0
102
{BLKREFS
331
6F
102
}
 70
     0
280
     1
281
     0
  0
BLOCK_RECORD
  5
86
330
1
100
AcDbSymbolTableRecord
100
AcDbBlockTableRecord
  2
2_123342_0_in_056809_2
340
0
102
{BLKREFS
331
87
102
}
 70
     0
280
     1
281
     0
  0
BLOCK_RECORD
  5
EC
330
1
100
AcDbSymbolTableRecord
100
AcDbBlockTableRecord
  2
3_405020c_Inch_0_in_056809_2
340
0
102
{BLKREFS
331
ED
102
}
 70
     0
280
     1
281
     0
  0
BLOCK_RECORD
  5
132
330
1
100
AcDbSymbolTableRecord
100
AcDbBlockTableRecord
  2
4_056809SHH_0_in_056809_2
340
0
102
{BLKREFS
331
133
102
}
 70
     0
280
     1
281
     0
  0
ENDTAB
  0
ENDSEC
  0
SECTION
  2
BLOCKS
  0
BLOCK
  5
20
330
1F
100
AcDbEntity
  8
0
100
AcDbBlockBegin
  2
*Model_Space
 70
     0
 10
0.0
 20
0.0
 30
0.0
  3
*Model_Space
  1

  0
ENDBLK
  5
21
330
1F
100
AcDbEntity
  8
0
100
AcDbBlockEnd
  0
BLOCK
  5
1C
330
1B
100
AcDbEntity
 67
     1
  8
0
100
AcDbBlockBegin
  2
*Paper_Space
 70
     0
 10
0.0
 20
0.0
 30
0.0
  3
*Paper_Space
  1

  0
ENDBLK
  5
1D
330
1B
100
AcDbEntity
 67
     1
  8
0
100
AcDbBlockEnd
  0
BLOCK
  5
24
330
23
100
AcDbEntity
  8
0
100
AcDbBlockBegin
  2
*Paper_Space0
 70
     0
 10
0.0
 20
0.0
 30
0.0
  3
*Paper_Space0
  1

  0
ENDBLK
  5
25
330
23
100
AcDbEntity
  8
0
100
AcDbBlockEnd
  0
BLOCK
  5
70
330
6E
100
AcDbEntity
  8
0
100
AcDbBlockBegin
  2
1_056809_2
 70
     2
 10
0.0
 20
0.0
 30
0.0
  3
1_056809_2
  1

  0
ATTDEF
  5
73
330
6E
100
AcDbEntity
  8
AM_6
100
AcDbText
 10
5.067
 20
2.530000000000002
 30
0.0
 40
0.5
  1
Set Screw Four-Bolt Flange Inch Bore - Stainless Housing
100
AcDbAttributeDefinition
  3

  2
NN
 70
     8
280
     0
  0
ATTDEF
  5
74
330
6E
100
AcDbEntity
  8
AM_6
100
AcDbText
 10
5.067
 20
2.030000000000002
 30
0.0
 40
0.5
  1
SC 4 Bolt Flange Bearings -(Normal Duty) -E-Z KLEEN
100
AcDbAttributeDefinition
  3

  2
NT
 70
     8
280
     0
  0
ATTDEF
  5
75
330
6E
100
AcDbEntity
  8
AM_6
100
AcDbText
 10
5.067
 20
1.530000000000002
 30
0.0
 40
0.5
  1
056809
100
AcDbAttributeDefinition
  3

  2
NB
 70
     8
280
     0
  0
ATTDEF
  5
76
330
6E
100
AcDbEntity
  8
AM_6
100
AcDbText
 10
5.067
 20
1.030000000000002
 30
0.0
 40
0.5
  1
$PN.
100
AcDbAttributeDefinition
  3

  2
NBSYN
 70
     8
280
     0
  0
ATTDEF
  5
77
330
6E
100
AcDbEntity
  8
AM_6
100
AcDbText
 10
5.067
 20
0.5300000000000016
 30
0.0
 40
0.5
  1
056809
100
AcDbAttributeDefinition
  3

  2
LINA
 70
     8
280
     0
  0
ATTDEF
  5
78
330
6E
100
AcDbEntity
  8
AM_6
100
AcDbText
 10
5.067
 20
0.0300000000000016
 30
0.0
 40
0.5
  1
208
100
AcDbAttributeDefinition
  3

  2
SERIES
 70
     8
280
     0
  0
ATTDEF
  5
79
330
6E
100
AcDbEntity
  8
AM_6
100
AcDbText
 10
5.067
 20
-0.4699999999999984
 30
0.0
 40
0.5
  1
1-1/2
100
AcDbAttributeDefinition
  3

  2
SS
 70
     8
280
     0
  0
ATTDEF
  5
7A
330
6E
100
AcDbEntity
  8
AM_6
100
AcDbText
 10
5.067
 20
-0.9699999999999984
 30
0.0
 40
0.5
  1
056809
100
AcDbAttributeDefinition
  3

  2
PN
 70
     8
280
     0
  0
ATTDEF
  5
7B
330
6E
100
AcDbEntity
  8
AM_6
100
AcDbText
 10
5.067
 20
-1.469999999999998
 30
0.0
 40
0.5
  1
F4B-SCEZ-108-SH
100
AcDbAttributeDefinition
  3

  2
DESCRIPTION
 70
     8
280
     0
  0
ATTDEF
  5
7C
330
6E
100
AcDbEntity
  8
AM_6
100
AcDbText
 10
5.067
 20
-1.969999999999998
 30
0.0
 40
0.5
  1
3.70
100
AcDbAttributeDefinition
  3

  2
WEIGHT
 70
     8
280
     0
  0
ATTDEF
  5
7D
330
6E
100
AcDbEntity
  8
AM_6
100
AcDbText
 10
5.067
 20
-2.469999999999998
 30
0.0
 40
0.5
  1
1.94
100
AcDbAttributeDefinition
  3

  2
A
 70
     8
280
     0
  0
ATTDEF
  5
7E
330
6E
100
AcDbEntity
  8
AM_6
100
AcDbText
 10
5.067
 20
-2.969999999999998
 30
0.0
 40
0.5
  1
5.06
100
AcDbAttributeDefinition
  3

  2
B
 70
     8
280
     0
  0
ATTDEF
  5
7F
330
6E
100
AcDbEntity
  8
AM_6
100
AcDbText
 10
5.067
 20
-3.469999999999998
 30
0.0
 40
0.5
  1
1.97
100
AcDbAttributeDefinition
  3

  2
C
 70
     8
280
     0
  0
ATTDEF
  5
80
330
6E
100
AcDbEntity
  8
AM_6
100
AcDbText
 10
5.067
 20
-3.969999999999998
 30
0.0
 40
0.5
  1
4.00
100
AcDbAttributeDefinition
  3

  2
D
 70
     8
280
     0
  0
ATTDEF
  5
81
330
6E
100
AcDbEntity
  8
AM_6
100
AcDbText
 10
5.067
 20
-4.469999999999999
 30
0.0
 40
0.5
  1
1/2
100
AcDbAttributeDefinition
  3

  2
F
 70
     8
280
     0
  0
ATTDEF
  5
82
330
6E
100
AcDbEntity
  8
AM_6
100
AcDbText
 10
5.067
 20
-4.969999999999999
 30
0.0
 40
0.5
  1
0.43
100
AcDbAttributeDefinition
  3

  2
H
 70
     8
280
     0
  0
ATTDEF
  5
83
330
6E
100
AcDbEntity
  8
AM_6
100
AcDbText
 10
5.067
 20
-5.469999999999999
 30
0.0
 40
0.5
  1
0.62
100
AcDbAttributeDefinition
  3

  2
J
 70
     8
280
     0
  0
ATTDEF
  5
84
330
6E
100
AcDbEntity
  8
AM_6
100
AcDbText
 10
5.067
 20
-5.969999999999999
 30
0.0
 40
0.5
  1
2.05
100
AcDbAttributeDefinition
  3

  2
L
 70
     8
280
     0
  0
ATTDEF
  5
85
330
6E
100
AcDbEntity
  8
AM_6
100
AcDbText
 10
5.067
 20
-6.469999999999999
 30
0.0
 40
0.5
  1
baldor
100
AcDbAttributeDefinition
  3

  2
COMPANY
 70
     8
280
     0
  0
INSERT
  5
87
330
6E
100
AcDbEntity
  8
0
100
AcDbBlockReference
  2
2_123342_0_in_056809_2
 10
0.0
 20
0.0
 30
0.0
  0
INSERT
  5
ED
330
6E
100
AcDbEntity
  8
0
100
AcDbBlockReference
  2
3_405020c_Inch_0_in_056809_2
 10
0.0
 20
0.0
 30
0.0
  0
INSERT
  5
133
330
6E
100
AcDbEntity
  8
0
100
AcDbBlockReference
  2
4_056809SHH_0_in_056809_2
 10
0.0
 20
0.0
 30
0.0
  0
ENDBLK
  5
71
330
6E
100
AcDbEntity
  8
0
100
AcDbBlockEnd
  0
BLOCK
  5
88
330
86
100
AcDbEntity
  8
0
100
AcDbBlockBegin
  2
2_123342_0_in_056809_2
 70
     2
 10
0.0
 20
0.0
 30
0.0
  3
2_123342_0_in_056809_2
  1

  0
ATTDEF
  5
8A
330
86
100
AcDbEntity
  8
AM_6
100
AcDbText
 10
5.067
 20
1.573772989122194
 30
0.0
 40
0.5
  1
Set Screw Insert Inch Bore
100
AcDbAttributeDefinition
  3

  2
NN
 70
     8
280
     0
  0
ATTDEF
  5
8B
330
86
100
AcDbEntity
  8
AM_6
100
AcDbText
 10
5.067
 20
1.073772989122194
 30
0.0
 40
0.5
  1
SC Normal Duty Bearing Inserts
100
AcDbAttributeDefinition
  3

  2
NT
 70
     8
280
     0
  0
ATTDEF
  5
8C
330
86
100
AcDbEntity
  8
AM_6
100
AcDbText
 10
5.067
 20
0.5737729891221937
 30
0.0
 40
0.5
  1
123342
100
AcDbAttributeDefinition
  3

  2
NB
 70
     8
280
     0
  0
ATTDEF
  5
8D
330
86
100
AcDbEntity
  8
AM_6
100
AcDbText
 10
5.067
 20
0.0737729891221937
 30
0.0
 40
0.5
  1
$PN.
100
AcDbAttributeDefinition
  3

  2
NBSYN
 70
     8
280
     0
  0
ATTDEF
  5
8E
330
86
100
AcDbEntity
  8
AM_6
100
AcDbText
 10
5.067
 20
-0.4262270108778063
 30
0.0
 40
0.5
  1
123342
100
AcDbAttributeDefinition
  3

  2
LINA
 70
     8
280
     0
  0
ATTDEF
  5
8F
330
86
100
AcDbEntity
  8
AM_6
100
AcDbText
 10
5.067
 20
-0.9262270108778063
 30
0.0
 40
0.5
  1
208
100
AcDbAttributeDefinition
  3

  2
SERIES
 70
     8
280
     0
  0
ATTDEF
  5
90
330
86
100
AcDbEntity
  8
AM_6
100
AcDbText
 10
5.067
 20
-1.426227010877806
 30
0.0
 40
0.5
  1
1-1/2
100
AcDbAttributeDefinition
  3

  2
SS
 70
     8
280
     0
  0
ATTDEF
  5
91
330
86
100
AcDbEntity
  8
AM_6
100
AcDbText
 10
5.067
 20
-1.926227010877806
 30
0.0
 40
0.5
  1
123342
100
AcDbAttributeDefinition
  3

  2
PN
 70
     8
280
     0
  0
ATTDEF
  5
92
330
86
100
AcDbEntity
  8
AM_6
100
AcDbText
 10
5.067
 20
-2.426227010877806
 30
0.0
 40
0.5
  1
INS-SC-108
100
AcDbAttributeDefinition
  3

  2
DESCRIPTION
 70
     8
280
     0
  0
ATTDEF
  5
93
330
86
100
AcDbEntity
  8
AM_6
100
AcDbText
 10
5.067
 20
-2.926227010877806
 30
0.0
 40
0.5
  1
1.94
100
AcDbAttributeDefinition
  3

  2
A
 70
     8
280
     0
  0
ATTDEF
  5
94
330
86
100
AcDbEntity
  8
AM_6
100
AcDbText
 10
5.067
 20
-3.426227010877806
 30
0.0
 40
0.5
  1
0.87
100
AcDbAttributeDefinition
  3

  2
C
 70
     8
280
     0
  0
ATTDEF
  5
95
330
86
100
AcDbEntity
  8
AM_6
100
AcDbText
 10
5.067
 20
-3.926227010877806
 30
0.0
 40
0.5
  1
3.1496
100
AcDbAttributeDefinition
  3

  2
D
 70
     8
280
     0
  0
ATTDEF
  5
96
330
86
100
AcDbEntity
  8
AM_6
100
AcDbText
 10
5.067
 20
-4.426227010877806
 30
0.0
 40
0.5
  1
0.22
100
AcDbAttributeDefinition
  3

  2
J
 70
     8
280
     0
  0
ATTDEF
  5
97
330
86
100
AcDbEntity
  8
AM_6
100
AcDbText
 10
5.067
 20
-4.926227010877806
 30
0.0
 40
0.5
  1
2.05
100
AcDbAttributeDefinition
  3

  2
L
 70
     8
280
     0
  0
ATTDEF
  5
98
330
86
100
AcDbEntity
  8
AM_6
100
AcDbText
 10
5.067
 20
-5.426227010877806
 30
0.0
 40
0.5
  1
5/16 - 24
100
AcDbAttributeDefinition
  3

  2
N
 70
     8
280
     0
  0
ATTDEF
  5
99
330
86
100
AcDbEntity
  8
AM_6
100
AcDbText
 10
5.067
 20
-5.926227010877806
 30
0.0
 40
0.5
  1
0.75
100
AcDbAttributeDefinition
  3

  2
W
 70
     8
280
     0
  0
ATTDEF
  5
9A
330
86
100
AcDbEntity
  8
AM_6
100
AcDbText
 10
5.067
 20
-6.426227010877806
 30
0.0
 40
0.5
  1
1.19
100
AcDbAttributeDefinition
  3

  2
Y
 70
     8
280
     0
  0
ATTDEF
  5
9B
330
86
100
AcDbEntity
  8
AM_6
100
AcDbText
 10
5.067
 20
-6.926227010877806
 30
0.0
 40
0.5
  1
baldor
100
AcDbAttributeDefinition
  3

  2
COMPANY
 70
     8
280
     0
  0
LINE
  5
9E
330
86
100
AcDbEntity
  8
AM_9
100
AcDbLine
 10
-1.710044015198186
 20
-0.9291703551708013
 30
0.0
 11
-1.726925505324846
 21
-0.943945704663252
 31
0.0
  0
LINE
  5
9F
330
86
100
AcDbEntity
  8
AM_9
100
AcDbLine
 10
-1.458214709741217
 20
-0.9438229828780511
 30
0.0
 11
-1.474955984801814
 21
-0.9291703551708013
 31
0.0
  0
LINE
  5
A0
330
86
100
AcDbEntity
  8
AM_9
100
AcDbLine
 10
-1.716026959675189
 20
-0.9360604582230769
 30
0.0
 11
-1.726932502777298
 21
-0.9439518291111602
 31
0.0
  0
LWPOLYLINE
  5
A1
330
86
100
AcDbEntity
  8
AM_9
100
AcDbPolyline
 90
       14
 70
     0
 43
0.0
 10
-1.469103402224475
 20
-0.935980778094827
 10
-1.478645010942042
 20
-0.9307559079391281
 10
-1.494670816651587
 20
-0.92391674311508
 10
-1.51301202940888
 20
-0.9180539213083504
 10
-1.534554915199175
 20
-0.9131382430481928
 10
-1.557566345533344
 20
-0.9097640437351587
 10
-1.582620005062046
 20
-0.9080553114748623
 10
-1.607942102625426
 20
-0.908260885121222
 10
-1.633326335373057
 20
-0.9104647720774128
 10
-1.657544008287236
 20
-0.9145494124368929
 10
-1.679691930300161
 20
-0.920310348884025
 10
-1.699257845704104
 20
-0.9274804576393525
 10
-1.714945089601883
 20
-0.9354181107295249
 10
-1.716026959675189
 20
-0.9360604582230769
  0
LWPOLYLINE
  5
A2
330
86
100
AcDbEntity
  8
AM_9
100
AcDbPolyline
 90
        3
 70
     0
 43
0.0
 10
-1.458071068013607
 20
-0.9439487040720785
 10
-1.466019026759298
 20
-0.9379483067349935
 10
-1.469103402224475
 20
-0.935980778094827
  0
LWPOLYLINE
  5
A3
330
86
100
AcDbEntity
  8
AM_9
100
AcDbPolyline
 90
       24
 70
     0
 43
0.0
 10
-1.726932502777298
 20
-0.9439518291111602
 10
-1.726994059403087
 20
-0.9440057801658892
 10
-1.734441817296262
 20
-0.9522846209776882
 10
-1.737938398147037
 20
-0.9604766832646693
 10
-1.737411022878218
 20
-0.9678281959906282
 10
-1.733262093573019
 20
-0.9746314751504175
 10
-1.725724458091265
 20
-0.98064624257847
 10
-1.715088270177697
 20
-0.9858937806238874
 10
-1.701094147713977
 20
-0.9904831895796272
 10
-1.684568207726003
 20
-0.9942127727050177
 10
-1.664691462682139
 20
-0.9972652212123746
 10
-1.643029617607815
 20
-0.9994329177732134
 10
-1.618825343587778
 20
-1.000811301532492
 10
-1.593920702969192
 20
-1.001299759261186
 10
-1.568254038307866
 20
-1.000886241665207
 10
-1.543270068718217
 20
-0.9995324162077052
 10
-1.51966707959229
 20
-0.9971837866770749
 10
-1.49819944572992
 20
-0.9937849526457257
 10
-1.480087821995101
 20
-0.9893942860695355
 10
-1.46533366723437
 20
-0.983908214820295
 10
-1.455111824110064
 20
-0.9777298365350399
 10
-1.448828445017633
 20
-0.970665754719319
 10
-1.447090999557303
 20
-0.9659760512340861
 10
-1.44696917506174
 20
-0.9610631894661823
  0
ELLIPSE
  5
A4
330
86
100
AcDbEntity
  8
AM_9
100
AcDbEllipse
 10
-1.5925
 20
-0.6963530260738146
 30
0.0
 11
-0.1261999999999994
 21
1.545504260523953E-17
 31
0.0
210
0.0
220
0.0
230
1.0
 40
0.3420201433256777
 41
1.157266673846239
 42
1.984325979743554
  0
ELLIPSE
  5
A5
330
86
100
AcDbEntity
  8
AM_9
100
AcDbEllipse
 10
-1.5925
 20
-0.6963530260738161
 30
0.0
 11
-0.1261999999999983
 21
1.545504260523939E-17
 31
0.0
210
0.0
220
0.0
230
1.0
 40
0.3420201433256798
 41
4.29885932743603
 42
5.125918633333349
  0
LWPOLYLINE
  5
A6
330
86
100
AcDbEntity
  8
AM_9
100
AcDbPolyline
 90
        8
 70
     0
 43
0.0
 10
-1.466591077875962
 20
-0.7076533760044853
 10
-1.468636663384805
 20
-0.7126708310311883
 10
-1.474356706834039
 20
-0.7186972370393334
 10
-1.483301569920873
 20
-0.7238948471376901
 10
-1.495368211297657
 20
-0.7282420394001324
 10
-1.510122039392004
 20
-0.7317187856729491
 10
-1.52520861341875
 20
-0.7341056553452464
 10
-1.541787292695408
 20
-0.735877684361854
  0
LWPOLYLINE
  5
A7
330
86
100
AcDbEntity
  8
AM_9
100
AcDbPolyline
 90
        3
 70
     0
 43
0.0
 10
-1.466300000751211
 20
-0.7047741749989435
 10
-1.466352895304604
 20
-0.7058435449222816
 10
-1.466591077875962
 20
-0.7076533760044853
  0
LWPOLYLINE
  5
A8
330
86
100
AcDbEntity
  8
AM_9
100
AcDbPolyline
 90
        7
 70
     0
 43
0.0
 10
-1.71621821974463
 20
-0.6958629049921589
 10
-1.710643293165961
 20
-0.6883707203740211
 10
-1.701698430079126
 20
-0.680620754115195
 10
-1.689631788702342
 20
-0.6731401846275142
 10
-1.674877960607996
 20
-0.6663211298760695
 10
-1.65979138658125
 20
-0.6610816423569659
 10
-1.643212707304592
 20
-0.656828367785777
  0
LWPOLYLINE
  5
A9
330
86
100
AcDbEntity
  8
AM_9
100
AcDbPolyline
 90
        4
 70
     0
 43
0.0
 10
-1.718699999248789
 20
-0.7047647559423575
 10
-1.718647104695396
 20
-0.7036749141016522
 10
-1.716363336615195
 20
-0.6961358093845575
 10
-1.71621821974463
 20
-0.6958629049921589
  0
ELLIPSE
  5
AA
330
86
100
AcDbEntity
  8
AM_9
100
AcDbEllipse
 10
-1.5925
 20
-0.5239968218807073
 30
0.0
 11
-0.1261999999999981
 21
1.545504260523936E-17
 31
0.0
210
0.0
220
0.0
230
1.0
 40
0.7071067811865507
 41
1.157266673846237
 42
1.984325979743556
  0
ELLIPSE
  5
AB
330
86
100
AcDbEntity
  8
AM_9
100
AcDbEllipse
 10
-1.5925
 20
-0.5239968218807046
 30
0.0
 11
-0.1261999999999981
 21
1.545504260523936E-17
 31
0.0
210
0.0
220
0.0
230
1.0
 40
0.7071067811865446
 41
4.29885932743603
 42
5.125918633333349
  0
LINE
  5
AC
330
86
100
AcDbEntity
  8
AM_9
100
AcDbLine
 10
-1.7187
 20
-0.530300872274729
 30
0.0
 11
-1.7187
 21
-0.9448803813140797
 31
0.0
  0
LINE
  5
AD
330
86
100
AcDbEntity
  8
AM_9
100
AcDbLine
 10
-1.4663
 20
-0.9448803813140797
 30
0.0
 11
-1.4663
 21
-0.530300872274729
 31
0.0
  0
LWPOLYLINE
  5
AE
330
86
100
AcDbEntity
  8
AM_9
100
AcDbPolyline
 90
        9
 70
     0
 43
0.0
 10
-1.718699999248789
 20
-0.5303398224767378
 10
-1.718647104695396
 20
-0.5325641425032743
 10
-1.716363336615195
 20
-0.5471471645687122
 10
-1.710643293165961
 20
-0.5607495535711775
 10
-1.701698430079126
 20
-0.5731734267987117
 10
-1.689631788702342
 20
-0.5842211187048671
 10
-1.674877960607996
 20
-0.5936065816407761
 10
-1.65979138658125
 20
-0.6004168275329067
 10
-1.643212707304592
 20
-0.6057117572286546
  0
LWPOLYLINE
  5
AF
330
86
100
AcDbEntity
  8
AM_9
100
AcDbPolyline
 90
        9
 70
     0
 43
0.0
 10
-1.466300000751211
 20
-0.5303203491243218
 10
-1.466352895304604
 20
-0.5280806242395644
 10
-1.468636663384805
 20
-0.5129619676978194
 10
-1.474356706834039
 20
-0.498051241783762
 10
-1.483301569920874
 20
-0.4837067529111227
 10
-1.495368211297658
 20
-0.4703012343763741
 10
-1.510122039392004
 20
-0.4584007266930897
 10
-1.52520861341875
 20
-0.4494439220444121
 10
-1.541787292695408
 20
-0.442281886532758
  0
LWPOLYLINE
  5
B0
330
86
100
AcDbEntity
  8
AM_9
100
AcDbPolyline
 90
        8
 70
     0
 43
0.0
 10
-1.541787292695408
 20
-0.4422818865327581
 10
-1.542391931338684
 20
-0.4420223444572524
 10
-1.5609175998177
 20
-0.4357723375494445
 10
-1.580531688976184
 20
-0.4323539071259601
 10
-1.598811796620746
 20
-0.4319614545219551
 10
-1.616903128959483
 20
-0.4341437575006027
 10
-1.630378479075244
 20
-0.4375372290878159
 10
-1.643212707304592
 20
-0.4422818865327581
  0
LWPOLYLINE
  5
B1
330
86
100
AcDbEntity
  8
AM_9
100
AcDbPolyline
 90
        8
 70
     0
 43
0.0
 10
-1.643212707304592
 20
-0.442281886532758
 10
-1.661930085679183
 20
-0.4505626224994897
 10
-1.678668337366208
 20
-0.4611095887003611
 10
-1.692932112712427
 20
-0.4735482799247263
 10
-1.70436247703575
 20
-0.4874074531052808
 10
-1.712595058776646
 20
-0.5022310428979138
 10
-1.717420884634054
 20
-0.5175055894622702
 10
-1.718699999248789
 20
-0.5303398224767378
  0
LWPOLYLINE
  5
B2
330
86
100
AcDbEntity
  8
AM_9
100
AcDbPolyline
 90
        8
 70
     0
 43
0.0
 10
-1.643212707304592
 20
-0.6057117572286546
 10
-1.642608068661316
 20
-0.6059011858385114
 10
-1.6240824001823
 20
-0.6104135407063734
 10
-1.604468311023816
 20
-0.6128377427940586
 10
-1.586188203379254
 20
-0.6131164356711615
 10
-1.568096871040517
 20
-0.6115710897542966
 10
-1.554621520924756
 20
-0.6091482499027524
 10
-1.541787292695408
 20
-0.6057117572286546
  0
LWPOLYLINE
  5
B3
330
86
100
AcDbEntity
  8
AM_9
100
AcDbPolyline
 90
        8
 70
     0
 43
0.0
 10
-1.541787292695408
 20
-0.6057117572286546
 10
-1.523069914320818
 20
-0.5995777559784634
 10
-1.506331662633792
 20
-0.5915048158794516
 10
-1.492067887287573
 20
-0.5815918791299081
 10
-1.48063752296425
 20
-0.5700298015520096
 10
-1.472404941223354
 20
-0.5570084339996694
 10
-1.467579115365946
 20
-0.5428516969443021
 10
-1.466300000751211
 20
-0.5303203491243218
  0
LWPOLYLINE
  5
B4
330
86
100
AcDbEntity
  8
AM_9
100
AcDbPolyline
 90
        7
 70
     0
 43
0.0
 10
-1.541787292695408
 20
-0.7358776843618537
 10
-1.553144434979349
 20
-0.7368804771824857
 10
-1.57197979683812
 20
-0.7378995961839905
 10
-1.591509552820846
 20
-0.7382608817433388
 10
-1.609390188805335
 20
-0.7380175721633254
 10
-1.626789537954506
 20
-0.7372274634462861
 10
-1.643212707304593
 20
-0.7358776843618537
  0
LINE
  5
B5
330
86
100
AcDbEntity
  8
AM_9
100
AcDbLine
 10
-1.718597406261747
 20
-0.7064933271362689
 30
0.0
 11
-1.718699999248789
 21
-0.7047647559423575
 31
0.0
  0
LWPOLYLINE
  5
B6
330
86
100
AcDbEntity
  8
AM_9
100
AcDbPolyline
 90
        8
 70
     0
 43
0.0
 10
-1.643212707304593
 20
-0.7358776843618537
 10
-1.661930085679183
 20
-0.7338179815033068
 10
-1.678668337366208
 20
-0.7309587535497423
 10
-1.692932112712426
 20
-0.7272313998447998
 10
-1.70436247703575
 20
-0.7226097385803578
 10
-1.712595058776646
 20
-0.7170730915207251
 10
-1.717420884634054
 20
-0.7106980328063212
 10
-1.718597406261747
 20
-0.7064933271362689
  0
LWPOLYLINE
  5
B7
330
86
100
AcDbEntity
  8
AM_9
100
AcDbPolyline
 90
        7
 70
     0
 43
0.0
 10
-1.643212707304592
 20
-0.656828367785777
 10
-1.625683254331999
 20
-0.653158251046898
 10
-1.60649365735655
 20
-0.6509678969336641
 10
-1.588421198709736
 20
-0.650539959410849
 10
-1.569911079205569
 20
-0.6517232104114907
 10
-1.55562501759601
 20
-0.6537931612694033
 10
-1.541787292695408
 20
-0.656828367785777
  0
LWPOLYLINE
  5
B8
330
86
100
AcDbEntity
  8
AM_9
100
AcDbPolyline
 90
        3
 70
     0
 43
0.0
 10
-1.468183874891574
 20
-0.6970436351878285
 10
-1.467579115365946
 20
-0.6984383861102368
 10
-1.466300000751211
 20
-0.7047741749989435
  0
LWPOLYLINE
  5
B9
330
86
100
AcDbEntity
  8
AM_9
100
AcDbPolyline
 90
        7
 70
     0
 43
0.0
 10
-1.541787292695408
 20
-0.656828367785777
 10
-1.523069914320818
 20
-0.6617409223289491
 10
-1.506331662633792
 20
-0.6678879480146303
 10
-1.492067887287574
 20
-0.6749718426339792
 10
-1.48063752296425
 20
-0.6826461740813229
 10
-1.472404941223354
 20
-0.6905778412217662
 10
-1.468183874891574
 20
-0.6970436351878285
  0
LINE
  5
BA
330
86
100
AcDbEntity
  8
AM_9
100
AcDbLine
 10
-1.929
 20
-0.7500000000000001
 30
0.0
 11
-0.0710000000000003
 21
-0.7500000000000001
 31
0.0
  0
LINE
  5
BB
330
86
100
AcDbEntity
  8
AM_9
100
AcDbLine
 10
-0.0710000000000003
 20
0.7500000000000001
 30
0.0
 11
-1.929
 21
0.7500000000000001
 31
0.0
  0
LINE
  5
BC
330
86
100
AcDbEntity
  8
AM_9
100
AcDbLine
 10
-0.0710000000000003
 20
-0.7500000000000001
 30
0.0
 11
-0.0300000000000001
 21
-0.7910000000000001
 31
0.0
  0
LINE
  5
BD
330
86
100
AcDbEntity
  8
AM_9
100
AcDbLine
 10
-0.0300000000000001
 20
0.7910000000000001
 30
0.0
 11
-0.0710000000000003
 21
0.7500000000000001
 31
0.0
  0
LINE
  5
BE
330
86
100
AcDbEntity
  8
AM_9
100
AcDbLine
 10
-1.929
 20
0.7500000000000001
 30
0.0
 11
-1.97
 21
0.7910000000000001
 31
0.0
  0
LINE
  5
BF
330
86
100
AcDbEntity
  8
AM_9
100
AcDbLine
 10
-1.97
 20
-0.7910000000000001
 30
0.0
 11
-1.929
 21
-0.7500000000000001
 31
0.0
  0
LINE
  5
C0
330
86
100
AcDbEntity
  8
AM_9
100
AcDbLine
 10
-0.4558333333333381
 20
1.089739426990796
 30
0.0
 11
-0.4558333333333381
 21
1.110659049453175
 31
0.0
  0
LWPOLYLINE
  5
C1
330
86
100
AcDbEntity
  8
AM_9
100
AcDbPolyline
 90
       21
 70
     0
 43
0.0
 10
-0.4558333335830876
 20
1.0896992199758
 10
-0.4560468568177117
 20
1.085130580578801
 10
-0.4585721955972032
 20
1.073201383069159
 10
-0.4639318988231328
 20
1.062065698443581
 10
-0.4719309114683924
 20
1.051992787687828
 10
-0.4824185653941011
 20
1.043243489559433
 10
-0.4950312893394783
 20
1.036078993752742
 10
-0.5095698523427707
 20
1.030673872096281
 10
-0.5254974036270461
 20
1.027214846016223
 10
-0.5425477746839809
 20
1.025814316416543
 10
-0.5600846690330424
 20
1.026520689965313
 10
-0.5777261296006924
 20
1.029364944624101
 10
-0.5948682743851599
 20
1.0342420964289
 10
-0.6110121286273986
 20
1.041046374113809
 10
-0.6257062076433711
 20
1.049564265196631
 10
-0.6384250399707684
 20
1.059516557317306
 10
-0.64891401918469
 20
1.0706504469407
 10
-0.6567615748104906
 20
1.082547048934143
 10
-0.6618788057808729
 20
1.094956166157002
 10
-0.6640632050148532
 20
1.107416888447913
 10
-0.664166666011287
 20
1.110527121625711
  0
LWPOLYLINE
  5
C2
330
86
100
AcDbEntity
  8
AM_9
100
AcDbPolyline
 90
       15
 70
     0
 43
0.0
 10
-0.664166666011287
 20
1.110527121625711
 10
-0.6633465885283565
 20
1.119678496423053
 10
-0.6597298035000764
 20
1.131338424123034
 10
-0.6533637614081645
 20
1.142129045792999
 10
-0.6443775768812214
 20
1.151753371525785
 10
-0.6330782807979937
 20
1.159941086223648
 10
-0.6196561855968459
 20
1.166490494579483
 10
-0.6045950968566274
 20
1.171184632387764
 10
-0.5881396793047777
 20
1.173890067486683
 10
-0.5709043425981511
 20
1.174511152106313
 10
-0.5532298024382136
 20
1.172985870275095
 10
-0.5357458618477067
 20
1.169373940833597
 10
-0.5189143773714182
 20
1.163730847781428
 10
-0.5032486708771865
 20
1.156245797006431
 10
-0.4857202918754789
 20
1.144356315577158
  0
ELLIPSE
  5
C3
330
86
100
AcDbEntity
  8
AM_9
100
AcDbEllipse
 10
-0.5599999999999999
 20
1.166584767601566
 30
0.0
 11
0.02507575757575464
 21
0.0
 31
0.0
210
0.0
220
0.0
230
1.0
 40
0.7071067811865435
 41
0.0
 42
6.283185307179586
  0
LWPOLYLINE
  5
C4
330
86
100
AcDbEntity
  8
AM_9
100
AcDbPolyline
 90
       29
 70
     0
 43
0.0
 10
-0.4558333381241115
 20
1.110688679598259
 10
-0.4559450962074849
 20
1.115183401061384
 10
-0.4572078816962318
 20
1.126474773356171
 10
-0.4598159872711328
 20
1.13740032311724
 10
-0.4636892886611828
 20
1.14783873244513
 10
-0.468745068470003
 20
1.157686494960595
 10
-0.4749016976523687
 20
1.166855366025222
 10
-0.4820816112201519
 20
1.175269567620342
 10
-0.4902128827963721
 20
1.182861853173376
 10
-0.4992283671532921
 20
1.189568558586655
 10
-0.5090613092154928
 20
1.195324381603645
 10
-0.5196371823842248
 20
1.200058523131694
 10
-0.5308638765431959
 20
1.203694339454855
 10
-0.5426252217254185
 20
1.206153487773113
 10
-0.5547825160741291
 20
1.207362297407457
 10
-0.5671824647937985
 20
1.207255737053831
 10
-0.5796625160745316
 20
1.205777152384558
 10
-0.5920431578850844
 20
1.202879320382584
 10
-0.6041169419909616
 20
1.198533903559635
 10
-0.6144540723225878
 20
1.19343060725494
 10
-0.6240571219242723
 20
1.187301791618657
 10
-0.6328147349594183
 20
1.180231807181519
 10
-0.6406355884573526
 20
1.172309963681072
 10
-0.6474414413425275
 20
1.163630686787772
 10
-0.653163185271588
 20
1.154295257835764
 10
-0.6581784395685517
 20
1.143278869202804
 10
-0.6616798763773937
 20
1.131871477807159
 10
-0.663657468600782
 20
1.120306479283242
 10
-0.6641666586302152
 20
1.1106974257436
  0
LWPOLYLINE
  5
C5
330
86
100
AcDbEntity
  8
AM_9
100
AcDbPolyline
 90
        4
 70
     0
 43
0.0
 10
-1.44696917506174
 20
-0.9610631894661823
 10
-1.449869529786388
 20
-0.9533652505262743
 10
-1.45631210391323
 20
-0.9455534827674016
 10
-1.458071068013607
 20
-0.9439487040720785
  0
LINE
  5
C6
330
86
100
AcDbEntity
  8
AM_9
100
AcDbLine
 10
-1.35
 20
-1.025
 30
0.0
 11
-1.215
 21
-1.025
 31
0.0
  0
LINE
  5
C7
330
86
100
AcDbEntity
  8
AM_9
100
AcDbLine
 10
-1.215
 20
1.025
 30
0.0
 11
-1.35
 21
1.025
 31
0.0
  0
LINE
  5
C8
330
86
100
AcDbEntity
  8
AM_9
100
AcDbLine
 10
-0.0300000000000001
 20
0.984
 30
0.0
 11
-0.0300000000000001
 21
-0.984
 31
0.0
  0
LINE
  5
C9
330
86
100
AcDbEntity
  8
AM_9
100
AcDbLine
 10
-0.0300000000000001
 20
0.984
 30
0.0
 11
-0.071
 21
1.025
 31
0.0
  0
LINE
  5
CA
330
86
100
AcDbEntity
  8
AM_9
100
AcDbLine
 10
-0.071
 20
-1.025
 30
0.0
 11
-0.0300000000000001
 21
-0.984
 31
0.0
  0
LINE
  5
CB
330
86
100
AcDbEntity
  8
AM_9
100
AcDbLine
 10
-0.071
 20
1.025
 30
0.0
 11
-0.071
 21
-1.025
 31
0.0
  0
LINE
  5
CC
330
86
100
AcDbEntity
  8
AM_9
100
AcDbLine
 10
-0.345
 20
-1.025
 30
0.0
 11
-0.071
 21
-1.025
 31
0.0
  0
LINE
  5
CD
330
86
100
AcDbEntity
  8
AM_9
100
AcDbLine
 10
-0.071
 20
1.025
 30
0.0
 11
-0.345
 21
1.025
 31
0.0
  0
LINE
  5
CE
330
86
100
AcDbEntity
  8
AM_9
100
AcDbLine
 10
-1.044
 20
-1.501466666666667
 30
0.0
 11
-0.956
 21
-1.501466666666667
 31
0.0
  0
LINE
  5
CF
330
86
100
AcDbEntity
  8
AM_9
100
AcDbLine
 10
-0.956
 20
1.501466666666667
 30
0.0
 11
-1.044
 21
1.501466666666667
 31
0.0
  0
LINE
  5
D0
330
86
100
AcDbEntity
  8
AM_9
100
AcDbLine
 10
-1.215
 20
1.48002285117494
 30
0.0
 11
-1.215
 21
-1.48002285117494
 31
0.0
  0
ARC
  5
D1
330
86
100
AcDbEntity
  8
AM_9
100
AcDbCircle
 10
-1.171
 20
-1.480022851174942
 30
0.0
 40
0.0439999999999994
100
AcDbArc
 50
180.0
 51
255.2014078426528
  0
ARC
  5
D2
330
86
100
AcDbEntity
  8
AM_9
100
AcDbCircle
 10
-1.171
 20
1.480022851174942
 30
0.0
 40
0.0439999999999993
100
AcDbArc
 50
104.7985921573472
 51
180.0
  0
LINE
  5
D3
330
86
100
AcDbEntity
  8
AM_9
100
AcDbLine
 10
-0.345
 20
1.480022851174941
 30
0.0
 11
-0.345
 21
-1.480022851174941
 31
0.0
  0
ARC
  5
D4
330
86
100
AcDbEntity
  8
AM_9
100
AcDbCircle
 10
-0.3890000000000006
 20
-1.48002285117494
 30
0.0
 40
0.0440000000000006
100
AcDbArc
 50
284.7985901462355
 51
0.0
  0
ARC
  5
D5
330
86
100
AcDbEntity
  8
AM_9
100
AcDbCircle
 10
-0.3889999999999999
 20
1.480022851174941
 30
0.0
 40
0.0439999999999999
100
AcDbArc
 50
0.0
 51
75.20140985376524
  0
LINE
  5
D6
330
86
100
AcDbEntity
  8
AM_9
100
AcDbLine
 10
-1.044
 20
1.552513780937097
 30
0.0
 11
-1.044
 21
-1.552513780937204
 31
0.0
  0
LINE
  5
D7
330
86
100
AcDbEntity
  8
AM_9
100
AcDbLine
 10
-1.182238568068983
 20
1.52256335643461
 30
0.0
 11
-1.182238568068983
 21
-1.522563356434716
 31
0.0
  0
ARC
  5
D8
330
86
100
AcDbEntity
  8
AM_9
100
AcDbCircle
 10
-0.779999999973698
 20
-0.0000000001215441
 30
0.0
 40
1.574800000124107
100
AcDbArc
 50
99.6506514071024
 51
104.7985921571445
  0
ARC
  5
D9
330
86
100
AcDbEntity
  8
AM_9
100
AcDbCircle
 10
-0.7799999999955282
 20
0.0000000000206779
 30
0.0
 40
1.574800000021113
100
AcDbArc
 50
255.2014078426871
 51
260.3493485930661
  0
LINE
  5
DA
330
86
100
AcDbEntity
  8
AM_9
100
AcDbLine
 10
-0.9559999999999997
 20
1.564934196699664
 30
0.0
 11
-0.9559999999999997
 21
-1.564934196699658
 31
0.0
  0
LWPOLYLINE
  5
DB
330
86
100
AcDbEntity
  8
AM_9
100
AcDbPolyline
 90
        6
 70
     0
 43
0.0
 10
-0.4857202918754789
 20
1.144356315577158
 10
-0.4745864118502618
 20
1.133744540727507
 10
-0.4658183724331951
 20
1.122180153572914
 10
-0.4597091440177533
 20
1.109972666111744
 10
-0.4564068801339464
 20
1.097481022465282
 10
-0.4558333335830876
 20
1.0896992199758
  0
ARC
  5
DC
330
86
100
AcDbEntity
  8
AM_9
100
AcDbCircle
 10
-0.7800000000000475
 20
0.0000000000006459
 30
0.0
 40
1.574800000000638
100
AcDbArc
 50
263.5832052965318
 51
284.7985921011526
  0
ARC
  5
DD
330
86
100
AcDbEntity
  8
AM_9
100
AcDbCircle
 10
-0.780000000001268
 20
-0.0000000000173142
 30
0.0
 40
1.574800000017071
100
AcDbArc
 50
75.20140789895937
 51
96.41679470335629
  0
LINE
  5
DE
330
86
100
AcDbEntity
  8
AM_9
100
AcDbLine
 10
-0.3777614334242111
 20
1.522563356829225
 30
0.0
 11
-0.3777614334242111
 21
-1.522563356829219
 31
0.0
  0
ELLIPSE
  5
DF
330
86
100
AcDbEntity
  8
AM_9
100
AcDbEllipse
 10
-1.592500000000001
 20
-0.9448803813140798
 30
0.0
 11
-0.1261999999999992
 21
1.545504260523950E-17
 31
0.0
210
0.0
220
0.0
230
1.0
 40
0.3420201433256713
 41
0.0
 42
6.283185307179586
  0
LINE
  5
E2
330
86
100
AcDbEntity
  8
AM_7
100
AcDbLine
 10
-2.067
 20
0.0
 30
0.0
 11
0.0669999999999999
 21
0.0
 31
0.0
  0
LWPOLYLINE
  5
E4
330
86
100
AcDbEntity
  8
AM_4
100
AcDbPolyline
 90
       39
 70
     0
 43
0.0
 10
-1.491798129526928
 20
-0.6517119607347296
 10
-1.477333652318656
 20
-0.6633181318909482
 10
-1.465287298560126
 20
-0.6762715301041969
 10
-1.455132455069576
 20
-0.6920109981840769
 10
-1.448865721994033
 20
-0.7085110787974067
 10
-1.446839780328836
 20
-0.7242045780884243
 10
-1.448585276570638
 20
-0.7395876427810387
 10
-1.453864473199998
 20
-0.7537647114382359
 10
-1.462420880404088
 20
-0.7668946045985179
 10
-1.474299090513048
 20
-0.7789499163356922
 10
-1.488908978551597
 20
-0.7894307961567203
 10
-1.506926209054195
 20
-0.7986491617621471
 10
-1.527010341523033
 20
-0.8058536385087546
 10
-1.550028003485305
 20
-0.8112146098407398
 10
-1.574149346100072
 20
-0.8142074214717936
 10
-1.599705358801173
 20
-0.8147665833581152
 10
-1.625061844088005
 20
-0.812750178298177
 10
-1.649754109813146
 20
-0.8080789296738501
 10
-1.672788014232586
 20
-0.8008201756846195
 10
-1.69308078897022
 20
-0.7911908842018829
 10
-1.710374548999551
 20
-0.7792378794996895
 10
-1.723381350077806
 20
-0.7658587534892984
 10
-1.7325518447592
 20
-0.7508334592123679
 10
-1.737214610892578
 20
-0.7356713967289304
 10
-1.737988714169983
 20
-0.7198388182695861
 10
-1.735011419119592
 20
-0.70455947583092
 10
-1.72858300020446
 20
-0.689554780463359
 10
-1.71883162432281
 20
-0.6751879269175194
 10
-1.706163843129555
 20
-0.6619398631870381
 10
-1.690097561921367
 20
-0.6496212753366581
 10
-1.671720545703804
 20
-0.6392592960051823
 10
-1.650145910143296
 20
-0.6307065500942475
 10
-1.627109575487129
 20
-0.6249142873404079
 10
-1.602042232236542
 20
-0.6220213515313268
 10
-1.576715523547702
 20
-0.6224204077955228
 10
-1.551341083387849
 20
-0.6262523226800444
 10
-1.527143039481923
 20
-0.6333735514308786
 10
-1.508618120647109
 20
-0.641589848445767
 10
-1.491798129496656
 20
-0.6517119605971065
  0
LINE
  5
E5
330
86
100
AcDbEntity
  8
AM_4
100
AcDbLine
 10
-1.929
 20
-1.025
 30
0.0
 11
-1.35
 21
-1.025
 31
0.0
  0
LINE
  5
E6
330
86
100
AcDbEntity
  8
AM_4
100
AcDbLine
 10
-1.35
 20
1.025
 30
0.0
 11
-1.929
 21
1.025
 31
0.0
  0
LINE
  5
E7
330
86
100
AcDbEntity
  8
AM_4
100
AcDbLine
 10
-1.97
 20
0.984
 30
0.0
 11
-1.97
 21
-0.984
 31
0.0
  0
LINE
  5
E8
330
86
100
AcDbEntity
  8
AM_4
100
AcDbLine
 10
-1.929
 20
1.025
 30
0.0
 11
-1.929
 21
-1.025
 31
0.0
  0
LINE
  5
E9
330
86
100
AcDbEntity
  8
AM_4
100
AcDbLine
 10
-1.97
 20
-0.984
 30
0.0
 11
-1.929
 21
-1.025
 31
0.0
  0
LINE
  5
EA
330
86
100
AcDbEntity
  8
AM_4
100
AcDbLine
 10
-1.929
 20
1.025
 30
0.0
 11
-1.97
 21
0.984
 31
0.0
  0
ELLIPSE
  5
EB
330
86
100
AcDbEntity
  8
AM_4
100
AcDbEllipse
 10
-1.5925
 20
-0.7110105051995914
 30
0.0
 11
-0.1261999999999999
 21
1.545504260523958E-17
 31
0.0
210
0.0
220
0.0
230
1.0
 40
0.7071067811865487
 41
0.0
 42
6.283185307179586
  0
ENDBLK
  5
89
330
86
100
AcDbEntity
  8
0
100
AcDbBlockEnd
  0
BLOCK
  5
EE
330
EC
100
AcDbEntity
  8
0
100
AcDbBlockBegin
  2
3_405020c_Inch_0_in_056809_2
 70
     2
 10
0.0
 20
0.0
 30
0.0
  3
3_405020c_Inch_0_in_056809_2
  1

  0
ATTDEF
  5
F0
330
EC
100
AcDbEntity
  8
AM_6
100
AcDbText
 10
4.272408630723041
 20
2.323469512195122
 30
0.0
 40
0.5
  1
405020C -Inch
100
AcDbAttributeDefinition
  3

  2
NN
 70
     8
280
     0
  0
ATTDEF
  5
F1
330
EC
100
AcDbEntity
  8
AM_6
100
AcDbText
 10
4.272408630723041
 20
1.823469512195122
 30
0.0
 40
0.5
  1
Grease fitting
100
AcDbAttributeDefinition
  3

  2
NT
 70
     8
280
     0
  0
ATTDEF
  5
F2
330
EC
100
AcDbEntity
  8
AM_6
100
AcDbText
 10
4.272408630723041
 20
1.323469512195122
 30
0.0
 40
0.5
  1
405020c-Inch
100
AcDbAttributeDefinition
  3

  2
NB
 70
     8
280
     0
  0
ATTDEF
  5
F3
330
EC
100
AcDbEntity
  8
AM_6
100
AcDbText
 10
4.272408630723041
 20
0.8234695121951221
 30
0.0
 40
0.5
  1
$MN.-Inch
100
AcDbAttributeDefinition
  3

  2
NBSYN
 70
     8
280
     0
  0
ATTDEF
  5
F4
330
EC
100
AcDbEntity
  8
AM_6
100
AcDbText
 10
4.272408630723041
 20
0.3234695121951221
 30
0.0
 40
0.5
  1
405020c
100
AcDbAttributeDefinition
  3

  2
LINA
 70
     8
280
     0
  0
ATTDEF
  5
F5
330
EC
100
AcDbEntity
  8
AM_6
100
AcDbText
 10
4.272408630723041
 20
-0.1765304878048779
 30
0.0
 40
0.5
  1
405020c
100
AcDbAttributeDefinition
  3

  2
MN
 70
     8
280
     0
  0
ATTDEF
  5
F6
330
EC
100
AcDbEntity
  8
AM_6
100
AcDbText
 10
4.272408630723041
 20
-0.6765304878048779
 30
0.0
 40
0.5
  1
0.230
100
AcDbAttributeDefinition
  3

  2
NDR
 70
     8
280
     0
  0
ATTDEF
  5
F7
330
EC
100
AcDbEntity
  8
AM_6
100
AcDbText
 10
4.272408630723041
 20
-1.176530487804878
 30
0.0
 40
0.5
  1
0.210
100
AcDbAttributeDefinition
  3

  2
KDR
 70
     8
280
     0
  0
ATTDEF
  5
F8
330
EC
100
AcDbEntity
  8
AM_6
100
AcDbText
 10
4.272408630723041
 20
-1.676530487804878
 30
0.0
 40
0.5
  1
0.157
100
AcDbAttributeDefinition
  3

  2
BZE
 70
     8
280
     0
  0
ATTDEF
  5
F9
330
EC
100
AcDbEntity
  8
AM_6
100
AcDbText
 10
4.272408630723041
 20
-2.176530487804878
 30
0.0
 40
0.5
  1
9/32
100
AcDbAttributeDefinition
  3

  2
WAF
 70
     8
280
     0
  0
ATTDEF
  5
FA
330
EC
100
AcDbEntity
  8
AM_6
100
AcDbText
 10
4.272408630723041
 20
-2.676530487804878
 30
0.0
 40
0.5
  1
0.2813
100
AcDbAttributeDefinition
  3

  2
WAF1
 70
     8
280
     0
  0
ATTDEF
  5
FB
330
EC
100
AcDbEntity
  8
AM_6
100
AcDbText
 10
4.272408630723041
 20
-3.176530487804878
 30
0.0
 40
0.5
  1
0.545
100
AcDbAttributeDefinition
  3

  2
BL
 70
     8
280
     0
  0
ATTDEF
  5
FC
330
EC
100
AcDbEntity
  8
AM_6
100
AcDbText
 10
4.272408630723041
 20
-3.676530487804878
 30
0.0
 40
0.5
  1
0.200
100
AcDbAttributeDefinition
  3

  2
TL
 70
     8
280
     0
  0
ATTDEF
  5
FD
330
EC
100
AcDbEntity
  8
AM_6
100
AcDbText
 10
4.272408630723041
 20
-4.176530487804878
 30
0.0
 40
0.5
  1
baldor
100
AcDbAttributeDefinition
  3

  2
COMPANY
 70
     8
280
     0
  0
LINE
  5
FE
330
EC
100
AcDbEntity
  8
AM_9
100
AcDbLine
 10
-0.7899113772963424
 20
1.751219512195122
 30
0.0
 11
-0.9900886227036577
 21
1.751219512195122
 31
0.0
  0
LINE
  5
FF
330
EC
100
AcDbEntity
  8
AM_9
100
AcDbLine
 10
-0.7899113772963424
 20
1.751219512195122
 30
0.0
 11
-0.779583740406011
 21
1.761547149085454
 31
0.0
  0
LINE
  5
100
330
EC
100
AcDbEntity
  8
AM_9
100
AcDbLine
 10
-1.000416259593989
 20
1.761547149085454
 30
0.0
 11
-0.9900886227036577
 21
1.751219512195122
 31
0.0
  0
LINE
  5
101
330
EC
100
AcDbEntity
  8
AM_9
100
AcDbLine
 10
-0.779583740406011
 20
1.761547149085454
 30
0.0
 11
-1.000416259593989
 21
1.761547149085454
 31
0.0
  0
LINE
  5
102
330
EC
100
AcDbEntity
  8
AM_9
100
AcDbLine
 10
-0.779583740406011
 20
1.761547149085454
 30
0.0
 11
-0.7736561828467229
 21
1.951219512195122
 31
0.0
  0
LINE
  5
103
330
EC
100
AcDbEntity
  8
AM_9
100
AcDbLine
 10
-1.006343817153277
 20
1.951219512195122
 30
0.0
 11
-1.000416259593989
 21
1.761547149085454
 31
0.0
  0
LINE
  5
105
330
EC
100
AcDbEntity
  8
AM_5
100
AcDbLine
 10
-0.9957663861878747
 20
1.932898864349493
 30
0.0
 11
-0.9900886227036577
 21
1.751219512195122
 31
0.0
  0
LINE
  5
106
330
EC
100
AcDbEntity
  8
AM_5
100
AcDbLine
 10
-1.006343817153277
 20
1.951219512195122
 30
0.0
 11
-0.9957663861878747
 21
1.932898864349493
 31
0.0
  0
LINE
  5
107
330
EC
100
AcDbEntity
  8
AM_5
100
AcDbLine
 10
-0.7742287317033301
 20
1.932898864349493
 30
0.0
 11
-1.00577126829667
 21
1.932898864349493
 31
0.0
  0
LINE
  5
108
330
EC
100
AcDbEntity
  8
AM_5
100
AcDbLine
 10
-0.7842336138121254
 20
1.932898864349493
 30
0.0
 11
-0.7899113772963424
 21
1.751219512195122
 31
0.0
  0
LINE
  5
109
330
EC
100
AcDbEntity
  8
AM_5
100
AcDbLine
 10
-0.7736561828467229
 20
1.951219512195122
 30
0.0
 11
-0.7842336138121254
 21
1.932898864349493
 31
0.0
  0
LINE
  5
10A
330
EC
100
AcDbEntity
  8
AM_7
100
AcDbLine
 10
-0.89
 20
2.323469512195122
 30
0.0
 11
-0.89
 21
1.723969512195122
 31
0.0
  0
LINE
  5
10B
330
EC
100
AcDbEntity
  8
AM_4
100
AcDbLine
 10
-0.7493500000000003
 20
1.951219512195122
 30
0.0
 11
-0.7275913692769583
 21
1.957049719725768
 31
0.0
  0
LINE
  5
10C
330
EC
100
AcDbEntity
  8
AM_4
100
AcDbLine
 10
-1.052408630723042
 20
1.957049719725768
 30
0.0
 11
-1.03065
 21
1.951219512195122
 31
0.0
  0
LINE
  5
10D
330
EC
100
AcDbEntity
  8
AM_4
100
AcDbLine
 10
-0.7275913692769583
 20
2.012055971331143
 30
0.0
 11
-0.7493500000000001
 21
2.017886178861789
 31
0.0
  0
LINE
  5
10E
330
EC
100
AcDbEntity
  8
AM_4
100
AcDbLine
 10
-1.03065
 20
2.017886178861789
 30
0.0
 11
-1.052408630723042
 21
2.012055971331143
 31
0.0
  0
LINE
  5
10F
330
EC
100
AcDbEntity
  8
AM_4
100
AcDbLine
 10
-0.8091935702832721
 20
2.296219512195122
 30
0.0
 11
-0.9708064285041845
 21
2.296219512195122
 31
0.0
  0
ARC
  5
110
330
EC
100
AcDbEntity
  8
AM_4
100
AcDbCircle
 10
-0.9708064297167277
 20
2.271219512195121
 30
0.0
 40
0.0250000000000008
100
AcDbArc
 50
90.0
 51
156.9999999999988
  0
ARC
  5
111
330
EC
100
AcDbEntity
  8
AM_4
100
AcDbCircle
 10
-0.8091935702832724
 20
2.271219512195121
 30
0.0
 40
0.0250000000000007
100
AcDbArc
 50
23.00000000000116
 51
90.0
  0
ARC
  5
112
330
EC
100
AcDbEntity
  8
AM_4
100
AcDbCircle
 10
-1.034684789639098
 20
2.084562067341345
 30
0.0
 40
0.0499999999999997
100
AcDbArc
 50
314.9999999999998
 51
25.00000000000042
  0
ARC
  5
113
330
EC
100
AcDbEntity
  8
AM_4
100
AcDbCircle
 10
-0.7453152103609014
 20
2.084562067341345
 30
0.0
 40
0.0499999999999999
100
AcDbArc
 50
154.9999999999997
 51
225.0
  0
LINE
  5
114
330
EC
100
AcDbEntity
  8
AM_4
100
AcDbLine
 10
-0.7906305997127338
 20
2.10569298042838
 30
0.0
 11
-0.9893694002872664
 21
2.10569298042838
 31
0.0
  0
LINE
  5
115
330
EC
100
AcDbEntity
  8
AM_4
100
AcDbLine
 10
-0.7906305997127338
 20
2.10569298042838
 30
0.0
 11
-0.7587580886531096
 21
2.174043800969761
 31
0.0
  0
LINE
  5
116
330
EC
100
AcDbEntity
  8
AM_4
100
AcDbLine
 10
-1.021241911346891
 20
2.174043800969761
 30
0.0
 11
-0.9893694002872664
 21
2.10569298042838
 31
0.0
  0
LINE
  5
117
330
EC
100
AcDbEntity
  8
AM_4
100
AcDbLine
 10
-0.786180948946961
 20
2.280987790407354
 30
0.0
 11
-0.9938190510530391
 21
2.280987790407354
 31
0.0
  0
LINE
  5
118
330
EC
100
AcDbEntity
  8
AM_4
100
AcDbLine
 10
-0.9938190510530391
 20
2.280987790407354
 30
0.0
 11
-1.02195176466768
 21
2.21471127048126
 31
0.0
  0
LINE
  5
119
330
EC
100
AcDbEntity
  8
AM_4
100
AcDbLine
 10
-0.75804823533232
 20
2.21471127048126
 30
0.0
 11
-0.786180948946961
 21
2.280987790407354
 31
0.0
  0
LINE
  5
11A
330
EC
100
AcDbEntity
  8
AM_4
100
AcDbLine
 10
-0.75804823533232
 20
2.21471127048126
 30
0.0
 11
-1.02195176466768
 21
2.21471127048126
 31
0.0
  0
LINE
  5
11B
330
EC
100
AcDbEntity
  8
AM_4
100
AcDbLine
 10
-0.7587580886531096
 20
2.174043800969761
 30
0.0
 11
-1.021241911346891
 21
2.174043800969761
 31
0.0
  0
ARC
  5
11C
330
EC
100
AcDbEntity
  8
AM_4
100
AcDbCircle
 10
-0.9759265219950584
 20
2.195174714056796
 30
0.0
 40
0.0499999999999998
100
AcDbArc
 50
156.9999999999997
 51
204.9999999999998
  0
ARC
  5
11D
330
EC
100
AcDbEntity
  8
AM_4
100
AcDbCircle
 10
-0.8040734780049418
 20
2.195174714056796
 30
0.0
 40
0.0499999999999996
100
AcDbArc
 50
335.0000000000001
 51
23.00000000000029
  0
LWPOLYLINE
  5
11E
330
EC
100
AcDbEntity
  8
AM_4
100
AcDbPolyline
 90
        4
 70
     0
 43
0.0
 10
-0.89
 20
2.017886178861789
 10
-0.8588491240780485
 20
2.016972922261423
 10
-0.8276982481560968
 20
2.014354380425537
 10
-0.8087956846384792
 20
2.012055971331143
  0
LINE
  5
11F
330
EC
100
AcDbEntity
  8
AM_4
100
AcDbLine
 10
-0.8087956846384792
 20
2.012055971331143
 30
0.0
 11
-0.8087956846384792
 21
1.957049719725768
 31
0.0
  0
LWPOLYLINE
  5
120
330
EC
100
AcDbEntity
  8
AM_4
100
AcDbPolyline
 90
        3
 70
     0
 43
0.0
 10
-0.7275913692769583
 20
1.957049719725768
 10
-0.747801169000346
 20
1.952771982751301
 10
-0.7681935269577188
 20
1.951219512195122
  0
LINE
  5
121
330
EC
100
AcDbEntity
  8
AM_4
100
AcDbLine
 10
-0.7275913692769583
 20
2.012055971331143
 30
0.0
 11
-0.7275913692769583
 21
1.957049719725768
 31
0.0
  0
LWPOLYLINE
  5
122
330
EC
100
AcDbEntity
  8
AM_4
100
AcDbPolyline
 90
        3
 70
     0
 43
0.0
 10
-0.7681935269577188
 20
2.017886178861789
 10
-0.7478924481173386
 20
2.01634730339932
 10
-0.7275913692769583
 20
2.012055971331143
  0
LWPOLYLINE
  5
123
330
EC
100
AcDbEntity
  8
AM_4
100
AcDbPolyline
 90
        3
 70
     0
 43
0.0
 10
-0.8087956846384792
 20
2.012055971331143
 10
-0.7885858849150915
 20
2.016333708305611
 10
-0.7681935269577188
 20
2.017886178861789
  0
LWPOLYLINE
  5
124
330
EC
100
AcDbEntity
  8
AM_4
100
AcDbPolyline
 90
        3
 70
     0
 43
0.0
 10
-0.971204315361521
 20
2.012055971331143
 10
-0.9307847159147455
 20
2.016333708305611
 10
-0.89
 20
2.017886178861789
  0
LWPOLYLINE
  5
125
330
EC
100
AcDbEntity
  8
AM_4
100
AcDbPolyline
 90
        3
 70
     0
 43
0.0
 10
-0.89
 20
1.951219512195122
 10
-0.9306021576807605
 20
1.952758387657591
 10
-0.971204315361521
 20
1.957049719725768
  0
LWPOLYLINE
  5
126
330
EC
100
AcDbEntity
  8
AM_4
100
AcDbPolyline
 90
        3
 70
     0
 43
0.0
 10
-0.7681935269577188
 20
1.951219512195122
 10
-0.7884946057980989
 20
1.952758387657591
 10
-0.8087956846384792
 20
1.957049719725768
  0
LWPOLYLINE
  5
127
330
EC
100
AcDbEntity
  8
AM_4
100
AcDbPolyline
 90
        4
 70
     0
 43
0.0
 10
-0.8087956846384792
 20
1.957049719725768
 10
-0.8276982481560968
 20
1.954751310631374
 10
-0.8587571743791796
 20
1.952138103927395
 10
-0.89
 20
1.951219512195122
  0
LINE
  5
128
330
EC
100
AcDbEntity
  8
AM_4
100
AcDbLine
 10
-1.052408630723042
 20
2.012055971331143
 30
0.0
 11
-1.052408630723042
 21
1.957049719725768
 31
0.0
  0
LWPOLYLINE
  5
129
330
EC
100
AcDbEntity
  8
AM_4
100
AcDbPolyline
 90
        3
 70
     0
 43
0.0
 10
-1.011806473042281
 20
1.951219512195122
 10
-1.032107551882662
 20
1.952758387657591
 10
-1.052408630723042
 20
1.957049719725768
  0
LWPOLYLINE
  5
12A
330
EC
100
AcDbEntity
  8
AM_4
100
AcDbPolyline
 90
        3
 70
     0
 43
0.0
 10
-0.971204315361521
 20
1.957049719725768
 10
-0.9914141150849086
 20
1.952771982751301
 10
-1.011806473042281
 20
1.951219512195122
  0
LINE
  5
12B
330
EC
100
AcDbEntity
  8
AM_4
100
AcDbLine
 10
-0.971204315361521
 20
2.012055971331143
 30
0.0
 11
-0.971204315361521
 21
1.957049719725768
 31
0.0
  0
LWPOLYLINE
  5
12C
330
EC
100
AcDbEntity
  8
AM_4
100
AcDbPolyline
 90
        3
 70
     0
 43
0.0
 10
-1.011806473042281
 20
2.017886178861789
 10
-0.9915053942019012
 20
2.01634730339932
 10
-0.971204315361521
 20
2.012055971331143
  0
LWPOLYLINE
  5
12D
330
EC
100
AcDbEntity
  8
AM_4
100
AcDbPolyline
 90
        3
 70
     0
 43
0.0
 10
-1.052408630723042
 20
2.012055971331143
 10
-1.032198830999654
 20
2.016333708305611
 10
-1.011806473042281
 20
2.017886178861789
  0
LINE
  5
12E
330
EC
100
AcDbEntity
  8
AM_4
100
AcDbLine
 10
-0.7493500000000001
 20
2.017886178861789
 30
0.0
 11
-1.03065
 21
2.017886178861789
 31
0.0
  0
LINE
  5
12F
330
EC
100
AcDbEntity
  8
AM_4
100
AcDbLine
 10
-0.7806705494202287
 20
2.049206728282017
 30
0.0
 11
-0.9993294505797714
 21
2.049206728282017
 31
0.0
  0
LINE
  5
130
330
EC
100
AcDbEntity
  8
AM_4
100
AcDbLine
 10
-0.9993294505797714
 20
2.049206728282017
 30
0.0
 11
-1.03065
 21
2.017886178861789
 31
0.0
  0
LINE
  5
131
330
EC
100
AcDbEntity
  8
AM_4
100
AcDbLine
 10
-0.7493500000000001
 20
2.017886178861789
 30
0.0
 11
-0.7806705494202287
 21
2.049206728282017
 31
0.0
  0
ENDBLK
  5
EF
330
EC
100
AcDbEntity
  8
0
100
AcDbBlockEnd
  0
BLOCK
  5
134
330
132
100
AcDbEntity
  8
0
100
AcDbBlockBegin
  2
4_056809SHH_0_in_056809_2
 70
     2
 10
0.0
 20
0.0
 30
0.0
  3
4_056809SHH_0_in_056809_2
  1

  0
ATTDEF
  5
136
330
132
100
AcDbEntity
  8
AM_6
100
AcDbText
 10
5.0215
 20
2.530000000000002
 30
0.0
 40
0.5
  1
F4B-SCEZ-SHCR -I-Housing
100
AcDbAttributeDefinition
  3

  2
NN
 70
     8
280
     0
  0
ATTDEF
  5
137
330
132
100
AcDbEntity
  8
AM_6
100
AcDbText
 10
5.0215
 20
2.030000000000002
 30
0.0
 40
0.5
  1
SC 4 Bolt Flange Bearings -(Normal Duty) -Corrosion Resistant Insert -E-Z KLEEN
100
AcDbAttributeDefinition
  3

  2
NT
 70
     8
280
     0
  0
ATTDEF
  5
138
330
132
100
AcDbEntity
  8
AM_6
100
AcDbText
 10
5.0215
 20
1.530000000000002
 30
0.0
 40
0.5
  1
056809SHH
100
AcDbAttributeDefinition
  3

  2
NB
 70
     8
280
     0
  0
ATTDEF
  5
139
330
132
100
AcDbEntity
  8
AM_6
100
AcDbText
 10
5.0215
 20
1.030000000000002
 30
0.0
 40
0.5
  1
$PN.H
100
AcDbAttributeDefinition
  3

  2
NBSYN
 70
     8
280
     0
  0
ATTDEF
  5
13A
330
132
100
AcDbEntity
  8
AM_6
100
AcDbText
 10
5.0215
 20
0.5300000000000016
 30
0.0
 40
0.5
  1
056809SH
100
AcDbAttributeDefinition
  3

  2
LINA
 70
     8
280
     0
  0
ATTDEF
  5
13B
330
132
100
AcDbEntity
  8
AM_6
100
AcDbText
 10
5.0215
 20
0.0300000000000016
 30
0.0
 40
0.5
  1
208
100
AcDbAttributeDefinition
  3

  2
SERIES
 70
     8
280
     0
  0
ATTDEF
  5
13C
330
132
100
AcDbEntity
  8
AM_6
100
AcDbText
 10
5.0215
 20
-0.4699999999999984
 30
0.0
 40
0.5
  1
1-1/2
100
AcDbAttributeDefinition
  3

  2
SS
 70
     8
280
     0
  0
ATTDEF
  5
13D
330
132
100
AcDbEntity
  8
AM_6
100
AcDbText
 10
5.0215
 20
-0.9699999999999984
 30
0.0
 40
0.5
  1
056809SH
100
AcDbAttributeDefinition
  3

  2
PN
 70
     8
280
     0
  0
ATTDEF
  5
13E
330
132
100
AcDbEntity
  8
AM_6
100
AcDbText
 10
5.0215
 20
-1.469999999999998
 30
0.0
 40
0.5
  1
F4B-SCEZ-108-SH
100
AcDbAttributeDefinition
  3

  2
DESCRIPTION
 70
     8
280
     0
  0
ATTDEF
  5
13F
330
132
100
AcDbEntity
  8
AM_6
100
AcDbText
 10
5.0215
 20
-1.969999999999998
 30
0.0
 40
0.5
  1
2
100
AcDbAttributeDefinition
  3

  2
INSERTHELP
 70
     8
280
     0
  0
ATTDEF
  5
140
330
132
100
AcDbEntity
  8
AM_6
100
AcDbText
 10
5.0215
 20
-2.469999999999998
 30
0.0
 40
0.5
  1
1.94
100
AcDbAttributeDefinition
  3

  2
A
 70
     8
280
     0
  0
ATTDEF
  5
141
330
132
100
AcDbEntity
  8
AM_6
100
AcDbText
 10
5.0215
 20
-2.969999999999998
 30
0.0
 40
0.5
  1
5.06
100
AcDbAttributeDefinition
  3

  2
B
 70
     8
280
     0
  0
ATTDEF
  5
142
330
132
100
AcDbEntity
  8
AM_6
100
AcDbText
 10
5.0215
 20
-3.469999999999998
 30
0.0
 40
0.5
  1
1.97
100
AcDbAttributeDefinition
  3

  2
C
 70
     8
280
     0
  0
ATTDEF
  5
143
330
132
100
AcDbEntity
  8
AM_6
100
AcDbText
 10
5.0215
 20
-3.969999999999998
 30
0.0
 40
0.5
  1
4
100
AcDbAttributeDefinition
  3

  2
D
 70
     8
280
     0
  0
ATTDEF
  5
144
330
132
100
AcDbEntity
  8
AM_6
100
AcDbText
 10
5.0215
 20
-4.469999999999999
 30
0.0
 40
0.5
  1
1/2
100
AcDbAttributeDefinition
  3

  2
F
 70
     8
280
     0
  0
ATTDEF
  5
145
330
132
100
AcDbEntity
  8
AM_6
100
AcDbText
 10
5.0215
 20
-4.969999999999999
 30
0.0
 40
0.5
  1
0.43
100
AcDbAttributeDefinition
  3

  2
H
 70
     8
280
     0
  0
ATTDEF
  5
146
330
132
100
AcDbEntity
  8
AM_6
100
AcDbText
 10
5.0215
 20
-5.469999999999999
 30
0.0
 40
0.5
  1
0.62
100
AcDbAttributeDefinition
  3

  2
J
 70
     8
280
     0
  0
ATTDEF
  5
147
330
132
100
AcDbEntity
  8
AM_6
100
AcDbText
 10
5.0215
 20
-5.969999999999999
 30
0.0
 40
0.5
  1
2.05
100
AcDbAttributeDefinition
  3

  2
L
 70
     8
280
     0
  0
ATTDEF
  5
148
330
132
100
AcDbEntity
  8
AM_6
100
AcDbText
 10
5.0215
 20
-6.469999999999999
 30
0.0
 40
0.5
  1
baldor
100
AcDbAttributeDefinition
  3

  2
COMPANY
 70
     8
280
     0
  0
LINE
  5
149
330
132
100
AcDbEntity
  8
AM_9
100
AcDbLine
 10
-0.8775
 20
-1.569401796600966
 30
0.0
 11
-0.2106210441453286
 21
-1.569401796600966
 31
0.0
  0
LINE
  5
14A
330
132
100
AcDbEntity
  8
AM_9
100
AcDbLine
 10
-0.8775000000000002
 20
-0.5087416248211446
 30
0.0
 11
-0.2106210441453291
 21
-0.5087416248211446
 31
0.0
  0
LINE
  5
14B
330
132
100
AcDbEntity
  8
AM_9
100
AcDbLine
 10
-0.8775
 20
-1.569401796600966
 30
0.0
 11
-0.8775000000000002
 21
-0.4488264490931325
 31
0.0
  0
LINE
  5
14C
330
132
100
AcDbEntity
  8
AM_9
100
AcDbLine
 10
-0.8775
 20
1.569401796600966
 30
0.0
 11
-0.2106210441453292
 21
1.569401796600965
 31
0.0
  0
LINE
  5
14D
330
132
100
AcDbEntity
  8
AM_9
100
AcDbLine
 10
-0.8774999999999998
 20
0.4488264490931325
 30
0.0
 11
-0.8775
 21
1.569401796600966
 31
0.0
  0
LINE
  5
14E
330
132
100
AcDbEntity
  8
AM_9
100
AcDbLine
 10
-0.8774999999999998
 20
0.5087416248211448
 30
0.0
 11
-0.2106210441453291
 21
0.5087416248211448
 31
0.0
  0
LINE
  5
14F
330
132
100
AcDbEntity
  8
AM_9
100
AcDbLine
 10
-0.8775000000000002
 20
-0.4488264490931325
 30
0.0
 11
-0.2150000000000004
 21
-0.4488264490931325
 31
0.0
  0
LINE
  5
150
330
132
100
AcDbEntity
  8
AM_9
100
AcDbLine
 10
-0.2150000000000003
 20
1.509486620872954
 30
0.0
 11
-0.8775
 21
1.509486620872954
 31
0.0
  0
LINE
  5
151
330
132
100
AcDbEntity
  8
AM_9
100
AcDbLine
 10
-0.8774999999999998
 20
0.4488264490931325
 30
0.0
 11
-0.2150000000000002
 21
0.4488264490931324
 31
0.0
  0
LINE
  5
152
330
132
100
AcDbEntity
  8
AM_9
100
AcDbLine
 10
-0.2150000000000003
 20
-1.509486620872954
 30
0.0
 11
-0.8775
 21
-1.509486620872954
 31
0.0
  0
LINE
  5
153
330
132
100
AcDbEntity
  8
AM_9
100
AcDbLine
 10
-1.264
 20
-1.5748
 30
0.0
 11
-0.2150000000000003
 21
-1.5748
 31
0.0
  0
LINE
  5
154
330
132
100
AcDbEntity
  8
AM_9
100
AcDbLine
 10
-0.2150000000000003
 20
1.5748
 30
0.0
 11
-1.264
 21
1.5748
 31
0.0
  0
LINE
  5
155
330
132
100
AcDbEntity
  8
AM_9
100
AcDbLine
 10
-0.1612499999999997
 20
-1.6823
 30
0.0
 11
0.0
 21
-1.6823
 31
0.0
  0
LINE
  5
156
330
132
100
AcDbEntity
  8
AM_9
100
AcDbLine
 10
0.0
 20
1.6823
 30
0.0
 11
-0.1612499999999997
 21
1.6823
 31
0.0
  0
LINE
  5
157
330
132
100
AcDbEntity
  8
AM_9
100
AcDbLine
 10
-1.35
 20
-1.6823
 30
0.0
 11
-1.264
 21
-1.6823
 31
0.0
  0
LINE
  5
158
330
132
100
AcDbEntity
  8
AM_9
100
AcDbLine
 10
-1.264
 20
1.6823
 30
0.0
 11
-1.35
 21
1.6823
 31
0.0
  0
LINE
  5
159
330
132
100
AcDbEntity
  8
AM_9
100
AcDbLine
 10
-1.264
 20
1.6823
 30
0.0
 11
-1.264
 21
-1.6823
 31
0.0
  0
LWPOLYLINE
  5
15A
330
132
100
AcDbEntity
  8
AM_9
100
AcDbPolyline
 90
        4
 70
     0
 43
0.0
 10
-0.2106210441453291
 20
-0.5087416248211446
 10
-0.2136989573027626
 20
-0.5011976663500775
 10
-0.2149743597988073
 20
-0.4931650795006434
 10
-0.2150000000000001
 20
-0.491842869754094
  0
LINE
  5
15B
330
132
100
AcDbEntity
  8
AM_9
100
AcDbLine
 10
-0.2106210441453286
 20
-1.569401796600966
 30
0.0
 11
-0.2106210441453291
 21
-0.5087416248211446
 31
0.0
  0
LWPOLYLINE
  5
15C
330
132
100
AcDbEntity
  8
AM_9
100
AcDbPolyline
 90
        4
 70
     0
 43
0.0
 10
-0.215
 20
-1.552503041533915
 10
-0.2149912948166461
 20
-1.553273568121305
 10
-0.2138381977468163
 20
-1.561349343789004
 10
-0.2106210441453286
 20
-1.569401796600966
  0
LINE
  5
15D
330
132
100
AcDbEntity
  8
AM_9
100
AcDbLine
 10
-0.215
 20
1.62855
 30
0.0
 11
-0.215
 21
-1.62855
 31
0.0
  0
LWPOLYLINE
  5
15E
330
132
100
AcDbEntity
  8
AM_9
100
AcDbPolyline
 90
        4
 70
     0
 43
0.0
 10
-0.2106210441453291
 20
0.5087416248211448
 10
-0.2136989573027623
 20
0.5011976663500773
 10
-0.2149743597988071
 20
0.4931650795006434
 10
-0.2149999999999999
 20
0.491842869754094
  0
LINE
  5
15F
330
132
100
AcDbEntity
  8
AM_9
100
AcDbLine
 10
-0.2106210441453292
 20
1.569401796600965
 30
0.0
 11
-0.2106210441453291
 21
0.5087416248211448
 31
0.0
  0
LWPOLYLINE
  5
160
330
132
100
AcDbEntity
  8
AM_9
100
AcDbPolyline
 90
        4
 70
     0
 43
0.0
 10
-0.215
 20
1.552503041533915
 10
-0.2149912948166461
 20
1.553273568121305
 10
-0.2138381977468164
 20
1.561349343789004
 10
-0.2106210441453292
 20
1.569401796600965
  0
ARC
  5
161
330
132
100
AcDbEntity
  8
AM_9
100
AcDbCircle
 10
-0.1612500000000001
 20
-1.62855
 30
0.0
 40
0.0537499999999999
100
AcDbArc
 50
180.0
 51
270.0
  0
ARC
  5
162
330
132
100
AcDbEntity
  8
AM_9
100
AcDbCircle
 10
-0.1612500000000005
 20
1.62855
 30
0.0
 40
0.0537499999999995
100
AcDbArc
 50
90.0
 51
179.9999991462263
  0
LINE
  5
163
330
132
100
AcDbEntity
  8
AM_9
100
AcDbLine
 10
-0.1612499999999997
 20
1.6823
 30
0.0
 11
-0.1612499999999997
 21
-1.6823
 31
0.0
  0
LINE
  5
164
330
132
100
AcDbEntity
  8
AM_9
100
AcDbLine
 10
0.0000000000000001
 20
-1.822837842368189
 30
0.0
 11
-0.4299999999999999
 21
-1.822837842368189
 31
0.0
  0
LINE
  5
165
330
132
100
AcDbEntity
  8
AM_9
100
AcDbLine
 10
-0.4299999999999999
 20
1.822837842368189
 30
0.0
 11
0.0000000000000001
 21
1.822837842368189
 31
0.0
  0
LINE
  5
166
330
132
100
AcDbEntity
  8
AM_9
100
AcDbLine
 10
-0.4299999999999998
 20
1.951219512195122
 30
0.0
 11
0.0
 21
1.951219512195122
 31
0.0
  0
LINE
  5
167
330
132
100
AcDbEntity
  8
AM_9
100
AcDbLine
 10
-0.4299999999999998
 20
-2.0
 30
0.0
 11
0.0
 21
-2.0
 31
0.0
  0
LINE
  5
168
330
132
100
AcDbEntity
  8
AM_9
100
AcDbLine
 10
-0.4299999999999998
 20
-2.25
 30
0.0
 11
0.0000000000000001
 21
-2.25
 31
0.0
  0
LINE
  5
169
330
132
100
AcDbEntity
  8
AM_9
100
AcDbLine
 10
0.0000000000000001
 20
-1.75
 30
0.0
 11
-0.4299999999999998
 21
-1.75
 31
0.0
  0
LINE
  5
16A
330
132
100
AcDbEntity
  8
AM_9
100
AcDbLine
 10
-0.4299999999999998
 20
1.75
 30
0.0
 11
0.0000000000000001
 21
1.75
 31
0.0
  0
LINE
  5
16B
330
132
100
AcDbEntity
  8
AM_9
100
AcDbLine
 10
0.0000000000000001
 20
2.25
 30
0.0
 11
-0.4299999999999998
 21
2.25
 31
0.0
  0
LINE
  5
16C
330
132
100
AcDbEntity
  8
AM_9
100
AcDbLine
 10
-0.4299999999999998
 20
-2.434150583473166
 30
0.0
 11
0.0000000000000001
 21
-2.434150583473166
 31
0.0
  0
LINE
  5
16D
330
132
100
AcDbEntity
  8
AM_9
100
AcDbLine
 10
-0.4299999999999998
 20
2.434150583473166
 30
0.0
 11
0.0000000000000001
 21
2.434150583473166
 31
0.0
  0
LINE
  5
16E
330
132
100
AcDbEntity
  8
AM_7
100
AcDbLine
 10
0.0214999999999999
 20
2.0
 30
0.0
 11
-0.4515000000000001
 21
2.0
 31
0.0
  0
LINE
  5
16F
330
132
100
AcDbEntity
  8
AM_7
100
AcDbLine
 10
0.0214999999999999
 20
-1.999999999999999
 30
0.0
 11
-0.4515000000000001
 21
-1.999999999999999
 31
0.0
  0
LINE
  5
170
330
132
100
AcDbEntity
  8
AM_4
100
AcDbLine
 10
-1.35
 20
1.951219512195122
 30
0.0
 11
-0.4299999999999998
 21
1.951219512195122
 31
0.0
  0
LINE
  5
171
330
132
100
AcDbEntity
  8
AM_4
100
AcDbLine
 10
-1.35
 20
1.951219512195122
 30
0.0
 11
-1.35
 21
-1.957
 31
0.0
  0
LINE
  5
172
330
132
100
AcDbEntity
  8
AM_4
100
AcDbLine
 10
-1.35
 20
-1.957
 30
0.0
 11
-1.307
 21
-2.0
 31
0.0
  0
LINE
  5
173
330
132
100
AcDbEntity
  8
AM_4
100
AcDbLine
 10
-1.307
 20
1.951219512195122
 30
0.0
 11
-1.307
 21
-2.0
 31
0.0
  0
LINE
  5
174
330
132
100
AcDbEntity
  8
AM_4
100
AcDbLine
 10
-1.307
 20
-2.0
 30
0.0
 11
-0.4299999999999998
 21
-2.0
 31
0.0
  0
LINE
  5
175
330
132
100
AcDbEntity
  8
AM_4
100
AcDbLine
 10
-0.4299999999999998
 20
-2.530000000000002
 30
0.0
 11
-0.4299999999999998
 21
-0.8229594160288144
 31
0.0
  0
LINE
  5
176
330
132
100
AcDbEntity
  8
AM_4
100
AcDbLine
 10
-0.4299999999999998
 20
-0.8229594160288144
 30
0.0
 11
0.0000000000000001
 21
-0.8229594160288144
 31
0.0
  0
LINE
  5
177
330
132
100
AcDbEntity
  8
AM_4
100
AcDbLine
 10
-0.4299999999999998
 20
0.8229594160288141
 30
0.0
 11
-0.4299999999999998
 21
2.530000000000002
 31
0.0
  0
LINE
  5
178
330
132
100
AcDbEntity
  8
AM_4
100
AcDbLine
 10
0.0000000000000001
 20
0.8229594160288141
 30
0.0
 11
-0.4299999999999998
 21
0.8229594160288141
 31
0.0
  0
LINE
  5
179
330
132
100
AcDbEntity
  8
AM_4
100
AcDbLine
 10
-0.4299999999999998
 20
-1.696004488733946
 30
0.0
 11
0.0000000000000001
 21
-1.696004488733946
 31
0.0
  0
LINE
  5
17A
330
132
100
AcDbEntity
  8
AM_4
100
AcDbLine
 10
-0.4299999999999998
 20
-2.530000000000002
 30
0.0
 11
0.0000000000000001
 21
-2.530000000000002
 31
0.0
  0
LINE
  5
17B
330
132
100
AcDbEntity
  8
AM_4
100
AcDbLine
 10
0.0000000000000001
 20
-2.530000000000002
 30
0.0
 11
0.0000000000000001
 21
2.530000000000002
 31
0.0
  0
LINE
  5
17C
330
132
100
AcDbEntity
  8
AM_4
100
AcDbLine
 10
-0.4299999999999998
 20
1.696004488733945
 30
0.0
 11
0.0000000000000001
 21
1.696004488733945
 31
0.0
  0
LINE
  5
17D
330
132
100
AcDbEntity
  8
AM_4
100
AcDbLine
 10
0.0000000000000001
 20
2.530000000000002
 30
0.0
 11
-0.4299999999999998
 21
2.530000000000002
 31
0.0
  0
ENDBLK
  5
135
330
132
100
AcDbEntity
  8
0
100
AcDbBlockEnd
  0
ENDSEC
  0
SECTION
  2
ENTITIES
  0
INSERT
  5
6F
330
1F
100
AcDbEntity
  8
0
100
AcDbBlockReference
  2
1_056809_2
 10
0.0
 20
0.0
 30
0.0
  0
POINT
  5
17F
330
1F
100
AcDbEntity
  8
ConnectionPoints
100
AcDbPoint
 10
-0.8900000000000001
 20
1.951219512195122
 30
0.0000000000000001
  0
POINT
  5
180
330
1F
100
AcDbEntity
  8
ConnectionPoints
100
AcDbPoint
 10
-0.8900000000000001
 20
1.951219512195122
 30
0.0000000000000001
  0
POINT
  5
181
330
1F
100
AcDbEntity
  8
ConnectionPoints
100
AcDbPoint
 10
-1.97
 20
0.0
 30
0.0000000000000001
  0
ENDSEC
  0
SECTION
  2
OBJECTS
  0
DICTIONARY
  5
C
330
0
100
AcDbDictionary
281
     1
  3
ACAD_DETAILVIEWSTYLE
350
189
  3
ACAD_GROUP
350
D
  3
ACAD_LAYOUT
350
1A
  3
ACAD_MATERIAL
350
43
  3
ACAD_MLEADERSTYLE
350
6B
  3
ACAD_MLINESTYLE
350
17
  3
ACAD_PLOTSETTINGS
350
19
  3
ACAD_PLOTSTYLENAME
350
E
  3
ACAD_SCALELIST
350
47
  3
ACAD_SECTIONVIEWSTYLE
350
18A
  3
ACAD_TABLESTYLE
350
69
  3
ACAD_VISUALSTYLE
350
2A
  3
ACDB_RECOMPOSE_DATA
350
186
  3
AcDbVariableDictionary
350
182
  0
SUN
  5
6D
330
29
100
AcDbSun
 90
        1
290
     0
 63
     7
421
 16777215
 40
1.0
291
     1
 91
  2455826
 92
 54000000
292
     0
 70
     2
 71
   256
280
     1
  0
DICTIONARY
  5
189
102
{ACAD_REACTORS
330
C
102
}
330
C
100
AcDbDictionary
281
     1
  0
DICTIONARY
  5
D
102
{ACAD_REACTORS
330
C
102
}
330
C
100
AcDbDictionary
281
     1
  0
DICTIONARY
  5
1A
102
{ACAD_REACTORS
330
C
102
}
330
C
100
AcDbDictionary
281
     1
  3
Layout1
350
1E
  3
Layout2
350
26
  3
Model
350
22
  0
DICTIONARY
  5
43
102
{ACAD_REACTORS
330
C
102
}
330
C
100
AcDbDictionary
281
     1
  3
ByBlock
350
45
  3
ByLayer
350
44
  3
Global
350
46
  0
DICTIONARY
  5
6B
102
{ACAD_REACTORS
330
C
102
}
330
C
100
AcDbDictionary
281
     1
  3
Standard
350
6C
  0
DICTIONARY
  5
17
102
{ACAD_REACTORS
330
C
102
}
330
C
100
AcDbDictionary
281
     1
  3
Standard
350
18
  0
DICTIONARY
  5
19
102
{ACAD_REACTORS
330
C
102
}
330
C
100
AcDbDictionary
281
     1
  0
ACDBDICTIONARYWDFLT
  5
E
102
{ACAD_REACTORS
330
C
102
}
330
C
100
AcDbDictionary
281
     1
  3
Normal
350
F
100
AcDbDictionaryWithDefault
340
F
  0
DICTIONARY
  5
47
102
{ACAD_REACTORS
330
C
102
}
330
C
100
AcDbDictionary
281
     1
  3
A0
350
48
  3
A1
350
49
  3
A2
350
4A
  3
A3
350
4B
  3
A4
350
4C
  3
A5
350
4D
  3
A6
350
4E
  3
A7
350
4F
  3
A8
350
50
  3
A9
350
51
  3
B0
350
52
  3
B1
350
53
  3
B2
350
54
  3
B3
350
55
  3
B4
350
56
  3
B5
350
57
  3
B6
350
58
  3
B7
350
59
  3
B8
350
5A
  3
B9
350
5B
  3
C0
350
5C
  3
C1
350
5D
  3
C2
350
5E
  3
C3
350
5F
  3
C4
350
60
  3
C5
350
61
  3
C6
350
62
  3
C7
350
63
  3
C8
350
64
  3
C9
350
65
  3
D0
350
66
  3
D1
350
67
  3
D2
350
68
  0
DICTIONARY
  5
18A
102
{ACAD_REACTORS
330
C
102
}
330
C
100
AcDbDictionary
281
     1
  0
DICTIONARY
  5
69
102
{ACAD_REACTORS
330
C
102
}
330
C
100
AcDbDictionary
281
     1
  3
Standard
350
6A
  0
DICTIONARY
  5
2A
102
{ACAD_REACTORS
330
C
102
}
330
C
100
AcDbDictionary
281
     1
  3
2dWireframe
350
2F
  3
Basic
350
32
  3
Brighten
350
36
  3
ColorChange
350
3A
  3
Conceptual
350
34
  3
Dim
350
35
  3
EdgeColorOff
350
3D
  3
Facepattern
350
39
  3
Flat
350
2B
  3
FlatWithEdges
350
2C
  3
Gouraud
350
2D
  3
GouraudWithEdges
350
2E
  3
Hidden
350
31
  3
JitterOff
350
3B
  3
Linepattern
350
38
  3
OverhangOff
350
3C
  3
Realistic
350
33
  3
Shaded
350
42
  3
Shaded with edges
350
41
  3
Shades of Gray
350
3E
  3
Sketchy
350
3F
  3
Thicken
350
37
  3
Wireframe
350
30
  3
X-Ray
350
40
  0
XRECORD
  5
186
102
{ACAD_REACTORS
330
C
102
}
330
C
100
AcDbXrecord
280
     1
 90
        1
330
6A
  0
DICTIONARY
  5
182
102
{ACAD_REACTORS
330
C
102
}
330
C
100
AcDbDictionary
281
     1
  3
CANNOSCALE
350
183
  3
CMLEADERSTYLE
350
188
  3
CTABLESTYLE
350
187
  0
LAYOUT
  5
1E
102
{ACAD_REACTORS
330
1A
102
}
330
1A
100
AcDbPlotSettings
  1

  2
none_device
  4

  6

 40
0.0
 41
0.0
 42
0.0
 43
0.0
 44
0.0
 45
0.0
 46
0.0
 47
0.0
 48
0.0
 49
0.0
140
0.0
141
0.0
142
1.0
143
1.0
 70
   688
 72
     0
 73
     0
 74
     5
  7

 75
    16
 76
     0
 77
     2
 78
   300
147
1.0
148
0.0
149
0.0
100
AcDbLayout
  1
Layout1
 70
     1
 71
     1
 10
0.0
 20
0.0
 11
12.0
 21
9.0
 12
0.0
 22
0.0
 32
0.0
 14
1.000000000000000E+20
 24
1.000000000000000E+20
 34
1.000000000000000E+20
 15
-1.000000000000000E+20
 25
-1.000000000000000E+20
 35
-1.000000000000000E+20
146
0.0
 13
0.0
 23
0.0
 33
0.0
 16
1.0
 26
0.0
 36
0.0
 17
0.0
 27
1.0
 37
0.0
 76
     0
330
1B
  0
LAYOUT
  5
26
102
{ACAD_REACTORS
330
1A
102
}
330
1A
100
AcDbPlotSettings
  1

  2
none_device
  4

  6

 40
0.0
 41
0.0
 42
0.0
 43
0.0
 44
0.0
 45
0.0
 46
0.0
 47
0.0
 48
0.0
 49
0.0
140
0.0
141
0.0
142
1.0
143
1.0
 70
   688
 72
     0
 73
     0
 74
     5
  7

 75
    16
 76
     0
 77
     2
 78
   300
147
1.0
148
0.0
149
0.0
100
AcDbLayout
  1
Layout2
 70
     1
 71
     2
 10
0.0
 20
0.0
 11
0.0
 21
0.0
 12
0.0
 22
0.0
 32
0.0
 14
0.0
 24
0.0
 34
0.0
 15
0.0
 25
0.0
 35
0.0
146
0.0
 13
0.0
 23
0.0
 33
0.0
 16
1.0
 26
0.0
 36
0.0
 17
0.0
 27
1.0
 37
0.0
 76
     0
330
23
  0
LAYOUT
  5
22
102
{ACAD_REACTORS
330
1A
102
}
330
1A
100
AcDbPlotSettings
  1

  2
none_device
  4
Letter_(8.50_x_11.00_Inches)
  6

 40
6.35
 41
6.35
 42
6.35000508
 43
6.35000508
 44
215.9
 45
279.4
 46
0.0
 47
0.0
 48
0.0
 49
0.0
140
0.0
141
0.0
142
1.0
143
1.0
 70
  1712
 72
     0
 73
     0
 74
     0
  7

 75
     0
 76
     0
 77
     2
 78
   300
147
1.0
148
0.0
149
0.0
100
AcDbLayout
  1
Model
 70
     1
 71
     0
 10
0.0
 20
0.0
 11
12.0
 21
9.0
 12
0.0
 22
0.0
 32
0.0
 14
1.000000000000000E+20
 24
1.000000000000000E+20
 34
1.000000000000000E+20
 15
-1.000000000000000E+20
 25
-1.000000000000000E+20
 35
-1.000000000000000E+20
146
0.0
 13
0.0
 23
0.0
 33
0.0
 16
1.0
 26
0.0
 36
0.0
 17
0.0
 27
1.0
 37
0.0
 76
     0
330
1F
331
29
  0
MATERIAL
  5
45
102
{ACAD_REACTORS
330
43
102
}
330
43
100
AcDbMaterial
  1
ByBlock
 72
     1
 94
      127
  0
MATERIAL
  5
44
102
{ACAD_REACTORS
330
43
102
}
330
43
100
AcDbMaterial
  1
ByLayer
 72
     1
 94
      127
  0
MATERIAL
  5
46
102
{ACAD_REACTORS
330
43
102
}
330
43
100
AcDbMaterial
  1
Global
 72
     1
 94
      127
  0
MLEADERSTYLE
  5
6C
102
{ACAD_REACTORS
330
6B
102
}
330
6B
100
AcDbMLeaderStyle
179
     2
170
     2
171
     1
172
     0
 90
        2
 40
0.0
 41
0.0
173
     1
 91
-1056964608
340
14
 92
       -2
290
     1
 42
0.09
291
     1
 43
0.36
  3
Standard
341
0
 44
0.18
300

342
11
174
     1
178
     6
175
     1
176
     0
 93
-1056964608
 45
0.18
292
     0
297
     0
 46
0.18
343
0
 94
-1056964608
 47
1.0
 49
1.0
140
1.0
293
     1
141
0.0
294
     1
177
     0
142
1.0
295
     0
296
     0
143
0.125
271
     0
272
     9
273
     9
298
     0
  0
MLINESTYLE
  5
18
102
{ACAD_REACTORS
330
17
102
}
330
17
100
AcDbMlineStyle
  2
Standard
 70
     0
  3

 62
   256
 51
90.0
 52
90.0
 71
     2
 49
0.5
 62
   256
  6
BYLAYER
 49
-0.5
 62
   256
  6
BYLAYER
  0
ACDBPLACEHOLDER
  5
F
102
{ACAD_REACTORS
330
E
102
}
330
E
  0
SCALE
  5
48
102
{ACAD_REACTORS
330
47
102
}
330
47
100
AcDbScale
 70
     0
300
1:1
140
1.0
141
1.0
290
     1
  0
SCALE
  5
49
102
{ACAD_REACTORS
330
47
102
}
330
47
100
AcDbScale
 70
     0
300
1:2
140
1.0
141
2.0
290
     0
  0
SCALE
  5
4A
102
{ACAD_REACTORS
330
47
102
}
330
47
100
AcDbScale
 70
     0
300
1:4
140
1.0
141
4.0
290
     0
  0
SCALE
  5
4B
102
{ACAD_REACTORS
330
47
102
}
330
47
100
AcDbScale
 70
     0
300
1:5
140
1.0
141
5.0
290
     0
  0
SCALE
  5
4C
102
{ACAD_REACTORS
330
47
102
}
330
47
100
AcDbScale
 70
     0
300
1:8
140
1.0
141
8.0
290
     0
  0
SCALE
  5
4D
102
{ACAD_REACTORS
330
47
102
}
330
47
100
AcDbScale
 70
     0
300
1:10
140
1.0
141
10.0
290
     0
  0
SCALE
  5
4E
102
{ACAD_REACTORS
330
47
102
}
330
47
100
AcDbScale
 70
     0
300
1:16
140
1.0
141
16.0
290
     0
  0
SCALE
  5
4F
102
{ACAD_REACTORS
330
47
102
}
330
47
100
AcDbScale
 70
     0
300
1:20
140
1.0
141
20.0
290
     0
  0
SCALE
  5
50
102
{ACAD_REACTORS
330
47
102
}
330
47
100
AcDbScale
 70
     0
300
1:30
140
1.0
141
30.0
290
     0
  0
SCALE
  5
51
102
{ACAD_REACTORS
330
47
102
}
330
47
100
AcDbScale
 70
     0
300
1:40
140
1.0
141
40.0
290
     0
  0
SCALE
  5
52
102
{ACAD_REACTORS
330
47
102
}
330
47
100
AcDbScale
 70
     0
300
1:50
140
1.0
141
50.0
290
     0
  0
SCALE
  5
53
102
{ACAD_REACTORS
330
47
102
}
330
47
100
AcDbScale
 70
     0
300
1:100
140
1.0
141
100.0
290
     0
  0
SCALE
  5
54
102
{ACAD_REACTORS
330
47
102
}
330
47
100
AcDbScale
 70
     0
300
2:1
140
2.0
141
1.0
290
     0
  0
SCALE
  5
55
102
{ACAD_REACTORS
330
47
102
}
330
47
100
AcDbScale
 70
     0
300
4:1
140
4.0
141
1.0
290
     0
  0
SCALE
  5
56
102
{ACAD_REACTORS
330
47
102
}
330
47
100
AcDbScale
 70
     0
300
8:1
140
8.0
141
1.0
290
     0
  0
SCALE
  5
57
102
{ACAD_REACTORS
330
47
102
}
330
47
100
AcDbScale
 70
     0
300
10:1
140
10.0
141
1.0
290
     0
  0
SCALE
  5
58
102
{ACAD_REACTORS
330
47
102
}
330
47
100
AcDbScale
 70
     0
300
100:1
140
100.0
141
1.0
290
     0
  0
SCALE
  5
59
102
{ACAD_REACTORS
330
47
102
}
330
47
100
AcDbScale
 70
     0
300
1/128" = 1'-0"
140
0.0078125
141
12.0
290
     0
  0
SCALE
  5
5A
102
{ACAD_REACTORS
330
47
102
}
330
47
100
AcDbScale
 70
     0
300
1/64" = 1'-0"
140
0.015625
141
12.0
290
     0
  0
SCALE
  5
5B
102
{ACAD_REACTORS
330
47
102
}
330
47
100
AcDbScale
 70
     0
300
1/32" = 1'-0"
140
0.03125
141
12.0
290
     0
  0
SCALE
  5
5C
102
{ACAD_REACTORS
330
47
102
}
330
47
100
AcDbScale
 70
     0
300
1/16" = 1'-0"
140
0.0625
141
12.0
290
     0
  0
SCALE
  5
5D
102
{ACAD_REACTORS
330
47
102
}
330
47
100
AcDbScale
 70
     0
300
3/32" = 1'-0"
140
0.09375
141
12.0
290
     0
  0
SCALE
  5
5E
102
{ACAD_REACTORS
330
47
102
}
330
47
100
AcDbScale
 70
     0
300
1/8" = 1'-0"
140
0.125
141
12.0
290
     0
  0
SCALE
  5
5F
102
{ACAD_REACTORS
330
47
102
}
330
47
100
AcDbScale
 70
     0
300
3/16" = 1'-0"
140
0.1875
141
12.0
290
     0
  0
SCALE
  5
60
102
{ACAD_REACTORS
330
47
102
}
330
47
100
AcDbScale
 70
     0
300
1/4" = 1'-0"
140
0.25
141
12.0
290
     0
  0
SCALE
  5
61
102
{ACAD_REACTORS
330
47
102
}
330
47
100
AcDbScale
 70
     0
300
3/8" = 1'-0"
140
0.375
141
12.0
290
     0
  0
SCALE
  5
62
102
{ACAD_REACTORS
330
47
102
}
330
47
100
AcDbScale
 70
     0
300
1/2" = 1'-0"
140
0.5
141
12.0
290
     0
  0
SCALE
  5
63
102
{ACAD_REACTORS
330
47
102
}
330
47
100
AcDbScale
 70
     0
300
3/4" = 1'-0"
140
0.75
141
12.0
290
     0
  0
SCALE
  5
64
102
{ACAD_REACTORS
330
47
102
}
330
47
100
AcDbScale
 70
     0
300
1" = 1'-0"
140
1.0
141
12.0
290
     0
  0
SCALE
  5
65
102
{ACAD_REACTORS
330
47
102
}
330
47
100
AcDbScale
 70
     0
300
1-1/2" = 1'-0"
140
1.5
141
12.0
290
     0
  0
SCALE
  5
66
102
{ACAD_REACTORS
330
47
102
}
330
47
100
AcDbScale
 70
     0
300
3" = 1'-0"
140
3.0
141
12.0
290
     0
  0
SCALE
  5
67
102
{ACAD_REACTORS
330
47
102
}
330
47
100
AcDbScale
 70
     0
300
6" = 1'-0"
140
6.0
141
12.0
290
     0
  0
SCALE
  5
68
102
{ACAD_REACTORS
330
47
102
}
330
47
100
AcDbScale
 70
     0
300
1'-0" = 1'-0"
140
12.0
141
12.0
290
     0
  0
TABLESTYLE
  5
6A
102
{ACAD_REACTORS
330
69
102
}
102
{ACAD_XDICTIONARY
360
184
102
}
330
69
100
AcDbTableStyle
  3
Standard
 70
     0
 71
     0
 40
0.06
 41
0.06
280
     0
281
     0
  7
Standard
140
0.18
170
     2
 62
     0
 63
   257
283
     0
 90
        4
 91
        0
  1

274
    -2
284
     1
 64
     0
275
    -2
285
     1
 65
     0
276
    -2
286
     1
 66
     0
277
    -2
287
     1
 67
     0
278
    -2
288
     1
 68
     0
279
    -2
289
     1
 69
     0
  7
Standard
140
0.25
170
     5
 62
     0
 63
   257
283
     0
 90
        4
 91
        0
  1

274
    -2
284
     1
 64
     0
275
    -2
285
     1
 65
     0
276
    -2
286
     1
 66
     0
277
    -2
287
     1
 67
     0
278
    -2
288
     1
 68
     0
279
    -2
289
     1
 69
     0
  7
Standard
140
0.18
170
     5
 62
     0
 63
   257
283
     0
 90
        4
 91
        0
  1

274
    -2
284
     1
 64
     0
275
    -2
285
     1
 65
     0
276
    -2
286
     1
 66
     0
277
    -2
287
     1
 67
     0
278
    -2
288
     1
 68
     0
279
    -2
289
     1
 69
     0
  0
VISUALSTYLE
  5
2F
102
{ACAD_REACTORS
330
2A
102
}
330
2A
100
AcDbVisualStyle
  2
2dWireframe
 70
     4
177
     3
291
     0
 70
    58
 90
        0
176
     1
 90
        2
176
     1
 90
        0
176
     1
 90
        0
176
     1
 40
0.6
176
     1
 40
30.0
176
     1
 62
     7
420
 16777215
176
     1
 90
        1
176
     1
 90
        4
176
     1
 62
     7
176
     1
 62
   257
176
     1
 90
        1
176
     1
 90
        1
176
     1
 40
1.0
176
     1
 90
        0
176
     1
 62
   257
176
     1
 40
1.0
176
     1
 90
        1
176
     1
 90
        6
176
     1
 90
        2
176
     1
 62
     7
176
     1
 90
        5
176
     1
 90
        0
176
     1
 90
        0
176
     1
290
     0
176
     1
 90
        1
176
     1
 40
0.0
176
     1
 90
        0
176
     1
290
     1
176
     1
290
     1
176
     1
290
     0
176
     1
290
     0
176
     1
290
     0
176
     1
290
     0
176
     1
290
     0
176
     1
290
     0
176
     1
290
     0
176
     1
 90
       50
176
     1
 40
0.0
176
     1
 40
1.0
176
     1
 90
        0
176
     1
 62
    18
420
        0
176
     1
 90
       50
176
     1
 90
        3
176
     1
 62
     5
420
      255
176
     1
290
     0
176
     1
 90
       50
176
     1
 90
       50
176
     1
 90
       50
176
     1
290
     0
176
     1
 90
       50
176
     1
 62
   256
176
     0
 40
1.0
176
     0
 90
        2
176
     1
  1
strokes_ogs.tif
176
     1
290
     0
176
     1
 40
1.0
176
     1
 40
1.0
176
     1
  0
VISUALSTYLE
  5
32
102
{ACAD_REACTORS
330
2A
102
}
330
2A
100
AcDbVisualStyle
  2
Basic
 70
     7
177
     3
291
     1
 70
    58
 90
        1
176
     1
 90
        0
176
     1
 90
        1
176
     1
 90
        0
176
     1
 40
0.6
176
     1
 40
30.0
176
     1
 62
     7
420
 16777215
176
     1
 90
        0
176
     1
 90
        4
176
     1
 62
     7
176
     1
 62
   257
176
     1
 90
        1
176
     1
 90
        1
176
     1
 40
1.0
176
     1
 90
        8
176
     1
 62
     7
176
     1
 40
1.0
176
     1
 90
        1
176
     1
 90
        6
176
     1
 90
        2
176
     1
 62
     7
176
     1
 90
        5
176
     1
 90
        0
176
     1
 90
        0
176
     1
290
     0
176
     1
 90
        1
176
     1
 40
0.0
176
     1
 90
        0
176
     1
290
     0
176
     1
290
     1
176
     1
290
     1
176
     1
290
     0
176
     1
290
     0
176
     1
290
     0
176
     1
290
     0
176
     1
290
     0
176
     1
290
     0
176
     1
 90
       50
176
     1
 40
0.0
176
     1
 40
1.0
176
     1
 90
        0
176
     1
 62
    18
420
        0
176
     1
 90
       50
176
     1
 90
        3
176
     1
 62
     5
420
      255
176
     1
290
     0
176
     1
 90
       50
176
     1
 90
       50
176
     1
 90
       50
176
     1
290
     0
176
     1
 90
       50
176
     1
 62
   256
176
     0
 40
1.0
176
     0
 90
        2
176
     1
  1
strokes_ogs.tif
176
     1
290
     0
176
     1
 40
1.0
176
     1
 40
1.0
176
     1
  0
VISUALSTYLE
  5
36
102
{ACAD_REACTORS
330
2A
102
}
330
2A
100
AcDbVisualStyle
  2
Brighten
 70
    12
177
     3
291
     1
 70
    58
 90
        2
176
     1
 90
        2
176
     1
 90
        0
176
     1
 90
        0
176
     1
 40
0.6
176
     1
 40
30.0
176
     1
 62
     7
420
 16777215
176
     1
 90
        1
176
     1
 90
        4
176
     1
 62
     7
176
     1
 62
   257
176
     1
 90
        1
176
     1
 90
        1
176
     1
 40
1.0
176
     1
 90
        8
176
     1
 62
     7
176
     1
 40
1.0
176
     1
 90
        1
176
     1
 90
        6
176
     1
 90
        2
176
     1
 62
     7
176
     1
 90
        5
176
     1
 90
        0
176
     1
 90
        0
176
     1
290
     0
176
     1
 90
        1
176
     1
 40
50.0
176
     1
 90
        0
176
     1
290
     0
176
     1
290
     1
176
     1
290
     1
176
     1
290
     0
176
     1
290
     0
176
     1
290
     0
176
     1
290
     0
176
     1
290
     0
176
     1
290
     0
176
     1
 90
       50
176
     1
 40
0.0
176
     1
 40
1.0
176
     1
 90
        0
176
     1
 62
    18
420
        0
176
     1
 90
       50
176
     1
 90
        3
176
     1
 62
     5
420
      255
176
     1
290
     0
176
     1
 90
       50
176
     1
 90
       50
176
     1
 90
       50
176
     1
290
     0
176
     1
 90
       50
176
     1
 62
   256
176
     0
 40
1.0
176
     0
 90
        2
176
     1
  1
strokes_ogs.tif
176
     1
290
     0
176
     1
 40
1.0
176
     1
 40
1.0
176
     1
  0
VISUALSTYLE
  5
3A
102
{ACAD_REACTORS
330
2A
102
}
330
2A
100
AcDbVisualStyle
  2
ColorChange
 70
    16
177
     3
291
     1
 70
    58
 90
        2
176
     1
 90
        2
176
     1
 90
        3
176
     1
 90
        0
176
     1
 40
0.6
176
     1
 40
30.0
176
     1
 62
     8
420
  8421504
176
     1
 90
        1
176
     1
 90
        4
176
     1
 62
     7
176
     1
 62
   257
176
     1
 90
        1
176
     1
 90
        1
176
     1
 40
1.0
176
     1
 90
        8
176
     1
 62
     8
420
  8421504
176
     1
 40
1.0
176
     1
 90
        1
176
     1
 90
        6
176
     1
 90
        2
176
     1
 62
     7
176
     1
 90
        5
176
     1
 90
        0
176
     1
 90
        0
176
     1
290
     0
176
     1
 90
        1
176
     1
 40
0.0
176
     1
 90
        0
176
     1
290
     0
176
     1
290
     1
176
     1
290
     1
176
     1
290
     0
176
     1
290
     0
176
     1
290
     0
176
     1
290
     0
176
     1
290
     0
176
     1
290
     0
176
     1
 90
       50
176
     1
 40
0.0
176
     1
 40
1.0
176
     1
 90
        0
176
     1
 62
    18
420
        0
176
     1
 90
       50
176
     1
 90
        3
176
     1
 62
     5
420
      255
176
     1
290
     0
176
     1
 90
       50
176
     1
 90
       50
176
     1
 90
       50
176
     1
290
     0
176
     1
 90
       50
176
     1
 62
   256
176
     0
 40
1.0
176
     0
 90
        2
176
     1
  1
strokes_ogs.tif
176
     1
290
     0
176
     1
 40
1.0
176
     1
 40
1.0
176
     1
  0
VISUALSTYLE
  5
34
102
{ACAD_REACTORS
330
2A
102
}
330
2A
100
AcDbVisualStyle
  2
Conceptual
 70
     9
177
     3
291
     0
 70
    58
 90
        3
176
     1
 90
        2
176
     1
 90
        0
176
     1
 90
        0
176
     1
 40
0.6
176
     1
 40
30.0
176
     1
 62
     7
420
 16777215
176
     1
 90
        2
176
     1
 90
        2
176
     1
 62
     7
176
     1
 62
   257
176
     1
 90
        1
176
     1
 90
        1
176
     1
 40
179.0
176
     1
 90
        8
176
     1
 62
     7
176
     1
 40
1.0
176
     1
 90
        1
176
     1
 90
        6
176
     1
 90
        2
176
     1
 62
     7
176
     1
 90
        3
176
     1
 90
        0
176
     1
 90
        0
176
     1
290
     0
176
     1
 90
        1
176
     1
 40
0.0
176
     1
 90
        0
176
     1
290
     0
176
     1
290
     1
176
     1
290
     1
176
     1
290
     0
176
     1
290
     0
176
     1
290
     0
176
     1
290
     0
176
     1
290
     0
176
     1
290
     0
176
     1
 90
       50
176
     1
 40
0.0
176
     1
 40
1.0
176
     1
 90
        0
176
     1
 62
    18
420
        0
176
     1
 90
       50
176
     1
 90
        3
176
     1
 62
     5
420
      255
176
     1
290
     0
176
     1
 90
       50
176
     1
 90
       50
176
     1
 90
       50
176
     1
290
     0
176
     1
 90
       50
176
     1
 62
   256
176
     0
 40
1.0
176
     0
 90
        2
176
     1
  1
strokes_ogs.tif
176
     1
290
     0
176
     1
 40
1.0
176
     1
 40
1.0
176
     1
  0
VISUALSTYLE
  5
35
102
{ACAD_REACTORS
330
2A
102
}
330
2A
100
AcDbVisualStyle
  2
Dim
 70
    11
177
     3
291
     1
 70
    58
 90
        2
176
     1
 90
        2
176
     1
 90
        0
176
     1
 90
        0
176
     1
 40
0.6
176
     1
 40
30.0
176
     1
 62
     7
420
 16777215
176
     1
 90
        1
176
     1
 90
        4
176
     1
 62
     7
176
     1
 62
   257
176
     1
 90
        1
176
     1
 90
        1
176
     1
 40
1.0
176
     1
 90
        8
176
     1
 62
     7
176
     1
 40
1.0
176
     1
 90
        1
176
     1
 90
        6
176
     1
 90
        2
176
     1
 62
     7
176
     1
 90
        5
176
     1
 90
        0
176
     1
 90
        0
176
     1
290
     0
176
     1
 90
        1
176
     1
 40
-50.0
176
     1
 90
        0
176
     1
290
     0
176
     1
290
     1
176
     1
290
     1
176
     1
290
     0
176
     1
290
     0
176
     1
290
     0
176
     1
290
     0
176
     1
290
     0
176
     1
290
     0
176
     1
 90
       50
176
     1
 40
0.0
176
     1
 40
1.0
176
     1
 90
        0
176
     1
 62
    18
420
        0
176
     1
 90
       50
176
     1
 90
        3
176
     1
 62
     5
420
      255
176
     1
290
     0
176
     1
 90
       50
176
     1
 90
       50
176
     1
 90
       50
176
     1
290
     0
176
     1
 90
       50
176
     1
 62
   256
176
     0
 40
1.0
176
     0
 90
        2
176
     1
  1
strokes_ogs.tif
176
     1
290
     0
176
     1
 40
1.0
176
     1
 40
1.0
176
     1
  0
VISUALSTYLE
  5
3D
102
{ACAD_REACTORS
330
2A
102
}
330
2A
100
AcDbVisualStyle
  2
EdgeColorOff
 70
    22
177
     3
291
     1
 70
    58
 90
        2
176
     0
 90
        2
176
     0
 90
        0
176
     0
 90
        0
176
     0
 40
0.6
176
     0
 40
30.0
176
     0
 62
     7
420
 16777215
176
     0
 90
        1
176
     0
 90
        4
176
     0
 62
     7
176
     0
 62
   257
176
     0
 90
        1
176
     0
 90
        1
176
     0
 40
1.0
176
     0
 90
        8
176
     2
 62
     7
176
     0
 40
1.0
176
     0
 90
        1
176
     0
 90
        6
176
     0
 90
        2
176
     0
 62
     7
176
     0
 90
        5
176
     0
 90
        0
176
     0
 90
        0
176
     0
290
     0
176
     0
 90
        1
176
     0
 40
0.0
176
     0
 90
        0
176
     0
290
     0
176
     0
290
     1
176
     0
290
     1
176
     0
290
     0
176
     0
290
     0
176
     0
290
     0
176
     0
290
     0
176
     0
290
     0
176
     0
290
     0
176
     0
 90
       50
176
     0
 40
0.0
176
     0
 40
1.0
176
     0
 90
        0
176
     0
 62
    18
420
        0
176
     0
 90
       50
176
     0
 90
        3
176
     0
 62
     5
420
      255
176
     0
290
     0
176
     0
 90
       50
176
     0
 90
       50
176
     0
 90
       50
176
     0
290
     0
176
     0
 90
       50
176
     0
 62
   256
176
     0
 40
1.0
176
     0
 90
        2
176
     0
  1
strokes_ogs.tif
176
     0
290
     0
176
     0
 40
1.0
176
     0
 40
1.0
176
     0
  0
VISUALSTYLE
  5
39
102
{ACAD_REACTORS
330
2A
102
}
330
2A
100
AcDbVisualStyle
  2
Facepattern
 70
    15
177
     3
291
     1
 70
    58
 90
        2
176
     1
 90
        2
176
     1
 90
        0
176
     1
 90
        0
176
     1
 40
0.6
176
     1
 40
30.0
176
     1
 62
     7
420
 16777215
176
     1
 90
        1
176
     1
 90
        4
176
     1
 62
     7
176
     1
 62
   257
176
     1
 90
        1
176
     1
 90
        1
176
     1
 40
1.0
176
     1
 90
        8
176
     1
 62
     7
176
     1
 40
1.0
176
     1
 90
        1
176
     1
 90
        6
176
     1
 90
        2
176
     1
 62
     7
176
     1
 90
        5
176
     1
 90
        0
176
     1
 90
        0
176
     1
290
     0
176
     1
 90
        1
176
     1
 40
0.0
176
     1
 90
        0
176
     1
290
     0
176
     1
290
     1
176
     1
290
     1
176
     1
290
     0
176
     1
290
     0
176
     1
290
     0
176
     1
290
     0
176
     1
290
     0
176
     1
290
     0
176
     1
 90
       50
176
     1
 40
0.0
176
     1
 40
1.0
176
     1
 90
        0
176
     1
 62
    18
420
        0
176
     1
 90
       50
176
     1
 90
        3
176
     1
 62
     5
420
      255
176
     1
290
     0
176
     1
 90
       50
176
     1
 90
       50
176
     1
 90
       50
176
     1
290
     0
176
     1
 90
       50
176
     1
 62
   256
176
     0
 40
1.0
176
     0
 90
        2
176
     1
  1
strokes_ogs.tif
176
     1
290
     0
176
     1
 40
1.0
176
     1
 40
1.0
176
     1
  0
VISUALSTYLE
  5
2B
102
{ACAD_REACTORS
330
2A
102
}
330
2A
100
AcDbVisualStyle
  2
Flat
 70
     0
177
     3
291
     1
 70
    58
 90
        2
176
     1
 90
        1
176
     1
 90
        1
176
     1
 90
        2
176
     1
 40
0.6
176
     1
 40
30.0
176
     1
 62
     7
420
 16777215
176
     1
 90
        0
176
     1
 90
        0
176
     1
 62
     7
176
     1
 62
   257
176
     1
 90
        1
176
     1
 90
        1
176
     1
 40
1.0
176
     1
 90
        8
176
     1
 62
     7
176
     1
 40
1.0
176
     1
 90
        1
176
     1
 90
        6
176
     1
 90
        2
176
     1
 62
     7
176
     1
 90
        5
176
     1
 90
        0
176
     1
 90
        0
176
     1
290
     0
176
     1
 90
       13
176
     1
 40
0.0
176
     1
 90
        0
176
     1
290
     0
176
     1
290
     1
176
     1
290
     1
176
     1
290
     0
176
     1
290
     0
176
     1
290
     0
176
     1
290
     0
176
     1
290
     0
176
     1
290
     0
176
     1
 90
       50
176
     1
 40
0.0
176
     1
 40
1.0
176
     1
 90
        0
176
     1
 62
    18
420
        0
176
     1
 90
       50
176
     1
 90
        3
176
     1
 62
     5
420
      255
176
     1
290
     0
176
     1
 90
       50
176
     1
 90
       50
176
     1
 90
       50
176
     1
290
     0
176
     1
 90
       50
176
     1
 62
   256
176
     0
 40
1.0
176
     0
 90
        2
176
     1
  1
strokes_ogs.tif
176
     1
290
     0
176
     1
 40
1.0
176
     1
 40
1.0
176
     1
  0
VISUALSTYLE
  5
2C
102
{ACAD_REACTORS
330
2A
102
}
330
2A
100
AcDbVisualStyle
  2
FlatWithEdges
 70
     1
177
     3
291
     1
 70
    58
 90
        2
176
     1
 90
        1
176
     1
 90
        1
176
     1
 90
        2
176
     1
 40
0.6
176
     1
 40
30.0
176
     1
 62
     7
420
 16777215
176
     1
 90
        1
176
     1
 90
        0
176
     1
 62
     7
176
     1
 62
   257
176
     1
 90
        1
176
     1
 90
        1
176
     1
 40
1.0
176
     1
 90
        0
176
     1
 62
   257
176
     1
 40
1.0
176
     1
 90
        1
176
     1
 90
        6
176
     1
 90
        2
176
     1
 62
     7
176
     1
 90
        5
176
     1
 90
        0
176
     1
 90
        0
176
     1
290
     0
176
     1
 90
       13
176
     1
 40
0.0
176
     1
 90
        0
176
     1
290
     0
176
     1
290
     1
176
     1
290
     1
176
     1
290
     0
176
     1
290
     0
176
     1
290
     0
176
     1
290
     0
176
     1
290
     0
176
     1
290
     0
176
     1
 90
       50
176
     1
 40
0.0
176
     1
 40
1.0
176
     1
 90
        0
176
     1
 62
    18
420
        0
176
     1
 90
       50
176
     1
 90
        3
176
     1
 62
     5
420
      255
176
     1
290
     0
176
     1
 90
       50
176
     1
 90
       50
176
     1
 90
       50
176
     1
290
     0
176
     1
 90
       50
176
     1
 62
   256
176
     0
 40
1.0
176
     0
 90
        2
176
     1
  1
strokes_ogs.tif
176
     1
290
     0
176
     1
 40
1.0
176
     1
 40
1.0
176
     1
  0
VISUALSTYLE
  5
2D
102
{ACAD_REACTORS
330
2A
102
}
330
2A
100
AcDbVisualStyle
  2
Gouraud
 70
     2
177
     3
291
     1
 70
    58
 90
        2
176
     1
 90
        2
176
     1
 90
        1
176
     1
 90
        2
176
     1
 40
0.6
176
     1
 40
30.0
176
     1
 62
     7
420
 16777215
176
     1
 90
        0
176
     1
 90
        0
176
     1
 62
     7
176
     1
 62
   257
176
     1
 90
        1
176
     1
 90
        1
176
     1
 40
1.0
176
     1
 90
        0
176
     1
 62
     7
176
     1
 40
1.0
176
     1
 90
        1
176
     1
 90
        6
176
     1
 90
        2
176
     1
 62
     7
176
     1
 90
        5
176
     1
 90
        0
176
     1
 90
        0
176
     1
290
     0
176
     1
 90
       13
176
     1
 40
0.0
176
     1
 90
        0
176
     1
290
     0
176
     1
290
     1
176
     1
290
     1
176
     1
290
     0
176
     1
290
     0
176
     1
290
     0
176
     1
290
     0
176
     1
290
     0
176
     1
290
     0
176
     1
 90
       50
176
     1
 40
0.0
176
     1
 40
1.0
176
     1
 90
        0
176
     1
 62
    18
420
        0
176
     1
 90
       50
176
     1
 90
        3
176
     1
 62
     5
420
      255
176
     1
290
     0
176
     1
 90
       50
176
     1
 90
       50
176
     1
 90
       50
176
     1
290
     0
176
     1
 90
       50
176
     1
 62
   256
176
     0
 40
1.0
176
     0
 90
        2
176
     1
  1
strokes_ogs.tif
176
     1
290
     0
176
     1
 40
1.0
176
     1
 40
1.0
176
     1
  0
VISUALSTYLE
  5
2E
102
{ACAD_REACTORS
330
2A
102
}
330
2A
100
AcDbVisualStyle
  2
GouraudWithEdges
 70
     3
177
     3
291
     1
 70
    58
 90
        2
176
     1
 90
        2
176
     1
 90
        1
176
     1
 90
        2
176
     1
 40
0.6
176
     1
 40
30.0
176
     1
 62
     7
420
 16777215
176
     1
 90
        1
176
     1
 90
        0
176
     1
 62
     7
176
     1
 62
   257
176
     1
 90
        1
176
     1
 90
        1
176
     1
 40
1.0
176
     1
 90
        0
176
     1
 62
   257
176
     1
 40
1.0
176
     1
 90
        1
176
     1
 90
        6
176
     1
 90
        2
176
     1
 62
     7
176
     1
 90
        5
176
     1
 90
        0
176
     1
 90
        0
176
     1
290
     0
176
     1
 90
       13
176
     1
 40
0.0
176
     1
 90
        0
176
     1
290
     0
176
     1
290
     1
176
     1
290
     1
176
     1
290
     0
176
     1
290
     0
176
     1
290
     0
176
     1
290
     0
176
     1
290
     0
176
     1
290
     0
176
     1
 90
       50
176
     1
 40
0.0
176
     1
 40
1.0
176
     1
 90
        0
176
     1
 62
    18
420
        0
176
     1
 90
       50
176
     1
 90
        3
176
     1
 62
     5
420
      255
176
     1
290
     0
176
     1
 90
       50
176
     1
 90
       50
176
     1
 90
       50
176
     1
290
     0
176
     1
 90
       50
176
     1
 62
   256
176
     0
 40
1.0
176
     0
 90
        2
176
     1
  1
strokes_ogs.tif
176
     1
290
     0
176
     1
 40
1.0
176
     1
 40
1.0
176
     1
  0
VISUALSTYLE
  5
31
102
{ACAD_REACTORS
330
2A
102
}
330
2A
100
AcDbVisualStyle
  2
Hidden
 70
     6
177
     3
291
     0
 70
    58
 90
        1
176
     1
 90
        2
176
     1
 90
        2
176
     1
 90
        0
176
     1
 40
0.6
176
     1
 40
30.0
176
     1
 62
     7
420
 16777215
176
     1
 90
        2
176
     1
 90
        2
176
     1
 62
     7
176
     1
 62
   257
176
     1
 90
        2
176
     1
 90
        1
176
     1
 40
40.0
176
     1
 90
        0
176
     1
 62
   257
176
     1
 40
1.0
176
     1
 90
        1
176
     1
 90
        6
176
     1
 90
        2
176
     1
 62
     7
176
     1
 90
        3
176
     1
 90
        0
176
     1
 90
        0
176
     1
290
     0
176
     1
 90
        1
176
     1
 40
0.0
176
     1
 90
        0
176
     1
290
     0
176
     1
290
     1
176
     1
290
     1
176
     1
290
     0
176
     1
290
     0
176
     1
290
     0
176
     1
290
     0
176
     1
290
     0
176
     1
290
     0
176
     1
 90
       50
176
     1
 40
0.0
176
     1
 40
1.0
176
     1
 90
        0
176
     1
 62
    18
420
        0
176
     1
 90
       50
176
     1
 90
        3
176
     1
 62
     5
420
      255
176
     1
290
     0
176
     1
 90
       50
176
     1
 90
       50
176
     1
 90
       50
176
     1
290
     0
176
     1
 90
       50
176
     1
 62
   256
176
     0
 40
1.0
176
     0
 90
        2
176
     1
  1
strokes_ogs.tif
176
     1
290
     0
176
     1
 40
1.0
176
     1
 40
1.0
176
     1
  0
VISUALSTYLE
  5
3B
102
{ACAD_REACTORS
330
2A
102
}
330
2A
100
AcDbVisualStyle
  2
JitterOff
 70
    20
177
     3
291
     1
 70
    58
 90
        2
176
     0
 90
        2
176
     0
 90
        0
176
     0
 90
        0
176
     0
 40
0.6
176
     0
 40
30.0
176
     0
 62
     7
420
 16777215
176
     0
 90
        1
176
     0
 90
        4
176
     0
 62
     7
176
     0
 62
   257
176
     0
 90
        1
176
     0
 90
        1
176
     0
 40
1.0
176
     0
 90
       10
176
     2
 62
     7
176
     0
 40
1.0
176
     0
 90
        1
176
     0
 90
        6
176
     0
 90
        2
176
     0
 62
     7
176
     0
 90
        5
176
     0
 90
        0
176
     0
 90
        0
176
     0
290
     0
176
     0
 90
        1
176
     0
 40
0.0
176
     0
 90
        0
176
     0
290
     0
176
     0
290
     1
176
     0
290
     1
176
     0
290
     0
176
     0
290
     0
176
     0
290
     0
176
     0
290
     0
176
     0
290
     0
176
     0
290
     0
176
     0
 90
       50
176
     0
 40
0.0
176
     0
 40
1.0
176
     0
 90
        0
176
     0
 62
    18
420
        0
176
     0
 90
       50
176
     0
 90
        3
176
     0
 62
     5
420
      255
176
     0
290
     0
176
     0
 90
       50
176
     0
 90
       50
176
     0
 90
       50
176
     0
290
     0
176
     0
 90
       50
176
     0
 62
   256
176
     0
 40
1.0
176
     0
 90
        2
176
     0
  1
strokes_ogs.tif
176
     0
290
     0
176
     0
 40
1.0
176
     0
 40
1.0
176
     0
  0
VISUALSTYLE
  5
38
102
{ACAD_REACTORS
330
2A
102
}
330
2A
100
AcDbVisualStyle
  2
Linepattern
 70
    14
177
     3
291
     1
 70
    58
 90
        2
176
     1
 90
        2
176
     1
 90
        0
176
     1
 90
        0
176
     1
 40
0.6
176
     1
 40
30.0
176
     1
 62
     7
420
 16777215
176
     1
 90
        1
176
     1
 90
        4
176
     1
 62
     7
176
     1
 62
   257
176
     1
 90
        7
176
     1
 90
        7
176
     1
 40
1.0
176
     1
 90
        8
176
     1
 62
     7
176
     1
 40
1.0
176
     1
 90
        1
176
     1
 90
        6
176
     1
 90
        2
176
     1
 62
     7
176
     1
 90
        5
176
     1
 90
        0
176
     1
 90
        0
176
     1
290
     0
176
     1
 90
        1
176
     1
 40
0.0
176
     1
 90
        0
176
     1
290
     0
176
     1
290
     1
176
     1
290
     1
176
     1
290
     0
176
     1
290
     0
176
     1
290
     0
176
     1
290
     0
176
     1
290
     0
176
     1
290
     0
176
     1
 90
       50
176
     1
 40
0.0
176
     1
 40
1.0
176
     1
 90
        0
176
     1
 62
    18
420
        0
176
     1
 90
       50
176
     1
 90
        3
176
     1
 62
     5
420
      255
176
     1
290
     0
176
     1
 90
       50
176
     1
 90
       50
176
     1
 90
       50
176
     1
290
     0
176
     1
 90
       50
176
     1
 62
   256
176
     0
 40
1.0
176
     0
 90
        2
176
     1
  1
strokes_ogs.tif
176
     1
290
     0
176
     1
 40
1.0
176
     1
 40
1.0
176
     1
  0
VISUALSTYLE
  5
3C
102
{ACAD_REACTORS
330
2A
102
}
330
2A
100
AcDbVisualStyle
  2
OverhangOff
 70
    21
177
     3
291
     1
 70
    58
 90
        2
176
     0
 90
        2
176
     0
 90
        0
176
     0
 90
        0
176
     0
 40
0.6
176
     0
 40
30.0
176
     0
 62
     7
420
 16777215
176
     0
 90
        1
176
     0
 90
        4
176
     0
 62
     7
176
     0
 62
   257
176
     0
 90
        1
176
     0
 90
        1
176
     0
 40
1.0
176
     0
 90
        9
176
     2
 62
     7
176
     0
 40
1.0
176
     0
 90
        1
176
     0
 90
        6
176
     0
 90
        2
176
     0
 62
     7
176
     0
 90
        5
176
     0
 90
        0
176
     0
 90
        0
176
     0
290
     0
176
     0
 90
        1
176
     0
 40
0.0
176
     0
 90
        0
176
     0
290
     0
176
     0
290
     1
176
     0
290
     1
176
     0
290
     0
176
     0
290
     0
176
     0
290
     0
176
     0
290
     0
176
     0
290
     0
176
     0
290
     0
176
     0
 90
       50
176
     0
 40
0.0
176
     0
 40
1.0
176
     0
 90
        0
176
     0
 62
    18
420
        0
176
     0
 90
       50
176
     0
 90
        3
176
     0
 62
     5
420
      255
176
     0
290
     0
176
     0
 90
       50
176
     0
 90
       50
176
     0
 90
       50
176
     0
290
     0
176
     0
 90
       50
176
     0
 62
   256
176
     0
 40
1.0
176
     0
 90
        2
176
     0
  1
strokes_ogs.tif
176
     0
290
     0
176
     0
 40
1.0
176
     0
 40
1.0
176
     0
  0
VISUALSTYLE
  5
33
102
{ACAD_REACTORS
330
2A
102
}
330
2A
100
AcDbVisualStyle
  2
Realistic
 70
     8
177
     3
291
     0
 70
    58
 90
        2
176
     1
 90
        3
176
     1
 90
        0
176
     1
 90
        2
176
     1
 40
0.6
176
     1
 40
30.0
176
     1
 62
     7
420
 16777215
176
     1
 90
        0
176
     1
 90
        0
176
     1
 62
     7
176
     1
 62
   257
176
     1
 90
        1
176
     1
 90
        1
176
     1
 40
1.0
176
     1
 90
        8
176
     1
 62
   257
176
     1
 40
1.0
176
     1
 90
        1
176
     1
 90
        6
176
     1
 90
        2
176
     1
 62
     7
176
     1
 90
        3
176
     1
 90
        0
176
     1
 90
        0
176
     1
290
     0
176
     1
 90
       13
176
     1
 40
0.0
176
     1
 90
        0
176
     1
290
     0
176
     1
290
     1
176
     1
290
     1
176
     1
290
     0
176
     1
290
     0
176
     1
290
     0
176
     1
290
     0
176
     1
290
     0
176
     1
290
     0
176
     1
 90
       50
176
     1
 40
0.0
176
     1
 40
1.0
176
     1
 90
        0
176
     1
 62
    18
420
        0
176
     1
 90
       50
176
     1
 90
        3
176
     1
 62
     5
420
      255
176
     1
290
     0
176
     1
 90
       50
176
     1
 90
       50
176
     1
 90
       50
176
     1
290
     0
176
     1
 90
       50
176
     1
 62
   256
176
     0
 40
1.0
176
     0
 90
        2
176
     1
  1
strokes_ogs.tif
176
     1
290
     0
176
     1
 40
1.0
176
     1
 40
1.0
176
     1
  0
VISUALSTYLE
  5
42
102
{ACAD_REACTORS
330
2A
102
}
330
2A
100
AcDbVisualStyle
  2
Shaded
 70
    27
177
     3
291
     0
 70
    58
 90
        2
176
     1
 90
        2
176
     1
 90
        1
176
     1
 90
        2
176
     1
 40
0.6
176
     1
 40
30.0
176
     1
 62
     7
420
 16777215
176
     1
 90
        0
176
     1
 90
        4
176
     1
 62
     7
176
     1
 62
   257
176
     1
 90
        1
176
     1
 90
        1
176
     1
 40
1.0
176
     1
 90
        8
176
     1
 62
   257
176
     1
 40
1.0
176
     1
 90
        1
176
     1
 90
        6
176
     1
 90
        2
176
     1
 62
     8
420
  7895160
176
     1
 90
        3
176
     1
 90
        0
176
     1
 90
        0
176
     1
290
     0
176
     1
 90
        5
176
     1
 40
0.0
176
     1
 90
        0
176
     1
290
     0
176
     1
290
     1
176
     1
290
     1
176
     1
290
     0
176
     1
290
     0
176
     1
290
     0
176
     1
290
     0
176
     1
290
     0
176
     1
290
     0
176
     1
 90
       50
176
     1
 40
0.0
176
     1
 40
1.0
176
     1
 90
        0
176
     1
 62
    18
420
        0
176
     1
 90
       50
176
     1
 90
        3
176
     1
 62
     5
420
      255
176
     1
290
     0
176
     1
 90
       50
176
     1
 90
       50
176
     1
 90
       50
176
     1
290
     0
176
     1
 90
       50
176
     1
 62
   256
176
     0
 40
1.0
176
     0
 90
        2
176
     1
  1
strokes_ogs.tif
176
     1
290
     0
176
     1
 40
1.0
176
     1
 40
1.0
176
     1
  0
VISUALSTYLE
  5
41
102
{ACAD_REACTORS
330
2A
102
}
330
2A
100
AcDbVisualStyle
  2
Shaded with edges
 70
    26
177
     3
291
     0
 70
    58
 90
        2
176
     1
 90
        2
176
     1
 90
        1
176
     1
 90
        2
176
     1
 40
0.6
176
     1
 40
30.0
176
     1
 62
     7
420
 16777215
176
     1
 90
        1
176
     1
 90
       10
176
     1
 62
     7
176
     1
 62
   257
176
     1
 90
        2
176
     1
 90
        1
176
     1
 40
1.0
176
     1
 90
        8
176
     1
 62
   257
176
     1
 40
1.0
176
     1
 90
        1
176
     1
 90
        6
176
     1
 90
        2
176
     1
 62
     7
176
     1
 90
        3
176
     1
 90
        0
176
     1
 90
        0
176
     1
290
     0
176
     1
 90
        5
176
     1
 40
0.0
176
     1
 90
        0
176
     1
290
     0
176
     1
290
     1
176
     1
290
     1
176
     1
290
     0
176
     1
290
     0
176
     1
290
     0
176
     1
290
     0
176
     1
290
     0
176
     1
290
     0
176
     1
 90
       50
176
     1
 40
0.0
176
     1
 40
1.0
176
     1
 90
        0
176
     1
 62
    18
420
        0
176
     1
 90
       50
176
     1
 90
        3
176
     1
 62
     5
420
      255
176
     1
290
     0
176
     1
 90
       50
176
     1
 90
       50
176
     1
 90
       50
176
     1
290
     0
176
     1
 90
       50
176
     1
 62
   256
176
     0
 40
1.0
176
     0
 90
        2
176
     1
  1
strokes_ogs.tif
176
     1
290
     0
176
     1
 40
1.0
176
     1
 40
1.0
176
     1
  0
VISUALSTYLE
  5
3E
102
{ACAD_REACTORS
330
2A
102
}
330
2A
100
AcDbVisualStyle
  2
Shades of Gray
 70
    23
177
     3
291
     0
 70
    58
 90
        2
176
     1
 90
        2
176
     1
 90
        3
176
     1
 90
        0
176
     1
 40
0.6
176
     1
 40
30.0
176
     1
 62
     7
420
 16777215
176
     1
 90
        2
176
     1
 90
        2
176
     1
 62
     7
176
     1
 62
     7
176
     1
 90
        1
176
     1
 90
        1
176
     1
 40
40.0
176
     1
 90
        8
176
     1
 62
     7
176
     1
 40
1.0
176
     1
 90
        1
176
     1
 90
        6
176
     1
 90
        2
176
     1
 62
     7
176
     1
 90
        3
176
     1
 90
        0
176
     1
 90
        0
176
     1
290
     0
176
     1
 90
        1
176
     1
 40
0.0
176
     1
 90
        0
176
     1
290
     0
176
     1
290
     1
176
     1
290
     1
176
     1
290
     0
176
     1
290
     0
176
     1
290
     0
176
     1
290
     0
176
     1
290
     0
176
     1
290
     0
176
     1
 90
       50
176
     1
 40
0.0
176
     1
 40
1.0
176
     1
 90
        0
176
     1
 62
    18
420
        0
176
     1
 90
       50
176
     1
 90
        3
176
     1
 62
     5
420
      255
176
     1
290
     0
176
     1
 90
       50
176
     1
 90
       50
176
     1
 90
       50
176
     1
290
     0
176
     1
 90
       50
176
     1
 62
   256
176
     0
 40
1.0
176
     0
 90
        2
176
     1
  1
strokes_ogs.tif
176
     1
290
     0
176
     1
 40
1.0
176
     1
 40
1.0
176
     1
  0
VISUALSTYLE
  5
3F
102
{ACAD_REACTORS
330
2A
102
}
330
2A
100
AcDbVisualStyle
  2
Sketchy
 70
    24
177
     3
291
     0
 70
    58
 90
        1
176
     1
 90
        2
176
     1
 90
        2
176
     1
 90
        0
176
     1
 40
0.6
176
     1
 40
30.0
176
     1
 62
     7
420
 16777215
176
     1
 90
        2
176
     1
 90
        2
176
     1
 62
     7
176
     1
 62
     7
176
     1
 90
        1
176
     1
 90
        1
176
     1
 40
40.0
176
     1
 90
       11
176
     1
 62
     7
176
     1
 40
1.0
176
     1
 90
        1
176
     1
 90
        6
176
     1
 90
        2
176
     1
 62
     7
176
     1
 90
        6
176
     1
 90
        0
176
     1
 90
        0
176
     1
290
     0
176
     1
 90
        1
176
     1
 40
0.0
176
     1
 90
        0
176
     1
290
     0
176
     1
290
     1
176
     1
290
     1
176
     1
290
     0
176
     1
290
     0
176
     1
290
     0
176
     1
290
     0
176
     1
290
     0
176
     1
290
     0
176
     1
 90
       50
176
     1
 40
0.0
176
     1
 40
1.0
176
     1
 90
        0
176
     1
 62
    18
420
        0
176
     1
 90
       50
176
     1
 90
        3
176
     1
 62
     5
420
      255
176
     1
290
     0
176
     1
 90
       50
176
     1
 90
       50
176
     1
 90
       50
176
     1
290
     0
176
     1
 90
       50
176
     1
 62
   256
176
     0
 40
1.0
176
     0
 90
        2
176
     1
  1
strokes_ogs.tif
176
     1
290
     0
176
     1
 40
1.0
176
     1
 40
1.0
176
     1
  0
VISUALSTYLE
  5
37
102
{ACAD_REACTORS
330
2A
102
}
330
2A
100
AcDbVisualStyle
  2
Thicken
 70
    13
177
     3
291
     1
 70
    58
 90
        2
176
     1
 90
        2
176
     1
 90
        0
176
     1
 90
        0
176
     1
 40
0.6
176
     1
 40
30.0
176
     1
 62
     7
420
 16777215
176
     1
 90
        1
176
     1
 90
        4
176
     1
 62
     7
176
     1
 62
   257
176
     1
 90
        1
176
     1
 90
        1
176
     1
 40
1.0
176
     1
 90
       12
176
     1
 62
     7
176
     1
 40
1.0
176
     1
 90
        1
176
     1
 90
        6
176
     1
 90
        2
176
     1
 62
     7
176
     1
 90
        5
176
     1
 90
        0
176
     1
 90
        0
176
     1
290
     0
176
     1
 90
        1
176
     1
 40
0.0
176
     1
 90
        0
176
     1
290
     0
176
     1
290
     1
176
     1
290
     1
176
     1
290
     0
176
     1
290
     0
176
     1
290
     0
176
     1
290
     0
176
     1
290
     0
176
     1
290
     0
176
     1
 90
       50
176
     1
 40
0.0
176
     1
 40
1.0
176
     1
 90
        0
176
     1
 62
    18
420
        0
176
     1
 90
       50
176
     1
 90
        3
176
     1
 62
     5
420
      255
176
     1
290
     0
176
     1
 90
       50
176
     1
 90
       50
176
     1
 90
       50
176
     1
290
     0
176
     1
 90
       50
176
     1
 62
   256
176
     0
 40
1.0
176
     0
 90
        2
176
     1
  1
strokes_ogs.tif
176
     1
290
     0
176
     1
 40
1.0
176
     1
 40
1.0
176
     1
  0
VISUALSTYLE
  5
30
102
{ACAD_REACTORS
330
2A
102
}
330
2A
100
AcDbVisualStyle
  2
Wireframe
 70
     5
177
     3
291
     0
 70
    58
 90
        0
176
     1
 90
        2
176
     1
 90
        0
176
     1
 90
        0
176
     1
 40
0.6
176
     1
 40
30.0
176
     1
 62
     7
420
 16777215
176
     1
 90
        1
176
     1
 90
        4
176
     1
 62
     7
176
     1
 62
   257
176
     1
 90
        1
176
     1
 90
        1
176
     1
 40
1.0
176
     1
 90
        0
176
     1
 62
   257
176
     1
 40
1.0
176
     1
 90
        1
176
     1
 90
        6
176
     1
 90
        2
176
     1
 62
     7
176
     1
 90
        3
176
     1
 90
        0
176
     1
 90
        0
176
     1
290
     0
176
     1
 90
        1
176
     1
 40
0.0
176
     1
 90
        0
176
     1
290
     0
176
     1
290
     1
176
     1
290
     1
176
     1
290
     0
176
     1
290
     0
176
     1
290
     0
176
     1
290
     0
176
     1
290
     0
176
     1
290
     0
176
     1
 90
       50
176
     1
 40
0.0
176
     1
 40
1.0
176
     1
 90
        0
176
     1
 62
    18
420
        0
176
     1
 90
       50
176
     1
 90
        3
176
     1
 62
     5
420
      255
176
     1
290
     0
176
     1
 90
       50
176
     1
 90
       50
176
     1
 90
       50
176
     1
290
     0
176
     1
 90
       50
176
     1
 62
   256
176
     0
 40
1.0
176
     0
 90
        2
176
     1
  1
strokes_ogs.tif
176
     1
290
     0
176
     1
 40
1.0
176
     1
 40
1.0
176
     1
  0
VISUALSTYLE
  5
40
102
{ACAD_REACTORS
330
2A
102
}
330
2A
100
AcDbVisualStyle
  2
X-Ray
 70
    25
177
     3
291
     0
 70
    58
 90
        2
176
     1
 90
        2
176
     1
 90
        1
176
     1
 90
        1
176
     1
 40
0.5
176
     1
 40
30.0
176
     1
 62
     7
420
 16777215
176
     1
 90
        1
176
     1
 90
        0
176
     1
 62
     7
176
     1
 62
   257
176
     1
 90
        1
176
     1
 90
        1
176
     1
 40
1.0
176
     1
 90
        8
176
     1
 62
     7
176
     1
 40
1.0
176
     1
 90
        1
176
     1
 90
        6
176
     1
 90
        2
176
     1
 62
     7
176
     1
 90
        3
176
     1
 90
        0
176
     1
 90
        0
176
     1
290
     0
176
     1
 90
       13
176
     1
 40
0.0
176
     1
 90
        0
176
     1
290
     0
176
     1
290
     1
176
     1
290
     1
176
     1
290
     0
176
     1
290
     0
176
     1
290
     0
176
     1
290
     0
176
     1
290
     0
176
     1
290
     0
176
     1
 90
       50
176
     1
 40
0.0
176
     1
 40
1.0
176
     1
 90
        0
176
     1
 62
    18
420
        0
176
     1
 90
       50
176
     1
 90
        3
176
     1
 62
     5
420
      255
176
     1
290
     0
176
     1
 90
       50
176
     1
 90
       50
176
     1
 90
       50
176
     1
290
     0
176
     1
 90
       50
176
     1
 62
   256
176
     0
 40
1.0
176
     0
 90
        2
176
     1
  1
strokes_ogs.tif
176
     1
290
     0
176
     1
 40
1.0
176
     1
 40
1.0
176
     1
  0
DICTIONARYVAR
  5
183
102
{ACAD_REACTORS
330
182
102
}
330
182
100
DictionaryVariables
280
     0
  1
1:1
  0
DICTIONARYVAR
  5
188
102
{ACAD_REACTORS
330
182
102
}
330
182
100
DictionaryVariables
280
     0
  1
Standard
  0
DICTIONARYVAR
  5
187
102
{ACAD_REACTORS
330
182
102
}
330
182
100
DictionaryVariables
280
     0
  1
Standard
  0
DICTIONARY
  5
184
330
6A
100
AcDbDictionary
280
     1
281
     1
  3
ACAD_ROUNDTRIP_2008_TABLESTYLE_CELLSTYLEMAP
360
185
  0
CELLSTYLEMAP
  5
185
102
{ACAD_REACTORS
330
184
102
}
330
184
100
AcDbCellStyleMap
 90
        3
300
CELLSTYLE
  1
TABLEFORMAT_BEGIN
 90
        5
170
     1
 91
        0
 92
    32768
 62
   257
 93
        1
300
CONTENTFORMAT
  1
CONTENTFORMAT_BEGIN
 90
        0
 91
        0
 92
        4
 93
        0
300

 40
0.0
140
1.0
 94
        5
 62
     0
340
11
144
0.25
309
CONTENTFORMAT_END
171
     1
301
MARGIN
  1
CELLMARGIN_BEGIN
 40
0.06
 40
0.06
 40
0.06
 40
0.06
 40
0.06
 40
0.06
309
CELLMARGIN_END
 94
        6
 95
        1
302
GRIDFORMAT
  1
GRIDFORMAT_BEGIN
 90
        0
 91
        1
 62
     0
 92
       -2
340
14
 93
        0
 40
0.045
309
GRIDFORMAT_END
 95
        2
302
GRIDFORMAT
  1
GRIDFORMAT_BEGIN
 90
        0
 91
        1
 62
     0
 92
       -2
340
14
 93
        0
 40
0.045
309
GRIDFORMAT_END
 95
        4
302
GRIDFORMAT
  1
GRIDFORMAT_BEGIN
 90
        0
 91
        1
 62
     0
 92
       -2
340
14
 93
        0
 40
0.045
309
GRIDFORMAT_END
 95
        8
302
GRIDFORMAT
  1
GRIDFORMAT_BEGIN
 90
        0
 91
        1
 62
     0
 92
       -2
340
14
 93
        0
 40
0.045
309
GRIDFORMAT_END
 95
       16
302
GRIDFORMAT
  1
GRIDFORMAT_BEGIN
 90
        0
 91
        1
 62
     0
 92
       -2
340
14
 93
        0
 40
0.045
309
GRIDFORMAT_END
 95
       32
302
GRIDFORMAT
  1
GRIDFORMAT_BEGIN
 90
        0
 91
        1
 62
     0
 92
       -2
340
14
 93
        0
 40
0.045
309
GRIDFORMAT_END
309
TABLEFORMAT_END
  1
CELLSTYLE_BEGIN
 90
        1
 91
        1
300
_TITLE
309
CELLSTYLE_END
300
CELLSTYLE
  1
TABLEFORMAT_BEGIN
 90
        5
170
     1
 91
        0
 92
        0
 62
   257
 93
        1
300
CONTENTFORMAT
  1
CONTENTFORMAT_BEGIN
 90
        0
 91
        0
 92
        4
 93
        0
300

 40
0.0
140
1.0
 94
        5
 62
     0
340
11
144
0.18
309
CONTENTFORMAT_END
171
     1
301
MARGIN
  1
CELLMARGIN_BEGIN
 40
0.06
 40
0.06
 40
0.06
 40
0.06
 40
0.06
 40
0.06
309
CELLMARGIN_END
 94
        6
 95
        1
302
GRIDFORMAT
  1
GRIDFORMAT_BEGIN
 90
        0
 91
        1
 62
     0
 92
       -2
340
14
 93
        0
 40
0.045
309
GRIDFORMAT_END
 95
        2
302
GRIDFORMAT
  1
GRIDFORMAT_BEGIN
 90
        0
 91
        1
 62
     0
 92
       -2
340
14
 93
        0
 40
0.045
309
GRIDFORMAT_END
 95
        4
302
GRIDFORMAT
  1
GRIDFORMAT_BEGIN
 90
        0
 91
        1
 62
     0
 92
       -2
340
14
 93
        0
 40
0.045
309
GRIDFORMAT_END
 95
        8
302
GRIDFORMAT
  1
GRIDFORMAT_BEGIN
 90
        0
 91
        1
 62
     0
 92
       -2
340
14
 93
        0
 40
0.045
309
GRIDFORMAT_END
 95
       16
302
GRIDFORMAT
  1
GRIDFORMAT_BEGIN
 90
        0
 91
        1
 62
     0
 92
       -2
340
14
 93
        0
 40
0.045
309
GRIDFORMAT_END
 95
       32
302
GRIDFORMAT
  1
GRIDFORMAT_BEGIN
 90
        0
 91
        1
 62
     0
 92
       -2
340
14
 93
        0
 40
0.045
309
GRIDFORMAT_END
309
TABLEFORMAT_END
  1
CELLSTYLE_BEGIN
 90
        2
 91
        1
300
_HEADER
309
CELLSTYLE_END
300
CELLSTYLE
  1
TABLEFORMAT_BEGIN
 90
        5
170
     1
 91
        0
 92
        0
 62
   257
 93
        1
300
CONTENTFORMAT
  1
CONTENTFORMAT_BEGIN
 90
        0
 91
        0
 92
        4
 93
        0
300

 40
0.0
140
1.0
 94
        2
 62
     0
340
11
144
0.18
309
CONTENTFORMAT_END
171
     1
301
MARGIN
  1
CELLMARGIN_BEGIN
 40
0.06
 40
0.06
 40
0.06
 40
0.06
 40
0.06
 40
0.06
309
CELLMARGIN_END
 94
        6
 95
        1
302
GRIDFORMAT
  1
GRIDFORMAT_BEGIN
 90
        0
 91
        1
 62
     0
 92
       -2
340
14
 93
        0
 40
0.045
309
GRIDFORMAT_END
 95
        2
302
GRIDFORMAT
  1
GRIDFORMAT_BEGIN
 90
        0
 91
        1
 62
     0
 92
       -2
340
14
 93
        0
 40
0.045
309
GRIDFORMAT_END
 95
        4
302
GRIDFORMAT
  1
GRIDFORMAT_BEGIN
 90
        0
 91
        1
 62
     0
 92
       -2
340
14
 93
        0
 40
0.045
309
GRIDFORMAT_END
 95
        8
302
GRIDFORMAT
  1
GRIDFORMAT_BEGIN
 90
        0
 91
        1
 62
     0
 92
       -2
340
14
 93
        0
 40
0.045
309
GRIDFORMAT_END
 95
       16
302
GRIDFORMAT
  1
GRIDFORMAT_BEGIN
 90
        0
 91
        1
 62
     0
 92
       -2
340
14
 93
        0
 40
0.045
309
GRIDFORMAT_END
 95
       32
302
GRIDFORMAT
  1
GRIDFORMAT_BEGIN
 90
        0
 91
        1
 62
     0
 92
       -2
340
14
 93
        0
 40
0.045
309
GRIDFORMAT_END
309
TABLEFORMAT_END
  1
CELLSTYLE_BEGIN
 90
        3
 91
        2
300
_DATA
309
CELLSTYLE_END
  0
ENDSEC
  0
EOF