0
SECTION
  2
HEADER
  9
$ACADVER
  1
AC1027
  9
$ACADMAINTVER
 70
   105
  9
$DWGCODEPAGE
  3
ANSI_1252
  9
$REQUIREDVERSIONS
160
                 0
  9
$COMMENTS
  1
File was created by Cadenas
  9
$CUSTOMPROPERTYTAG
  1
NN
  9
$CUSTOMPROPERTY
  1
D-Lok Two-Bolt Piloted Flange Inch Bore
  9
$CUSTOMPROPERTYTAG
  1
NT
  9
$CUSTOMPROPERTY
  1
DL Normal Duty 2-Bolt Piloted Flange Bearings
  9
$CUSTOMPROPERTYTAG
  1
NB
  9
$CUSTOMPROPERTY
  1
056696
  9
$CUSTOMPROPERTYTAG
  1
NBSYN
  9
$CUSTOMPROPERTY
  1
$PN.
  9
$CUSTOMPROPERTYTAG
  1
LINA
  9
$CUSTOMPROPERTY
  1
056696
  9
$CUSTOMPROPERTYTAG
  1
SERIES
  9
$CUSTOMPROPERTY
  1
204
  9
$CUSTOMPROPERTYTAG
  1
SS
  9
$CUSTOMPROPERTY
  1
3/4
  9
$CUSTOMPROPERTYTAG
  1
PN
  9
$CUSTOMPROPERTY
  1
056696
  9
$CUSTOMPROPERTYTAG
  1
DESCRIPTION
  9
$CUSTOMPROPERTY
  1
F2BZ-DL-012
  9
$CUSTOMPROPERTYTAG
  1
W
  9
$CUSTOMPROPERTY
  1
1.4
  9
$CUSTOMPROPERTYTAG
  1
A
  9
$CUSTOMPROPERTY
  1
1.28
  9
$CUSTOMPROPERTYTAG
  1
B
  9
$CUSTOMPROPERTY
  1
4.41
  9
$CUSTOMPROPERTYTAG
  1
C
  9
$CUSTOMPROPERTY
  1
1.53
  9
$CUSTOMPROPERTYTAG
  1
D
  9
$CUSTOMPROPERTY
  1
3.53
  9
$CUSTOMPROPERTYTAG
  1
E
  9
$CUSTOMPROPERTY
  1
0.14
  9
$CUSTOMPROPERTYTAG
  1
F
  9
$CUSTOMPROPERTY
  1
3/8
  9
$CUSTOMPROPERTYTAG
  1
G
  9
$CUSTOMPROPERTY
  1
1.39
  9
$CUSTOMPROPERTYTAG
  1
H
  9
$CUSTOMPROPERTY
  1
0.50
  9
$CUSTOMPROPERTYTAG
  1
J
  9
$CUSTOMPROPERTY
  1
0.41
  9
$CUSTOMPROPERTYTAG
  1
K
  9
$CUSTOMPROPERTY
  1
2.165/2.163
  9
$CUSTOMPROPERTYTAG
  1
L
  9
$CUSTOMPROPERTY
  1
1.71
  9
$CUSTOMPROPERTYTAG
  1
M
  9
$CUSTOMPROPERTY
  1
2.38
  9
$CUSTOMPROPERTYTAG
  1
N
  9
$CUSTOMPROPERTY
  1
1.50
  9
$CUSTOMPROPERTYTAG
  1
COMPANY
  9
$CUSTOMPROPERTY
  1
baldor
  9
$INSBASE
 10
0.0
 20
0.0
 30
0.0
  9
$EXTMIN
 10
1.000000000000000E+20
 20
1.000000000000000E+20
 30
1.000000000000000E+20
  9
$EXTMAX
 10
-1.000000000000000E+20
 20
-1.000000000000000E+20
 30
-1.000000000000000E+20
  9
$LIMMIN
 10
0.0
 20
0.0
  9
$LIMMAX
 10
12.0
 20
9.0
  9
$ORTHOMODE
 70
     0
  9
$REGENMODE
 70
     1
  9
$FILLMODE
 70
     1
  9
$QTEXTMODE
 70
     0
  9
$MIRRTEXT
 70
     1
  9
$LTSCALE
 40
1.0
  9
$ATTMODE
 70
     1
  9
$TEXTSIZE
 40
0.2
  9
$TRACEWID
 40
0.05
  9
$TEXTSTYLE
  7
Standard
  9
$CLAYER
  8
0
  9
$CELTYPE
  6
ByLayer
  9
$CECOLOR
 62
   256
  9
$CELTSCALE
 40
1.0
  9
$DISPSILH
 70
     0
  9
$DIMSCALE
 40
1.0
  9
$DIMASZ
 40
0.18
  9
$DIMEXO
 40
0.0625
  9
$DIMDLI
 40
0.38
  9
$DIMRND
 40
0.0
  9
$DIMDLE
 40
0.0
  9
$DIMEXE
 40
0.18
  9
$DIMTP
 40
0.0
  9
$DIMTM
 40
0.0
  9
$DIMTXT
 40
0.18
  9
$DIMCEN
 40
0.09
  9
$DIMTSZ
 40
0.0
  9
$DIMTOL
 70
     0
  9
$DIMLIM
 70
     0
  9
$DIMTIH
 70
     1
  9
$DIMTOH
 70
     1
  9
$DIMSE1
 70
     0
  9
$DIMSE2
 70
     0
  9
$DIMTAD
 70
     0
  9
$DIMZIN
 70
     0
  9
$DIMBLK
  1

  9
$DIMASO
 70
     1
  9
$DIMSHO
 70
     1
  9
$DIMPOST
  1

  9
$DIMAPOST
  1

  9
$DIMALT
 70
     0
  9
$DIMALTD
 70
     2
  9
$DIMALTF
 40
25.4
  9
$DIMLFAC
 40
1.0
  9
$DIMTOFL
 70
     0
  9
$DIMTVP
 40
0.0
  9
$DIMTIX
 70
     0
  9
$DIMSOXD
 70
     0
  9
$DIMSAH
 70
     0
  9
$DIMBLK1
  1

  9
$DIMBLK2
  1

  9
$DIMSTYLE
  2
Standard
  9
$DIMCLRD
 70
     0
  9
$DIMCLRE
 70
     0
  9
$DIMCLRT
 70
     0
  9
$DIMTFAC
 40
1.0
  9
$DIMGAP
 40
0.09
  9
$DIMJUST
 70
     0
  9
$DIMSD1
 70
     0
  9
$DIMSD2
 70
     0
  9
$DIMTOLJ
 70
     1
  9
$DIMTZIN
 70
     0
  9
$DIMALTZ
 70
     0
  9
$DIMALTTZ
 70
     0
  9
$DIMUPT
 70
     0
  9
$DIMDEC
 70
     4
  9
$DIMTDEC
 70
     4
  9
$DIMALTU
 70
     2
  9
$DIMALTTD
 70
     2
  9
$DIMTXSTY
  7
Standard
  9
$DIMAUNIT
 70
     0
  9
$DIMADEC
 70
     0
  9
$DIMALTRND
 40
0.0
  9
$DIMAZIN
 70
     0
  9
$DIMDSEP
 70
    46
  9
$DIMATFIT
 70
     3
  9
$DIMFRAC
 70
     0
  9
$DIMLDRBLK
  1

  9
$DIMLUNIT
 70
     2
  9
$DIMLWD
 70
    -2
  9
$DIMLWE
 70
    -2
  9
$DIMTMOVE
 70
     0
  9
$DIMFXL
 40
1.0
  9
$DIMFXLON
 70
     0
  9
$DIMJOGANG
 40
0.7853981633974483
  9
$DIMTFILL
 70
     0
  9
$DIMTFILLCLR
 70
     0
  9
$DIMARCSYM
 70
     0
  9
$DIMLTYPE
  6

  9
$DIMLTEX1
  6

  9
$DIMLTEX2
  6

  9
$DIMTXTDIRECTION
 70
     0
  9
$LUNITS
 70
     2
  9
$LUPREC
 70
     4
  9
$SKETCHINC
 40
0.1
  9
$FILLETRAD
 40
0.5
  9
$AUNITS
 70
     0
  9
$AUPREC
 70
     0
  9
$MENU
  1
.
  9
$ELEVATION
 40
0.0
  9
$PELEVATION
 40
0.0
  9
$THICKNESS
 40
0.0
  9
$LIMCHECK
 70
     0
  9
$CHAMFERA
 40
0.0
  9
$CHAMFERB
 40
0.0
  9
$CHAMFERC
 40
0.0
  9
$CHAMFERD
 40
0.0
  9
$SKPOLY
 70
     0
  9
$TDCREATE
 40
2458168.977968808
  9
$TDUCREATE
 40
2458168.936302141
  9
$TDUPDATE
 40
2458168.977968993
  9
$TDUUPDATE
 40
2458168.936302327
  9
$TDINDWG
 40
0.0000000116
  9
$TDUSRTIMER
 40
0.0000000116
  9
$USRTIMER
 70
     1
  9
$ANGBASE
 50
0.0
  9
$ANGDIR
 70
     0
  9
$PDMODE
 70
     0
  9
$PDSIZE
 40
0.0
  9
$PLINEWID
 40
0.0
  9
$SPLFRAME
 70
     0
  9
$SPLINETYPE
 70
     6
  9
$SPLINESEGS
 70
     8
  9
$HANDSEED
  5
17B
  9
$SURFTAB1
 70
     6
  9
$SURFTAB2
 70
     6
  9
$SURFTYPE
 70
     6
  9
$SURFU
 70
     6
  9
$SURFV
 70
     6
  9
$UCSBASE
  2

  9
$UCSNAME
  2

  9
$UCSORG
 10
0.0
 20
0.0
 30
0.0
  9
$UCSXDIR
 10
1.0
 20
0.0
 30
0.0
  9
$UCSYDIR
 10
0.0
 20
1.0
 30
0.0
  9
$UCSORTHOREF
  2

  9
$UCSORTHOVIEW
 70
     0
  9
$UCSORGTOP
 10
0.0
 20
0.0
 30
0.0
  9
$UCSORGBOTTOM
 10
0.0
 20
0.0
 30
0.0
  9
$UCSORGLEFT
 10
0.0
 20
0.0
 30
0.0
  9
$UCSORGRIGHT
 10
0.0
 20
0.0
 30
0.0
  9
$UCSORGFRONT
 10
0.0
 20
0.0
 30
0.0
  9
$UCSORGBACK
 10
0.0
 20
0.0
 30
0.0
  9
$PUCSBASE
  2

  9
$PUCSNAME
  2

  9
$PUCSORG
 10
0.0
 20
0.0
 30
0.0
  9
$PUCSXDIR
 10
1.0
 20
0.0
 30
0.0
  9
$PUCSYDIR
 10
0.0
 20
1.0
 30
0.0
  9
$PUCSORTHOREF
  2

  9
$PUCSORTHOVIEW
 70
     0
  9
$PUCSORGTOP
 10
0.0
 20
0.0
 30
0.0
  9
$PUCSORGBOTTOM
 10
0.0
 20
0.0
 30
0.0
  9
$PUCSORGLEFT
 10
0.0
 20
0.0
 30
0.0
  9
$PUCSORGRIGHT
 10
0.0
 20
0.0
 30
0.0
  9
$PUCSORGFRONT
 10
0.0
 20
0.0
 30
0.0
  9
$PUCSORGBACK
 10
0.0
 20
0.0
 30
0.0
  9
$USERI1
 70
     0
  9
$USERI2
 70
     0
  9
$USERI3
 70
     0
  9
$USERI4
 70
     0
  9
$USERI5
 70
     0
  9
$USERR1
 40
0.0
  9
$USERR2
 40
0.0
  9
$USERR3
 40
0.0
  9
$USERR4
 40
0.0
  9
$USERR5
 40
0.0
  9
$WORLDVIEW
 70
     1
  9
$SHADEDGE
 70
     3
  9
$SHADEDIF
 70
    70
  9
$TILEMODE
 70
     1
  9
$MAXACTVP
 70
    64
  9
$PINSBASE
 10
0.0
 20
0.0
 30
0.0
  9
$PLIMCHECK
 70
     0
  9
$PEXTMIN
 10
1.000000000000000E+20
 20
1.000000000000000E+20
 30
1.000000000000000E+20
  9
$PEXTMAX
 10
-1.000000000000000E+20
 20
-1.000000000000000E+20
 30
-1.000000000000000E+20
  9
$PLIMMIN
 10
0.0
 20
0.0
  9
$PLIMMAX
 10
12.0
 20
9.0
  9
$UNITMODE
 70
     0
  9
$VISRETAIN
 70
     1
  9
$PLINEGEN
 70
     0
  9
$PSLTSCALE
 70
     1
  9
$TREEDEPTH
 70
  3020
  9
$CMLSTYLE
  2
Standard
  9
$CMLJUST
 70
     0
  9
$CMLSCALE
 40
1.0
  9
$PROXYGRAPHICS
 70
     1
  9
$MEASUREMENT
 70
     0
  9
$CELWEIGHT
370
    -1
  9
$ENDCAPS
280
     0
  9
$JOINSTYLE
280
     0
  9
$LWDISPLAY
290
     0
  9
$INSUNITS
 70
     1
  9
$HYPERLINKBASE
  1

  9
$STYLESHEET
  1

  9
$XEDIT
290
     1
  9
$CEPSNTYPE
380
     0
  9
$PSTYLEMODE
290
     1
  9
$FINGERPRINTGUID
  2
{F25918A8-2E50-4C34-84FD-33491C8718B5}
  9
$VERSIONGUID
  2
{FAEB1C32-E019-11D5-929B-00C0DF256EC4}
  9
$EXTNAMES
290
     1
  9
$PSVPSCALE
 40
0.0
  9
$OLESTARTUP
290
     0
  9
$SORTENTS
280
   127
  9
$INDEXCTL
280
     0
  9
$HIDETEXT
280
     1
  9
$XCLIPFRAME
280
     2
  9
$HALOGAP
280
     0
  9
$OBSCOLOR
 70
   257
  9
$OBSLTYPE
280
     0
  9
$INTERSECTIONDISPLAY
280
     0
  9
$INTERSECTIONCOLOR
 70
   257
  9
$DIMASSOC
280
     2
  9
$PROJECTNAME
  1

  9
$CAMERADISPLAY
290
     0
  9
$LENSLENGTH
 40
50.0
  9
$CAMERAHEIGHT
 40
0.0
  9
$STEPSPERSEC
 40
2.0
  9
$STEPSIZE
 40
6.0
  9
$3DDWFPREC
 40
2.0
  9
$PSOLWIDTH
 40
0.25
  9
$PSOLHEIGHT
 40
4.0
  9
$LOFTANG1
 40
1.570796326794897
  9
$LOFTANG2
 40
1.570796326794897
  9
$LOFTMAG1
 40
0.0
  9
$LOFTMAG2
 40
0.0
  9
$LOFTPARAM
 70
     7
  9
$LOFTNORMALS
280
     1
  9
$LATITUDE
 40
37.795
  9
$LONGITUDE
 40
-122.394
  9
$NORTHDIRECTION
 40
0.0
  9
$TIMEZONE
 70
 -8000
  9
$LIGHTGLYPHDISPLAY
280
     1
  9
$TILEMODELIGHTSYNCH
280
     1
  9
$CMATERIAL
347
44
  9
$SOLIDHIST
280
     0
  9
$SHOWHIST
280
     1
  9
$DWFFRAME
280
     2
  9
$DGNFRAME
280
     2
  9
$REALWORLDSCALE
290
     1
  9
$INTERFERECOLOR
 62
   256
  9
$CSHADOW
280
     0
  9
$SHADOWPLANELOCATION
 40
0.0
  0
ENDSEC
  0
SECTION
  2
CLASSES
  0
CLASS
  1
ACDBDICTIONARYWDFLT
  2
AcDbDictionaryWithDefault
  3
ObjectDBX Classes
 90
        0
 91
        4
280
     0
281
     0
  0
CLASS
  1
VISUALSTYLE
  2
AcDbVisualStyle
  3
ObjectDBX Classes
 90
     4095
 91
        4
280
     0
281
     0
  0
CLASS
  1
MATERIAL
  2
AcDbMaterial
  3
ObjectDBX Classes
 90
     1153
 91
        4
280
     0
281
     0
  0
CLASS
  1
SCALE
  2
AcDbScale
  3
ObjectDBX Classes
 90
     1153
 91
        4
280
     0
281
     0
  0
CLASS
  1
TABLESTYLE
  2
AcDbTableStyle
  3
ObjectDBX Classes
 90
     4095
 91
        4
280
     0
281
     0
  0
CLASS
  1
MLEADERSTYLE
  2
AcDbMLeaderStyle
  3
ACDB_MLEADERSTYLE_CLASS
 90
     4095
 91
        4
280
     0
281
     0
  0
CLASS
  1
SUN
  2
AcDbSun
  3
SCENEOE
 90
     1153
 91
        4
280
     0
281
     0
  0
CLASS
  1
DICTIONARYVAR
  2
AcDbDictionaryVar
  3
ObjectDBX Classes
 90
        0
 91
        4
280
     0
281
     0
  0
CLASS
  1
CELLSTYLEMAP
  2
AcDbCellStyleMap
  3
ObjectDBX Classes
 90
     1152
 91
        4
280
     0
281
     0
  0
ENDSEC
  0
SECTION
  2
TABLES
  0
TABLE
  2
VPORT
  5
8
330
0
100
AcDbSymbolTable
 70
     1
  0
VPORT
  5
29
330
8
100
AcDbSymbolTableRecord
100
AcDbViewportTableRecord
  2
*Active
 70
     0
 10
0.0
 20
0.0
 11
1.0
 21
1.0
 12
4.859866557687075
 22
-5.2835
 13
0.0
 23
0.0
 14
0.5
 24
0.5
 15
0.5
 25
0.5
 16
0.0
 26
0.0
 36
1.0
 17
0.0
 27
0.0
 37
0.0
 40
12.24
 41
1.008311092947846
 42
50.0
 43
0.0
 44
0.0
 50
0.0
 51
0.0
 71
     0
 72
   100
 73
     1
 74
     3
 75
     0
 76
     0
 77
     0
 78
     0
281
     0
 65
     1
110
0.0
120
0.0
130
0.0
111
1.0
121
0.0
131
0.0
112
0.0
122
1.0
132
0.0
 79
     0
146
0.0
348
2F
 60
     3
 61
     5
292
     1
282
     1
141
0.0
142
0.0
 63
   250
361
6D
  0
ENDTAB
  0
TABLE
  2
LTYPE
  5
5
330
0
100
AcDbSymbolTable
 70
     3
  0
LTYPE
  5
14
330
5
100
AcDbSymbolTableRecord
100
AcDbLinetypeTableRecord
  2
ByBlock
 70
     0
  3

 72
    65
 73
     0
 40
0.0
  0
LTYPE
  5
15
330
5
100
AcDbSymbolTableRecord
100
AcDbLinetypeTableRecord
  2
ByLayer
 70
     0
  3

 72
    65
 73
     0
 40
0.0
  0
LTYPE
  5
16
330
5
100
AcDbSymbolTableRecord
100
AcDbLinetypeTableRecord
  2
Continuous
 70
     0
  3
Solid line
 72
    65
 73
     0
 40
0.0
  0
LTYPE
  5
99
330
5
100
AcDbSymbolTableRecord
100
AcDbLinetypeTableRecord
  2
Dashed
 70
     0
  3

 72
    65
 73
     2
 40
2.0
 49
1.0
 74
     0
 49
-1.0
 74
     0
  0
LTYPE
  5
14F
330
5
100
AcDbSymbolTableRecord
100
AcDbLinetypeTableRecord
  2
Center
 70
     0
  3

 72
    65
 73
     4
 40
1.5
 49
0.45
 74
     0
 49
-0.5
 74
     0
 49
0.05
 74
     0
 49
-0.5
 74
     0
  0
ENDTAB
  0
TABLE
  2
LAYER
  5
2
330
0
100
AcDbSymbolTable
 70
     7
  0
LAYER
  5
10
330
2
100
AcDbSymbolTableRecord
100
AcDbLayerTableRecord
  2
0
 70
     0
 62
     7
  6
Continuous
370
    -3
390
F
347
46
348
0
  0
LAYER
  5
6E
330
2
100
AcDbSymbolTableRecord
100
AcDbLayerTableRecord
  2
AM_6
 70
     0
 62
    -2
  6
Continuous
370
    35
390
F
347
46
348
0
  0
LAYER
  5
9A
330
2
100
AcDbSymbolTableRecord
100
AcDbLayerTableRecord
  2
AM_9
 70
     0
 62
     6
  6
Dashed
370
    25
390
F
347
46
348
0
  0
LAYER
  5
BB
330
2
100
AcDbSymbolTableRecord
100
AcDbLayerTableRecord
  2
AM_0
 70
     0
 62
     7
  6
Continuous
370
    50
390
F
347
46
348
0
  0
LAYER
  5
D1
330
2
100
AcDbSymbolTableRecord
100
AcDbLayerTableRecord
  2
AM_4
 70
     0
 62
     3
  6
Continuous
370
    25
390
F
347
46
348
0
  0
LAYER
  5
150
330
2
100
AcDbSymbolTableRecord
100
AcDbLayerTableRecord
  2
AM_7
 70
     0
 62
     7
  6
Center
370
    25
390
F
347
46
348
0
  0
LAYER
  5
16C
330
2
100
AcDbSymbolTableRecord
100
AcDbLayerTableRecord
  2
ConnectionPoints
 70
     0
 62
     7
  6
Continuous
370
    50
390
F
347
46
348
0
  0
ENDTAB
  0
TABLE
  2
STYLE
  5
3
330
0
100
AcDbSymbolTable
 70
     1
  0
STYLE
  5
11
330
3
100
AcDbSymbolTableRecord
100
AcDbTextStyleTableRecord
  2
Standard
 70
     0
 40
0.0
 41
1.0
 50
0.0
 71
     0
 42
0.2
  3
txt
  4

  0
ENDTAB
  0
TABLE
  2
VIEW
  5
6
330
0
100
AcDbSymbolTable
 70
     0
  0
ENDTAB
  0
TABLE
  2
UCS
  5
7
330
0
100
AcDbSymbolTable
 70
     0
  0
ENDTAB
  0
TABLE
  2
APPID
  5
9
330
0
100
AcDbSymbolTable
 70
     1
  0
APPID
  5
12
330
9
100
AcDbSymbolTableRecord
100
AcDbRegAppTableRecord
  2
ACAD
 70
     0
  0
ENDTAB
  0
TABLE
  2
DIMSTYLE
  5
A
330
0
100
AcDbSymbolTable
 70
     1
100
AcDbDimStyleTable
  0
DIMSTYLE
105
27
330
A
100
AcDbSymbolTableRecord
100
AcDbDimStyleTableRecord
  2
Standard
 70
     0
178
     0
340
11
  0
ENDTAB
  0
TABLE
  2
BLOCK_RECORD
  5
1
330
0
100
AcDbSymbolTable
 70
     4
  0
BLOCK_RECORD
  5
1F
330
1
100
AcDbSymbolTableRecord
100
AcDbBlockTableRecord
  2
*Model_Space
340
22
 70
     0
280
     1
281
     0
  0
BLOCK_RECORD
  5
1B
330
1
100
AcDbSymbolTableRecord
100
AcDbBlockTableRecord
  2
*Paper_Space
340
1E
 70
     0
280
     1
281
     0
  0
BLOCK_RECORD
  5
23
330
1
100
AcDbSymbolTableRecord
100
AcDbBlockTableRecord
  2
*Paper_Space0
340
26
 70
     0
280
     1
281
     0
  0
BLOCK_RECORD
  5
87
330
1
100
AcDbSymbolTableRecord
100
AcDbBlockTableRecord
  2
1_405020c_Inch_0_in_056696_4
340
0
102
{BLKREFS
331
88
102
}
 70
     0
280
     1
281
     0
  0
BLOCK_RECORD
  5
E1
330
1
100
AcDbSymbolTableRecord
100
AcDbBlockTableRecord
  2
2_128646_0_in_056696_4
340
0
102
{BLKREFS
331
E2
102
}
 70
     0
280
     1
281
     0
  0
BLOCK_RECORD
  5
123
330
1
100
AcDbSymbolTableRecord
100
AcDbBlockTableRecord
  2
3_056696h_0_in_056696_4
340
0
102
{BLKREFS
331
124
102
}
 70
     0
280
     1
281
     0
  0
ENDTAB
  0
ENDSEC
  0
SECTION
  2
BLOCKS
  0
BLOCK
  5
20
330
1F
100
AcDbEntity
  8
0
100
AcDbBlockBegin
  2
*Model_Space
 70
     0
 10
0.0
 20
0.0
 30
0.0
  3
*Model_Space
  1

  0
ENDBLK
  5
21
330
1F
100
AcDbEntity
  8
0
100
AcDbBlockEnd
  0
BLOCK
  5
1C
330
1B
100
AcDbEntity
 67
     1
  8
0
100
AcDbBlockBegin
  2
*Paper_Space
 70
     0
 10
0.0
 20
0.0
 30
0.0
  3
*Paper_Space
  1

  0
ENDBLK
  5
1D
330
1B
100
AcDbEntity
 67
     1
  8
0
100
AcDbBlockEnd
  0
BLOCK
  5
24
330
23
100
AcDbEntity
  8
0
100
AcDbBlockBegin
  2
*Paper_Space0
 70
     0
 10
0.0
 20
0.0
 30
0.0
  3
*Paper_Space0
  1

  0
ENDBLK
  5
25
330
23
100
AcDbEntity
  8
0
100
AcDbBlockEnd
  0
BLOCK
  5
89
330
87
100
AcDbEntity
  8
0
100
AcDbBlockBegin
  2
1_405020c_Inch_0_in_056696_4
 70
     2
 10
0.0
 20
0.0
 30
0.0
  3
1_405020c_Inch_0_in_056696_4
  1

  0
ATTDEF
  5
8B
330
87
100
AcDbEntity
  8
AM_6
100
AcDbText
 10
6.26687597251701
 20
-0.5875913692769582
 30
0.0
 40
0.5
  1
405020C -Inch
100
AcDbAttributeDefinition
  3

  2
NN
 70
     8
280
     0
  0
ATTDEF
  5
8C
330
87
100
AcDbEntity
  8
AM_6
100
AcDbText
 10
6.26687597251701
 20
-1.087591369276958
 30
0.0
 40
0.5
  1
Grease fitting
100
AcDbAttributeDefinition
  3

  2
NT
 70
     8
280
     0
  0
ATTDEF
  5
8D
330
87
100
AcDbEntity
  8
AM_6
100
AcDbText
 10
6.26687597251701
 20
-1.587591369276958
 30
0.0
 40
0.5
  1
405020c-Inch
100
AcDbAttributeDefinition
  3

  2
NB
 70
     8
280
     0
  0
ATTDEF
  5
8E
330
87
100
AcDbEntity
  8
AM_6
100
AcDbText
 10
6.26687597251701
 20
-2.087591369276958
 30
0.0
 40
0.5
  1
$MN.-Inch
100
AcDbAttributeDefinition
  3

  2
NBSYN
 70
     8
280
     0
  0
ATTDEF
  5
8F
330
87
100
AcDbEntity
  8
AM_6
100
AcDbText
 10
6.26687597251701
 20
-2.587591369276958
 30
0.0
 40
0.5
  1
405020c
100
AcDbAttributeDefinition
  3

  2
LINA
 70
     8
280
     0
  0
ATTDEF
  5
90
330
87
100
AcDbEntity
  8
AM_6
100
AcDbText
 10
6.26687597251701
 20
-3.087591369276958
 30
0.0
 40
0.5
  1
405020c
100
AcDbAttributeDefinition
  3

  2
MN
 70
     8
280
     0
  0
ATTDEF
  5
91
330
87
100
AcDbEntity
  8
AM_6
100
AcDbText
 10
6.26687597251701
 20
-3.587591369276958
 30
0.0
 40
0.5
  1
0.230
100
AcDbAttributeDefinition
  3

  2
NDR
 70
     8
280
     0
  0
ATTDEF
  5
92
330
87
100
AcDbEntity
  8
AM_6
100
AcDbText
 10
6.26687597251701
 20
-4.087591369276958
 30
0.0
 40
0.5
  1
0.210
100
AcDbAttributeDefinition
  3

  2
KDR
 70
     8
280
     0
  0
ATTDEF
  5
93
330
87
100
AcDbEntity
  8
AM_6
100
AcDbText
 10
6.26687597251701
 20
-4.587591369276958
 30
0.0
 40
0.5
  1
0.157
100
AcDbAttributeDefinition
  3

  2
BZE
 70
     8
280
     0
  0
ATTDEF
  5
94
330
87
100
AcDbEntity
  8
AM_6
100
AcDbText
 10
6.26687597251701
 20
-5.087591369276958
 30
0.0
 40
0.5
  1
9/32
100
AcDbAttributeDefinition
  3

  2
WAF
 70
     8
280
     0
  0
ATTDEF
  5
95
330
87
100
AcDbEntity
  8
AM_6
100
AcDbText
 10
6.26687597251701
 20
-5.587591369276958
 30
0.0
 40
0.5
  1
0.2813
100
AcDbAttributeDefinition
  3

  2
WAF1
 70
     8
280
     0
  0
ATTDEF
  5
96
330
87
100
AcDbEntity
  8
AM_6
100
AcDbText
 10
6.26687597251701
 20
-6.087591369276958
 30
0.0
 40
0.5
  1
0.545
100
AcDbAttributeDefinition
  3

  2
BL
 70
     8
280
     0
  0
ATTDEF
  5
97
330
87
100
AcDbEntity
  8
AM_6
100
AcDbText
 10
6.26687597251701
 20
-6.587591369276958
 30
0.0
 40
0.5
  1
0.200
100
AcDbAttributeDefinition
  3

  2
TL
 70
     8
280
     0
  0
ATTDEF
  5
98
330
87
100
AcDbEntity
  8
AM_6
100
AcDbText
 10
6.26687597251701
 20
-7.087591369276958
 30
0.0
 40
0.5
  1
baldor
100
AcDbAttributeDefinition
  3

  2
COMPANY
 70
     8
280
     0
  0
ELLIPSE
  5
9B
330
87
100
AcDbEntity
  8
AM_9
 48
0.0012573775198259
100
AcDbEllipse
 10
0.8170418653847221
 20
-0.7499999999999999
 30
0.0
 11
-1.838598171376523E-17
 21
-0.1000886227036577
 31
0.0
210
0.0
220
0.0
230
1.0
 40
0.7071067811865474
 41
0.0
 42
6.283185307179586
  0
LINE
  5
9C
330
87
100
AcDbEntity
  8
AM_9
 48
0.0012573775198259
100
AcDbLine
 10
1.100935663194378
 20
-0.8312043153615208
 30
0.0
 11
1.062040369676564
 21
-0.8312043153615208
 31
0.0
  0
LINE
  5
9D
330
87
100
AcDbEntity
  8
AM_9
 48
0.0012573775198259
100
AcDbLine
 10
1.100935663194378
 20
-0.668795684638479
 30
0.0
 11
1.062040369676564
 21
-0.668795684638479
 31
0.0
  0
LWPOLYLINE
  5
9E
330
87
100
AcDbEntity
  8
AM_9
 48
0.0012573775198259
100
AcDbPolyline
 90
        4
 70
     0
 43
0.0
 10
1.062040369676564
 20
-0.668795684638479
 10
1.060415149019977
 20
-0.6876982481560967
 10
1.058567332838951
 20
-0.7187571743791795
 10
1.05791779039592
 20
-0.7499999999999999
  0
LINE
  5
9F
330
87
100
AcDbEntity
  8
AM_9
 48
0.0012573775198259
100
AcDbLine
 10
1.059814914890775
 20
-0.804008115148189
 30
0.0
 11
1.062040369676564
 21
-0.8312043153615208
 31
0.0
  0
LWPOLYLINE
  5
A0
330
87
100
AcDbEntity
  8
AM_9
 48
0.0012573775198259
100
AcDbPolyline
 90
        3
 70
     0
 43
0.0
 10
1.05791779039592
 20
-0.7499999999999999
 10
1.059005939670833
 20
-0.7906021576807604
 10
1.059814914890775
 20
-0.804008115148189
  0
LWPOLYLINE
  5
A1
330
87
100
AcDbEntity
  8
AM_9
 48
0.0012573775198259
100
AcDbPolyline
 90
        3
 70
     0
 43
0.0
 10
1.062040369676564
 20
-0.8312043153615208
 10
1.034263704290716
 20
-0.8514141150849085
 10
1.008190506008976
 20
-0.8718064730422812
  0
LWPOLYLINE
  5
A2
330
87
100
AcDbEntity
  8
AM_9
 48
0.0012573775198259
100
AcDbPolyline
 90
        3
 70
     0
 43
0.0
 10
1.008190506008976
 20
-0.6281935269577186
 10
1.034142297477361
 20
-0.6484946057980988
 10
1.062040369676564
 20
-0.668795684638479
  0
LWPOLYLINE
  5
A3
330
87
100
AcDbEntity
  8
AM_9
 48
0.0012573775198259
100
AcDbPolyline
 90
        3
 70
     0
 43
0.0
 10
1.067294520569574
 20
-0.8618199743330277
 10
1.079106451006637
 20
-0.851505394201901
 10
1.100935663194378
 20
-0.8312043153615208
  0
LWPOLYLINE
  5
A4
330
87
100
AcDbEntity
  8
AM_9
 48
0.0012573775198259
100
AcDbPolyline
 90
        3
 70
     0
 43
0.0
 10
1.100935663194378
 20
-0.8312043153615208
 10
1.103960480017157
 20
-0.7907847159147454
 10
1.105058242475023
 20
-0.7499999999999999
  0
LWPOLYLINE
  5
A5
330
87
100
AcDbEntity
  8
AM_9
 48
0.0012573775198259
100
AcDbPolyline
 90
        3
 70
     0
 43
0.0
 10
1.100935663194378
 20
-0.668795684638479
 10
1.079208631454086
 20
-0.6485858849150914
 10
1.067295670540561
 20
-0.6381810073183181
  0
LWPOLYLINE
  5
A6
330
87
100
AcDbEntity
  8
AM_9
 48
0.0012573775198259
100
AcDbPolyline
 90
        4
 70
     0
 43
0.0
 10
1.105058242475023
 20
-0.7499999999999999
 10
1.104412472539941
 20
-0.7188491240780484
 10
1.102560883850965
 20
-0.6876982481560967
 10
1.100935663194378
 20
-0.668795684638479
  0
LWPOLYLINE
  5
A7
330
87
100
AcDbEntity
  8
AM_9
 48
0.0012573775198259
100
AcDbPolyline
 90
        3
 70
     0
 43
0.0
 10
0.9625858009026764
 20
-0.5875913692769582
 10
0.9843128326429682
 20
-0.6078011690003459
 10
1.008190506008976
 20
-0.6281935269577186
  0
LWPOLYLINE
  5
A8
330
87
100
AcDbEntity
  8
AM_9
 48
0.0012573775198259
100
AcDbPolyline
 90
        3
 70
     0
 43
0.0
 10
1.008190506008976
 20
-0.8718064730422812
 10
0.9844150130904172
 20
-0.8921075518826614
 10
0.9625858009026764
 20
-0.9124086307230417
  0
LINE
  5
A9
330
87
100
AcDbEntity
  8
AM_9
 48
0.0012573775198259
100
AcDbLine
 10
0.8219046078470077
 20
-0.8603623268442185
 30
0.0
 11
0.9558922337052158
 21
-0.8662869890918942
 31
0.0
  0
LINE
  5
AA
330
87
100
AcDbEntity
  8
AM_9
 48
0.0012573775198259
100
AcDbLine
 10
0.9558922337052158
 20
-0.6337130109081056
 30
0.0
 11
0.8219046078470077
 21
-0.6396376731557813
 31
0.0
  0
ELLIPSE
  5
AB
330
87
100
AcDbEntity
  8
AM_9
 48
0.0012573775198259
100
AcDbEllipse
 10
1.005603673701136
 20
-0.75
 30
0.0
 11
4.458403601728820E-16
 21
0.1406499999999997
 31
0.0
210
0.0
220
0.0
230
1.0
 40
0.7071067811865442
 41
3.798906696793619
 42
5.625871263975768
  0
ELLIPSE
  5
AC
330
87
100
AcDbEntity
  8
AM_9
 48
0.0012573775198259
100
AcDbEllipse
 10
1.027750646586667
 20
-0.7499999999999951
 30
0.0
 11
6.221354251212500E-15
 21
0.109329450579759
 31
0.0
210
0.0
220
0.0
230
1.0
 40
0.7071067811866211
 41
4.391818268770516
 42
5.207311949687567
  0
ELLIPSE
  5
AD
330
87
100
AcDbEntity
  8
AM_9
 48
0.0012573775198259
100
AcDbEllipse
 10
1.027750646586668
 20
-0.7499999999999996
 30
0.0
 11
-1.110002176304923E-15
 21
0.1093294505797711
 31
0.0
210
0.0
220
0.0
230
1.0
 40
0.7071067811865428
 41
5.370344613811755
 42
5.928986666165871
  0
ELLIPSE
  5
AE
330
87
100
AcDbEntity
  8
AM_9
 48
0.0012573775198259
100
AcDbEllipse
 10
1.027750646586669
 20
-0.7500000000000001
 30
0.0
 11
2.410019949490194E-15
 21
0.1093294505797709
 31
0.0
210
0.0
220
0.0
230
1.0
 40
0.7071067811865395
 41
3.495791294603512
 42
4.036529687532258
  0
LWPOLYLINE
  5
AF
330
87
100
AcDbEntity
  8
AM_9
 48
0.0012573775198259
100
AcDbPolyline
 90
       14
 70
     0
 43
0.0
 10
1.052750646586667
 20
-0.6553152103609011
 10
1.05420511281378
 20
-0.6553625216522994
 10
1.058382343478623
 20
-0.6560187015974052
 10
1.062332039866924
 20
-0.6573252796805186
 10
1.066315422135561
 20
-0.6592894359497486
 10
1.070385344232557
 20
-0.6619557952413939
 10
1.07493816748396
 20
-0.6657490841541425
 10
1.079431491631382
 20
-0.6703987070389328
 10
1.08379873615792
 20
-0.6759028288426928
 10
1.087962517507216
 20
-0.6822439628557282
 10
1.091838494610433
 20
-0.6893817369950692
 10
1.095341326331181
 20
-0.6972497111695571
 10
1.098394537382358
 20
-0.7057668092650539
 10
1.100857095760277
 20
-0.714533093142893
  0
LINE
  5
B0
330
87
100
AcDbEntity
  8
AM_9
 48
0.0012573775198259
100
AcDbLine
 10
1.038927243465729
 20
-0.8405609812990117
 30
0.0
 11
1.035260434196123
 21
-0.838150366850935
 31
0.0
  0
LWPOLYLINE
  5
B1
330
87
100
AcDbEntity
  8
AM_9
 48
0.0012573775198259
100
AcDbPolyline
 90
       16
 70
     0
 43
0.0
 10
1.101151667392081
 20
-0.7842403613265939
 10
1.09873594900425
 20
-0.7931443110381123
 10
1.09574285631806
 20
-0.8017351619720332
 10
1.092299569767993
 20
-0.8096707644168571
 10
1.088488894870852
 20
-0.8168644982637002
 10
1.084403381613197
 20
-0.8232483502688727
 10
1.080143386882053
 20
-0.8287745682245808
 10
1.075815313904049
 20
-0.8334170099296617
 10
1.071517112122768
 20
-0.8371828691780874
 10
1.067329887515281
 20
-0.8401084429361535
 10
1.063301104433699
 20
-0.8422558511063949
 10
1.059417036749769
 20
-0.843702113534448
 10
1.055551101071798
 20
-0.8445096966294072
 10
1.051361406722093
 20
-0.8446416241540446
 10
1.047168000869493
 20
-0.8439934029951459
 10
1.043516343753838
 20
-0.8428154408302622
  0
LWPOLYLINE
  5
B2
330
87
100
AcDbEntity
  8
AM_9
 48
0.0012573775198259
100
AcDbPolyline
 90
        4
 70
     0
 43
0.0
 10
1.043508034119935
 20
-0.6571878705711653
 10
1.04604178700696
 20
-0.6563103139580296
 10
1.049906580706869
 20
-0.6554957862024221
 10
1.052750646586667
 20
-0.6553152103609011
  0
LWPOLYLINE
  5
B3
330
87
100
AcDbEntity
  8
AM_9
 48
0.0012573775198259
100
AcDbPolyline
 90
        4
 70
     0
 43
0.0
 10
1.034926093887088
 20
-0.662096596149195
 10
1.038125926520632
 20
-0.6599195181657238
 10
1.04215653387007
 20
-0.6577639156801828
 10
1.043508034119935
 20
-0.6571878705711653
  0
ELLIPSE
  5
B4
330
87
100
AcDbEntity
  8
AM_9
 48
0.0012573775198259
100
AcDbEllipse
 10
1.067692458523173
 20
-0.7499999999999999
 30
0.0
 11
6.084620899749628E-18
 21
0.09936940028726615
 31
0.0
210
0.0
220
0.0
230
1.0
 40
0.7071067811865459
 41
2.664062321967672
 42
6.28318530717959
  0
ELLIPSE
  5
B5
330
87
100
AcDbEntity
  8
AM_9
 48
0.0012573775198259
100
AcDbEllipse
 10
1.116023787227649
 20
-0.7499999999999999
 30
0.0
 11
8.036249332247511E-18
 21
0.1312419113468906
 31
0.0
210
0.0
220
0.0
230
1.0
 40
0.7071067811865488
 41
2.656480407116014
 42
6.283185307179586
  0
ELLIPSE
  5
B6
330
87
100
AcDbEntity
  8
AM_9
 48
0.0012573775198259
100
AcDbEllipse
 10
1.144780030692927
 20
-0.7499999999999999
 30
0.0
 11
8.079715312105943E-18
 21
0.1319517646676798
 31
0.0
210
0.0
220
0.0
230
1.0
 40
0.7071067811865483
 41
3.5799744285438
 42
5.844803532225583
  0
ELLIPSE
  5
B7
330
87
100
AcDbEntity
  8
AM_9
 48
0.0012573775198259
100
AcDbEllipse
 10
1.191644607366159
 20
-0.7499999999999389
 30
0.0
 11
1.254808978147515E-13
 21
0.103819051053109
 31
0.0
210
0.0
220
0.0
230
1.0
 40
0.7071067811862394
 41
3.593201636476692
 42
5.835135666161833
  0
ELLIPSE
  5
B8
330
87
100
AcDbEntity
  8
AM_9
 48
0.0012573775198259
100
AcDbEllipse
 10
0.9584632216220316
 20
-0.7499999999999999
 30
0.0
 11
-4.286157029428763E-16
 21
0.1406500000000003
 31
0.0
210
0.0
220
0.0
230
1.0
 40
0.7071067811865455
 41
0.0
 42
6.283185307179586
  0
ELLIPSE
  5
B9
330
87
100
AcDbEntity
  8
AM_9
 48
0.0012573775198259
100
AcDbEllipse
 10
0.9584632216220318
 20
-0.7499999999999999
 30
0.0
 11
7.124004163867288E-18
 21
0.1163438171532771
 31
0.0
210
0.0
220
0.0
230
1.0
 40
0.7071067811865462
 41
0.0
 42
6.283185307179586
  0
ELLIPSE
  5
BA
330
87
100
AcDbEntity
  8
AM_9
 48
0.0012573775198259
100
AcDbEllipse
 10
0.8243446074635079
 20
-0.7499999999999999
 30
0.0
 11
6.761045944280102E-18
 21
0.1104162595939892
 31
0.0
210
0.0
220
0.0
230
1.0
 40
0.7071067811865671
 41
0.0
 42
6.283185307179586
  0
LINE
  5
BC
330
87
100
AcDbEntity
  8
AM_0
 48
0.0012573775198259
100
AcDbLine
 10
1.055330958088079
 20
-0.8718064730422812
 30
0.0
 11
1.067294520569574
 21
-0.8618199743330277
 31
0.0
  0
LINE
  5
BD
330
87
100
AcDbEntity
  8
AM_0
 48
0.0012573775198259
100
AcDbLine
 10
1.067295670540561
 20
-0.6381810073183181
 30
0.0
 11
1.055330958088079
 21
-0.6281935269577186
 31
0.0
  0
LWPOLYLINE
  5
BE
330
87
100
AcDbEntity
  8
AM_0
 48
0.0012573775198259
100
AcDbPolyline
 90
        3
 70
     0
 43
0.0
 10
1.00148109442049
 20
-0.9124086307230417
 10
1.029257759806339
 20
-0.892198830999654
 10
1.055330958088079
 20
-0.8718064730422812
  0
LWPOLYLINE
  5
BF
330
87
100
AcDbEntity
  8
AM_0
 48
0.0012573775198259
100
AcDbPolyline
 90
        3
 70
     0
 43
0.0
 10
1.055330958088079
 20
-0.6281935269577186
 10
1.029379166619693
 20
-0.6078924481173383
 10
1.00148109442049
 20
-0.5875913692769582
  0
LWPOLYLINE
  5
C0
330
87
100
AcDbEntity
  8
AM_0
 48
0.0012573775198259
100
AcDbPolyline
 90
        3
 70
     0
 43
0.0
 10
0.9087359372350877
 20
-0.8718064730422812
 10
0.8849604443165292
 20
-0.851505394201901
 10
0.8631312321287885
 20
-0.8312043153615208
  0
LWPOLYLINE
  5
C1
330
87
100
AcDbEntity
  8
AM_0
 48
0.0012573775198259
100
AcDbPolyline
 90
        3
 70
     0
 43
0.0
 10
0.9625858009026764
 20
-0.9124086307230417
 10
0.9348091355168278
 20
-0.892198830999654
 10
0.9087359372350877
 20
-0.8718064730422812
  0
LINE
  5
C2
330
87
100
AcDbEntity
  8
AM_0
 48
0.0012573775198259
100
AcDbLine
 10
1.00148109442049
 20
-0.9124086307230417
 30
0.0
 11
0.9625858009026764
 21
-0.9124086307230417
 31
0.0
  0
LWPOLYLINE
  5
C3
330
87
100
AcDbEntity
  8
AM_0
 48
0.0012573775198259
100
AcDbPolyline
 90
        3
 70
     0
 43
0.0
 10
0.9558763893141909
 20
-0.8718064730422812
 10
0.9796518822327493
 20
-0.8921075518826614
 10
1.00148109442049
 20
-0.9124086307230417
  0
LWPOLYLINE
  5
C4
330
87
100
AcDbEntity
  8
AM_0
 48
0.0012573775198259
100
AcDbPolyline
 90
        3
 70
     0
 43
0.0
 10
0.9020265256466022
 20
-0.8312043153615208
 10
0.9298031910324509
 20
-0.8514141150849085
 10
0.9558763893141909
 20
-0.8718064730422812
  0
LWPOLYLINE
  5
C5
330
87
100
AcDbEntity
  8
AM_0
 48
0.0012573775198259
100
AcDbPolyline
 90
        4
 70
     0
 43
0.0
 10
0.8590086528481439
 20
-0.7499999999999999
 10
0.8596544227832257
 20
-0.7188491240780484
 10
0.8615060114722015
 20
-0.6876982481560967
 10
0.8631312321287885
 20
-0.668795684638479
  0
LWPOLYLINE
  5
C6
330
87
100
AcDbEntity
  8
AM_0
 48
0.0012573775198259
100
AcDbPolyline
 90
        3
 70
     0
 43
0.0
 10
0.8631312321287885
 20
-0.8312043153615208
 10
0.8601064153060102
 20
-0.7907847159147454
 10
0.8590086528481439
 20
-0.7499999999999999
  0
LINE
  5
C7
330
87
100
AcDbEntity
  8
AM_0
 48
0.0012573775198259
100
AcDbLine
 10
0.9020265256466022
 20
-0.8312043153615208
 30
0.0
 11
0.8631312321287885
 21
-0.8312043153615208
 31
0.0
  0
LWPOLYLINE
  5
C8
330
87
100
AcDbEntity
  8
AM_0
 48
0.0012573775198259
100
AcDbPolyline
 90
        3
 70
     0
 43
0.0
 10
0.9061491049272469
 20
-0.7499999999999999
 10
0.9050609556523335
 20
-0.7906021576807604
 10
0.9020265256466022
 20
-0.8312043153615208
  0
LWPOLYLINE
  5
C9
330
87
100
AcDbEntity
  8
AM_0
 48
0.0012573775198259
100
AcDbPolyline
 90
        4
 70
     0
 43
0.0
 10
0.9020265256466022
 20
-0.668795684638479
 10
0.9036517463031892
 20
-0.6876982481560967
 10
0.9054995624842151
 20
-0.7187571743791795
 10
0.9061491049272469
 20
-0.7499999999999999
  0
LINE
  5
CA
330
87
100
AcDbEntity
  8
AM_0
 48
0.0012573775198259
100
AcDbLine
 10
1.00148109442049
 20
-0.5875913692769582
 30
0.0
 11
0.9625858009026764
 21
-0.5875913692769582
 31
0.0
  0
LWPOLYLINE
  5
CB
330
87
100
AcDbEntity
  8
AM_0
 48
0.0012573775198259
100
AcDbPolyline
 90
        3
 70
     0
 43
0.0
 10
0.9087359372350877
 20
-0.6281935269577186
 10
0.9346877287034733
 20
-0.6078924481173383
 10
0.9625858009026764
 20
-0.5875913692769582
  0
LWPOLYLINE
  5
CC
330
87
100
AcDbEntity
  8
AM_0
 48
0.0012573775198259
100
AcDbPolyline
 90
        3
 70
     0
 43
0.0
 10
0.8631312321287885
 20
-0.668795684638479
 10
0.8848582638690804
 20
-0.6485858849150914
 10
0.9087359372350877
 20
-0.6281935269577186
  0
LINE
  5
CD
330
87
100
AcDbEntity
  8
AM_0
 48
0.0012573775198259
100
AcDbLine
 10
0.9020265256466022
 20
-0.668795684638479
 30
0.0
 11
0.8631312321287885
 21
-0.668795684638479
 31
0.0
  0
LWPOLYLINE
  5
CE
330
87
100
AcDbEntity
  8
AM_0
 48
0.0012573775198259
100
AcDbPolyline
 90
        3
 70
     0
 43
0.0
 10
0.9558763893141909
 20
-0.6281935269577186
 10
0.9299245978458054
 20
-0.6484946057980988
 10
0.9020265256466022
 20
-0.668795684638479
  0
LWPOLYLINE
  5
CF
330
87
100
AcDbEntity
  8
AM_0
 48
0.0012573775198259
100
AcDbPolyline
 90
        3
 70
     0
 43
0.0
 10
1.00148109442049
 20
-0.5875913692769582
 10
0.9797540626801984
 20
-0.6078011690003459
 10
0.9558763893141909
 20
-0.6281935269577186
  0
ELLIPSE
  5
D0
330
87
100
AcDbEntity
  8
AM_0
 48
0.0012573775198259
100
AcDbEllipse
 10
1.005603673701135
 20
-0.75
 30
0.0
 11
6.644543759518243E-16
 21
0.1406500000000004
 31
0.0
210
0.0
220
0.0
230
1.0
 40
0.7071067811865457
 41
5.625871263975763
 42
10.08209200397321
  0
ELLIPSE
  5
D2
330
87
100
AcDbEntity
  8
AM_4
 48
0.0012573775198259
100
AcDbEllipse
 10
1.027750646586668
 20
-0.7499999999999937
 30
0.0
 11
6.694498085252401E-18
 21
0.1093294505797651
 31
0.0
210
0.0
220
0.0
230
1.0
 40
0.707106781186547
 41
5.928986666165871
 42
9.778976601783056
  0
LINE
  5
D3
330
87
100
AcDbEntity
  8
AM_0
 48
0.0012573775198259
100
AcDbLine
 10
1.034927455009512
 20
-0.8379044185632921
 30
0.0
 11
1.072749482723553
 21
-0.866099562589007
 31
0.0
  0
LINE
  5
D4
330
87
100
AcDbEntity
  8
AM_0
 48
0.0012573775198259
100
AcDbLine
 10
1.072749482723553
 20
-0.6339004374109929
 30
0.0
 11
1.034927455009512
 21
-0.6620955814367075
 31
0.0
  0
ELLIPSE
  5
D5
330
87
100
AcDbEntity
  8
AM_4
 48
0.0012573775198259
100
AcDbEllipse
 10
1.067692458523173
 20
-0.7499999999999999
 30
0.0
 11
6.084620899749642E-18
 21
0.09936940028726637
 31
0.0
210
0.0
220
0.0
230
1.0
 40
0.7071067811865466
 41
0.4851122464737765
 42
2.656480407116017
  0
LWPOLYLINE
  5
D6
330
87
100
AcDbEntity
  8
AM_0
 48
0.0012573775198259
100
AcDbPolyline
 90
        8
 70
     0
 43
0.0
 10
1.130965599164155
 20
-0.6140734780049419
 10
1.123146099794828
 20
-0.6144027905371892
 10
1.113135989362434
 20
-0.6157955117621875
 10
1.103339413223317
 20
-0.6182502459567637
 10
1.093818943541934
 20
-0.621736331467561
 10
1.084631359180851
 20
-0.6262246154174513
 10
1.075830245228726
 20
-0.6316875844717034
 10
1.072817301954102
 20
-0.633849921696463
  0
LWPOLYLINE
  5
D7
330
87
100
AcDbEntity
  8
AM_0
 48
0.0012573775198259
100
AcDbPolyline
 90
       14
 70
     0
 43
0.0
 10
1.072205741459123
 20
-0.865691547362426
 10
1.076407341105456
 20
-0.8687087407721987
 10
1.085797606419147
 20
-0.8744105820670227
 10
1.095543582094463
 20
-0.8789796643273454
 10
1.105539247975259
 20
-0.8823980123648989
 10
1.115684051846379
 20
-0.8846639257724451
 10
1.125883999271562
 20
-0.8857875557811679
 10
1.136052126801324
 20
-0.8857872859775935
 10
1.146108719225696
 20
-0.8846868142271969
 10
1.155969486563784
 20
-0.882515970253751
 10
1.165570350880662
 20
-0.879305606142107
 10
1.17485325063542
 20
-0.8750853463938416
 10
1.183763994423654
 20
-0.8698830811930526
 10
1.184460572518679
 20
-0.8694243697945264
  0
LWPOLYLINE
  5
D8
330
87
100
AcDbEntity
  8
AM_0
 48
0.0012573775198259
100
AcDbPolyline
 90
        7
 70
     0
 43
0.0
 10
1.179742930450148
 20
-0.6276203061062383
 10
1.178709964808623
 20
-0.6270193087301617
 10
1.169049447938011
 20
-0.6221416462198971
 10
1.159111066953511
 20
-0.6184116659957606
 10
1.148997001288057
 20
-0.615835000543024
 10
1.138803078485263
 20
-0.6144043087823979
 10
1.130965599164155
 20
-0.6140734780049419
  0
LINE
  5
D9
330
87
100
AcDbEntity
  8
AM_0
 48
0.0012573775198259
100
AcDbLine
 10
1.184735754185734
 20
-0.6307590382886319
 30
0.0
 11
1.180270542903681
 21
-0.6279335263080177
 31
0.0
  0
ELLIPSE
  5
DA
330
87
100
AcDbEntity
  8
AM_4
 48
0.0012573775198259
100
AcDbEllipse
 10
1.116023787227649
 20
-0.7499999999999999
 30
0.0
 11
8.036249332247504E-18
 21
0.1312419113468904
 31
0.0
210
0.0
220
0.0
230
1.0
 40
0.7071067811865477
 41
0.4841751061288084
 42
2.651320658920345
  0
ELLIPSE
  5
DB
330
87
100
AcDbEntity
  8
AM_4
 48
0.0012573775198259
100
AcDbEllipse
 10
1.202415061131391
 20
-0.7499999999999999
 30
0.0
 11
-1.484390032546748E-17
 21
-0.08080642971672802
 31
0.0
210
0.0
220
0.0
230
1.0
 40
0.7071067811865462
 41
0.0
 42
6.283185307179586
  0
LWPOLYLINE
  5
DC
330
87
100
AcDbEntity
  8
AM_0
 48
0.0012573775198259
100
AcDbPolyline
 90
       23
 70
     0
 43
0.0
 10
1.223828629364573
 20
-0.8433119090389163
 10
1.227372114797019
 20
-0.840731376096693
 10
1.234295922460839
 20
-0.8347444182374246
 10
1.240721746526455
 20
-0.827845927859444
 10
1.24657683419434
 20
-0.8200966139906755
 10
1.251790117553318
 20
-0.8115769413897471
 10
1.256298180897203
 20
-0.8023844499469321
 10
1.260049412255465
 20
-0.7926277513790453
 10
1.263004894570582
 20
-0.7824213035015543
 10
1.265137728723952
 20
-0.771880454580143
 10
1.26643137236099
 20
-0.7611148307669946
 10
1.26687597251701
 20
-0.7502321650083552
 10
1.266467022167308
 20
-0.7393386479254398
 10
1.26520471954889
 20
-0.7285405290230978
 10
1.263093744724562
 20
-0.7179434081919489
 10
1.260142815637107
 20
-0.7076514573236017
 10
1.256365224528824
 20
-0.6977696943103325
 10
1.25178036906702
 20
-0.6884053013684721
 10
1.246419154473732
 20
-0.6796723593938111
 10
1.240327452388826
 20
-0.6716870923125723
 10
1.233569982394267
 20
-0.6645633549115473
 10
1.226233196135322
 20
-0.6584061128607993
 10
1.223028885455129
 20
-0.6561465731591187
  0
ELLIPSE
  5
DD
330
87
100
AcDbEntity
  8
AM_4
 48
0.0012573775198259
100
AcDbEllipse
 10
1.144780030692927
 20
-0.7499999999999968
 30
0.0
 11
2.131739574956709E-16
 21
0.1319517646676769
 31
0.0
210
0.0
220
0.0
230
1.0
 40
0.7071067811865437
 41
5.844803532225575
 42
9.863159735723377
  0
ELLIPSE
  5
DE
330
87
100
AcDbEntity
  8
AM_4
 48
0.0012573775198259
100
AcDbEllipse
 10
1.191644607366113
 20
-0.7499999999999978
 30
0.0
 11
6.357083428130864E-18
 21
0.1038190510530369
 31
0.0
210
0.0
220
0.0
230
1.0
 40
0.7071067811865483
 41
5.844803532225577
 42
9.863159735723372
  0
LINE
  5
DF
330
87
100
AcDbEntity
  8
AM_0
 48
0.0012573775198259
100
AcDbLine
 10
1.222805793899246
 20
-0.6559981049699095
 30
0.0
 11
1.184385223675137
 21
-0.6305256279506
 31
0.0
  0
LINE
  5
E0
330
87
100
AcDbEntity
  8
AM_0
 48
0.0012573775198259
100
AcDbLine
 10
1.184385223675138
 20
-0.8694743720493999
 30
0.0
 11
1.222805793899246
 21
-0.8440018950300903
 31
0.0
  0
ENDBLK
  5
8A
330
87
100
AcDbEntity
  8
0
100
AcDbBlockEnd
  0
BLOCK
  5
E3
330
E1
100
AcDbEntity
  8
0
100
AcDbBlockBegin
  2
2_128646_0_in_056696_4
 70
     2
 10
0.0
 20
0.0
 30
0.0
  3
2_128646_0_in_056696_4
  1

  0
ATTDEF
  5
E5
330
E1
100
AcDbEntity
  8
AM_6
100
AcDbText
 10
5.924466108247825
 20
-0.1099999999999998
 30
0.0
 40
0.5
  1
D-Lok Insert Inch Bore
100
AcDbAttributeDefinition
  3

  2
NN
 70
     8
280
     0
  0
ATTDEF
  5
E6
330
E1
100
AcDbEntity
  8
AM_6
100
AcDbText
 10
5.924466108247825
 20
-0.6099999999999999
 30
0.0
 40
0.5
  1
D-LOK
100
AcDbAttributeDefinition
  3

  2
NT
 70
     8
280
     0
  0
ATTDEF
  5
E7
330
E1
100
AcDbEntity
  8
AM_6
100
AcDbText
 10
5.924466108247825
 20
-1.11
 30
0.0
 40
0.5
  1
128646
100
AcDbAttributeDefinition
  3

  2
NB
 70
     8
280
     0
  0
ATTDEF
  5
E8
330
E1
100
AcDbEntity
  8
AM_6
100
AcDbText
 10
5.924466108247825
 20
-1.61
 30
0.0
 40
0.5
  1
$PN.
100
AcDbAttributeDefinition
  3

  2
NBSYN
 70
     8
280
     0
  0
ATTDEF
  5
E9
330
E1
100
AcDbEntity
  8
AM_6
100
AcDbText
 10
5.924466108247825
 20
-2.11
 30
0.0
 40
0.5
  1
128646
100
AcDbAttributeDefinition
  3

  2
LINA
 70
     8
280
     0
  0
ATTDEF
  5
EA
330
E1
100
AcDbEntity
  8
AM_6
100
AcDbText
 10
5.924466108247825
 20
-2.61
 30
0.0
 40
0.5
  1
204
100
AcDbAttributeDefinition
  3

  2
SERIES
 70
     8
280
     0
  0
ATTDEF
  5
EB
330
E1
100
AcDbEntity
  8
AM_6
100
AcDbText
 10
5.924466108247825
 20
-3.11
 30
0.0
 40
0.5
  1
3/4
100
AcDbAttributeDefinition
  3

  2
SS
 70
     8
280
     0
  0
ATTDEF
  5
EC
330
E1
100
AcDbEntity
  8
AM_6
100
AcDbText
 10
5.924466108247825
 20
-3.61
 30
0.0
 40
0.5
  1
128646
100
AcDbAttributeDefinition
  3

  2
PN
 70
     8
280
     0
  0
ATTDEF
  5
ED
330
E1
100
AcDbEntity
  8
AM_6
100
AcDbText
 10
5.924466108247825
 20
-4.109999999999999
 30
0.0
 40
0.5
  1
INS-DL-012
100
AcDbAttributeDefinition
  3

  2
DESCRIPTION
 70
     8
280
     0
  0
ATTDEF
  5
EE
330
E1
100
AcDbEntity
  8
AM_6
100
AcDbText
 10
5.924466108247825
 20
-4.609999999999999
 30
0.0
 40
0.5
  1
0.6
100
AcDbAttributeDefinition
  3

  2
WEIGHT
 70
     8
280
     0
  0
ATTDEF
  5
EF
330
E1
100
AcDbEntity
  8
AM_6
100
AcDbText
 10
5.924466108247825
 20
-5.109999999999999
 30
0.0
 40
0.5
  1
1.28
100
AcDbAttributeDefinition
  3

  2
A
 70
     8
280
     0
  0
ATTDEF
  5
F0
330
E1
100
AcDbEntity
  8
AM_6
100
AcDbText
 10
5.924466108247825
 20
-5.609999999999999
 30
0.0
 40
0.5
  1
0.58
100
AcDbAttributeDefinition
  3

  2
C
 70
     8
280
     0
  0
ATTDEF
  5
F1
330
E1
100
AcDbEntity
  8
AM_6
100
AcDbText
 10
5.924466108247825
 20
-6.109999999999999
 30
0.0
 40
0.5
  1
1.8504
100
AcDbAttributeDefinition
  3

  2
D
 70
     8
280
     0
  0
ATTDEF
  5
F2
330
E1
100
AcDbEntity
  8
AM_6
100
AcDbText
 10
5.924466108247825
 20
-6.609999999999999
 30
0.0
 40
0.5
  1
0.15
100
AcDbAttributeDefinition
  3

  2
J
 70
     8
280
     0
  0
ATTDEF
  5
F3
330
E1
100
AcDbEntity
  8
AM_6
100
AcDbText
 10
5.924466108247825
 20
-7.109999999999999
 30
0.0
 40
0.5
  1
1.71
100
AcDbAttributeDefinition
  3

  2
L
 70
     8
280
     0
  0
ATTDEF
  5
F4
330
E1
100
AcDbEntity
  8
AM_6
100
AcDbText
 10
5.924466108247825
 20
-7.609999999999999
 30
0.0
 40
0.5
  1
#8-32
100
AcDbAttributeDefinition
  3

  2
N
 70
     8
280
     0
  0
ATTDEF
  5
F5
330
E1
100
AcDbEntity
  8
AM_6
100
AcDbText
 10
5.924466108247825
 20
-8.11
 30
0.0
 40
0.5
  1
0.50
100
AcDbAttributeDefinition
  3

  2
W
 70
     8
280
     0
  0
ATTDEF
  5
F6
330
E1
100
AcDbEntity
  8
AM_6
100
AcDbText
 10
5.924466108247825
 20
-8.61
 30
0.0
 40
0.5
  1
0.78
100
AcDbAttributeDefinition
  3

  2
Y
 70
     8
280
     0
  0
ATTDEF
  5
F7
330
E1
100
AcDbEntity
  8
AM_6
100
AcDbText
 10
5.924466108247825
 20
-9.11
 30
0.0
 40
0.5
  1
1.12
100
AcDbAttributeDefinition
  3

  2
Z
 70
     8
280
     0
  0
ATTDEF
  5
F8
330
E1
100
AcDbEntity
  8
AM_6
100
AcDbText
 10
5.924466108247825
 20
-9.61
 30
0.0
 40
0.5
  1
baldor
100
AcDbAttributeDefinition
  3

  2
COMPANY
 70
     8
280
     0
  0
LINE
  5
F9
330
E1
100
AcDbEntity
  8
AM_9
 48
0.0049020888359344
100
AcDbLine
 10
0.3749999999999999
 20
-1.3558
 30
0.0
 11
0.3749999999999999
 21
-0.1441999999999999
 31
0.0
  0
LINE
  5
FA
330
E1
100
AcDbEntity
  8
AM_9
 48
0.0049020888359344
100
AcDbLine
 10
-0.3749999999999999
 20
-0.1441999999999999
 30
0.0
 11
-0.3749999999999999
 21
-1.3558
 31
0.0
  0
LINE
  5
FB
330
E1
100
AcDbEntity
  8
AM_9
 48
0.0049020888359344
100
AcDbLine
 10
0.3749999999999999
 20
-0.1441999999999999
 30
0.0
 11
0.4092000000000001
 21
-0.1099999999999998
 31
0.0
  0
LINE
  5
FC
330
E1
100
AcDbEntity
  8
AM_9
 48
0.0049020888359344
100
AcDbLine
 10
-0.4092000000000001
 20
-0.1099999999999998
 30
0.0
 11
-0.3749999999999999
 21
-0.1441999999999999
 31
0.0
  0
LINE
  5
FD
330
E1
100
AcDbEntity
  8
AM_9
 48
0.0049020888359344
100
AcDbLine
 10
-0.3749999999999999
 20
-1.3558
 30
0.0
 11
-0.4092000000000001
 21
-1.39
 31
0.0
  0
LINE
  5
FE
330
E1
100
AcDbEntity
  8
AM_9
 48
0.0049020888359344
100
AcDbLine
 10
0.4092000000000001
 20
-1.39
 30
0.0
 11
0.3749999999999999
 21
-1.3558
 31
0.0
  0
LINE
  5
FF
330
E1
100
AcDbEntity
  8
AM_9
 48
0.0049020888359344
100
AcDbLine
 10
-0.5258
 20
-0.1099999999999998
 30
0.0
 11
0.5258
 21
-0.1099999999999998
 31
0.0
  0
LINE
  5
100
330
E1
100
AcDbEntity
  8
AM_9
 48
0.0049020888359344
100
AcDbLine
 10
-0.5258
 20
-0.1099999999999998
 30
0.0
 11
-0.56
 21
-0.1441999999999999
 31
0.0
  0
LINE
  5
101
330
E1
100
AcDbEntity
  8
AM_9
 48
0.0049020888359344
100
AcDbLine
 10
0.56
 20
-0.1441999999999999
 30
0.0
 11
0.5258
 21
-0.1099999999999998
 31
0.0
  0
LINE
  5
102
330
E1
100
AcDbEntity
  8
AM_9
 48
0.0049020888359344
100
AcDbLine
 10
-0.56
 20
-0.1441999999999999
 30
0.0
 11
0.56
 21
-0.1441999999999999
 31
0.0
  0
LINE
  5
103
330
E1
100
AcDbEntity
  8
AM_9
 48
0.0049020888359344
100
AcDbLine
 10
0.5600000000000003
 20
-0.3199999999999998
 30
0.0
 11
0.5600000000000003
 21
-0.1441999999999999
 31
0.0
  0
LINE
  5
104
330
E1
100
AcDbEntity
  8
AM_9
 48
0.0049020888359344
100
AcDbLine
 10
-0.5600000000000003
 20
-0.1441999999999999
 30
0.0
 11
-0.5600000000000003
 21
-0.3199999999999998
 31
0.0
  0
LINE
  5
105
330
E1
100
AcDbEntity
  8
AM_9
 48
0.0049020888359344
100
AcDbLine
 10
0.5600000000000005
 20
-0.98
 30
0.0
 11
0.5600000000000005
 21
-0.8999999999999999
 31
0.0
  0
LINE
  5
106
330
E1
100
AcDbEntity
  8
AM_9
 48
0.0049020888359344
100
AcDbLine
 10
-0.5600000000000005
 20
-0.8999999999999999
 30
0.0
 11
-0.5600000000000005
 21
-0.98
 31
0.0
  0
LINE
  5
107
330
E1
100
AcDbEntity
  8
AM_9
 48
0.0049020888359344
100
AcDbLine
 10
0.8752
 20
-0.7899999999999998
 30
0.0
 11
0.8752
 21
-0.7299999999999999
 31
0.0
  0
LINE
  5
108
330
E1
100
AcDbEntity
  8
AM_9
 48
0.0049020888359344
100
AcDbLine
 10
-0.8752
 20
-0.7299999999999999
 30
0.0
 11
-0.8752
 21
-0.7899999999999998
 31
0.0
  0
LINE
  5
109
330
E1
100
AcDbEntity
  8
AM_9
 48
0.0049020888359344
100
AcDbLine
 10
-0.8566113704592065
 20
-0.8999999999999999
 30
0.0
 11
0.8566113704588347
 21
-0.8999999999999999
 31
0.0
  0
ARC
  5
10A
330
E1
100
AcDbEntity
  8
AM_9
 48
0.0049020888359344
100
AcDbCircle
 10
0.8566113704592061
 20
-0.8699999999999991
 30
0.0
 40
0.0300000000000008
100
AcDbArc
 50
270.0000000000009
 51
343.1158262695204
  0
ARC
  5
10B
330
E1
100
AcDbEntity
  8
AM_9
 48
0.0049020888359344
100
AcDbCircle
 10
-0.8566113704592064
 20
-0.8699999999999996
 30
0.0
 40
0.0300000000000003
100
AcDbArc
 50
196.884173730479
 51
269.9999999999998
  0
LINE
  5
10C
330
E1
100
AcDbEntity
  8
AM_9
 48
0.0049020888359344
100
AcDbLine
 10
-0.8566113704592065
 20
-0.3199999999999998
 30
0.0
 11
0.8566113704588347
 21
-0.3199999999999998
 31
0.0
  0
ARC
  5
10D
330
E1
100
AcDbEntity
  8
AM_9
 48
0.0049020888359344
100
AcDbCircle
 10
0.856611370459206
 20
-0.3500000000000004
 30
0.0
 40
0.0300000000000006
100
AcDbArc
 50
16.88417219008375
 51
89.99999999999896
  0
ARC
  5
10E
330
E1
100
AcDbEntity
  8
AM_9
 48
0.0049020888359344
100
AcDbCircle
 10
-0.856611370459206
 20
-0.3500000000000002
 30
0.0
 40
0.0300000000000004
100
AcDbArc
 50
90.00000000000107
 51
163.1158278099167
  0
LINE
  5
10F
330
E1
100
AcDbEntity
  8
AM_9
 48
0.0049020888359344
100
AcDbLine
 10
-0.885318185823121
 20
-0.8787131367292226
 30
0.0
 11
0.8853181858231396
 21
-0.8787131367292226
 31
0.0
  0
LINE
  5
110
330
E1
100
AcDbEntity
  8
AM_9
 48
0.0049020888359344
100
AcDbLine
 10
-0.907521371649175
 20
-0.7899999999999998
 30
0.0
 11
0.9075213716491937
 21
-0.7899999999999998
 31
0.0
  0
ARC
  5
111
330
E1
100
AcDbEntity
  8
AM_9
 48
0.0049020888359344
100
AcDbCircle
 10
-0.0000000001475035
 20
-0.6099999999630781
 30
0.0
 40
0.9252000001518865
100
AcDbArc
 50
343.1158262699873
 51
348.7814152150241
  0
ARC
  5
112
330
E1
100
AcDbEntity
  8
AM_9
 48
0.0049020888359344
100
AcDbCircle
 10
-0.0000000000143131
 20
-0.6100000000035776
 30
0.0
 40
0.9251999999852827
100
AcDbArc
 50
191.2185847844653
 51
196.8841737305233
  0
LINE
  5
113
330
E1
100
AcDbEntity
  8
AM_9
 48
0.0049020888359344
100
AcDbLine
 10
-0.917384891961929
 20
-0.7299999999999999
 30
0.0
 11
0.917384891961929
 21
-0.7299999999999999
 31
0.0
  0
LINE
  5
114
330
E1
100
AcDbEntity
  8
AM_9
 48
0.0049020888359344
100
AcDbLine
 10
-0.8853181860573732
 20
-0.3412868640425591
 30
0.0
 11
0.8853181860573732
 21
-0.3412868640425591
 31
0.0
  0
ARC
  5
115
330
E1
100
AcDbEntity
  8
AM_9
 48
0.0049020888359344
100
AcDbCircle
 10
0.0000000000000042
 20
-0.61
 30
0.0
 40
0.9251999999999958
100
AcDbArc
 50
352.5476457553004
 51
16.88417368053026
  0
ARC
  5
116
330
E1
100
AcDbEntity
  8
AM_9
 48
0.0049020888359344
100
AcDbCircle
 10
-0.0000000000000044
 20
-0.61
 30
0.0
 40
0.9251999999999957
100
AcDbArc
 50
163.1158263194697
 51
187.4523542446996
  0
LINE
  5
117
330
E1
100
AcDbEntity
  8
AM_0
 48
0.0049020888359344
100
AcDbLine
 10
0.5600000000000005
 20
-1.0
 30
0.0
 11
0.5600000000000005
 21
-0.98
 31
0.0
  0
LINE
  5
118
330
E1
100
AcDbEntity
  8
AM_0
 48
0.0049020888359344
100
AcDbLine
 10
-0.5600000000000005
 20
-0.98
 30
0.0
 11
-0.5600000000000005
 21
-1.0
 31
0.0
  0
LINE
  5
119
330
E1
100
AcDbEntity
  8
AM_0
 48
0.0049020888359344
100
AcDbLine
 10
-0.8208
 20
-1.0
 30
0.0
 11
0.8208
 21
-1.0
 31
0.0
  0
LINE
  5
11A
330
E1
100
AcDbEntity
  8
AM_0
 48
0.0049020888359344
100
AcDbLine
 10
-0.8208
 20
-1.0
 30
0.0
 11
-0.855
 21
-1.0342
 31
0.0
  0
LINE
  5
11B
330
E1
100
AcDbEntity
  8
AM_0
 48
0.0049020888359344
100
AcDbLine
 10
0.855
 20
-1.0342
 30
0.0
 11
0.8208
 21
-1.0
 31
0.0
  0
LINE
  5
11C
330
E1
100
AcDbEntity
  8
AM_0
 48
0.0049020888359344
100
AcDbLine
 10
-0.8208
 20
-1.39
 30
0.0
 11
0.8208
 21
-1.39
 31
0.0
  0
LINE
  5
11D
330
E1
100
AcDbEntity
  8
AM_0
 48
0.0049020888359344
100
AcDbLine
 10
0.8208
 20
-1.39
 30
0.0
 11
0.855
 21
-1.3558
 31
0.0
  0
LINE
  5
11E
330
E1
100
AcDbEntity
  8
AM_0
 48
0.0049020888359344
100
AcDbLine
 10
-0.855
 20
-1.3558
 30
0.0
 11
-0.8208
 21
-1.39
 31
0.0
  0
LINE
  5
11F
330
E1
100
AcDbEntity
  8
AM_0
 48
0.0049020888359344
100
AcDbLine
 10
-0.855
 20
-1.3558
 30
0.0
 11
0.855
 21
-1.3558
 31
0.0
  0
LINE
  5
120
330
E1
100
AcDbEntity
  8
AM_0
 48
0.0049020888359344
100
AcDbLine
 10
-0.855
 20
-1.0342
 30
0.0
 11
0.855
 21
-1.0342
 31
0.0
  0
LINE
  5
121
330
E1
100
AcDbEntity
  8
AM_0
 48
0.0049020888359344
100
AcDbLine
 10
0.855
 20
-1.3558
 30
0.0
 11
0.855
 21
-1.0342
 31
0.0
  0
LINE
  5
122
330
E1
100
AcDbEntity
  8
AM_0
 48
0.0049020888359344
100
AcDbLine
 10
-0.855
 20
-1.0342
 30
0.0
 11
-0.855
 21
-1.3558
 31
0.0
  0
ENDBLK
  5
E4
330
E1
100
AcDbEntity
  8
0
100
AcDbBlockEnd
  0
BLOCK
  5
125
330
123
100
AcDbEntity
  8
0
100
AcDbBlockBegin
  2
3_056696h_0_in_056696_4
 70
     2
 10
0.0
 20
0.0
 30
0.0
  3
3_056696h_0_in_056696_4
  1

  0
ATTDEF
  5
127
330
123
100
AcDbEntity
  8
AM_6
100
AcDbText
 10
6.19
 20
0.2165
 30
0.0
 40
0.5
  1
F2BZ-DL - Inch - Housing
100
AcDbAttributeDefinition
  3

  2
NN
 70
     8
280
     0
  0
ATTDEF
  5
128
330
123
100
AcDbEntity
  8
AM_6
100
AcDbText
 10
6.19
 20
-0.2835
 30
0.0
 40
0.5
  1
DL Normal Duty 2-Bolt Piloted Flange Bearings
100
AcDbAttributeDefinition
  3

  2
NT
 70
     8
280
     0
  0
ATTDEF
  5
129
330
123
100
AcDbEntity
  8
AM_6
100
AcDbText
 10
6.19
 20
-0.7835
 30
0.0
 40
0.5
  1
056696h
100
AcDbAttributeDefinition
  3

  2
NB
 70
     8
280
     0
  0
ATTDEF
  5
12A
330
123
100
AcDbEntity
  8
AM_6
100
AcDbText
 10
6.19
 20
-1.2835
 30
0.0
 40
0.5
  1
$PN.h
100
AcDbAttributeDefinition
  3

  2
NBSYN
 70
     8
280
     0
  0
ATTDEF
  5
12B
330
123
100
AcDbEntity
  8
AM_6
100
AcDbText
 10
6.19
 20
-1.7835
 30
0.0
 40
0.5
  1
056696
100
AcDbAttributeDefinition
  3

  2
LINA
 70
     8
280
     0
  0
ATTDEF
  5
12C
330
123
100
AcDbEntity
  8
AM_6
100
AcDbText
 10
6.19
 20
-2.2835
 30
0.0
 40
0.5
  1
204
100
AcDbAttributeDefinition
  3

  2
SERIES
 70
     8
280
     0
  0
ATTDEF
  5
12D
330
123
100
AcDbEntity
  8
AM_6
100
AcDbText
 10
6.19
 20
-2.7835
 30
0.0
 40
0.5
  1
3/4
100
AcDbAttributeDefinition
  3

  2
SS
 70
     8
280
     0
  0
ATTDEF
  5
12E
330
123
100
AcDbEntity
  8
AM_6
100
AcDbText
 10
6.19
 20
-3.2835
 30
0.0
 40
0.5
  1
056696
100
AcDbAttributeDefinition
  3

  2
PN
 70
     8
280
     0
  0
ATTDEF
  5
12F
330
123
100
AcDbEntity
  8
AM_6
100
AcDbText
 10
6.19
 20
-3.7835
 30
0.0
 40
0.5
  1
F2BZ-DL-012
100
AcDbAttributeDefinition
  3

  2
DESCRIPTION
 70
     8
280
     0
  0
ATTDEF
  5
130
330
123
100
AcDbEntity
  8
AM_6
100
AcDbText
 10
6.19
 20
-4.2835
 30
0.0
 40
0.5
  1
1.4
100
AcDbAttributeDefinition
  3

  2
W
 70
     8
280
     0
  0
ATTDEF
  5
131
330
123
100
AcDbEntity
  8
AM_6
100
AcDbText
 10
6.19
 20
-4.7835
 30
0.0
 40
0.5
  1
1.28
100
AcDbAttributeDefinition
  3

  2
A
 70
     8
280
     0
  0
ATTDEF
  5
132
330
123
100
AcDbEntity
  8
AM_6
100
AcDbText
 10
6.19
 20
-5.2835
 30
0.0
 40
0.5
  1
4.41
100
AcDbAttributeDefinition
  3

  2
B
 70
     8
280
     0
  0
ATTDEF
  5
133
330
123
100
AcDbEntity
  8
AM_6
100
AcDbText
 10
6.19
 20
-5.7835
 30
0.0
 40
0.5
  1
1.53
100
AcDbAttributeDefinition
  3

  2
C
 70
     8
280
     0
  0
ATTDEF
  5
134
330
123
100
AcDbEntity
  8
AM_6
100
AcDbText
 10
6.19
 20
-6.2835
 30
0.0
 40
0.5
  1
3.53
100
AcDbAttributeDefinition
  3

  2
D
 70
     8
280
     0
  0
ATTDEF
  5
135
330
123
100
AcDbEntity
  8
AM_6
100
AcDbText
 10
6.19
 20
-6.7835
 30
0.0
 40
0.5
  1
0.14
100
AcDbAttributeDefinition
  3

  2
E
 70
     8
280
     0
  0
ATTDEF
  5
136
330
123
100
AcDbEntity
  8
AM_6
100
AcDbText
 10
6.19
 20
-7.2835
 30
0.0
 40
0.5
  1
3/8
100
AcDbAttributeDefinition
  3

  2
F
 70
     8
280
     0
  0
ATTDEF
  5
137
330
123
100
AcDbEntity
  8
AM_6
100
AcDbText
 10
6.19
 20
-7.7835
 30
0.0
 40
0.5
  1
0.37500
100
AcDbAttributeDefinition
  3

  2
F1
 70
     8
280
     0
  0
ATTDEF
  5
138
330
123
100
AcDbEntity
  8
AM_6
100
AcDbText
 10
6.19
 20
-8.2835
 30
0.0
 40
0.5
  1
1.39
100
AcDbAttributeDefinition
  3

  2
G
 70
     8
280
     0
  0
ATTDEF
  5
139
330
123
100
AcDbEntity
  8
AM_6
100
AcDbText
 10
6.19
 20
-8.7835
 30
0.0
 40
0.5
  1
0.50
100
AcDbAttributeDefinition
  3

  2
H
 70
     8
280
     0
  0
ATTDEF
  5
13A
330
123
100
AcDbEntity
  8
AM_6
100
AcDbText
 10
6.19
 20
-9.2835
 30
0.0
 40
0.5
  1
0.41
100
AcDbAttributeDefinition
  3

  2
J
 70
     8
280
     0
  0
ATTDEF
  5
13B
330
123
100
AcDbEntity
  8
AM_6
100
AcDbText
 10
6.19
 20
-9.7835
 30
0.0
 40
0.5
  1
2.164
100
AcDbAttributeDefinition
  3

  2
K
 70
     8
280
     0
  0
ATTDEF
  5
13C
330
123
100
AcDbEntity
  8
AM_6
100
AcDbText
 10
6.19
 20
-10.2835
 30
0.0
 40
0.5
  1
1.71
100
AcDbAttributeDefinition
  3

  2
L
 70
     8
280
     0
  0
ATTDEF
  5
13D
330
123
100
AcDbEntity
  8
AM_6
100
AcDbText
 10
6.19
 20
-10.7835
 30
0.0
 40
0.5
  1
2.38
100
AcDbAttributeDefinition
  3

  2
M
 70
     8
280
     0
  0
ATTDEF
  5
13E
330
123
100
AcDbEntity
  8
AM_6
100
AcDbText
 10
6.19
 20
-11.2835
 30
0.0
 40
0.5
  1
1.50
100
AcDbAttributeDefinition
  3

  2
N
 70
     8
280
     0
  0
ATTDEF
  5
13F
330
123
100
AcDbEntity
  8
AM_6
100
AcDbText
 10
6.19
 20
-11.7835
 30
0.0
 40
0.5
  1
1390
100
AcDbAttributeDefinition
  3

  2
CAPS
 70
     8
280
     0
  0
ATTDEF
  5
140
330
123
100
AcDbEntity
  8
AM_6
100
AcDbText
 10
6.19
 20
-12.2835
 30
0.0
 40
0.5
  1
2899
100
AcDbAttributeDefinition
  3

  2
CAPD
 70
     8
280
     0
  0
ATTDEF
  5
141
330
123
100
AcDbEntity
  8
AM_6
100
AcDbText
 10
6.19
 20
-12.7835
 30
0.0
 40
0.5
  1
1.8504
100
AcDbAttributeDefinition
  3

  2
BOD
 70
     8
280
     0
  0
ATTDEF
  5
142
330
123
100
AcDbEntity
  8
AM_6
100
AcDbText
 10
6.19
 20
-13.2835
 30
0.0
 40
0.5
  1
60
100
AcDbAttributeDefinition
  3

  2
KUT
 70
     8
280
     0
  0
ATTDEF
  5
143
330
123
100
AcDbEntity
  8
AM_6
100
AcDbText
 10
6.19
 20
-13.7835
 30
0.0
 40
0.5
  1
baldor
100
AcDbAttributeDefinition
  3

  2
COMPANY
 70
     8
280
     0
  0
LINE
  5
144
330
123
100
AcDbEntity
  8
AM_9
 48
0.0065096358529943
100
AcDbLine
 10
1.007577590357639
 20
0.0
 30
0.0
 11
1.007577590357639
 21
-0.4499999999999999
 31
0.0
  0
LINE
  5
145
330
123
100
AcDbEntity
  8
AM_9
 48
0.0065096358529943
100
AcDbLine
 10
1.077219651329437
 20
-0.45
 30
0.0
 11
0.7919037370569785
 21
-0.45
 31
0.0
  0
LINE
  5
146
330
123
100
AcDbEntity
  8
AM_9
 48
0.0065096358529943
100
AcDbLine
 10
1.114529238800014
 20
-0.8844059901437025
 30
0.0
 11
1.114529238800014
 21
-0.6156016669413396
 31
0.0
  0
LINE
  5
147
330
123
100
AcDbEntity
  8
AM_9
 48
0.0065096358529943
100
AcDbLine
 10
0.9252
 20
-0.98
 30
0.0
 11
0.9252
 21
0.1400000000000002
 31
0.0
  0
LINE
  5
148
330
123
100
AcDbEntity
  8
AM_9
 48
0.0065096358529943
100
AcDbLine
 10
-0.9252
 20
0.1400000000000002
 30
0.0
 11
-0.9252
 21
-0.98
 31
0.0
  0
LINE
  5
149
330
123
100
AcDbEntity
  8
AM_9
 48
0.0065096358529943
100
AcDbLine
 10
1.099884577859341
 20
-0.619515293996158
 30
0.0
 11
1.099884577859341
 21
-0.880464211183039
 31
0.0
  0
LINE
  5
14A
330
123
100
AcDbEntity
  8
AM_9
 48
0.0065096358529943
100
AcDbLine
 10
1.077219651329437
 20
-0.45
 30
0.0
 11
1.077219651329437
 21
0.0
 31
0.0
  0
LINE
  5
14B
330
123
100
AcDbEntity
  8
AM_9
 48
0.0065096358529943
100
AcDbLine
 10
0.9994552473447624
 20
-0.4499999999999999
 30
0.0
 11
0.9994552473447621
 21
-0.98
 31
0.0
  0
LINE
  5
14C
330
123
100
AcDbEntity
  8
AM_9
 48
0.0065096358529943
100
AcDbLine
 10
1.19
 20
-0.8657518281082411
 30
0.0
 11
1.19
 21
-0.6342481718917589
 31
0.0
  0
LINE
  5
14D
330
123
100
AcDbEntity
  8
AM_9
 48
0.0065096358529943
100
AcDbLine
 10
0.1875
 20
-0.4999999999999998
 30
0.0
 11
0.1875
 21
0.0000000000000001
 31
0.0
  0
LINE
  5
14E
330
123
100
AcDbEntity
  8
AM_9
 48
0.0065096358529943
100
AcDbLine
 10
-0.1875
 20
0.0000000000000001
 30
0.0
 11
-0.1875
 21
-0.4999999999999998
 31
0.0
  0
LINE
  5
151
330
123
100
AcDbEntity
  8
AM_7
 48
0.0065096358529943
100
AcDbLine
 10
0.0
 20
0.2165
 30
0.0
 11
0.0
 21
-1.4665
 31
0.0
  0
LINE
  5
152
330
123
100
AcDbEntity
  8
AM_0
 48
0.0065096358529943
100
AcDbLine
 10
1.114529238800014
 20
-0.6156016669413396
 30
0.0
 11
1.114529238800014
 21
0.0
 31
0.0
  0
LINE
  5
153
330
123
100
AcDbEntity
  8
AM_0
 48
0.0065096358529943
100
AcDbLine
 10
1.114529238800014
 20
-0.98
 30
0.0
 11
1.114529238800014
 21
-0.8844059901437025
 31
0.0
  0
LINE
  5
154
330
123
100
AcDbEntity
  8
AM_0
 48
0.0065096358529943
100
AcDbLine
 10
1.082
 20
0.14
 30
0.0
 11
-1.082
 21
0.14
 31
0.0
  0
LINE
  5
155
330
123
100
AcDbEntity
  8
AM_0
 48
0.0065096358529943
100
AcDbLine
 10
-1.082
 20
0.14
 30
0.0
 11
-1.082
 21
0.0
 31
0.0
  0
LINE
  5
156
330
123
100
AcDbEntity
  8
AM_0
 48
0.0065096358529943
100
AcDbLine
 10
1.082
 20
0.0
 30
0.0
 11
1.082
 21
0.14
 31
0.0
  0
LINE
  5
157
330
123
100
AcDbEntity
  8
AM_4
 48
0.0065096358529943
100
AcDbLine
 10
1.099884577859341
 20
-0.880464211183039
 30
0.0
 11
1.099884577859341
 21
-0.98
 31
0.0
  0
LINE
  5
158
330
123
100
AcDbEntity
  8
AM_4
 48
0.0065096358529943
100
AcDbLine
 10
1.099884577859341
 20
0.0000000000000001
 30
0.0
 11
1.099884577859341
 21
-0.619515293996158
 31
0.0
  0
LINE
  5
159
330
123
100
AcDbEntity
  8
AM_4
 48
0.0065096358529943
100
AcDbLine
 10
0.7463311872660674
 20
-0.4499999999999999
 30
0.0
 11
0.7463311872660674
 21
-0.98
 31
0.0
  0
LINE
  5
15A
330
123
100
AcDbEntity
  8
AM_4
 48
0.0065096358529943
100
AcDbLine
 10
0.8170418653847217
 20
0.0000000000000001
 30
0.0
 11
0.8170418653847217
 21
-0.98
 31
0.0
  0
LINE
  5
15B
330
123
100
AcDbEntity
  8
AM_0
 48
0.0065096358529943
100
AcDbLine
 10
1.19
 20
-0.98
 30
0.0
 11
-1.19
 21
-0.98
 31
0.0
  0
LINE
  5
15C
330
123
100
AcDbEntity
  8
AM_0
 48
0.0065096358529943
100
AcDbLine
 10
0.6459018567514884
 20
-0.98
 30
0.0
 11
0.6459018567514881
 21
-0.4499999999999999
 31
0.0
  0
LINE
  5
15D
330
123
100
AcDbEntity
  8
AM_0
 48
0.0065096358529943
100
AcDbLine
 10
1.19
 20
-0.6342481718917589
 30
0.0
 11
1.19
 21
0.0
 31
0.0
  0
LINE
  5
15E
330
123
100
AcDbEntity
  8
AM_0
 48
0.0065096358529943
100
AcDbLine
 10
1.19
 20
-0.98
 30
0.0
 11
1.19
 21
-0.8657518281082411
 31
0.0
  0
LINE
  5
15F
330
123
100
AcDbEntity
  8
AM_0
 48
0.0065096358529943
100
AcDbLine
 10
-1.189999999999998
 20
0.0
 30
0.0
 11
-1.189999999999998
 21
-0.98
 31
0.0
  0
LINE
  5
160
330
123
100
AcDbEntity
  8
AM_0
 48
0.0065096358529943
100
AcDbLine
 10
-0.5997119089572532
 20
-0.4499999999999999
 30
0.0
 11
-0.5997119089572527
 21
-0.4999999999999999
 31
0.0
  0
LINE
  5
161
330
123
100
AcDbEntity
  8
AM_0
 48
0.0065096358529943
100
AcDbLine
 10
0.5997119089572532
 20
-0.4999999999999999
 30
0.0
 11
-0.5997119089572527
 21
-0.4999999999999999
 31
0.0
  0
LINE
  5
162
330
123
100
AcDbEntity
  8
AM_0
 48
0.0065096358529943
100
AcDbLine
 10
0.5997119089572532
 20
-0.4999999999999999
 30
0.0
 11
0.5997119089572532
 21
-0.4499999999999999
 31
0.0
  0
LINE
  5
163
330
123
100
AcDbEntity
  8
AM_0
 48
0.0065096358529943
100
AcDbLine
 10
-0.3982997030125652
 20
-0.4499999999999998
 30
0.0
 11
-1.077219651329437
 21
-0.45
 31
0.0
  0
LINE
  5
164
330
123
100
AcDbEntity
  8
AM_4
 48
0.0065096358529943
100
AcDbLine
 10
-1.077219651329437
 20
-0.45
 30
0.0
 11
-1.077219651329437
 21
0.0
 31
0.0
  0
LINE
  5
165
330
123
100
AcDbEntity
  8
AM_0
 48
0.0065096358529943
100
AcDbLine
 10
1.19
 20
0.0
 30
0.0
 11
-1.19
 21
0.0
 31
0.0
  0
LINE
  5
166
330
123
100
AcDbEntity
  8
AM_0
 48
0.0065096358529943
100
AcDbLine
 10
0.7919037370569785
 20
-0.4499999999999999
 30
0.0
 11
0.398299703012565
 21
-0.4499999999999998
 31
0.0
  0
LINE
  5
167
330
123
100
AcDbEntity
  8
AM_0
 48
0.0065096358529943
100
AcDbLine
 10
0.7919037370569785
 20
-0.4499999999999999
 30
0.0
 11
0.7919037370569786
 21
0.0000000000000001
 31
0.0
  0
LINE
  5
168
330
123
100
AcDbEntity
  8
AM_4
 48
0.0065096358529943
100
AcDbLine
 10
0.4310932242297591
 20
-0.4499999999999998
 30
0.0
 11
0.4310932242297591
 21
-0.4999999999999998
 31
0.0
  0
LINE
  5
169
330
123
100
AcDbEntity
  8
AM_4
 48
0.0065096358529943
100
AcDbLine
 10
0.398299703012565
 20
-0.4499999999999998
 30
0.0
 11
0.3982997030125651
 21
0.0000000000000001
 31
0.0
  0
LINE
  5
16A
330
123
100
AcDbEntity
  8
AM_4
 48
0.0065096358529943
100
AcDbLine
 10
-0.3982997030125652
 20
-0.4499999999999998
 30
0.0
 11
-0.3982997030125652
 21
0.0000000000000001
 31
0.0
  0
LINE
  5
16B
330
123
100
AcDbEntity
  8
AM_4
 48
0.0065096358529943
100
AcDbLine
 10
-0.4310932242297593
 20
-0.4499999999999998
 30
0.0
 11
-0.4310932242297593
 21
-0.4999999999999998
 31
0.0
  0
ENDBLK
  5
126
330
123
100
AcDbEntity
  8
0
100
AcDbBlockEnd
  0
ENDSEC
  0
SECTION
  2
ENTITIES
  0
ATTDEF
  5
6F
330
1F
100
AcDbEntity
  8
AM_6
100
AcDbText
 10
6.26687597251701
 20
0.2165
 30
0.0
 40
0.5
  1
D-Lok Two-Bolt Piloted Flange Inch Bore
100
AcDbAttributeDefinition
  3

  2
NN
 70
     8
280
     0
  0
ATTDEF
  5
70
330
1F
100
AcDbEntity
  8
AM_6
100
AcDbText
 10
6.26687597251701
 20
-0.2835
 30
0.0
 40
0.5
  1
DL Normal Duty 2-Bolt Piloted Flange Bearings
100
AcDbAttributeDefinition
  3

  2
NT
 70
     8
280
     0
  0
ATTDEF
  5
71
330
1F
100
AcDbEntity
  8
AM_6
100
AcDbText
 10
6.26687597251701
 20
-0.7835
 30
0.0
 40
0.5
  1
056696
100
AcDbAttributeDefinition
  3

  2
NB
 70
     8
280
     0
  0
ATTDEF
  5
72
330
1F
100
AcDbEntity
  8
AM_6
100
AcDbText
 10
6.26687597251701
 20
-1.2835
 30
0.0
 40
0.5
  1
$PN.
100
AcDbAttributeDefinition
  3

  2
NBSYN
 70
     8
280
     0
  0
ATTDEF
  5
73
330
1F
100
AcDbEntity
  8
AM_6
100
AcDbText
 10
6.26687597251701
 20
-1.7835
 30
0.0
 40
0.5
  1
056696
100
AcDbAttributeDefinition
  3

  2
LINA
 70
     8
280
     0
  0
ATTDEF
  5
74
330
1F
100
AcDbEntity
  8
AM_6
100
AcDbText
 10
6.26687597251701
 20
-2.2835
 30
0.0
 40
0.5
  1
204
100
AcDbAttributeDefinition
  3

  2
SERIES
 70
     8
280
     0
  0
ATTDEF
  5
75
330
1F
100
AcDbEntity
  8
AM_6
100
AcDbText
 10
6.26687597251701
 20
-2.7835
 30
0.0
 40
0.5
  1
3/4
100
AcDbAttributeDefinition
  3

  2
SS
 70
     8
280
     0
  0
ATTDEF
  5
76
330
1F
100
AcDbEntity
  8
AM_6
100
AcDbText
 10
6.26687597251701
 20
-3.2835
 30
0.0
 40
0.5
  1
056696
100
AcDbAttributeDefinition
  3

  2
PN
 70
     8
280
     0
  0
ATTDEF
  5
77
330
1F
100
AcDbEntity
  8
AM_6
100
AcDbText
 10
6.26687597251701
 20
-3.7835
 30
0.0
 40
0.5
  1
F2BZ-DL-012
100
AcDbAttributeDefinition
  3

  2
DESCRIPTION
 70
     8
280
     0
  0
ATTDEF
  5
78
330
1F
100
AcDbEntity
  8
AM_6
100
AcDbText
 10
6.26687597251701
 20
-4.2835
 30
0.0
 40
0.5
  1
1.4
100
AcDbAttributeDefinition
  3

  2
W
 70
     8
280
     0
  0
ATTDEF
  5
79
330
1F
100
AcDbEntity
  8
AM_6
100
AcDbText
 10
6.26687597251701
 20
-4.7835
 30
0.0
 40
0.5
  1
1.28
100
AcDbAttributeDefinition
  3

  2
A
 70
     8
280
     0
  0
ATTDEF
  5
7A
330
1F
100
AcDbEntity
  8
AM_6
100
AcDbText
 10
6.26687597251701
 20
-5.2835
 30
0.0
 40
0.5
  1
4.41
100
AcDbAttributeDefinition
  3

  2
B
 70
     8
280
     0
  0
ATTDEF
  5
7B
330
1F
100
AcDbEntity
  8
AM_6
100
AcDbText
 10
6.26687597251701
 20
-5.7835
 30
0.0
 40
0.5
  1
1.53
100
AcDbAttributeDefinition
  3

  2
C
 70
     8
280
     0
  0
ATTDEF
  5
7C
330
1F
100
AcDbEntity
  8
AM_6
100
AcDbText
 10
6.26687597251701
 20
-6.2835
 30
0.0
 40
0.5
  1
3.53
100
AcDbAttributeDefinition
  3

  2
D
 70
     8
280
     0
  0
ATTDEF
  5
7D
330
1F
100
AcDbEntity
  8
AM_6
100
AcDbText
 10
6.26687597251701
 20
-6.7835
 30
0.0
 40
0.5
  1
0.14
100
AcDbAttributeDefinition
  3

  2
E
 70
     8
280
     0
  0
ATTDEF
  5
7E
330
1F
100
AcDbEntity
  8
AM_6
100
AcDbText
 10
6.26687597251701
 20
-7.2835
 30
0.0
 40
0.5
  1
3/8
100
AcDbAttributeDefinition
  3

  2
F
 70
     8
280
     0
  0
ATTDEF
  5
7F
330
1F
100
AcDbEntity
  8
AM_6
100
AcDbText
 10
6.26687597251701
 20
-7.7835
 30
0.0
 40
0.5
  1
1.39
100
AcDbAttributeDefinition
  3

  2
G
 70
     8
280
     0
  0
ATTDEF
  5
80
330
1F
100
AcDbEntity
  8
AM_6
100
AcDbText
 10
6.26687597251701
 20
-8.2835
 30
0.0
 40
0.5
  1
0.50
100
AcDbAttributeDefinition
  3

  2
H
 70
     8
280
     0
  0
ATTDEF
  5
81
330
1F
100
AcDbEntity
  8
AM_6
100
AcDbText
 10
6.26687597251701
 20
-8.7835
 30
0.0
 40
0.5
  1
0.41
100
AcDbAttributeDefinition
  3

  2
J
 70
     8
280
     0
  0
ATTDEF
  5
82
330
1F
100
AcDbEntity
  8
AM_6
100
AcDbText
 10
6.26687597251701
 20
-9.2835
 30
0.0
 40
0.5
  1
2.165/2.163
100
AcDbAttributeDefinition
  3

  2
K
 70
     8
280
     0
  0
ATTDEF
  5
83
330
1F
100
AcDbEntity
  8
AM_6
100
AcDbText
 10
6.26687597251701
 20
-9.7835
 30
0.0
 40
0.5
  1
1.71
100
AcDbAttributeDefinition
  3

  2
L
 70
     8
280
     0
  0
ATTDEF
  5
84
330
1F
100
AcDbEntity
  8
AM_6
100
AcDbText
 10
6.26687597251701
 20
-10.2835
 30
0.0
 40
0.5
  1
2.38
100
AcDbAttributeDefinition
  3

  2
M
 70
     8
280
     0
  0
ATTDEF
  5
85
330
1F
100
AcDbEntity
  8
AM_6
100
AcDbText
 10
6.26687597251701
 20
-10.7835
 30
0.0
 40
0.5
  1
1.50
100
AcDbAttributeDefinition
  3

  2
N
 70
     8
280
     0
  0
ATTDEF
  5
86
330
1F
100
AcDbEntity
  8
AM_6
100
AcDbText
 10
6.26687597251701
 20
-11.2835
 30
0.0
 40
0.5
  1
baldor
100
AcDbAttributeDefinition
  3

  2
COMPANY
 70
     8
280
     0
  0
INSERT
  5
88
330
1F
100
AcDbEntity
  8
0
100
AcDbBlockReference
  2
1_405020c_Inch_0_in_056696_4
 10
0.0
 20
0.0
 30
0.0
  0
INSERT
  5
E2
330
1F
100
AcDbEntity
  8
0
100
AcDbBlockReference
  2
2_128646_0_in_056696_4
 10
0.0
 20
0.0
 30
0.0
  0
INSERT
  5
124
330
1F
100
AcDbEntity
  8
0
100
AcDbBlockReference
  2
3_056696h_0_in_056696_4
 10
0.0
 20
0.0
 30
0.0
  0
POINT
  5
16D
330
1F
100
AcDbEntity
  8
ConnectionPoints
100
AcDbPoint
 10
0.0
 20
-1.39
 30
0.0000000000000001
  0
POINT
  5
16E
330
1F
100
AcDbEntity
  8
ConnectionPoints
100
AcDbPoint
 10
0.0
 20
-0.1099999999999999
 30
0.0
  0
POINT
  5
16F
330
1F
100
AcDbEntity
  8
ConnectionPoints
100
AcDbPoint
 10
0.0
 20
-0.6099999999999999
 30
0.0
  0
POINT
  5
170
330
1F
100
AcDbEntity
  8
ConnectionPoints
100
AcDbPoint
 10
0.0
 20
-1.39
 30
0.0000000000000001
  0
POINT
  5
171
330
1F
100
AcDbEntity
  8
ConnectionPoints
100
AcDbPoint
 10
0.9584632216220317
 20
-0.7499999999999999
 30
0.9584632216220315
  0
ENDSEC
  0
SECTION
  2
OBJECTS
  0
DICTIONARY
  5
C
330
0
100
AcDbDictionary
281
     1
  3
ACAD_DETAILVIEWSTYLE
350
179
  3
ACAD_GROUP
350
D
  3
ACAD_LAYOUT
350
1A
  3
ACAD_MATERIAL
350
43
  3
ACAD_MLEADERSTYLE
350
6B
  3
ACAD_MLINESTYLE
350
17
  3
ACAD_PLOTSETTINGS
350
19
  3
ACAD_PLOTSTYLENAME
350
E
  3
ACAD_SCALELIST
350
47
  3
ACAD_SECTIONVIEWSTYLE
350
17A
  3
ACAD_TABLESTYLE
350
69
  3
ACAD_VISUALSTYLE
350
2A
  3
ACDB_RECOMPOSE_DATA
350
176
  3
AcDbVariableDictionary
350
172
  0
SUN
  5
6D
330
29
100
AcDbSun
 90
        1
290
     0
 63
     7
421
 16777215
 40
1.0
291
     1
 91
  2455826
 92
 54000000
292
     0
 70
     2
 71
   256
280
     1
  0
DICTIONARY
  5
179
102
{ACAD_REACTORS
330
C
102
}
330
C
100
AcDbDictionary
281
     1
  0
DICTIONARY
  5
D
102
{ACAD_REACTORS
330
C
102
}
330
C
100
AcDbDictionary
281
     1
  0
DICTIONARY
  5
1A
102
{ACAD_REACTORS
330
C
102
}
330
C
100
AcDbDictionary
281
     1
  3
Layout1
350
1E
  3
Layout2
350
26
  3
Model
350
22
  0
DICTIONARY
  5
43
102
{ACAD_REACTORS
330
C
102
}
330
C
100
AcDbDictionary
281
     1
  3
ByBlock
350
45
  3
ByLayer
350
44
  3
Global
350
46
  0
DICTIONARY
  5
6B
102
{ACAD_REACTORS
330
C
102
}
330
C
100
AcDbDictionary
281
     1
  3
Standard
350
6C
  0
DICTIONARY
  5
17
102
{ACAD_REACTORS
330
C
102
}
330
C
100
AcDbDictionary
281
     1
  3
Standard
350
18
  0
DICTIONARY
  5
19
102
{ACAD_REACTORS
330
C
102
}
330
C
100
AcDbDictionary
281
     1
  0
ACDBDICTIONARYWDFLT
  5
E
102
{ACAD_REACTORS
330
C
102
}
330
C
100
AcDbDictionary
281
     1
  3
Normal
350
F
100
AcDbDictionaryWithDefault
340
F
  0
DICTIONARY
  5
47
102
{ACAD_REACTORS
330
C
102
}
330
C
100
AcDbDictionary
281
     1
  3
A0
350
48
  3
A1
350
49
  3
A2
350
4A
  3
A3
350
4B
  3
A4
350
4C
  3
A5
350
4D
  3
A6
350
4E
  3
A7
350
4F
  3
A8
350
50
  3
A9
350
51
  3
B0
350
52
  3
B1
350
53
  3
B2
350
54
  3
B3
350
55
  3
B4
350
56
  3
B5
350
57
  3
B6
350
58
  3
B7
350
59
  3
B8
350
5A
  3
B9
350
5B
  3
C0
350
5C
  3
C1
350
5D
  3
C2
350
5E
  3
C3
350
5F
  3
C4
350
60
  3
C5
350
61
  3
C6
350
62
  3
C7
350
63
  3
C8
350
64
  3
C9
350
65
  3
D0
350
66
  3
D1
350
67
  3
D2
350
68
  0
DICTIONARY
  5
17A
102
{ACAD_REACTORS
330
C
102
}
330
C
100
AcDbDictionary
281
     1
  0
DICTIONARY
  5
69
102
{ACAD_REACTORS
330
C
102
}
330
C
100
AcDbDictionary
281
     1
  3
Standard
350
6A
  0
DICTIONARY
  5
2A
102
{ACAD_REACTORS
330
C
102
}
330
C
100
AcDbDictionary
281
     1
  3
2dWireframe
350
2F
  3
Basic
350
32
  3
Brighten
350
36
  3
ColorChange
350
3A
  3
Conceptual
350
34
  3
Dim
350
35
  3
EdgeColorOff
350
3D
  3
Facepattern
350
39
  3
Flat
350
2B
  3
FlatWithEdges
350
2C
  3
Gouraud
350
2D
  3
GouraudWithEdges
350
2E
  3
Hidden
350
31
  3
JitterOff
350
3B
  3
Linepattern
350
38
  3
OverhangOff
350
3C
  3
Realistic
350
33
  3
Shaded
350
42
  3
Shaded with edges
350
41
  3
Shades of Gray
350
3E
  3
Sketchy
350
3F
  3
Thicken
350
37
  3
Wireframe
350
30
  3
X-Ray
350
40
  0
XRECORD
  5
176
102
{ACAD_REACTORS
330
C
102
}
330
C
100
AcDbXrecord
280
     1
 90
        1
330
6A
  0
DICTIONARY
  5
172
102
{ACAD_REACTORS
330
C
102
}
330
C
100
AcDbDictionary
281
     1
  3
CANNOSCALE
350
173
  3
CMLEADERSTYLE
350
178
  3
CTABLESTYLE
350
177
  0
LAYOUT
  5
1E
102
{ACAD_REACTORS
330
1A
102
}
330
1A
100
AcDbPlotSettings
  1

  2
none_device
  4

  6

 40
0.0
 41
0.0
 42
0.0
 43
0.0
 44
0.0
 45
0.0
 46
0.0
 47
0.0
 48
0.0
 49
0.0
140
0.0
141
0.0
142
1.0
143
1.0
 70
   688
 72
     0
 73
     0
 74
     5
  7

 75
    16
 76
     0
 77
     2
 78
   300
147
1.0
148
0.0
149
0.0
100
AcDbLayout
  1
Layout1
 70
     1
 71
     1
 10
0.0
 20
0.0
 11
12.0
 21
9.0
 12
0.0
 22
0.0
 32
0.0
 14
1.000000000000000E+20
 24
1.000000000000000E+20
 34
1.000000000000000E+20
 15
-1.000000000000000E+20
 25
-1.000000000000000E+20
 35
-1.000000000000000E+20
146
0.0
 13
0.0
 23
0.0
 33
0.0
 16
1.0
 26
0.0
 36
0.0
 17
0.0
 27
1.0
 37
0.0
 76
     0
330
1B
  0
LAYOUT
  5
26
102
{ACAD_REACTORS
330
1A
102
}
330
1A
100
AcDbPlotSettings
  1

  2
none_device
  4

  6

 40
0.0
 41
0.0
 42
0.0
 43
0.0
 44
0.0
 45
0.0
 46
0.0
 47
0.0
 48
0.0
 49
0.0
140
0.0
141
0.0
142
1.0
143
1.0
 70
   688
 72
     0
 73
     0
 74
     5
  7

 75
    16
 76
     0
 77
     2
 78
   300
147
1.0
148
0.0
149
0.0
100
AcDbLayout
  1
Layout2
 70
     1
 71
     2
 10
0.0
 20
0.0
 11
0.0
 21
0.0
 12
0.0
 22
0.0
 32
0.0
 14
0.0
 24
0.0
 34
0.0
 15
0.0
 25
0.0
 35
0.0
146
0.0
 13
0.0
 23
0.0
 33
0.0
 16
1.0
 26
0.0
 36
0.0
 17
0.0
 27
1.0
 37
0.0
 76
     0
330
23
  0
LAYOUT
  5
22
102
{ACAD_REACTORS
330
1A
102
}
330
1A
100
AcDbPlotSettings
  1

  2
none_device
  4
Letter_(8.50_x_11.00_Inches)
  6

 40
6.35
 41
6.35
 42
6.35000508
 43
6.35000508
 44
215.9
 45
279.4
 46
0.0
 47
0.0
 48
0.0
 49
0.0
140
0.0
141
0.0
142
1.0
143
1.0
 70
  1712
 72
     0
 73
     0
 74
     0
  7

 75
     0
 76
     0
 77
     2
 78
   300
147
1.0
148
0.0
149
0.0
100
AcDbLayout
  1
Model
 70
     1
 71
     0
 10
0.0
 20
0.0
 11
12.0
 21
9.0
 12
0.0
 22
0.0
 32
0.0
 14
1.000000000000000E+20
 24
1.000000000000000E+20
 34
1.000000000000000E+20
 15
-1.000000000000000E+20
 25
-1.000000000000000E+20
 35
-1.000000000000000E+20
146
0.0
 13
0.0
 23
0.0
 33
0.0
 16
1.0
 26
0.0
 36
0.0
 17
0.0
 27
1.0
 37
0.0
 76
     0
330
1F
331
29
  0
MATERIAL
  5
45
102
{ACAD_REACTORS
330
43
102
}
330
43
100
AcDbMaterial
  1
ByBlock
 72
     1
 94
      127
  0
MATERIAL
  5
44
102
{ACAD_REACTORS
330
43
102
}
330
43
100
AcDbMaterial
  1
ByLayer
 72
     1
 94
      127
  0
MATERIAL
  5
46
102
{ACAD_REACTORS
330
43
102
}
330
43
100
AcDbMaterial
  1
Global
 72
     1
 94
      127
  0
MLEADERSTYLE
  5
6C
102
{ACAD_REACTORS
330
6B
102
}
330
6B
100
AcDbMLeaderStyle
179
     2
170
     2
171
     1
172
     0
 90
        2
 40
0.0
 41
0.0
173
     1
 91
-1056964608
340
14
 92
       -2
290
     1
 42
0.09
291
     1
 43
0.36
  3
Standard
341
0
 44
0.18
300

342
11
174
     1
178
     6
175
     1
176
     0
 93
-1056964608
 45
0.18
292
     0
297
     0
 46
0.18
343
0
 94
-1056964608
 47
1.0
 49
1.0
140
1.0
293
     1
141
0.0
294
     1
177
     0
142
1.0
295
     0
296
     0
143
0.125
271
     0
272
     9
273
     9
298
     0
  0
MLINESTYLE
  5
18
102
{ACAD_REACTORS
330
17
102
}
330
17
100
AcDbMlineStyle
  2
Standard
 70
     0
  3

 62
   256
 51
90.0
 52
90.0
 71
     2
 49
0.5
 62
   256
  6
BYLAYER
 49
-0.5
 62
   256
  6
BYLAYER
  0
ACDBPLACEHOLDER
  5
F
102
{ACAD_REACTORS
330
E
102
}
330
E
  0
SCALE
  5
48
102
{ACAD_REACTORS
330
47
102
}
330
47
100
AcDbScale
 70
     0
300
1:1
140
1.0
141
1.0
290
     1
  0
SCALE
  5
49
102
{ACAD_REACTORS
330
47
102
}
330
47
100
AcDbScale
 70
     0
300
1:2
140
1.0
141
2.0
290
     0
  0
SCALE
  5
4A
102
{ACAD_REACTORS
330
47
102
}
330
47
100
AcDbScale
 70
     0
300
1:4
140
1.0
141
4.0
290
     0
  0
SCALE
  5
4B
102
{ACAD_REACTORS
330
47
102
}
330
47
100
AcDbScale
 70
     0
300
1:5
140
1.0
141
5.0
290
     0
  0
SCALE
  5
4C
102
{ACAD_REACTORS
330
47
102
}
330
47
100
AcDbScale
 70
     0
300
1:8
140
1.0
141
8.0
290
     0
  0
SCALE
  5
4D
102
{ACAD_REACTORS
330
47
102
}
330
47
100
AcDbScale
 70
     0
300
1:10
140
1.0
141
10.0
290
     0
  0
SCALE
  5
4E
102
{ACAD_REACTORS
330
47
102
}
330
47
100
AcDbScale
 70
     0
300
1:16
140
1.0
141
16.0
290
     0
  0
SCALE
  5
4F
102
{ACAD_REACTORS
330
47
102
}
330
47
100
AcDbScale
 70
     0
300
1:20
140
1.0
141
20.0
290
     0
  0
SCALE
  5
50
102
{ACAD_REACTORS
330
47
102
}
330
47
100
AcDbScale
 70
     0
300
1:30
140
1.0
141
30.0
290
     0
  0
SCALE
  5
51
102
{ACAD_REACTORS
330
47
102
}
330
47
100
AcDbScale
 70
     0
300
1:40
140
1.0
141
40.0
290
     0
  0
SCALE
  5
52
102
{ACAD_REACTORS
330
47
102
}
330
47
100
AcDbScale
 70
     0
300
1:50
140
1.0
141
50.0
290
     0
  0
SCALE
  5
53
102
{ACAD_REACTORS
330
47
102
}
330
47
100
AcDbScale
 70
     0
300
1:100
140
1.0
141
100.0
290
     0
  0
SCALE
  5
54
102
{ACAD_REACTORS
330
47
102
}
330
47
100
AcDbScale
 70
     0
300
2:1
140
2.0
141
1.0
290
     0
  0
SCALE
  5
55
102
{ACAD_REACTORS
330
47
102
}
330
47
100
AcDbScale
 70
     0
300
4:1
140
4.0
141
1.0
290
     0
  0
SCALE
  5
56
102
{ACAD_REACTORS
330
47
102
}
330
47
100
AcDbScale
 70
     0
300
8:1
140
8.0
141
1.0
290
     0
  0
SCALE
  5
57
102
{ACAD_REACTORS
330
47
102
}
330
47
100
AcDbScale
 70
     0
300
10:1
140
10.0
141
1.0
290
     0
  0
SCALE
  5
58
102
{ACAD_REACTORS
330
47
102
}
330
47
100
AcDbScale
 70
     0
300
100:1
140
100.0
141
1.0
290
     0
  0
SCALE
  5
59
102
{ACAD_REACTORS
330
47
102
}
330
47
100
AcDbScale
 70
     0
300
1/128" = 1'-0"
140
0.0078125
141
12.0
290
     0
  0
SCALE
  5
5A
102
{ACAD_REACTORS
330
47
102
}
330
47
100
AcDbScale
 70
     0
300
1/64" = 1'-0"
140
0.015625
141
12.0
290
     0
  0
SCALE
  5
5B
102
{ACAD_REACTORS
330
47
102
}
330
47
100
AcDbScale
 70
     0
300
1/32" = 1'-0"
140
0.03125
141
12.0
290
     0
  0
SCALE
  5
5C
102
{ACAD_REACTORS
330
47
102
}
330
47
100
AcDbScale
 70
     0
300
1/16" = 1'-0"
140
0.0625
141
12.0
290
     0
  0
SCALE
  5
5D
102
{ACAD_REACTORS
330
47
102
}
330
47
100
AcDbScale
 70
     0
300
3/32" = 1'-0"
140
0.09375
141
12.0
290
     0
  0
SCALE
  5
5E
102
{ACAD_REACTORS
330
47
102
}
330
47
100
AcDbScale
 70
     0
300
1/8" = 1'-0"
140
0.125
141
12.0
290
     0
  0
SCALE
  5
5F
102
{ACAD_REACTORS
330
47
102
}
330
47
100
AcDbScale
 70
     0
300
3/16" = 1'-0"
140
0.1875
141
12.0
290
     0
  0
SCALE
  5
60
102
{ACAD_REACTORS
330
47
102
}
330
47
100
AcDbScale
 70
     0
300
1/4" = 1'-0"
140
0.25
141
12.0
290
     0
  0
SCALE
  5
61
102
{ACAD_REACTORS
330
47
102
}
330
47
100
AcDbScale
 70
     0
300
3/8" = 1'-0"
140
0.375
141
12.0
290
     0
  0
SCALE
  5
62
102
{ACAD_REACTORS
330
47
102
}
330
47
100
AcDbScale
 70
     0
300
1/2" = 1'-0"
140
0.5
141
12.0
290
     0
  0
SCALE
  5
63
102
{ACAD_REACTORS
330
47
102
}
330
47
100
AcDbScale
 70
     0
300
3/4" = 1'-0"
140
0.75
141
12.0
290
     0
  0
SCALE
  5
64
102
{ACAD_REACTORS
330
47
102
}
330
47
100
AcDbScale
 70
     0
300
1" = 1'-0"
140
1.0
141
12.0
290
     0
  0
SCALE
  5
65
102
{ACAD_REACTORS
330
47
102
}
330
47
100
AcDbScale
 70
     0
300
1-1/2" = 1'-0"
140
1.5
141
12.0
290
     0
  0
SCALE
  5
66
102
{ACAD_REACTORS
330
47
102
}
330
47
100
AcDbScale
 70
     0
300
3" = 1'-0"
140
3.0
141
12.0
290
     0
  0
SCALE
  5
67
102
{ACAD_REACTORS
330
47
102
}
330
47
100
AcDbScale
 70
     0
300
6" = 1'-0"
140
6.0
141
12.0
290
     0
  0
SCALE
  5
68
102
{ACAD_REACTORS
330
47
102
}
330
47
100
AcDbScale
 70
     0
300
1'-0" = 1'-0"
140
12.0
141
12.0
290
     0
  0
TABLESTYLE
  5
6A
102
{ACAD_REACTORS
330
69
102
}
102
{ACAD_XDICTIONARY
360
174
102
}
330
69
100
AcDbTableStyle
  3
Standard
 70
     0
 71
     0
 40
0.06
 41
0.06
280
     0
281
     0
  7
Standard
140
0.18
170
     2
 62
     0
 63
   257
283
     0
 90
        4
 91
        0
  1

274
    -2
284
     1
 64
     0
275
    -2
285
     1
 65
     0
276
    -2
286
     1
 66
     0
277
    -2
287
     1
 67
     0
278
    -2
288
     1
 68
     0
279
    -2
289
     1
 69
     0
  7
Standard
140
0.25
170
     5
 62
     0
 63
   257
283
     0
 90
        4
 91
        0
  1

274
    -2
284
     1
 64
     0
275
    -2
285
     1
 65
     0
276
    -2
286
     1
 66
     0
277
    -2
287
     1
 67
     0
278
    -2
288
     1
 68
     0
279
    -2
289
     1
 69
     0
  7
Standard
140
0.18
170
     5
 62
     0
 63
   257
283
     0
 90
        4
 91
        0
  1

274
    -2
284
     1
 64
     0
275
    -2
285
     1
 65
     0
276
    -2
286
     1
 66
     0
277
    -2
287
     1
 67
     0
278
    -2
288
     1
 68
     0
279
    -2
289
     1
 69
     0
  0
VISUALSTYLE
  5
2F
102
{ACAD_REACTORS
330
2A
102
}
330
2A
100
AcDbVisualStyle
  2
2dWireframe
 70
     4
177
     3
291
     0
 70
    58
 90
        0
176
     1
 90
        2
176
     1
 90
        0
176
     1
 90
        0
176
     1
 40
0.6
176
     1
 40
30.0
176
     1
 62
     7
420
 16777215
176
     1
 90
        1
176
     1
 90
        4
176
     1
 62
     7
176
     1
 62
   257
176
     1
 90
        1
176
     1
 90
        1
176
     1
 40
1.0
176
     1
 90
        0
176
     1
 62
   257
176
     1
 40
1.0
176
     1
 90
        1
176
     1
 90
        6
176
     1
 90
        2
176
     1
 62
     7
176
     1
 90
        5
176
     1
 90
        0
176
     1
 90
        0
176
     1
290
     0
176
     1
 90
        1
176
     1
 40
0.0
176
     1
 90
        0
176
     1
290
     1
176
     1
290
     1
176
     1
290
     0
176
     1
290
     0
176
     1
290
     0
176
     1
290
     0
176
     1
290
     0
176
     1
290
     0
176
     1
290
     0
176
     1
 90
       50
176
     1
 40
0.0
176
     1
 40
1.0
176
     1
 90
        0
176
     1
 62
    18
420
        0
176
     1
 90
       50
176
     1
 90
        3
176
     1
 62
     5
420
      255
176
     1
290
     0
176
     1
 90
       50
176
     1
 90
       50
176
     1
 90
       50
176
     1
290
     0
176
     1
 90
       50
176
     1
 62
   256
176
     0
 40
1.0
176
     0
 90
        2
176
     1
  1
strokes_ogs.tif
176
     1
290
     0
176
     1
 40
1.0
176
     1
 40
1.0
176
     1
  0
VISUALSTYLE
  5
32
102
{ACAD_REACTORS
330
2A
102
}
330
2A
100
AcDbVisualStyle
  2
Basic
 70
     7
177
     3
291
     1
 70
    58
 90
        1
176
     1
 90
        0
176
     1
 90
        1
176
     1
 90
        0
176
     1
 40
0.6
176
     1
 40
30.0
176
     1
 62
     7
420
 16777215
176
     1
 90
        0
176
     1
 90
        4
176
     1
 62
     7
176
     1
 62
   257
176
     1
 90
        1
176
     1
 90
        1
176
     1
 40
1.0
176
     1
 90
        8
176
     1
 62
     7
176
     1
 40
1.0
176
     1
 90
        1
176
     1
 90
        6
176
     1
 90
        2
176
     1
 62
     7
176
     1
 90
        5
176
     1
 90
        0
176
     1
 90
        0
176
     1
290
     0
176
     1
 90
        1
176
     1
 40
0.0
176
     1
 90
        0
176
     1
290
     0
176
     1
290
     1
176
     1
290
     1
176
     1
290
     0
176
     1
290
     0
176
     1
290
     0
176
     1
290
     0
176
     1
290
     0
176
     1
290
     0
176
     1
 90
       50
176
     1
 40
0.0
176
     1
 40
1.0
176
     1
 90
        0
176
     1
 62
    18
420
        0
176
     1
 90
       50
176
     1
 90
        3
176
     1
 62
     5
420
      255
176
     1
290
     0
176
     1
 90
       50
176
     1
 90
       50
176
     1
 90
       50
176
     1
290
     0
176
     1
 90
       50
176
     1
 62
   256
176
     0
 40
1.0
176
     0
 90
        2
176
     1
  1
strokes_ogs.tif
176
     1
290
     0
176
     1
 40
1.0
176
     1
 40
1.0
176
     1
  0
VISUALSTYLE
  5
36
102
{ACAD_REACTORS
330
2A
102
}
330
2A
100
AcDbVisualStyle
  2
Brighten
 70
    12
177
     3
291
     1
 70
    58
 90
        2
176
     1
 90
        2
176
     1
 90
        0
176
     1
 90
        0
176
     1
 40
0.6
176
     1
 40
30.0
176
     1
 62
     7
420
 16777215
176
     1
 90
        1
176
     1
 90
        4
176
     1
 62
     7
176
     1
 62
   257
176
     1
 90
        1
176
     1
 90
        1
176
     1
 40
1.0
176
     1
 90
        8
176
     1
 62
     7
176
     1
 40
1.0
176
     1
 90
        1
176
     1
 90
        6
176
     1
 90
        2
176
     1
 62
     7
176
     1
 90
        5
176
     1
 90
        0
176
     1
 90
        0
176
     1
290
     0
176
     1
 90
        1
176
     1
 40
50.0
176
     1
 90
        0
176
     1
290
     0
176
     1
290
     1
176
     1
290
     1
176
     1
290
     0
176
     1
290
     0
176
     1
290
     0
176
     1
290
     0
176
     1
290
     0
176
     1
290
     0
176
     1
 90
       50
176
     1
 40
0.0
176
     1
 40
1.0
176
     1
 90
        0
176
     1
 62
    18
420
        0
176
     1
 90
       50
176
     1
 90
        3
176
     1
 62
     5
420
      255
176
     1
290
     0
176
     1
 90
       50
176
     1
 90
       50
176
     1
 90
       50
176
     1
290
     0
176
     1
 90
       50
176
     1
 62
   256
176
     0
 40
1.0
176
     0
 90
        2
176
     1
  1
strokes_ogs.tif
176
     1
290
     0
176
     1
 40
1.0
176
     1
 40
1.0
176
     1
  0
VISUALSTYLE
  5
3A
102
{ACAD_REACTORS
330
2A
102
}
330
2A
100
AcDbVisualStyle
  2
ColorChange
 70
    16
177
     3
291
     1
 70
    58
 90
        2
176
     1
 90
        2
176
     1
 90
        3
176
     1
 90
        0
176
     1
 40
0.6
176
     1
 40
30.0
176
     1
 62
     8
420
  8421504
176
     1
 90
        1
176
     1
 90
        4
176
     1
 62
     7
176
     1
 62
   257
176
     1
 90
        1
176
     1
 90
        1
176
     1
 40
1.0
176
     1
 90
        8
176
     1
 62
     8
420
  8421504
176
     1
 40
1.0
176
     1
 90
        1
176
     1
 90
        6
176
     1
 90
        2
176
     1
 62
     7
176
     1
 90
        5
176
     1
 90
        0
176
     1
 90
        0
176
     1
290
     0
176
     1
 90
        1
176
     1
 40
0.0
176
     1
 90
        0
176
     1
290
     0
176
     1
290
     1
176
     1
290
     1
176
     1
290
     0
176
     1
290
     0
176
     1
290
     0
176
     1
290
     0
176
     1
290
     0
176
     1
290
     0
176
     1
 90
       50
176
     1
 40
0.0
176
     1
 40
1.0
176
     1
 90
        0
176
     1
 62
    18
420
        0
176
     1
 90
       50
176
     1
 90
        3
176
     1
 62
     5
420
      255
176
     1
290
     0
176
     1
 90
       50
176
     1
 90
       50
176
     1
 90
       50
176
     1
290
     0
176
     1
 90
       50
176
     1
 62
   256
176
     0
 40
1.0
176
     0
 90
        2
176
     1
  1
strokes_ogs.tif
176
     1
290
     0
176
     1
 40
1.0
176
     1
 40
1.0
176
     1
  0
VISUALSTYLE
  5
34
102
{ACAD_REACTORS
330
2A
102
}
330
2A
100
AcDbVisualStyle
  2
Conceptual
 70
     9
177
     3
291
     0
 70
    58
 90
        3
176
     1
 90
        2
176
     1
 90
        0
176
     1
 90
        0
176
     1
 40
0.6
176
     1
 40
30.0
176
     1
 62
     7
420
 16777215
176
     1
 90
        2
176
     1
 90
        2
176
     1
 62
     7
176
     1
 62
   257
176
     1
 90
        1
176
     1
 90
        1
176
     1
 40
179.0
176
     1
 90
        8
176
     1
 62
     7
176
     1
 40
1.0
176
     1
 90
        1
176
     1
 90
        6
176
     1
 90
        2
176
     1
 62
     7
176
     1
 90
        3
176
     1
 90
        0
176
     1
 90
        0
176
     1
290
     0
176
     1
 90
        1
176
     1
 40
0.0
176
     1
 90
        0
176
     1
290
     0
176
     1
290
     1
176
     1
290
     1
176
     1
290
     0
176
     1
290
     0
176
     1
290
     0
176
     1
290
     0
176
     1
290
     0
176
     1
290
     0
176
     1
 90
       50
176
     1
 40
0.0
176
     1
 40
1.0
176
     1
 90
        0
176
     1
 62
    18
420
        0
176
     1
 90
       50
176
     1
 90
        3
176
     1
 62
     5
420
      255
176
     1
290
     0
176
     1
 90
       50
176
     1
 90
       50
176
     1
 90
       50
176
     1
290
     0
176
     1
 90
       50
176
     1
 62
   256
176
     0
 40
1.0
176
     0
 90
        2
176
     1
  1
strokes_ogs.tif
176
     1
290
     0
176
     1
 40
1.0
176
     1
 40
1.0
176
     1
  0
VISUALSTYLE
  5
35
102
{ACAD_REACTORS
330
2A
102
}
330
2A
100
AcDbVisualStyle
  2
Dim
 70
    11
177
     3
291
     1
 70
    58
 90
        2
176
     1
 90
        2
176
     1
 90
        0
176
     1
 90
        0
176
     1
 40
0.6
176
     1
 40
30.0
176
     1
 62
     7
420
 16777215
176
     1
 90
        1
176
     1
 90
        4
176
     1
 62
     7
176
     1
 62
   257
176
     1
 90
        1
176
     1
 90
        1
176
     1
 40
1.0
176
     1
 90
        8
176
     1
 62
     7
176
     1
 40
1.0
176
     1
 90
        1
176
     1
 90
        6
176
     1
 90
        2
176
     1
 62
     7
176
     1
 90
        5
176
     1
 90
        0
176
     1
 90
        0
176
     1
290
     0
176
     1
 90
        1
176
     1
 40
-50.0
176
     1
 90
        0
176
     1
290
     0
176
     1
290
     1
176
     1
290
     1
176
     1
290
     0
176
     1
290
     0
176
     1
290
     0
176
     1
290
     0
176
     1
290
     0
176
     1
290
     0
176
     1
 90
       50
176
     1
 40
0.0
176
     1
 40
1.0
176
     1
 90
        0
176
     1
 62
    18
420
        0
176
     1
 90
       50
176
     1
 90
        3
176
     1
 62
     5
420
      255
176
     1
290
     0
176
     1
 90
       50
176
     1
 90
       50
176
     1
 90
       50
176
     1
290
     0
176
     1
 90
       50
176
     1
 62
   256
176
     0
 40
1.0
176
     0
 90
        2
176
     1
  1
strokes_ogs.tif
176
     1
290
     0
176
     1
 40
1.0
176
     1
 40
1.0
176
     1
  0
VISUALSTYLE
  5
3D
102
{ACAD_REACTORS
330
2A
102
}
330
2A
100
AcDbVisualStyle
  2
EdgeColorOff
 70
    22
177
     3
291
     1
 70
    58
 90
        2
176
     0
 90
        2
176
     0
 90
        0
176
     0
 90
        0
176
     0
 40
0.6
176
     0
 40
30.0
176
     0
 62
     7
420
 16777215
176
     0
 90
        1
176
     0
 90
        4
176
     0
 62
     7
176
     0
 62
   257
176
     0
 90
        1
176
     0
 90
        1
176
     0
 40
1.0
176
     0
 90
        8
176
     2
 62
     7
176
     0
 40
1.0
176
     0
 90
        1
176
     0
 90
        6
176
     0
 90
        2
176
     0
 62
     7
176
     0
 90
        5
176
     0
 90
        0
176
     0
 90
        0
176
     0
290
     0
176
     0
 90
        1
176
     0
 40
0.0
176
     0
 90
        0
176
     0
290
     0
176
     0
290
     1
176
     0
290
     1
176
     0
290
     0
176
     0
290
     0
176
     0
290
     0
176
     0
290
     0
176
     0
290
     0
176
     0
290
     0
176
     0
 90
       50
176
     0
 40
0.0
176
     0
 40
1.0
176
     0
 90
        0
176
     0
 62
    18
420
        0
176
     0
 90
       50
176
     0
 90
        3
176
     0
 62
     5
420
      255
176
     0
290
     0
176
     0
 90
       50
176
     0
 90
       50
176
     0
 90
       50
176
     0
290
     0
176
     0
 90
       50
176
     0
 62
   256
176
     0
 40
1.0
176
     0
 90
        2
176
     0
  1
strokes_ogs.tif
176
     0
290
     0
176
     0
 40
1.0
176
     0
 40
1.0
176
     0
  0
VISUALSTYLE
  5
39
102
{ACAD_REACTORS
330
2A
102
}
330
2A
100
AcDbVisualStyle
  2
Facepattern
 70
    15
177
     3
291
     1
 70
    58
 90
        2
176
     1
 90
        2
176
     1
 90
        0
176
     1
 90
        0
176
     1
 40
0.6
176
     1
 40
30.0
176
     1
 62
     7
420
 16777215
176
     1
 90
        1
176
     1
 90
        4
176
     1
 62
     7
176
     1
 62
   257
176
     1
 90
        1
176
     1
 90
        1
176
     1
 40
1.0
176
     1
 90
        8
176
     1
 62
     7
176
     1
 40
1.0
176
     1
 90
        1
176
     1
 90
        6
176
     1
 90
        2
176
     1
 62
     7
176
     1
 90
        5
176
     1
 90
        0
176
     1
 90
        0
176
     1
290
     0
176
     1
 90
        1
176
     1
 40
0.0
176
     1
 90
        0
176
     1
290
     0
176
     1
290
     1
176
     1
290
     1
176
     1
290
     0
176
     1
290
     0
176
     1
290
     0
176
     1
290
     0
176
     1
290
     0
176
     1
290
     0
176
     1
 90
       50
176
     1
 40
0.0
176
     1
 40
1.0
176
     1
 90
        0
176
     1
 62
    18
420
        0
176
     1
 90
       50
176
     1
 90
        3
176
     1
 62
     5
420
      255
176
     1
290
     0
176
     1
 90
       50
176
     1
 90
       50
176
     1
 90
       50
176
     1
290
     0
176
     1
 90
       50
176
     1
 62
   256
176
     0
 40
1.0
176
     0
 90
        2
176
     1
  1
strokes_ogs.tif
176
     1
290
     0
176
     1
 40
1.0
176
     1
 40
1.0
176
     1
  0
VISUALSTYLE
  5
2B
102
{ACAD_REACTORS
330
2A
102
}
330
2A
100
AcDbVisualStyle
  2
Flat
 70
     0
177
     3
291
     1
 70
    58
 90
        2
176
     1
 90
        1
176
     1
 90
        1
176
     1
 90
        2
176
     1
 40
0.6
176
     1
 40
30.0
176
     1
 62
     7
420
 16777215
176
     1
 90
        0
176
     1
 90
        0
176
     1
 62
     7
176
     1
 62
   257
176
     1
 90
        1
176
     1
 90
        1
176
     1
 40
1.0
176
     1
 90
        8
176
     1
 62
     7
176
     1
 40
1.0
176
     1
 90
        1
176
     1
 90
        6
176
     1
 90
        2
176
     1
 62
     7
176
     1
 90
        5
176
     1
 90
        0
176
     1
 90
        0
176
     1
290
     0
176
     1
 90
       13
176
     1
 40
0.0
176
     1
 90
        0
176
     1
290
     0
176
     1
290
     1
176
     1
290
     1
176
     1
290
     0
176
     1
290
     0
176
     1
290
     0
176
     1
290
     0
176
     1
290
     0
176
     1
290
     0
176
     1
 90
       50
176
     1
 40
0.0
176
     1
 40
1.0
176
     1
 90
        0
176
     1
 62
    18
420
        0
176
     1
 90
       50
176
     1
 90
        3
176
     1
 62
     5
420
      255
176
     1
290
     0
176
     1
 90
       50
176
     1
 90
       50
176
     1
 90
       50
176
     1
290
     0
176
     1
 90
       50
176
     1
 62
   256
176
     0
 40
1.0
176
     0
 90
        2
176
     1
  1
strokes_ogs.tif
176
     1
290
     0
176
     1
 40
1.0
176
     1
 40
1.0
176
     1
  0
VISUALSTYLE
  5
2C
102
{ACAD_REACTORS
330
2A
102
}
330
2A
100
AcDbVisualStyle
  2
FlatWithEdges
 70
     1
177
     3
291
     1
 70
    58
 90
        2
176
     1
 90
        1
176
     1
 90
        1
176
     1
 90
        2
176
     1
 40
0.6
176
     1
 40
30.0
176
     1
 62
     7
420
 16777215
176
     1
 90
        1
176
     1
 90
        0
176
     1
 62
     7
176
     1
 62
   257
176
     1
 90
        1
176
     1
 90
        1
176
     1
 40
1.0
176
     1
 90
        0
176
     1
 62
   257
176
     1
 40
1.0
176
     1
 90
        1
176
     1
 90
        6
176
     1
 90
        2
176
     1
 62
     7
176
     1
 90
        5
176
     1
 90
        0
176
     1
 90
        0
176
     1
290
     0
176
     1
 90
       13
176
     1
 40
0.0
176
     1
 90
        0
176
     1
290
     0
176
     1
290
     1
176
     1
290
     1
176
     1
290
     0
176
     1
290
     0
176
     1
290
     0
176
     1
290
     0
176
     1
290
     0
176
     1
290
     0
176
     1
 90
       50
176
     1
 40
0.0
176
     1
 40
1.0
176
     1
 90
        0
176
     1
 62
    18
420
        0
176
     1
 90
       50
176
     1
 90
        3
176
     1
 62
     5
420
      255
176
     1
290
     0
176
     1
 90
       50
176
     1
 90
       50
176
     1
 90
       50
176
     1
290
     0
176
     1
 90
       50
176
     1
 62
   256
176
     0
 40
1.0
176
     0
 90
        2
176
     1
  1
strokes_ogs.tif
176
     1
290
     0
176
     1
 40
1.0
176
     1
 40
1.0
176
     1
  0
VISUALSTYLE
  5
2D
102
{ACAD_REACTORS
330
2A
102
}
330
2A
100
AcDbVisualStyle
  2
Gouraud
 70
     2
177
     3
291
     1
 70
    58
 90
        2
176
     1
 90
        2
176
     1
 90
        1
176
     1
 90
        2
176
     1
 40
0.6
176
     1
 40
30.0
176
     1
 62
     7
420
 16777215
176
     1
 90
        0
176
     1
 90
        0
176
     1
 62
     7
176
     1
 62
   257
176
     1
 90
        1
176
     1
 90
        1
176
     1
 40
1.0
176
     1
 90
        0
176
     1
 62
     7
176
     1
 40
1.0
176
     1
 90
        1
176
     1
 90
        6
176
     1
 90
        2
176
     1
 62
     7
176
     1
 90
        5
176
     1
 90
        0
176
     1
 90
        0
176
     1
290
     0
176
     1
 90
       13
176
     1
 40
0.0
176
     1
 90
        0
176
     1
290
     0
176
     1
290
     1
176
     1
290
     1
176
     1
290
     0
176
     1
290
     0
176
     1
290
     0
176
     1
290
     0
176
     1
290
     0
176
     1
290
     0
176
     1
 90
       50
176
     1
 40
0.0
176
     1
 40
1.0
176
     1
 90
        0
176
     1
 62
    18
420
        0
176
     1
 90
       50
176
     1
 90
        3
176
     1
 62
     5
420
      255
176
     1
290
     0
176
     1
 90
       50
176
     1
 90
       50
176
     1
 90
       50
176
     1
290
     0
176
     1
 90
       50
176
     1
 62
   256
176
     0
 40
1.0
176
     0
 90
        2
176
     1
  1
strokes_ogs.tif
176
     1
290
     0
176
     1
 40
1.0
176
     1
 40
1.0
176
     1
  0
VISUALSTYLE
  5
2E
102
{ACAD_REACTORS
330
2A
102
}
330
2A
100
AcDbVisualStyle
  2
GouraudWithEdges
 70
     3
177
     3
291
     1
 70
    58
 90
        2
176
     1
 90
        2
176
     1
 90
        1
176
     1
 90
        2
176
     1
 40
0.6
176
     1
 40
30.0
176
     1
 62
     7
420
 16777215
176
     1
 90
        1
176
     1
 90
        0
176
     1
 62
     7
176
     1
 62
   257
176
     1
 90
        1
176
     1
 90
        1
176
     1
 40
1.0
176
     1
 90
        0
176
     1
 62
   257
176
     1
 40
1.0
176
     1
 90
        1
176
     1
 90
        6
176
     1
 90
        2
176
     1
 62
     7
176
     1
 90
        5
176
     1
 90
        0
176
     1
 90
        0
176
     1
290
     0
176
     1
 90
       13
176
     1
 40
0.0
176
     1
 90
        0
176
     1
290
     0
176
     1
290
     1
176
     1
290
     1
176
     1
290
     0
176
     1
290
     0
176
     1
290
     0
176
     1
290
     0
176
     1
290
     0
176
     1
290
     0
176
     1
 90
       50
176
     1
 40
0.0
176
     1
 40
1.0
176
     1
 90
        0
176
     1
 62
    18
420
        0
176
     1
 90
       50
176
     1
 90
        3
176
     1
 62
     5
420
      255
176
     1
290
     0
176
     1
 90
       50
176
     1
 90
       50
176
     1
 90
       50
176
     1
290
     0
176
     1
 90
       50
176
     1
 62
   256
176
     0
 40
1.0
176
     0
 90
        2
176
     1
  1
strokes_ogs.tif
176
     1
290
     0
176
     1
 40
1.0
176
     1
 40
1.0
176
     1
  0
VISUALSTYLE
  5
31
102
{ACAD_REACTORS
330
2A
102
}
330
2A
100
AcDbVisualStyle
  2
Hidden
 70
     6
177
     3
291
     0
 70
    58
 90
        1
176
     1
 90
        2
176
     1
 90
        2
176
     1
 90
        0
176
     1
 40
0.6
176
     1
 40
30.0
176
     1
 62
     7
420
 16777215
176
     1
 90
        2
176
     1
 90
        2
176
     1
 62
     7
176
     1
 62
   257
176
     1
 90
        2
176
     1
 90
        1
176
     1
 40
40.0
176
     1
 90
        0
176
     1
 62
   257
176
     1
 40
1.0
176
     1
 90
        1
176
     1
 90
        6
176
     1
 90
        2
176
     1
 62
     7
176
     1
 90
        3
176
     1
 90
        0
176
     1
 90
        0
176
     1
290
     0
176
     1
 90
        1
176
     1
 40
0.0
176
     1
 90
        0
176
     1
290
     0
176
     1
290
     1
176
     1
290
     1
176
     1
290
     0
176
     1
290
     0
176
     1
290
     0
176
     1
290
     0
176
     1
290
     0
176
     1
290
     0
176
     1
 90
       50
176
     1
 40
0.0
176
     1
 40
1.0
176
     1
 90
        0
176
     1
 62
    18
420
        0
176
     1
 90
       50
176
     1
 90
        3
176
     1
 62
     5
420
      255
176
     1
290
     0
176
     1
 90
       50
176
     1
 90
       50
176
     1
 90
       50
176
     1
290
     0
176
     1
 90
       50
176
     1
 62
   256
176
     0
 40
1.0
176
     0
 90
        2
176
     1
  1
strokes_ogs.tif
176
     1
290
     0
176
     1
 40
1.0
176
     1
 40
1.0
176
     1
  0
VISUALSTYLE
  5
3B
102
{ACAD_REACTORS
330
2A
102
}
330
2A
100
AcDbVisualStyle
  2
JitterOff
 70
    20
177
     3
291
     1
 70
    58
 90
        2
176
     0
 90
        2
176
     0
 90
        0
176
     0
 90
        0
176
     0
 40
0.6
176
     0
 40
30.0
176
     0
 62
     7
420
 16777215
176
     0
 90
        1
176
     0
 90
        4
176
     0
 62
     7
176
     0
 62
   257
176
     0
 90
        1
176
     0
 90
        1
176
     0
 40
1.0
176
     0
 90
       10
176
     2
 62
     7
176
     0
 40
1.0
176
     0
 90
        1
176
     0
 90
        6
176
     0
 90
        2
176
     0
 62
     7
176
     0
 90
        5
176
     0
 90
        0
176
     0
 90
        0
176
     0
290
     0
176
     0
 90
        1
176
     0
 40
0.0
176
     0
 90
        0
176
     0
290
     0
176
     0
290
     1
176
     0
290
     1
176
     0
290
     0
176
     0
290
     0
176
     0
290
     0
176
     0
290
     0
176
     0
290
     0
176
     0
290
     0
176
     0
 90
       50
176
     0
 40
0.0
176
     0
 40
1.0
176
     0
 90
        0
176
     0
 62
    18
420
        0
176
     0
 90
       50
176
     0
 90
        3
176
     0
 62
     5
420
      255
176
     0
290
     0
176
     0
 90
       50
176
     0
 90
       50
176
     0
 90
       50
176
     0
290
     0
176
     0
 90
       50
176
     0
 62
   256
176
     0
 40
1.0
176
     0
 90
        2
176
     0
  1
strokes_ogs.tif
176
     0
290
     0
176
     0
 40
1.0
176
     0
 40
1.0
176
     0
  0
VISUALSTYLE
  5
38
102
{ACAD_REACTORS
330
2A
102
}
330
2A
100
AcDbVisualStyle
  2
Linepattern
 70
    14
177
     3
291
     1
 70
    58
 90
        2
176
     1
 90
        2
176
     1
 90
        0
176
     1
 90
        0
176
     1
 40
0.6
176
     1
 40
30.0
176
     1
 62
     7
420
 16777215
176
     1
 90
        1
176
     1
 90
        4
176
     1
 62
     7
176
     1
 62
   257
176
     1
 90
        7
176
     1
 90
        7
176
     1
 40
1.0
176
     1
 90
        8
176
     1
 62
     7
176
     1
 40
1.0
176
     1
 90
        1
176
     1
 90
        6
176
     1
 90
        2
176
     1
 62
     7
176
     1
 90
        5
176
     1
 90
        0
176
     1
 90
        0
176
     1
290
     0
176
     1
 90
        1
176
     1
 40
0.0
176
     1
 90
        0
176
     1
290
     0
176
     1
290
     1
176
     1
290
     1
176
     1
290
     0
176
     1
290
     0
176
     1
290
     0
176
     1
290
     0
176
     1
290
     0
176
     1
290
     0
176
     1
 90
       50
176
     1
 40
0.0
176
     1
 40
1.0
176
     1
 90
        0
176
     1
 62
    18
420
        0
176
     1
 90
       50
176
     1
 90
        3
176
     1
 62
     5
420
      255
176
     1
290
     0
176
     1
 90
       50
176
     1
 90
       50
176
     1
 90
       50
176
     1
290
     0
176
     1
 90
       50
176
     1
 62
   256
176
     0
 40
1.0
176
     0
 90
        2
176
     1
  1
strokes_ogs.tif
176
     1
290
     0
176
     1
 40
1.0
176
     1
 40
1.0
176
     1
  0
VISUALSTYLE
  5
3C
102
{ACAD_REACTORS
330
2A
102
}
330
2A
100
AcDbVisualStyle
  2
OverhangOff
 70
    21
177
     3
291
     1
 70
    58
 90
        2
176
     0
 90
        2
176
     0
 90
        0
176
     0
 90
        0
176
     0
 40
0.6
176
     0
 40
30.0
176
     0
 62
     7
420
 16777215
176
     0
 90
        1
176
     0
 90
        4
176
     0
 62
     7
176
     0
 62
   257
176
     0
 90
        1
176
     0
 90
        1
176
     0
 40
1.0
176
     0
 90
        9
176
     2
 62
     7
176
     0
 40
1.0
176
     0
 90
        1
176
     0
 90
        6
176
     0
 90
        2
176
     0
 62
     7
176
     0
 90
        5
176
     0
 90
        0
176
     0
 90
        0
176
     0
290
     0
176
     0
 90
        1
176
     0
 40
0.0
176
     0
 90
        0
176
     0
290
     0
176
     0
290
     1
176
     0
290
     1
176
     0
290
     0
176
     0
290
     0
176
     0
290
     0
176
     0
290
     0
176
     0
290
     0
176
     0
290
     0
176
     0
 90
       50
176
     0
 40
0.0
176
     0
 40
1.0
176
     0
 90
        0
176
     0
 62
    18
420
        0
176
     0
 90
       50
176
     0
 90
        3
176
     0
 62
     5
420
      255
176
     0
290
     0
176
     0
 90
       50
176
     0
 90
       50
176
     0
 90
       50
176
     0
290
     0
176
     0
 90
       50
176
     0
 62
   256
176
     0
 40
1.0
176
     0
 90
        2
176
     0
  1
strokes_ogs.tif
176
     0
290
     0
176
     0
 40
1.0
176
     0
 40
1.0
176
     0
  0
VISUALSTYLE
  5
33
102
{ACAD_REACTORS
330
2A
102
}
330
2A
100
AcDbVisualStyle
  2
Realistic
 70
     8
177
     3
291
     0
 70
    58
 90
        2
176
     1
 90
        3
176
     1
 90
        0
176
     1
 90
        2
176
     1
 40
0.6
176
     1
 40
30.0
176
     1
 62
     7
420
 16777215
176
     1
 90
        0
176
     1
 90
        0
176
     1
 62
     7
176
     1
 62
   257
176
     1
 90
        1
176
     1
 90
        1
176
     1
 40
1.0
176
     1
 90
        8
176
     1
 62
   257
176
     1
 40
1.0
176
     1
 90
        1
176
     1
 90
        6
176
     1
 90
        2
176
     1
 62
     7
176
     1
 90
        3
176
     1
 90
        0
176
     1
 90
        0
176
     1
290
     0
176
     1
 90
       13
176
     1
 40
0.0
176
     1
 90
        0
176
     1
290
     0
176
     1
290
     1
176
     1
290
     1
176
     1
290
     0
176
     1
290
     0
176
     1
290
     0
176
     1
290
     0
176
     1
290
     0
176
     1
290
     0
176
     1
 90
       50
176
     1
 40
0.0
176
     1
 40
1.0
176
     1
 90
        0
176
     1
 62
    18
420
        0
176
     1
 90
       50
176
     1
 90
        3
176
     1
 62
     5
420
      255
176
     1
290
     0
176
     1
 90
       50
176
     1
 90
       50
176
     1
 90
       50
176
     1
290
     0
176
     1
 90
       50
176
     1
 62
   256
176
     0
 40
1.0
176
     0
 90
        2
176
     1
  1
strokes_ogs.tif
176
     1
290
     0
176
     1
 40
1.0
176
     1
 40
1.0
176
     1
  0
VISUALSTYLE
  5
42
102
{ACAD_REACTORS
330
2A
102
}
330
2A
100
AcDbVisualStyle
  2
Shaded
 70
    27
177
     3
291
     0
 70
    58
 90
        2
176
     1
 90
        2
176
     1
 90
        1
176
     1
 90
        2
176
     1
 40
0.6
176
     1
 40
30.0
176
     1
 62
     7
420
 16777215
176
     1
 90
        0
176
     1
 90
        4
176
     1
 62
     7
176
     1
 62
   257
176
     1
 90
        1
176
     1
 90
        1
176
     1
 40
1.0
176
     1
 90
        8
176
     1
 62
   257
176
     1
 40
1.0
176
     1
 90
        1
176
     1
 90
        6
176
     1
 90
        2
176
     1
 62
     8
420
  7895160
176
     1
 90
        3
176
     1
 90
        0
176
     1
 90
        0
176
     1
290
     0
176
     1
 90
        5
176
     1
 40
0.0
176
     1
 90
        0
176
     1
290
     0
176
     1
290
     1
176
     1
290
     1
176
     1
290
     0
176
     1
290
     0
176
     1
290
     0
176
     1
290
     0
176
     1
290
     0
176
     1
290
     0
176
     1
 90
       50
176
     1
 40
0.0
176
     1
 40
1.0
176
     1
 90
        0
176
     1
 62
    18
420
        0
176
     1
 90
       50
176
     1
 90
        3
176
     1
 62
     5
420
      255
176
     1
290
     0
176
     1
 90
       50
176
     1
 90
       50
176
     1
 90
       50
176
     1
290
     0
176
     1
 90
       50
176
     1
 62
   256
176
     0
 40
1.0
176
     0
 90
        2
176
     1
  1
strokes_ogs.tif
176
     1
290
     0
176
     1
 40
1.0
176
     1
 40
1.0
176
     1
  0
VISUALSTYLE
  5
41
102
{ACAD_REACTORS
330
2A
102
}
330
2A
100
AcDbVisualStyle
  2
Shaded with edges
 70
    26
177
     3
291
     0
 70
    58
 90
        2
176
     1
 90
        2
176
     1
 90
        1
176
     1
 90
        2
176
     1
 40
0.6
176
     1
 40
30.0
176
     1
 62
     7
420
 16777215
176
     1
 90
        1
176
     1
 90
       10
176
     1
 62
     7
176
     1
 62
   257
176
     1
 90
        2
176
     1
 90
        1
176
     1
 40
1.0
176
     1
 90
        8
176
     1
 62
   257
176
     1
 40
1.0
176
     1
 90
        1
176
     1
 90
        6
176
     1
 90
        2
176
     1
 62
     7
176
     1
 90
        3
176
     1
 90
        0
176
     1
 90
        0
176
     1
290
     0
176
     1
 90
        5
176
     1
 40
0.0
176
     1
 90
        0
176
     1
290
     0
176
     1
290
     1
176
     1
290
     1
176
     1
290
     0
176
     1
290
     0
176
     1
290
     0
176
     1
290
     0
176
     1
290
     0
176
     1
290
     0
176
     1
 90
       50
176
     1
 40
0.0
176
     1
 40
1.0
176
     1
 90
        0
176
     1
 62
    18
420
        0
176
     1
 90
       50
176
     1
 90
        3
176
     1
 62
     5
420
      255
176
     1
290
     0
176
     1
 90
       50
176
     1
 90
       50
176
     1
 90
       50
176
     1
290
     0
176
     1
 90
       50
176
     1
 62
   256
176
     0
 40
1.0
176
     0
 90
        2
176
     1
  1
strokes_ogs.tif
176
     1
290
     0
176
     1
 40
1.0
176
     1
 40
1.0
176
     1
  0
VISUALSTYLE
  5
3E
102
{ACAD_REACTORS
330
2A
102
}
330
2A
100
AcDbVisualStyle
  2
Shades of Gray
 70
    23
177
     3
291
     0
 70
    58
 90
        2
176
     1
 90
        2
176
     1
 90
        3
176
     1
 90
        0
176
     1
 40
0.6
176
     1
 40
30.0
176
     1
 62
     7
420
 16777215
176
     1
 90
        2
176
     1
 90
        2
176
     1
 62
     7
176
     1
 62
     7
176
     1
 90
        1
176
     1
 90
        1
176
     1
 40
40.0
176
     1
 90
        8
176
     1
 62
     7
176
     1
 40
1.0
176
     1
 90
        1
176
     1
 90
        6
176
     1
 90
        2
176
     1
 62
     7
176
     1
 90
        3
176
     1
 90
        0
176
     1
 90
        0
176
     1
290
     0
176
     1
 90
        1
176
     1
 40
0.0
176
     1
 90
        0
176
     1
290
     0
176
     1
290
     1
176
     1
290
     1
176
     1
290
     0
176
     1
290
     0
176
     1
290
     0
176
     1
290
     0
176
     1
290
     0
176
     1
290
     0
176
     1
 90
       50
176
     1
 40
0.0
176
     1
 40
1.0
176
     1
 90
        0
176
     1
 62
    18
420
        0
176
     1
 90
       50
176
     1
 90
        3
176
     1
 62
     5
420
      255
176
     1
290
     0
176
     1
 90
       50
176
     1
 90
       50
176
     1
 90
       50
176
     1
290
     0
176
     1
 90
       50
176
     1
 62
   256
176
     0
 40
1.0
176
     0
 90
        2
176
     1
  1
strokes_ogs.tif
176
     1
290
     0
176
     1
 40
1.0
176
     1
 40
1.0
176
     1
  0
VISUALSTYLE
  5
3F
102
{ACAD_REACTORS
330
2A
102
}
330
2A
100
AcDbVisualStyle
  2
Sketchy
 70
    24
177
     3
291
     0
 70
    58
 90
        1
176
     1
 90
        2
176
     1
 90
        2
176
     1
 90
        0
176
     1
 40
0.6
176
     1
 40
30.0
176
     1
 62
     7
420
 16777215
176
     1
 90
        2
176
     1
 90
        2
176
     1
 62
     7
176
     1
 62
     7
176
     1
 90
        1
176
     1
 90
        1
176
     1
 40
40.0
176
     1
 90
       11
176
     1
 62
     7
176
     1
 40
1.0
176
     1
 90
        1
176
     1
 90
        6
176
     1
 90
        2
176
     1
 62
     7
176
     1
 90
        6
176
     1
 90
        0
176
     1
 90
        0
176
     1
290
     0
176
     1
 90
        1
176
     1
 40
0.0
176
     1
 90
        0
176
     1
290
     0
176
     1
290
     1
176
     1
290
     1
176
     1
290
     0
176
     1
290
     0
176
     1
290
     0
176
     1
290
     0
176
     1
290
     0
176
     1
290
     0
176
     1
 90
       50
176
     1
 40
0.0
176
     1
 40
1.0
176
     1
 90
        0
176
     1
 62
    18
420
        0
176
     1
 90
       50
176
     1
 90
        3
176
     1
 62
     5
420
      255
176
     1
290
     0
176
     1
 90
       50
176
     1
 90
       50
176
     1
 90
       50
176
     1
290
     0
176
     1
 90
       50
176
     1
 62
   256
176
     0
 40
1.0
176
     0
 90
        2
176
     1
  1
strokes_ogs.tif
176
     1
290
     0
176
     1
 40
1.0
176
     1
 40
1.0
176
     1
  0
VISUALSTYLE
  5
37
102
{ACAD_REACTORS
330
2A
102
}
330
2A
100
AcDbVisualStyle
  2
Thicken
 70
    13
177
     3
291
     1
 70
    58
 90
        2
176
     1
 90
        2
176
     1
 90
        0
176
     1
 90
        0
176
     1
 40
0.6
176
     1
 40
30.0
176
     1
 62
     7
420
 16777215
176
     1
 90
        1
176
     1
 90
        4
176
     1
 62
     7
176
     1
 62
   257
176
     1
 90
        1
176
     1
 90
        1
176
     1
 40
1.0
176
     1
 90
       12
176
     1
 62
     7
176
     1
 40
1.0
176
     1
 90
        1
176
     1
 90
        6
176
     1
 90
        2
176
     1
 62
     7
176
     1
 90
        5
176
     1
 90
        0
176
     1
 90
        0
176
     1
290
     0
176
     1
 90
        1
176
     1
 40
0.0
176
     1
 90
        0
176
     1
290
     0
176
     1
290
     1
176
     1
290
     1
176
     1
290
     0
176
     1
290
     0
176
     1
290
     0
176
     1
290
     0
176
     1
290
     0
176
     1
290
     0
176
     1
 90
       50
176
     1
 40
0.0
176
     1
 40
1.0
176
     1
 90
        0
176
     1
 62
    18
420
        0
176
     1
 90
       50
176
     1
 90
        3
176
     1
 62
     5
420
      255
176
     1
290
     0
176
     1
 90
       50
176
     1
 90
       50
176
     1
 90
       50
176
     1
290
     0
176
     1
 90
       50
176
     1
 62
   256
176
     0
 40
1.0
176
     0
 90
        2
176
     1
  1
strokes_ogs.tif
176
     1
290
     0
176
     1
 40
1.0
176
     1
 40
1.0
176
     1
  0
VISUALSTYLE
  5
30
102
{ACAD_REACTORS
330
2A
102
}
330
2A
100
AcDbVisualStyle
  2
Wireframe
 70
     5
177
     3
291
     0
 70
    58
 90
        0
176
     1
 90
        2
176
     1
 90
        0
176
     1
 90
        0
176
     1
 40
0.6
176
     1
 40
30.0
176
     1
 62
     7
420
 16777215
176
     1
 90
        1
176
     1
 90
        4
176
     1
 62
     7
176
     1
 62
   257
176
     1
 90
        1
176
     1
 90
        1
176
     1
 40
1.0
176
     1
 90
        0
176
     1
 62
   257
176
     1
 40
1.0
176
     1
 90
        1
176
     1
 90
        6
176
     1
 90
        2
176
     1
 62
     7
176
     1
 90
        3
176
     1
 90
        0
176
     1
 90
        0
176
     1
290
     0
176
     1
 90
        1
176
     1
 40
0.0
176
     1
 90
        0
176
     1
290
     0
176
     1
290
     1
176
     1
290
     1
176
     1
290
     0
176
     1
290
     0
176
     1
290
     0
176
     1
290
     0
176
     1
290
     0
176
     1
290
     0
176
     1
 90
       50
176
     1
 40
0.0
176
     1
 40
1.0
176
     1
 90
        0
176
     1
 62
    18
420
        0
176
     1
 90
       50
176
     1
 90
        3
176
     1
 62
     5
420
      255
176
     1
290
     0
176
     1
 90
       50
176
     1
 90
       50
176
     1
 90
       50
176
     1
290
     0
176
     1
 90
       50
176
     1
 62
   256
176
     0
 40
1.0
176
     0
 90
        2
176
     1
  1
strokes_ogs.tif
176
     1
290
     0
176
     1
 40
1.0
176
     1
 40
1.0
176
     1
  0
VISUALSTYLE
  5
40
102
{ACAD_REACTORS
330
2A
102
}
330
2A
100
AcDbVisualStyle
  2
X-Ray
 70
    25
177
     3
291
     0
 70
    58
 90
        2
176
     1
 90
        2
176
     1
 90
        1
176
     1
 90
        1
176
     1
 40
0.5
176
     1
 40
30.0
176
     1
 62
     7
420
 16777215
176
     1
 90
        1
176
     1
 90
        0
176
     1
 62
     7
176
     1
 62
   257
176
     1
 90
        1
176
     1
 90
        1
176
     1
 40
1.0
176
     1
 90
        8
176
     1
 62
     7
176
     1
 40
1.0
176
     1
 90
        1
176
     1
 90
        6
176
     1
 90
        2
176
     1
 62
     7
176
     1
 90
        3
176
     1
 90
        0
176
     1
 90
        0
176
     1
290
     0
176
     1
 90
       13
176
     1
 40
0.0
176
     1
 90
        0
176
     1
290
     0
176
     1
290
     1
176
     1
290
     1
176
     1
290
     0
176
     1
290
     0
176
     1
290
     0
176
     1
290
     0
176
     1
290
     0
176
     1
290
     0
176
     1
 90
       50
176
     1
 40
0.0
176
     1
 40
1.0
176
     1
 90
        0
176
     1
 62
    18
420
        0
176
     1
 90
       50
176
     1
 90
        3
176
     1
 62
     5
420
      255
176
     1
290
     0
176
     1
 90
       50
176
     1
 90
       50
176
     1
 90
       50
176
     1
290
     0
176
     1
 90
       50
176
     1
 62
   256
176
     0
 40
1.0
176
     0
 90
        2
176
     1
  1
strokes_ogs.tif
176
     1
290
     0
176
     1
 40
1.0
176
     1
 40
1.0
176
     1
  0
DICTIONARYVAR
  5
173
102
{ACAD_REACTORS
330
172
102
}
330
172
100
DictionaryVariables
280
     0
  1
1:1
  0
DICTIONARYVAR
  5
178
102
{ACAD_REACTORS
330
172
102
}
330
172
100
DictionaryVariables
280
     0
  1
Standard
  0
DICTIONARYVAR
  5
177
102
{ACAD_REACTORS
330
172
102
}
330
172
100
DictionaryVariables
280
     0
  1
Standard
  0
DICTIONARY
  5
174
330
6A
100
AcDbDictionary
280
     1
281
     1
  3
ACAD_ROUNDTRIP_2008_TABLESTYLE_CELLSTYLEMAP
360
175
  0
CELLSTYLEMAP
  5
175
102
{ACAD_REACTORS
330
174
102
}
330
174
100
AcDbCellStyleMap
 90
        3
300
CELLSTYLE
  1
TABLEFORMAT_BEGIN
 90
        5
170
     1
 91
        0
 92
    32768
 62
   257
 93
        1
300
CONTENTFORMAT
  1
CONTENTFORMAT_BEGIN
 90
        0
 91
        0
 92
        4
 93
        0
300

 40
0.0
140
1.0
 94
        5
 62
     0
340
11
144
0.25
309
CONTENTFORMAT_END
171
     1
301
MARGIN
  1
CELLMARGIN_BEGIN
 40
0.06
 40
0.06
 40
0.06
 40
0.06
 40
0.06
 40
0.06
309
CELLMARGIN_END
 94
        6
 95
        1
302
GRIDFORMAT
  1
GRIDFORMAT_BEGIN
 90
        0
 91
        1
 62
     0
 92
       -2
340
14
 93
        0
 40
0.045
309
GRIDFORMAT_END
 95
        2
302
GRIDFORMAT
  1
GRIDFORMAT_BEGIN
 90
        0
 91
        1
 62
     0
 92
       -2
340
14
 93
        0
 40
0.045
309
GRIDFORMAT_END
 95
        4
302
GRIDFORMAT
  1
GRIDFORMAT_BEGIN
 90
        0
 91
        1
 62
     0
 92
       -2
340
14
 93
        0
 40
0.045
309
GRIDFORMAT_END
 95
        8
302
GRIDFORMAT
  1
GRIDFORMAT_BEGIN
 90
        0
 91
        1
 62
     0
 92
       -2
340
14
 93
        0
 40
0.045
309
GRIDFORMAT_END
 95
       16
302
GRIDFORMAT
  1
GRIDFORMAT_BEGIN
 90
        0
 91
        1
 62
     0
 92
       -2
340
14
 93
        0
 40
0.045
309
GRIDFORMAT_END
 95
       32
302
GRIDFORMAT
  1
GRIDFORMAT_BEGIN
 90
        0
 91
        1
 62
     0
 92
       -2
340
14
 93
        0
 40
0.045
309
GRIDFORMAT_END
309
TABLEFORMAT_END
  1
CELLSTYLE_BEGIN
 90
        1
 91
        1
300
_TITLE
309
CELLSTYLE_END
300
CELLSTYLE
  1
TABLEFORMAT_BEGIN
 90
        5
170
     1
 91
        0
 92
        0
 62
   257
 93
        1
300
CONTENTFORMAT
  1
CONTENTFORMAT_BEGIN
 90
        0
 91
        0
 92
        4
 93
        0
300

 40
0.0
140
1.0
 94
        5
 62
     0
340
11
144
0.18
309
CONTENTFORMAT_END
171
     1
301
MARGIN
  1
CELLMARGIN_BEGIN
 40
0.06
 40
0.06
 40
0.06
 40
0.06
 40
0.06
 40
0.06
309
CELLMARGIN_END
 94
        6
 95
        1
302
GRIDFORMAT
  1
GRIDFORMAT_BEGIN
 90
        0
 91
        1
 62
     0
 92
       -2
340
14
 93
        0
 40
0.045
309
GRIDFORMAT_END
 95
        2
302
GRIDFORMAT
  1
GRIDFORMAT_BEGIN
 90
        0
 91
        1
 62
     0
 92
       -2
340
14
 93
        0
 40
0.045
309
GRIDFORMAT_END
 95
        4
302
GRIDFORMAT
  1
GRIDFORMAT_BEGIN
 90
        0
 91
        1
 62
     0
 92
       -2
340
14
 93
        0
 40
0.045
309
GRIDFORMAT_END
 95
        8
302
GRIDFORMAT
  1
GRIDFORMAT_BEGIN
 90
        0
 91
        1
 62
     0
 92
       -2
340
14
 93
        0
 40
0.045
309
GRIDFORMAT_END
 95
       16
302
GRIDFORMAT
  1
GRIDFORMAT_BEGIN
 90
        0
 91
        1
 62
     0
 92
       -2
340
14
 93
        0
 40
0.045
309
GRIDFORMAT_END
 95
       32
302
GRIDFORMAT
  1
GRIDFORMAT_BEGIN
 90
        0
 91
        1
 62
     0
 92
       -2
340
14
 93
        0
 40
0.045
309
GRIDFORMAT_END
309
TABLEFORMAT_END
  1
CELLSTYLE_BEGIN
 90
        2
 91
        1
300
_HEADER
309
CELLSTYLE_END
300
CELLSTYLE
  1
TABLEFORMAT_BEGIN
 90
        5
170
     1
 91
        0
 92
        0
 62
   257
 93
        1
300
CONTENTFORMAT
  1
CONTENTFORMAT_BEGIN
 90
        0
 91
        0
 92
        4
 93
        0
300

 40
0.0
140
1.0
 94
        2
 62
     0
340
11
144
0.18
309
CONTENTFORMAT_END
171
     1
301
MARGIN
  1
CELLMARGIN_BEGIN
 40
0.06
 40
0.06
 40
0.06
 40
0.06
 40
0.06
 40
0.06
309
CELLMARGIN_END
 94
        6
 95
        1
302
GRIDFORMAT
  1
GRIDFORMAT_BEGIN
 90
        0
 91
        1
 62
     0
 92
       -2
340
14
 93
        0
 40
0.045
309
GRIDFORMAT_END
 95
        2
302
GRIDFORMAT
  1
GRIDFORMAT_BEGIN
 90
        0
 91
        1
 62
     0
 92
       -2
340
14
 93
        0
 40
0.045
309
GRIDFORMAT_END
 95
        4
302
GRIDFORMAT
  1
GRIDFORMAT_BEGIN
 90
        0
 91
        1
 62
     0
 92
       -2
340
14
 93
        0
 40
0.045
309
GRIDFORMAT_END
 95
        8
302
GRIDFORMAT
  1
GRIDFORMAT_BEGIN
 90
        0
 91
        1
 62
     0
 92
       -2
340
14
 93
        0
 40
0.045
309
GRIDFORMAT_END
 95
       16
302
GRIDFORMAT
  1
GRIDFORMAT_BEGIN
 90
        0
 91
        1
 62
     0
 92
       -2
340
14
 93
        0
 40
0.045
309
GRIDFORMAT_END
 95
       32
302
GRIDFORMAT
  1
GRIDFORMAT_BEGIN
 90
        0
 91
        1
 62
     0
 92
       -2
340
14
 93
        0
 40
0.045
309
GRIDFORMAT_END
309
TABLEFORMAT_END
  1
CELLSTYLE_BEGIN
 90
        3
 91
        2
300
_DATA
309
CELLSTYLE_END
  0
ENDSEC
  0
EOF